  0
SECTION
  2
HEADER
  9
$ACADVER
  1
AC1024
  9
$ACADMAINTVER
 70
   205
  9
$DWGCODEPAGE
  3
ANSI_1251
  9
$INSBASE
 10
0.0
 20
0.0
 30
0.0
  9
$EXTMIN
 10
1.000000000000000E+20
 20
1.000000000000000E+20
 30
1.000000000000000E+20
  9
$EXTMAX
 10
-1.000000000000000E+20
 20
-1.000000000000000E+20
 30
-1.000000000000000E+20
  9
$LIMMIN
 10
0.0
 20
0.0
  9
$LIMMAX
 10
12.0
 20
9.0
  9
$ORTHOMODE
 70
     0
  9
$REGENMODE
 70
     1
  9
$FILLMODE
 70
     1
  9
$QTEXTMODE
 70
     0
  9
$MIRRTEXT
 70
     1
  9
$LTSCALE
 40
1.0
  9
$ATTMODE
 70
     1
  9
$TEXTSIZE
 40
0.2
  9
$TRACEWID
 40
0.05
  9
$TEXTSTYLE
  7
Standard
  9
$CLAYER
  8
OracDecor_decorative_elements
  9
$CELTYPE
  6
ByLayer
  9
$CECOLOR
 62
   256
  9
$CELTSCALE
 40
1.0
  9
$DISPSILH
 70
     0
  9
$DIMSCALE
 40
1.0
  9
$DIMASZ
 40
0.18
  9
$DIMEXO
 40
0.0625
  9
$DIMDLI
 40
0.38
  9
$DIMRND
 40
0.0
  9
$DIMDLE
 40
0.0
  9
$DIMEXE
 40
0.18
  9
$DIMTP
 40
0.0
  9
$DIMTM
 40
0.0
  9
$DIMTXT
 40
0.18
  9
$DIMCEN
 40
0.09
  9
$DIMTSZ
 40
0.0
  9
$DIMTOL
 70
     0
  9
$DIMLIM
 70
     0
  9
$DIMTIH
 70
     1
  9
$DIMTOH
 70
     1
  9
$DIMSE1
 70
     0
  9
$DIMSE2
 70
     0
  9
$DIMTAD
 70
     0
  9
$DIMZIN
 70
     0
  9
$DIMBLK
  1

  9
$DIMASO
 70
     1
  9
$DIMSHO
 70
     1
  9
$DIMPOST
  1

  9
$DIMAPOST
  1

  9
$DIMALT
 70
     0
  9
$DIMALTD
 70
     2
  9
$DIMALTF
 40
25.4
  9
$DIMLFAC
 40
1.0
  9
$DIMTOFL
 70
     0
  9
$DIMTVP
 40
0.0
  9
$DIMTIX
 70
     0
  9
$DIMSOXD
 70
     0
  9
$DIMSAH
 70
     0
  9
$DIMBLK1
  1

  9
$DIMBLK2
  1

  9
$DIMSTYLE
  2
Standard
  9
$DIMCLRD
 70
     0
  9
$DIMCLRE
 70
     0
  9
$DIMCLRT
 70
     0
  9
$DIMTFAC
 40
1.0
  9
$DIMGAP
 40
0.09
  9
$DIMJUST
 70
     0
  9
$DIMSD1
 70
     0
  9
$DIMSD2
 70
     0
  9
$DIMTOLJ
 70
     1
  9
$DIMTZIN
 70
     0
  9
$DIMALTZ
 70
     0
  9
$DIMALTTZ
 70
     0
  9
$DIMUPT
 70
     0
  9
$DIMDEC
 70
     4
  9
$DIMTDEC
 70
     4
  9
$DIMALTU
 70
     2
  9
$DIMALTTD
 70
     2
  9
$DIMTXSTY
  7
Standard
  9
$DIMAUNIT
 70
     0
  9
$DIMADEC
 70
     0
  9
$DIMALTRND
 40
0.0
  9
$DIMAZIN
 70
     0
  9
$DIMDSEP
 70
    46
  9
$DIMATFIT
 70
     3
  9
$DIMFRAC
 70
     0
  9
$DIMLDRBLK
  1

  9
$DIMLUNIT
 70
     2
  9
$DIMLWD
 70
    -2
  9
$DIMLWE
 70
    -2
  9
$DIMTMOVE
 70
     0
  9
$DIMFXL
 40
1.0
  9
$DIMFXLON
 70
     0
  9
$DIMJOGANG
 40
0.7853981633974483
  9
$DIMTFILL
 70
     0
  9
$DIMTFILLCLR
 70
     0
  9
$DIMARCSYM
 70
     0
  9
$DIMLTYPE
  6

  9
$DIMLTEX1
  6

  9
$DIMLTEX2
  6

  9
$DIMTXTDIRECTION
 70
     0
  9
$LUNITS
 70
     2
  9
$LUPREC
 70
     4
  9
$SKETCHINC
 40
0.1
  9
$FILLETRAD
 40
0.5
  9
$AUNITS
 70
     0
  9
$AUPREC
 70
     0
  9
$MENU
  1
.
  9
$ELEVATION
 40
0.0
  9
$PELEVATION
 40
0.0
  9
$THICKNESS
 40
0.0
  9
$LIMCHECK
 70
     0
  9
$CHAMFERA
 40
0.5
  9
$CHAMFERB
 40
0.5
  9
$CHAMFERC
 40
1.0
  9
$CHAMFERD
 40
0.0
  9
$SKPOLY
 70
     0
  9
$TDCREATE
 40
2451380.930432396
  9
$TDUCREATE
 40
2451380.805432396
  9
$TDUPDATE
 40
2451380.966180555
  9
$TDUUPDATE
 40
2451380.841180556
  9
$TDINDWG
 40
0.0075613657
  9
$TDUSRTIMER
 40
0.0075523264
  9
$USRTIMER
 70
     1
  9
$ANGBASE
 50
0.0
  9
$ANGDIR
 70
     0
  9
$PDMODE
 70
     0
  9
$PDSIZE
 40
0.0
  9
$PLINEWID
 40
0.0
  9
$SPLFRAME
 70
     0
  9
$SPLINETYPE
 70
     6
  9
$SPLINESEGS
 70
     8
  9
$HANDSEED
  5
13D
  9
$SURFTAB1
 70
     6
  9
$SURFTAB2
 70
     6
  9
$SURFTYPE
 70
     6
  9
$SURFU
 70
     6
  9
$SURFV
 70
     6
  9
$UCSBASE
  2

  9
$UCSNAME
  2

  9
$UCSORG
 10
0.0
 20
0.0
 30
0.0
  9
$UCSXDIR
 10
1.0
 20
0.0
 30
0.0
  9
$UCSYDIR
 10
0.0
 20
1.0
 30
0.0
  9
$UCSORTHOREF
  2

  9
$UCSORTHOVIEW
 70
     0
  9
$UCSORGTOP
 10
0.0
 20
0.0
 30
0.0
  9
$UCSORGBOTTOM
 10
0.0
 20
0.0
 30
0.0
  9
$UCSORGLEFT
 10
0.0
 20
0.0
 30
0.0
  9
$UCSORGRIGHT
 10
0.0
 20
0.0
 30
0.0
  9
$UCSORGFRONT
 10
0.0
 20
0.0
 30
0.0
  9
$UCSORGBACK
 10
0.0
 20
0.0
 30
0.0
  9
$PUCSBASE
  2

  9
$PUCSNAME
  2

  9
$PUCSORG
 10
0.0
 20
0.0
 30
0.0
  9
$PUCSXDIR
 10
1.0
 20
0.0
 30
0.0
  9
$PUCSYDIR
 10
0.0
 20
1.0
 30
0.0
  9
$PUCSORTHOREF
  2

  9
$PUCSORTHOVIEW
 70
     0
  9
$PUCSORGTOP
 10
0.0
 20
0.0
 30
0.0
  9
$PUCSORGBOTTOM
 10
0.0
 20
0.0
 30
0.0
  9
$PUCSORGLEFT
 10
0.0
 20
0.0
 30
0.0
  9
$PUCSORGRIGHT
 10
0.0
 20
0.0
 30
0.0
  9
$PUCSORGFRONT
 10
0.0
 20
0.0
 30
0.0
  9
$PUCSORGBACK
 10
0.0
 20
0.0
 30
0.0
  9
$USERI1
 70
     0
  9
$USERI2
 70
     0
  9
$USERI3
 70
     0
  9
$USERI4
 70
     0
  9
$USERI5
 70
     0
  9
$USERR1
 40
0.0
  9
$USERR2
 40
0.0
  9
$USERR3
 40
0.0
  9
$USERR4
 40
0.0
  9
$USERR5
 40
0.0
  9
$WORLDVIEW
 70
     1
  9
$SHADEDGE
 70
     3
  9
$SHADEDIF
 70
    70
  9
$TILEMODE
 70
     1
  9
$MAXACTVP
 70
    64
  9
$PINSBASE
 10
0.0
 20
0.0
 30
0.0
  9
$PLIMCHECK
 70
     0
  9
$PEXTMIN
 10
1.000000000000000E+20
 20
1.000000000000000E+20
 30
1.000000000000000E+20
  9
$PEXTMAX
 10
-1.000000000000000E+20
 20
-1.000000000000000E+20
 30
-1.000000000000000E+20
  9
$PLIMMIN
 10
0.0
 20
0.0
  9
$PLIMMAX
 10
12.0
 20
9.0
  9
$UNITMODE
 70
     0
  9
$VISRETAIN
 70
     1
  9
$PLINEGEN
 70
     0
  9
$PSLTSCALE
 70
     1
  9
$TREEDEPTH
 70
  3020
  9
$CMLSTYLE
  2
Standard
  9
$CMLJUST
 70
     0
  9
$CMLSCALE
 40
1.0
  9
$PROXYGRAPHICS
 70
     1
  9
$MEASUREMENT
 70
     1
  9
$CELWEIGHT
370
    -1
  9
$ENDCAPS
280
     0
  9
$JOINSTYLE
280
     0
  9
$LWDISPLAY
290
     0
  9
$INSUNITS
 70
     4
  9
$HYPERLINKBASE
  1

  9
$STYLESHEET
  1

  9
$XEDIT
290
     1
  9
$CEPSNTYPE
380
     0
  9
$PSTYLEMODE
290
     1
  9
$FINGERPRINTGUID
  2
{12F50282-3ED8-11D3-A8B7-0060B0F84BC6}
  9
$VERSIONGUID
  2
{12F50293-3ED8-11D3-A8B7-0060B0F84BC6}
  9
$EXTNAMES
290
     1
  9
$PSVPSCALE
 40
0.0
  9
$OLESTARTUP
290
     0
  9
$SORTENTS
280
   127
  9
$INDEXCTL
280
     0
  9
$HIDETEXT
280
     0
  9
$XCLIPFRAME
280
     2
  9
$HALOGAP
280
     0
  9
$OBSCOLOR
 70
   257
  9
$OBSLTYPE
280
     0
  9
$INTERSECTIONDISPLAY
280
     0
  9
$INTERSECTIONCOLOR
 70
   257
  9
$DIMASSOC
280
     1
  9
$PROJECTNAME
  1

  9
$CAMERADISPLAY
290
     0
  9
$LENSLENGTH
 40
50.0
  9
$CAMERAHEIGHT
 40
0.0
  9
$STEPSPERSEC
 40
2.0
  9
$STEPSIZE
 40
6.0
  9
$3DDWFPREC
 40
2.0
  9
$PSOLWIDTH
 40
0.25
  9
$PSOLHEIGHT
 40
4.0
  9
$LOFTANG1
 40
1.570796326794896
  9
$LOFTANG2
 40
1.570796326794896
  9
$LOFTMAG1
 40
0.0
  9
$LOFTMAG2
 40
0.0
  9
$LOFTPARAM
 70
     7
  9
$LOFTNORMALS
280
     1
  9
$LATITUDE
 40
37.795
  9
$LONGITUDE
 40
-122.394
  9
$NORTHDIRECTION
 40
0.0
  9
$TIMEZONE
 70
 -8000
  9
$LIGHTGLYPHDISPLAY
280
     1
  9
$TILEMODELIGHTSYNCH
280
     1
  9
$CMATERIAL
347
AB
  9
$SOLIDHIST
280
     0
  9
$SHOWHIST
280
     1
  9
$DWFFRAME
280
     2
  9
$DGNFRAME
280
     0
  9
$REALWORLDSCALE
290
     1
  9
$INTERFERECOLOR
 62
     1
  9
$INTERFEREOBJVS
345
CD
  9
$INTERFEREVPVS
346
CA
  9
$CSHADOW
280
     0
  9
$SHADOWPLANELOCATION
 40
0.0
  0
ENDSEC
  0
SECTION
  2
CLASSES
  0
CLASS
  1
ACDBDICTIONARYWDFLT
  2
AcDbDictionaryWithDefault
  3
ObjectDBX Classes
 90
        0
 91
        1
280
     0
281
     0
  0
CLASS
  1
ACDBPLACEHOLDER
  2
AcDbPlaceHolder
  3
ObjectDBX Classes
 90
        0
 91
        2
280
     0
281
     0
  0
CLASS
  1
LAYOUT
  2
AcDbLayout
  3
ObjectDBX Classes
 90
        0
 91
        3
280
     0
281
     0
  0
CLASS
  1
MATERIAL
  2
AcDbMaterial
  3
ObjectDBX Classes
 90
     1153
 91
        3
280
     0
281
     0
  0
CLASS
  1
VISUALSTYLE
  2
AcDbVisualStyle
  3
ObjectDBX Classes
 90
     4095
 91
       24
280
     0
281
     0
  0
CLASS
  1
TABLESTYLE
  2
AcDbTableStyle
  3
ObjectDBX Classes
 90
     4095
 91
        1
280
     0
281
     0
  0
CLASS
  1
SCALE
  2
AcDbScale
  3
ObjectDBX Classes
 90
     1153
 91
       17
280
     0
281
     0
  0
CLASS
  1
MLEADERSTYLE
  2
AcDbMLeaderStyle
  3
ACDB_MLEADERSTYLE_CLASS
 90
     4095
 91
        1
280
     0
281
     0
  0
CLASS
  1
ACDBSECTIONVIEWSTYLE
  2
AcDbSectionViewStyle
  3
ObjectDBX Classes
 90
     1025
 91
        1
280
     0
281
     0
  0
CLASS
  1
ACDBDETAILVIEWSTYLE
  2
AcDbDetailViewStyle
  3
ObjectDBX Classes
 90
     1025
 91
        1
280
     0
281
     0
  0
CLASS
  1
MESH
  2
AcDbSubDMesh
  3
ObjectDBX Classes
 90
        0
 91
        1
280
     0
281
     1
  0
CLASS
  1
DICTIONARYVAR
  2
AcDbDictionaryVar
  3
ObjectDBX Classes
 90
        0
 91
        9
280
     0
281
     0
  0
CLASS
  1
CELLSTYLEMAP
  2
AcDbCellStyleMap
  3
ObjectDBX Classes
 90
     1152
 91
        1
280
     0
281
     0
  0
ENDSEC
  0
SECTION
  2
TABLES
  0
TABLE
  2
VPORT
  5
8
330
0
100
AcDbSymbolTable
 70
     1
  0
VPORT
  5
A8
330
8
100
AcDbSymbolTableRecord
100
AcDbViewportTableRecord
  2
*Active
 70
     0
 10
0.0
 20
0.0
 11
1.0
 21
1.0
 12
5.886571884155273
 22
-3.398613929748535
 13
0.0
 23
0.0
 14
0.5
 24
0.5
 15
0.5
 25
0.5
 16
-1.0
 26
-1.0
 36
1.0
 17
0.0
 27
0.0
 37
0.0
 40
833.316068920684
 41
0.5888857697884851
 42
50.0
 43
0.0
 44
0.0
 50
0.0
 51
0.0
 71
     0
 72
   100
 73
     1
 74
     3
 75
     0
 76
     0
 77
     0
 78
     0
281
     0
 65
     1
110
0.0
120
0.0
130
0.0
111
1.0
121
0.0
131
0.0
112
0.0
122
1.0
132
0.0
 79
     0
146
0.0
348
C9
 60
     3
 61
     5
292
     1
282
     1
141
0.0
142
0.0
 63
   250
421
  3355443
  0
ENDTAB
  0
TABLE
  2
LTYPE
  5
5
330
0
100
AcDbSymbolTable
 70
     1
  0
LTYPE
  5
14
330
5
100
AcDbSymbolTableRecord
100
AcDbLinetypeTableRecord
  2
ByBlock
 70
     0
  3

 72
    65
 73
     0
 40
0.0
  0
LTYPE
  5
15
330
5
100
AcDbSymbolTableRecord
100
AcDbLinetypeTableRecord
  2
ByLayer
 70
     0
  3

 72
    65
 73
     0
 40
0.0
  0
LTYPE
  5
16
330
5
100
AcDbSymbolTableRecord
100
AcDbLinetypeTableRecord
  2
Continuous
 70
     0
  3
Solid line
 72
    65
 73
     0
 40
0.0
  0
ENDTAB
  0
TABLE
  2
LAYER
  5
2
330
0
100
AcDbSymbolTable
 70
     3
  0
LAYER
  5
10
330
2
100
AcDbSymbolTableRecord
100
AcDbLayerTableRecord
  2
0
 70
     0
 62
     7
  6
Continuous
370
    -3
390
F
347
BB
  0
LAYER
  5
2B
330
2
100
AcDbSymbolTableRecord
100
AcDbLayerTableRecord
  2
ASHADE
 70
     4
 62
     7
  6
Continuous
370
    -3
390
2D
347
BB
  0
LAYER
  5
F8
330
2
100
AcDbSymbolTableRecord
100
AcDbLayerTableRecord
  2
OracDecor_decorative_elements
 70
     0
 62
    41
420
 14997145
  6
Continuous
370
    -3
390
F
347
BB
  0
ENDTAB
  0
TABLE
  2
STYLE
  5
3
330
0
100
AcDbSymbolTable
 70
     2
  0
STYLE
  5
11
330
3
100
AcDbSymbolTableRecord
100
AcDbTextStyleTableRecord
  2
Standard
 70
     0
 40
0.0
 41
1.0
 50
0.0
 71
     0
 42
0.2
  3
txt
  4

  0
STYLE
  5
2C
330
3
100
AcDbSymbolTableRecord
100
AcDbTextStyleTableRecord
  2
ASHADE
 70
     0
 40
0.2
 41
1.0
 50
0.0
 71
     0
 42
0.2
  3
simplex
  4

  0
ENDTAB
  0
TABLE
  2
VIEW
  5
6
330
0
100
AcDbSymbolTable
 70
     0
  0
ENDTAB
  0
TABLE
  2
UCS
  5
7
330
0
100
AcDbSymbolTable
 70
     0
  0
ENDTAB
  0
TABLE
  2
APPID
  5
9
330
0
100
AcDbSymbolTable
 70
     6
  0
APPID
  5
12
330
9
100
AcDbSymbolTableRecord
100
AcDbRegAppTableRecord
  2
ACAD
 70
     0
  0
APPID
  5
8F
330
9
100
AcDbSymbolTableRecord
100
AcDbRegAppTableRecord
  2
AVE_RENDER
 70
     0
  0
APPID
  5
90
330
9
100
AcDbSymbolTableRecord
100
AcDbRegAppTableRecord
  2
AVE_ENTITY_MATERIAL
 70
     0
  0
APPID
  5
9C
330
9
100
AcDbSymbolTableRecord
100
AcDbRegAppTableRecord
  2
AVE_FINISH
 70
     0
  0
APPID
  5
9D
330
9
100
AcDbSymbolTableRecord
100
AcDbRegAppTableRecord
  2
AVE_MATERIAL
 70
     0
  0
APPID
  5
9E
330
9
100
AcDbSymbolTableRecord
100
AcDbRegAppTableRecord
  2
AVE_GLOBAL
 70
     0
  0
ENDTAB
  0
TABLE
  2
DIMSTYLE
  5
A
330
0
100
AcDbSymbolTable
 70
     1
100
AcDbDimStyleTable
 71
     0
  0
DIMSTYLE
105
27
330
A
100
AcDbSymbolTableRecord
100
AcDbDimStyleTableRecord
  2
Standard
 70
     0
340
11
  0
ENDTAB
  0
TABLE
  2
BLOCK_RECORD
  5
1
330
0
100
AcDbSymbolTable
 70
     6
  0
BLOCK_RECORD
  5
1F
330
1
100
AcDbSymbolTableRecord
100
AcDbBlockTableRecord
  2
*Model_Space
340
22
 70
     0
280
     1
281
     0
  0
BLOCK_RECORD
  5
1B
330
1
100
AcDbSymbolTableRecord
100
AcDbBlockTableRecord
  2
*Paper_Space
340
1E
 70
     0
280
     1
281
     0
  0
BLOCK_RECORD
  5
23
330
1
100
AcDbSymbolTableRecord
100
AcDbBlockTableRecord
  2
*Paper_Space0
340
26
 70
     0
280
     1
281
     0
  0
BLOCK_RECORD
  5
2E
330
1
100
AcDbSymbolTableRecord
100
AcDbBlockTableRecord
  2
direct
340
0
 70
     0
280
     1
281
     0
  0
BLOCK_RECORD
  5
42
330
1
100
AcDbSymbolTableRecord
100
AcDbBlockTableRecord
  2
overhead
340
0
 70
     0
280
     1
281
     0
  0
BLOCK_RECORD
  5
5F
330
1
100
AcDbSymbolTableRecord
100
AcDbBlockTableRecord
  2
sh_spot
340
0
 70
     0
280
     1
281
     0
  0
BLOCK_RECORD
  5
91
330
1
100
AcDbSymbolTableRecord
100
AcDbBlockTableRecord
  2
AVE_RENDER
340
0
102
{BLKREFS
331
94
331
95
331
96
331
97
331
98
331
99
331
9A
331
9B
102
}
 70
     0
280
     1
281
     0
  0
BLOCK_RECORD
  5
9F
330
1
100
AcDbSymbolTableRecord
100
AcDbBlockTableRecord
  2
AVE_GLOBAL
340
0
102
{BLKREFS
331
A2
102
}
 70
     0
280
     1
281
     0
  0
ENDTAB
  0
ENDSEC
  0
SECTION
  2
BLOCKS
  0
BLOCK
  5
20
330
1F
100
AcDbEntity
  8
0
100
AcDbBlockBegin
  2
*Model_Space
 70
     0
 10
0.0
 20
0.0
 30
0.0
  3
*Model_Space
  1

  0
ENDBLK
  5
21
330
1F
100
AcDbEntity
  8
0
100
AcDbBlockEnd
  0
BLOCK
  5
1C
330
1B
100
AcDbEntity
 67
     1
  8
0
100
AcDbBlockBegin
  2
*Paper_Space
 70
     0
 10
0.0
 20
0.0
 30
0.0
  3
*Paper_Space
  1

  0
ENDBLK
  5
1D
330
1B
100
AcDbEntity
 67
     1
  8
0
100
AcDbBlockEnd
  0
BLOCK
  5
24
330
23
100
AcDbEntity
 67
     1
  8
0
100
AcDbBlockBegin
  2
*Paper_Space0
 70
     0
 10
0.0
 20
0.0
 30
0.0
  3
*Paper_Space0
  1

  0
ENDBLK
  5
25
330
23
100
AcDbEntity
 67
     1
  8
0
100
AcDbBlockEnd
  0
BLOCK
  5
40
330
2E
100
AcDbEntity
  8
0
100
AcDbBlockBegin
  2
direct
 70
     2
 10
0.0
 20
0.0
 30
0.0
  3
direct
  1

  0
ATTDEF
  5
2F
330
2E
100
AcDbEntity
  8
ASHADE
  6
Continuous
 62
     1
100
AcDbText
 10
0.0
 20
-0.1
 30
0.0
 40
0.2
  1

  7
ASHADE
 72
     1
 11
0.0
 21
-0.1
 31
0.0
100
AcDbAttributeDefinition
280
     0
  3
Light Name
  2
SNAME
 70
     0
280
     0
  0
ARC
  5
30
330
2E
100
AcDbEntity
  8
ASHADE
  6
Continuous
 62
     7
100
AcDbCircle
 10
0.0
 20
0.0
 30
0.0
 40
0.3
100
AcDbArc
 50
205.6792886194569
 51
334.3207113805431
  0
ARC
  5
31
330
2E
100
AcDbEntity
  8
ASHADE
  6
Continuous
 62
     7
100
AcDbCircle
 10
0.0
 20
0.0
 30
0.0
 40
0.3
100
AcDbArc
 50
25.67928861945685
 51
154.3207113805431
  0
LINE
  5
32
330
2E
100
AcDbEntity
  8
ASHADE
  6
Continuous
 62
     7
100
AcDbLine
 10
-0.21
 20
0.2142428528562855
 30
0.0
 11
-0.21
 21
0.5
 31
0.0
  0
LINE
  5
33
330
2E
100
AcDbEntity
  8
ASHADE
  6
Continuous
 62
     7
100
AcDbLine
 10
-0.11
 20
0.2791057147390572
 30
0.0
 11
-0.11
 21
0.5
 31
0.0
  0
LINE
  5
34
330
2E
100
AcDbEntity
  8
ASHADE
  6
Continuous
 62
     7
100
AcDbLine
 10
0.21
 20
0.2142428528562855
 30
0.0
 11
0.21
 21
0.5
 31
0.0
  0
ATTDEF
  5
35
330
2E
100
AcDbEntity
  8
ASHADE
  6
Continuous
 62
     7
100
AcDbText
 10
0.0
 20
0.25
 30
0.0
 40
0.01
  1

100
AcDbAttributeDefinition
280
     0
  3
Look-at Y
  2
LAY
 70
     1
280
     0
  0
ATTDEF
  5
36
330
2E
100
AcDbEntity
  8
ASHADE
  6
Continuous
 62
     7
100
AcDbText
 10
0.0
 20
0.22
 30
0.0
 40
0.01
  1
1
100
AcDbAttributeDefinition
280
     0
  3
Light Intensity
  2
INTENSITY
 70
     1
280
     0
  0
ATTDEF
  5
37
330
2E
100
AcDbEntity
  8
ASHADE
  6
Continuous
 62
     7
100
AcDbText
 10
0.0
 20
0.16
 30
0.0
 40
0.01
  1
-1
100
AcDbAttributeDefinition
280
     0
  3
*not used*
  2
BEAMD
 70
     1
280
     0
  0
ATTDEF
  5
38
330
2E
100
AcDbEntity
  8
ASHADE
  6
Continuous
 62
     7
100
AcDbText
 10
0.0
 20
0.175
 30
0.0
 40
0.01
  1
-1
100
AcDbAttributeDefinition
280
     0
  3
*not used*
  2
CONED
 70
     1
280
     0
  0
ATTDEF
  5
39
330
2E
100
AcDbEntity
  8
ASHADE
  6
Continuous
 62
     7
100
AcDbText
 10
0.0
 20
0.19
 30
0.0
 40
0.01
  1
0
100
AcDbAttributeDefinition
280
     0
  3
Depth Map Size
  2
CONEA
 70
     1
280
     0
  0
ATTDEF
  5
3A
330
2E
100
AcDbEntity
  8
ASHADE
  6
Continuous
 62
     7
100
AcDbText
 10
0.0
 20
0.2050000000000001
 30
0.0
 40
0.01
  1
1,1,1
100
AcDbAttributeDefinition
280
     0
  3
Light Color (RGB)
  2
COLOR
 70
     1
280
     0
  0
ATTDEF
  5
3B
330
2E
100
AcDbEntity
  8
ASHADE
  6
Continuous
 62
     7
100
AcDbText
 10
0.0
 20
0.235
 30
0.0
 40
0.01
  1

100
AcDbAttributeDefinition
280
     0
  3
Look-at Z
  2
LAZ
 70
     1
280
     0
  0
LINE
  5
3C
330
2E
100
AcDbEntity
  8
ASHADE
  6
Continuous
 62
     7
100
AcDbLine
 10
0.0
 20
0.3
 30
0.0
 11
0.0
 21
0.5
 31
0.0
  0
LINE
  5
3D
330
2E
100
AcDbEntity
  8
ASHADE
  6
Continuous
 62
     7
100
AcDbLine
 10
0.11
 20
0.2791057147390572
 30
0.0
 11
0.11
 21
0.5
 31
0.0
  0
ATTDEF
  5
3E
330
2E
100
AcDbEntity
  8
ASHADE
  6
Continuous
 62
     7
100
AcDbText
 10
0.0
 20
0.265
 30
0.0
 40
0.01
  1

100
AcDbAttributeDefinition
280
     0
  3
Look-at X
  2
LAX
 70
     1
280
     0
  0
ATTDEF
  5
3F
330
2E
100
AcDbEntity
  8
ASHADE
  6
Continuous
 62
     7
100
AcDbText
 10
0.0
 20
0.28
 30
0.0
 40
0.01
  1

100
AcDbAttributeDefinition
280
     0
  3

  2
GNAME
 70
     1
280
     0
  0
ENDBLK
  5
41
330
2E
100
AcDbEntity
  8
0
100
AcDbBlockEnd
  0
BLOCK
  5
5D
330
42
100
AcDbEntity
  8
0
100
AcDbBlockBegin
  2
overhead
 70
     2
 10
0.0
 20
0.0
 30
0.0
  3
overhead
  1

  0
ATTDEF
  5
43
330
42
100
AcDbEntity
  8
ASHADE
  6
Continuous
 62
     1
100
AcDbText
 10
0.0
 20
-0.1
 30
0.0
 40
0.2
  1

  7
ASHADE
 72
     1
 11
0.0
 21
-0.1
 31
0.0
100
AcDbAttributeDefinition
280
     0
  3
Light Name
  2
SNAME
 70
     0
280
     0
  0
ARC
  5
44
330
42
100
AcDbEntity
  8
ASHADE
  6
Continuous
 62
     7
100
AcDbCircle
 10
0.0
 20
0.0
 30
0.0
 40
0.3
100
AcDbArc
 50
205.6792886194569
 51
334.3207113805431
  0
LINE
  5
45
330
42
100
AcDbEntity
  8
ASHADE
  6
Continuous
 62
     7
100
AcDbLine
 10
-0.2041413561583015
 20
-0.2198324514393848
 30
0.0
 11
-0.2721884748777353
 21
-0.2931099352525131
 31
0.0
  0
LINE
  5
46
330
42
100
AcDbEntity
  8
ASHADE
  6
Continuous
 62
     7
100
AcDbLine
 10
-0.1096591641591904
 20
-0.2792398032442862
 30
0.0
 11
-0.1279356915190555
 21
-0.3257797704516673
 31
0.0
  0
LINE
  5
47
330
42
100
AcDbEntity
  8
ASHADE
  6
Continuous
 62
     7
100
AcDbLine
 10
0.0
 20
-0.2999999999999999
 30
0.0
 11
0.0
 21
-0.4
 31
0.0
  0
LINE
  5
48
330
42
100
AcDbEntity
  8
ASHADE
  6
Continuous
 62
     7
100
AcDbLine
 10
0.1096591641591904
 20
-0.2792398032442862
 30
0.0
 11
0.1279356915190555
 21
-0.3257797704516673
 31
0.0
  0
LINE
  5
49
330
42
100
AcDbEntity
  8
ASHADE
  6
Continuous
 62
     7
100
AcDbLine
 10
0.2041413561583015
 20
-0.2198324514393848
 30
0.0
 11
0.2721884748777353
 21
-0.2931099352525131
 31
0.0
  0
ARC
  5
4A
330
42
100
AcDbEntity
  8
ASHADE
  6
Continuous
 62
     7
100
AcDbCircle
 10
0.0
 20
0.0
 30
0.0
 40
0.3
100
AcDbArc
 50
25.67928861945685
 51
154.3207113805431
  0
LINE
  5
4B
330
42
100
AcDbEntity
  8
ASHADE
  6
Continuous
 62
     7
100
AcDbLine
 10
-0.2703701166919155
 20
0.13
 30
0.0
 11
-0.3154318028072347
 21
0.1516666666666666
 31
0.0
  0
LINE
  5
4C
330
42
100
AcDbEntity
  8
ASHADE
  6
Continuous
 62
     7
100
AcDbLine
 10
-0.2703701166919155
 20
-0.13
 30
0.0
 11
-0.3154318028072347
 21
-0.1516666666666666
 31
0.0
  0
LINE
  5
4D
330
42
100
AcDbEntity
  8
ASHADE
  6
Continuous
 62
     7
100
AcDbLine
 10
-0.2041413561583015
 20
0.2198324514393849
 30
0.0
 11
-0.2721884748777353
 21
0.2931099352525131
 31
0.0
  0
LINE
  5
4E
330
42
100
AcDbEntity
  8
ASHADE
  6
Continuous
 62
     7
100
AcDbLine
 10
-0.1096591641591904
 20
0.2792398032442862
 30
0.0
 11
-0.1279356915190555
 21
0.3257797704516674
 31
0.0
  0
LINE
  5
4F
330
42
100
AcDbEntity
  8
ASHADE
  6
Continuous
 62
     7
100
AcDbLine
 10
0.2703701166919155
 20
-0.13
 30
0.0
 11
0.3154318028072347
 21
-0.1516666666666666
 31
0.0
  0
LINE
  5
50
330
42
100
AcDbEntity
  8
ASHADE
  6
Continuous
 62
     7
100
AcDbLine
 10
0.2703701166919155
 20
0.13
 30
0.0
 11
0.3154318028072347
 21
0.1516666666666666
 31
0.0
  0
LINE
  5
51
330
42
100
AcDbEntity
  8
ASHADE
  6
Continuous
 62
     7
100
AcDbLine
 10
0.0
 20
0.3
 30
0.0
 11
0.0
 21
0.4
 31
0.0
  0
ATTDEF
  5
52
330
42
100
AcDbEntity
  8
ASHADE
  6
Continuous
 62
     7
100
AcDbText
 10
0.0
 20
0.22
 30
0.0
 40
0.01
  1
1
100
AcDbAttributeDefinition
280
     0
  3
Light Intensity
  2
INTENSITY
 70
     1
280
     0
  0
ATTDEF
  5
53
330
42
100
AcDbEntity
  8
ASHADE
  6
Continuous
 62
     7
100
AcDbText
 10
0.0
 20
0.16
 30
0.0
 40
0.01
  1
-1
100
AcDbAttributeDefinition
280
     0
  3
*not used*
  2
BEAMD
 70
     1
280
     0
  0
ATTDEF
  5
54
330
42
100
AcDbEntity
  8
ASHADE
  6
Continuous
 62
     7
100
AcDbText
 10
0.0
 20
0.175
 30
0.0
 40
0.01
  1
-1
100
AcDbAttributeDefinition
280
     0
  3
*not used*
  2
CONED
 70
     1
280
     0
  0
ATTDEF
  5
55
330
42
100
AcDbEntity
  8
ASHADE
  6
Continuous
 62
     7
100
AcDbText
 10
0.0
 20
0.19
 30
0.0
 40
0.01
  1
0
100
AcDbAttributeDefinition
280
     0
  3
Depth Map Size
  2
CONEA
 70
     1
280
     0
  0
ATTDEF
  5
56
330
42
100
AcDbEntity
  8
ASHADE
  6
Continuous
 62
     7
100
AcDbText
 10
0.0
 20
0.2050000000000001
 30
0.0
 40
0.01
  1
1,1,1
100
AcDbAttributeDefinition
280
     0
  3
Light Color (RGB)
  2
COLOR
 70
     1
280
     0
  0
ATTDEF
  5
57
330
42
100
AcDbEntity
  8
ASHADE
  6
Continuous
 62
     7
100
AcDbText
 10
0.0
 20
0.235
 30
0.0
 40
0.01
  1

100
AcDbAttributeDefinition
280
     0
  3
Look-at Z
  2
LAZ
 70
     1
280
     0
  0
ATTDEF
  5
58
330
42
100
AcDbEntity
  8
ASHADE
  6
Continuous
 62
     7
100
AcDbText
 10
0.0
 20
0.25
 30
0.0
 40
0.01
  1

100
AcDbAttributeDefinition
280
     0
  3
Look-at Y
  2
LAY
 70
     1
280
     0
  0
ATTDEF
  5
59
330
42
100
AcDbEntity
  8
ASHADE
  6
Continuous
 62
     7
100
AcDbText
 10
0.0
 20
0.265
 30
0.0
 40
0.01
  1

100
AcDbAttributeDefinition
280
     0
  3
Look-at X
  2
LAX
 70
     1
280
     0
  0
ATTDEF
  5
5A
330
42
100
AcDbEntity
  8
ASHADE
  6
Continuous
 62
     7
100
AcDbText
 10
0.0
 20
0.28
 30
0.0
 40
0.01
  1

100
AcDbAttributeDefinition
280
     0
  3

  2
GNAME
 70
     1
280
     0
  0
LINE
  5
5B
330
42
100
AcDbEntity
  8
ASHADE
  6
Continuous
 62
     7
100
AcDbLine
 10
0.1096591641591904
 20
0.2792398032442862
 30
0.0
 11
0.1279356915190555
 21
0.3257797704516674
 31
0.0
  0
LINE
  5
5C
330
42
100
AcDbEntity
  8
ASHADE
  6
Continuous
 62
     7
100
AcDbLine
 10
0.2041413561583015
 20
0.2198324514393849
 30
0.0
 11
0.2721884748777353
 21
0.2931099352525131
 31
0.0
  0
ENDBLK
  5
5E
330
42
100
AcDbEntity
  8
0
100
AcDbBlockEnd
  0
BLOCK
  5
85
330
5F
100
AcDbEntity
  8
0
100
AcDbBlockBegin
  2
sh_spot
 70
     2
 10
0.0
 20
0.0
 30
0.0
  3
sh_spot
  1

  0
LINE
  5
60
330
5F
100
AcDbEntity
  8
ASHADE
  6
Continuous
 62
     7
100
AcDbLine
 10
0.25
 20
0.26
 30
0.0
 11
-0.25
 21
0.26
 31
0.0
  0
LINE
  5
61
330
5F
100
AcDbEntity
  8
ASHADE
  6
Continuous
 62
     7
100
AcDbLine
 10
-0.25
 20
-0.3399999999999999
 30
0.0
 11
0.25
 21
-0.3399999999999999
 31
0.0
  0
ATTDEF
  5
62
330
5F
100
AcDbEntity
  8
ASHADE
  6
Continuous
 62
     1
100
AcDbText
 10
0.0
 20
-0.1
 30
0.0
 40
0.2
  1

  7
ASHADE
 72
     1
 11
0.0
 21
-0.1
 31
0.0
100
AcDbAttributeDefinition
280
     0
  3
Light Name
  2
SNAME
 70
     0
280
     0
  0
LINE
  5
63
330
5F
100
AcDbEntity
  8
ASHADE
  6
Continuous
 62
     7
100
AcDbLine
 10
-0.25
 20
-0.13
 30
0.0
 11
-0.25
 21
-0.3399999999999999
 31
0.0
  0
LINE
  5
64
330
5F
100
AcDbEntity
  8
ASHADE
  6
Continuous
 62
     7
100
AcDbLine
 10
-0.25
 20
-0.18
 30
0.0
 11
-0.29
 21
-0.18
 31
0.0
  0
LINE
  5
65
330
5F
100
AcDbEntity
  8
ASHADE
  6
Continuous
 62
     7
100
AcDbLine
 10
-0.29
 20
-0.22
 30
0.0
 11
-0.25
 21
-0.22
 31
0.0
  0
LINE
  5
66
330
5F
100
AcDbEntity
  8
ASHADE
  6
Continuous
 62
     7
100
AcDbLine
 10
-0.29
 20
-0.18
 30
0.0
 11
-0.29
 21
-0.22
 31
0.0
  0
LINE
  5
67
330
5F
100
AcDbEntity
  8
ASHADE
  6
Continuous
 62
     7
100
AcDbLine
 10
-0.1045454545454545
 20
0.26
 30
0.0
 11
-0.15
 21
0.46
 31
0.0
  0
LINE
  5
68
330
5F
100
AcDbEntity
  8
ASHADE
  6
Continuous
 62
     7
100
AcDbLine
 10
-0.21
 20
0.26
 30
0.0
 11
-0.301304347826087
 21
0.46
 31
0.0
  0
LINE
  5
69
330
5F
100
AcDbEntity
  8
ASHADE
  6
Continuous
 62
     7
100
AcDbLine
 10
-0.25
 20
0.26
 30
0.0
 11
-0.25
 21
0.13
 31
0.0
  0
LINE
  5
6A
330
5F
100
AcDbEntity
  8
ASHADE
  6
Continuous
 62
     7
100
AcDbLine
 10
-0.25
 20
0.22
 30
0.0
 11
-0.29
 21
0.22
 31
0.0
  0
LINE
  5
6B
330
5F
100
AcDbEntity
  8
ASHADE
  6
Continuous
 62
     7
100
AcDbLine
 10
-0.29
 20
0.1799999999999999
 30
0.0
 11
-0.25
 21
0.1799999999999999
 31
0.0
  0
LINE
  5
6C
330
5F
100
AcDbEntity
  8
ASHADE
  6
Continuous
 62
     7
100
AcDbLine
 10
-0.29
 20
0.22
 30
0.0
 11
-0.29
 21
0.1799999999999999
 31
0.0
  0
ATTDEF
  5
6D
330
5F
100
AcDbEntity
  8
ASHADE
  6
Continuous
 62
     7
100
AcDbText
 10
0.0
 20
-0.24
 30
0.0
 40
0.01
  1
0
100
AcDbAttributeDefinition
280
     0
  3
Depth Map Size
  2
ZSIZE
 70
     1
280
     0
  0
ATTDEF
  5
6E
330
5F
100
AcDbEntity
  8
ASHADE
  6
Continuous
 62
     7
100
AcDbText
 10
0.0
 20
-0.3300000000000001
 30
0.0
 40
0.01
  1
0,0,0
100
AcDbAttributeDefinition
280
     0
  3
Look-from XYZ
  2
LFXYZ
 70
     1
280
     0
  0
ATTDEF
  5
6F
330
5F
100
AcDbEntity
  8
ASHADE
  6
Continuous
 62
     7
100
AcDbText
 10
0.0
 20
-0.315
 30
0.0
 40
0.01
  1
0.0
100
AcDbAttributeDefinition
280
     0
  3
Beam Distribution
  2
BEAMDI
 70
     1
280
     0
  0
ATTDEF
  5
70
330
5F
100
AcDbEntity
  8
ASHADE
  6
Continuous
 62
     7
100
AcDbText
 10
0.0
 20
-0.3
 30
0.0
 40
0.01
  1
0.0
100
AcDbAttributeDefinition
280
     0
  3
Cone Delta
  2
CONEDE
 70
     1
280
     0
  0
ATTDEF
  5
71
330
5F
100
AcDbEntity
  8
ASHADE
  6
Continuous
 62
     7
100
AcDbText
 10
0.0
 20
-0.2850000000000001
 30
0.0
 40
0.01
  1
10.0
100
AcDbAttributeDefinition
280
     0
  3
Cone Angle
  2
CONEAN
 70
     1
280
     0
  0
ATTDEF
  5
72
330
5F
100
AcDbEntity
  8
ASHADE
  6
Continuous
 62
     7
100
AcDbText
 10
0.0
 20
-0.27
 30
0.0
 40
0.01
  1
-1
100
AcDbAttributeDefinition
280
     0
  3
*not used*
  2
BIASMAX
 70
     1
280
     0
  0
ATTDEF
  5
73
330
5F
100
AcDbEntity
  8
ASHADE
  6
Continuous
 62
     7
100
AcDbText
 10
0.0
 20
-0.255
 30
0.0
 40
0.01
  1
-1
100
AcDbAttributeDefinition
280
     0
  3
*not used*
  2
BIASMIN
 70
     1
280
     0
  0
ATTDEF
  5
74
330
5F
100
AcDbEntity
  8
ASHADE
  6
Continuous
 62
     7
100
AcDbText
 10
0.0
 20
-0.225
 30
0.0
 40
0.01
  1
1,1,1
100
AcDbAttributeDefinition
280
     0
  3
Light Color (RGB)
  2
COLOR
 70
     1
280
     0
  0
ATTDEF
  5
75
330
5F
100
AcDbEntity
  8
ASHADE
  6
Continuous
 62
     7
100
AcDbText
 10
0.0
 20
-0.21
 30
0.0
 40
0.01
  1
1
100
AcDbAttributeDefinition
280
     0
  3
Light Intensity
  2
INTENSITY
 70
     1
280
     0
  0
ATTDEF
  5
76
330
5F
100
AcDbEntity
  8
ASHADE
  6
Continuous
 62
     7
100
AcDbText
 10
0.0
 20
-0.15
 30
0.0
 40
0.01
  1

100
AcDbAttributeDefinition
280
     0
  3

  2
GNAME
 70
     1
280
     0
  0
ATTDEF
  5
77
330
5F
100
AcDbEntity
  8
ASHADE
  6
Continuous
 62
     7
100
AcDbText
 10
0.0
 20
-0.195
 30
0.0
 40
0.01
  1

100
AcDbAttributeDefinition
280
     0
  3
Look-at Z
  2
LAZ
 70
     1
280
     0
  0
ATTDEF
  5
78
330
5F
100
AcDbEntity
  8
ASHADE
  6
Continuous
 62
     7
100
AcDbText
 10
0.0
 20
-0.18
 30
0.0
 40
0.01
  1

100
AcDbAttributeDefinition
280
     0
  3
Look-at Y
  2
LAY
 70
     1
280
     0
  0
ATTDEF
  5
79
330
5F
100
AcDbEntity
  8
ASHADE
  6
Continuous
 62
     7
100
AcDbText
 10
0.0
 20
-0.165
 30
0.0
 40
0.01
  1

100
AcDbAttributeDefinition
280
     0
  3
Look-at X
  2
LAX
 70
     1
280
     0
  0
LINE
  5
7A
330
5F
100
AcDbEntity
  8
ASHADE
  6
Continuous
 62
     7
100
AcDbLine
 10
0.25
 20
-0.3399999999999999
 30
0.0
 11
0.25
 21
-0.13
 31
0.0
  0
LINE
  5
7B
330
5F
100
AcDbEntity
  8
ASHADE
  6
Continuous
 62
     7
100
AcDbLine
 10
0.25
 20
-0.18
 30
0.0
 11
0.29
 21
-0.18
 31
0.0
  0
LINE
  5
7C
330
5F
100
AcDbEntity
  8
ASHADE
  6
Continuous
 62
     7
100
AcDbLine
 10
0.29
 20
-0.22
 30
0.0
 11
0.25
 21
-0.22
 31
0.0
  0
LINE
  5
7D
330
5F
100
AcDbEntity
  8
ASHADE
  6
Continuous
 62
     7
100
AcDbLine
 10
0.29
 20
-0.18
 30
0.0
 11
0.29
 21
-0.22
 31
0.0
  0
LINE
  5
7E
330
5F
100
AcDbEntity
  8
ASHADE
  6
Continuous
 62
     7
100
AcDbLine
 10
0.21
 20
0.26
 30
0.0
 11
0.301304347826087
 21
0.46
 31
0.0
  0
LINE
  5
7F
330
5F
100
AcDbEntity
  8
ASHADE
  6
Continuous
 62
     7
100
AcDbLine
 10
0.1045454545454545
 20
0.26
 30
0.0
 11
0.15
 21
0.46
 31
0.0
  0
LINE
  5
80
330
5F
100
AcDbEntity
  8
ASHADE
  6
Continuous
 62
     7
100
AcDbLine
 10
0.0
 20
0.26
 30
0.0
 11
0.0
 21
0.46
 31
0.0
  0
LINE
  5
81
330
5F
100
AcDbEntity
  8
ASHADE
  6
Continuous
 62
     7
100
AcDbLine
 10
0.25
 20
0.13
 30
0.0
 11
0.25
 21
0.26
 31
0.0
  0
LINE
  5
82
330
5F
100
AcDbEntity
  8
ASHADE
  6
Continuous
 62
     7
100
AcDbLine
 10
0.25
 20
0.22
 30
0.0
 11
0.29
 21
0.22
 31
0.0
  0
LINE
  5
83
330
5F
100
AcDbEntity
  8
ASHADE
  6
Continuous
 62
     7
100
AcDbLine
 10
0.29
 20
0.1799999999999999
 30
0.0
 11
0.25
 21
0.1799999999999999
 31
0.0
  0
LINE
  5
84
330
5F
100
AcDbEntity
  8
ASHADE
  6
Continuous
 62
     7
100
AcDbLine
 10
0.29
 20
0.22
 30
0.0
 11
0.29
 21
0.1799999999999999
 31
0.0
  0
ENDBLK
  5
86
330
5F
100
AcDbEntity
  8
0
100
AcDbBlockEnd
  0
BLOCK
  5
92
330
91
100
AcDbEntity
  8
ASHADE
100
AcDbBlockBegin
  2
AVE_RENDER
 70
     0
 10
0.0
 20
0.0
 30
0.0
  3
AVE_RENDER
  1
AVE_RENDER
  0
ENDBLK
  5
93
330
91
100
AcDbEntity
  8
0
100
AcDbBlockEnd
  0
BLOCK
  5
A0
330
9F
100
AcDbEntity
  8
ASHADE
100
AcDbBlockBegin
  2
AVE_GLOBAL
 70
     0
 10
0.0
 20
0.0
 30
0.0
  3
AVE_GLOBAL
  1
AVE_GLOBAL
  0
ENDBLK
  5
A1
330
9F
100
AcDbEntity
  8
0
100
AcDbBlockEnd
  0
ENDSEC
  0
SECTION
  2
ENTITIES
  0
INSERT
  5
94
330
1F
100
AcDbEntity
  8
ASHADE
 62
     1
100
AcDbBlockReference
  2
AVE_RENDER
 10
0.0
 20
0.0
 30
0.0
1001
AVE_RENDER
1002
{
1070
     7
1000
Pref
1070
    30
1070
    20
1070
     1
1070
     0
1000

1070
    10
1070
     1
1070
    10
1040
1.0
1070
     1
1040
0.3
1040
0.7
1040
0.0
1040
10.0
1010
-1.0
1020
-1.0
1030
-1.0
1040
0.3
1070
    49
1070
     0
1070
     0
1010
1.0
1020
1.0
1030
1.0
1040
45.0
1070
     1
1070
     0
1000
WCS
1040
0.0
1070
     0
1040
10.0
1002
}
  0
INSERT
  5
95
330
1F
100
AcDbEntity
  8
ASHADE
 62
     3
100
AcDbBlockReference
  2
AVE_RENDER
 10
0.0
 20
0.0
 30
0.0
1001
AVE_RENDER
1002
{
1070
     0
1000
Full Opt
1070
     0
1070
     1
1070
     1
1070
     1
1070
     0
1070
     0
1070
     0
1070
     1
1070
     1
1040
0.0001
1040
0.0001
1002
}
  0
INSERT
  5
96
330
1F
100
AcDbEntity
  8
ASHADE
 62
     4
100
AcDbBlockReference
  2
AVE_RENDER
 10
0.0
 20
0.0
 30
0.0
1001
AVE_RENDER
1002
{
1070
     0
1000
Quick Opt
1070
     0
1070
     1
1070
     1
1070
     1
1070
     0
1070
     0
1070
     1
1002
}
  0
INSERT
  5
97
330
1F
100
AcDbEntity
  8
ASHADE
 62
     5
100
AcDbBlockReference
  2
AVE_RENDER
 10
0.0
 20
0.0
 30
0.0
1001
AVE_RENDER
1002
{
1070
     1
1000
Scanl Opt
1070
     2
1070
     0
1070
     2
1040
2.0
1040
4.0
1070
     0
1070
     1
1070
     0
1040
0.03
1002
}
  0
INSERT
  5
98
330
1F
100
AcDbEntity
  8
ASHADE
 62
     6
100
AcDbBlockReference
  2
AVE_RENDER
 10
0.0
 20
0.0
 30
0.0
1001
AVE_RENDER
1002
{
1070
     2
1000
Raytr Opt
1070
     2
1070
     0
1070
     2
1040
2.0
1040
4.0
1070
     0
1070
     1
1070
     1
1040
0.03
1070
     3
1040
0.03
1002
}
  0
INSERT
  5
99
330
1F
100
AcDbEntity
  8
ASHADE
 62
     7
100
AcDbBlockReference
  2
AVE_RENDER
 10
0.0
 20
0.0
 30
0.0
1001
AVE_RENDER
1002
{
1070
     0
1000
RFile Opt
1070
     1
1070
   640
1070
   480
1070
 10000
1070
     1
1070
     8
1070
     8
1070
     0
1070
     0
1070
     0
1070
     0
1070
     0
1070
     0
1070
     0
1002
}
  0
INSERT
  5
9A
330
1F
100
AcDbEntity
  8
ASHADE
 62
     8
100
AcDbBlockReference
  2
AVE_RENDER
 10
0.0
 20
0.0
 30
0.0
1001
AVE_RENDER
1002
{
1070
     0
1000
Fog Opt
1070
     0
1070
     0
1040
0.0
1040
1.0
1040
0.0
1040
1.0
1010
0.5
1020
0.5
1030
0.5
1002
}
  0
INSERT
  5
9B
330
1F
100
AcDbEntity
  8
ASHADE
 62
     9
100
AcDbBlockReference
  2
AVE_RENDER
 10
0.0
 20
0.0
 30
0.0
1001
AVE_RENDER
1002
{
1070
     0
1000
BG Opt
1070
     0
1070
     1
1010
0.0
1020
0.0
1030
0.0
1010
1.0
1020
0.0
1030
0.0
1010
0.0
1020
1.0
1030
0.0
1010
0.0
1020
0.0
1030
1.0
1040
0.5
1040
0.33
1040
0.0
1000

1070
     1
1000

1070
     1
1070
     1
1040
1.0
1040
1.0
1040
0.0
1040
0.0
1070
     0
1002
}
  0
INSERT
  5
A2
330
1F
100
AcDbEntity
  8
ASHADE
 62
     1
100
AcDbBlockReference
  2
AVE_GLOBAL
 10
0.0
 20
0.0
 30
0.0
1001
AVE_MATERIAL
1002
{
1000
*GLOBAL*
1000
2
1000
Global finish.
1002
{
1002
}
1002
{
1070
    63
1002
{
1002
{
1010
-1.0
1020
-1.0
1030
-1.0
1002
}
1040
0.1000000014901161
1000

1040
0.0
1002
{
1002
}
1040
0.0
1002
{
1002
}
1040
0.0
1002
}
1002
{
1002
{
1010
-1.0
1020
-1.0
1030
-1.0
1002
}
1040
0.6999999880790711
1000

1040
0.0
1002
{
1002
}
1040
0.0
1002
{
1002
}
1040
0.0
1002
}
1002
{
1002
{
1010
-1.0
1020
-1.0
1030
-1.0
1002
}
1040
0.2000000029802322
1000

1040
0.0
1002
{
1002
}
1040
0.0
1002
{
1002
}
1040
0.0
1002
}
1002
{
1070
     0
1002
{
1070
     1
1002
{
1040
1.0
1040
1.0
1000

1040
0.0
1002
{
1002
}
1040
0.0
1002
{
1002
}
1040
0.0
1002
}
1002
}
1040
1.0
1040
0.0
1040
0.0
1002
}
1002
{
1040
1.0
1040
1.0
1000

1040
0.0
1002
{
1002
}
1040
0.0
1002
{
1002
}
1040
0.0
1002
}
1002
{
1040
0.5
1040
1.0
1000

1040
0.0
1002
{
1002
}
1040
0.0
1002
{
1002
}
1040
0.0
1002
}
1002
{
1070
     0
1040
0.0
1002
{
1002
}
1040
1.0
1002
{
1002
}
1040
0.0
1002
}
1002
{
1040
0.0
1002
{
1002
{
1010
0.0
1020
0.0
1030
0.0
1002
}
1040
1.0
1000

1040
0.0
1002
{
1002
}
1040
0.0
1002
{
1002
}
1040
0.0
1002
}
1002
}
1002
{
1002
{
1070
     1
1002
{
1040
0.0
1040
1.0
1000

1040
0.0
1002
{
1002
}
1040
0.0
1002
{
1002
}
1040
0.0
1002
}
1002
}
1040
0.0
1002
{
1002
}
1010
1.0
1020
0.0
1030
0.0
1010
0.0
1020
1.0
1030
0.0
1010
0.0
1020
0.0
1030
1.0
1070
     0
1002
}
1002
{
1002
{
1040
1.0
1040
1.0
1002
{
1070
     1
1002
{
1040
1.0
1040
1.0
1000

1040
0.0
1002
{
1002
}
1040
0.0
1002
{
1002
}
1040
0.0
1002
}
1002
}
1002
}
1070
     0
1040
0.0
1002
{
1002
}
1002
}
1002
{
1002
}
1002
}
1002
{
1071
        3
1070
     3
1070
     0
1002
{
1070
     2
1070
     0
1070
     0
1040
0.0
1002
}
1070
     0
1070
     2
1002
{
1002
}
1002
}
1002
{
1040
8030.0
1040
190.3000030517578
1040
0.3050000071525574
1040
228.0
1040
545.0
1040
14.0
1040
17.39999961853027
1040
0.4560000002384186
1002
}
1002
}
  0
MESH
  5
F9
330
1F
100
AcDbEntity
  8
OracDecor_decorative_elements
 62
    61
420
 14083494
160
             44072
310
28AC0000C80400000C00000013000000020000003C000000060000000200000000000080212569C0000000007BAB1BC000000080212569C000000040B72D6AC0000000A0C9FDF0BF00000020B72D6AC00C000000130000000A0000003C000000060000000200000000000040B72D6AC0000000A0C9FDF0BF00000020B72D6A
310
C000000040B72D6AC0000000A0C9FDF0BF00000000B72D6A400C00000013000000120000003C000000060000000200000000000040B72D6AC0000000A0C9FDF0BF00000000B72D6A4000000080212569C0000000007BAB1BC000000080212569400C000000130000001A0000003C0000000600000002000000000000802125
310
69C0000000007BAB1BC000000080212569C000000080212569C0000000007BAB1BC000000080212569400C00000013000000220000003C0000000600000002000000000000C0A13D6AC000000060080012C0000000C0A13D6AC00000006067316AC000000020DE5612C00000006067316AC00C000000130000002A0000003C
310
00000006000000020000000000006067316AC000000020DE5612C00000006067316AC00000006067316AC000000020DE5612C00000008067316A400C00000013000000320000003C0000000600000002000000000000C0A13D6AC000000060080012C0000000C0A13D6A400000006067316AC000000020DE5612C000000080
310
67316A400C000000130000003A0000003C0000000600000002000000000000C0A13D6AC000000060080012C0000000C0A13D6AC0000000C0A13D6AC000000060080012C0000000C0A13D6A400C00000013000000420000003C0000000600000002000000000000004A1E6AC0000000C0943115C0000000004A1E6AC0000000
310
0021136AC0000000E0E22D19C00000000021136AC00C000000130000004A0000003C00000006000000020000000000000021136AC0000000E0E22D19C00000000021136AC00000000021136AC0000000E0E22D19C00000000021136A400C00000013000000520000003C00000006000000020000000000000021136AC00000
310
00E0E22D19C00000000021136A40000000004A1E6AC0000000C0943115C0000000004A1E6A400C000000130000005A0000003C0000000600000002000000000000004A1E6AC0000000C0943115C0000000004A1E6AC0000000004A1E6AC0000000C0943115C0000000004A1E6A400C00000013000000620000003C00000006
310
000000020000000000000021136AC0000000E0E22D19C00000000021136AC0000000E0A7096AC0000000E064241BC0000000E0A7096AC00C000000130000006A0000003C0000000600000002000000000000E0A7096AC0000000E064241BC0000000E0A7096AC0000000E0A7096AC0000000E064241BC000000000A8096A40
310
0C00000013000000720000003C0000000600000002000000000000E0A7096AC0000000E064241BC000000000A8096A400000000021136AC0000000E0E22D19C00000000021136A400C000000130000007A0000003C0000000600000002000000000000C02DFD69C000000080C2051DC0000000C02DFD69C0000000E04AF269
310
C0000000A062BE20C0000000C04AF269C00C00000013000000820000003C0000000600000002000000000000E04AF269C0000000A062BE20C0000000C04AF269C0000000E04AF269C0000000A062BE20C0000000C04AF269400C000000130000008A0000003C0000000600000002000000000000E04AF269C0000000A062BE
310
20C0000000C04AF26940000000C02DFD69C000000080C2051DC0000000C02DFD69400C00000013000000920000003C0000000600000002000000000000C02DFD69C000000080C2051DC0000000C02DFD69C0000000C02DFD69C000000080C2051DC0000000C02DFD69400C000000130000009A0000003C0000000600000002
310
000000000000E04AF269C0000000A062BE20C0000000C04AF269C0000000804FDA69C000000040B6E622C0000000804FDA69C00C00000013000000A20000003C0000000600000002000000000000804FDA69C000000040B6E622C0000000804FDA69C0000000804FDA69C000000040B6E622C0000000804FDA69400C000000
310
13000000AA0000003C0000000600000002000000000000804FDA69C000000040B6E622C0000000804FDA6940000000E04AF269C0000000A062BE20C0000000C04AF269400C00000013000000B20000003C000000060000000200000000000040A6B269C00000008002A124C000000040A6B269C0000000E08F9969C0000000
310
C0012425C0000000E08F9969C00C00000013000000BA0000003C0000000600000002000000000000E08F9969C0000000C0012425C0000000E08F9969C0000000E08F9969C0000000C0012425C000000000909969400C00000013000000C20000003C0000000600000002000000000000E08F9969C0000000C0012425C00000
310
00009099694000000040A6B269C00000008002A124C000000040A6B269400C00000013000000CA0000003C000000060000000200000000000040A6B269C00000008002A124C000000040A6B269C000000040A6B269C00000008002A124C000000040A6B269400C00000013000000D20000003C000000060000000200000000
310
0000E0CB7A69C0000000E01E5025C0000000E0CB7A69C0000000A0696F69C000000040754325C0000000A0696F69C00C00000013000000DA0000003C0000000600000002000000000000A0696F69C000000040754325C0000000A0696F69C0000000A0696F69C000000040754325C000000080696F69400C00000013000000
310
E20000003C0000000600000002000000000000A0696F69C000000040754325C000000080696F6940000000E0CB7A69C0000000E01E5025C000000000CC7A69400C00000013000000EA0000003C0000000600000002000000000000E0CB7A69C0000000E01E5025C0000000E0CB7A69C0000000E0CB7A69C0000000E01E5025
310
C000000000CC7A69400C00000013000000F20000003C0000000600000002000000000000800A5269C0000000E0DC0226C0000000800A5269C0000000C0D42869C0000000E0973E26C0000000C0D42869C00C00000013000000FA0000003C0000000600000002000000000000C0D42869C0000000E0973E26C0000000C0D428
310
69C0000000C0D42869C0000000E0973E26C0000000C0D42869400C00000013000000020100003C0000000600000002000000000000C0D42869C0000000E0973E26C0000000C0D4286940000000800A5269C0000000E0DC0226C0000000800A5269400C000000130000000A0100003C0000000600000002000000000000800A
310
5269C0000000E0DC0226C0000000800A5269C0000000800A5269C0000000E0DC0226C0000000800A5269400C00000013000000120100003C0000000600000002000000000000C0D42869C0000000E0973E26C0000000C0D42869C000000000E80F69C000000020040026C0000000E0E70F69C00C000000130000001A010000
310
3C000000060000000200000000000000E80F69C000000020040026C0000000E0E70F69C000000000E80F69C000000020040026C000000000E80F69400C00000013000000220100003C000000060000000200000000000000E80F69C000000020040026C000000000E80F6940000000C0D42869C0000000E0973E26C0000000
310
C0D42869400C000000130000002A0100003C00000006000000020000000000000068C668C00000008002E426C00000000068C668C0000000E067B968C0000000C0051C28C0000000E067B968C00C00000013000000320100003C0000000600000002000000000000E067B968C0000000C0051C28C0000000E067B968C00000
310
00E067B968C0000000C0051C28C00000000068B968400C000000130000003A0100003C0000000600000002000000000000E067B968C0000000C0051C28C00000000068B968400000000068C668C00000008002E426C00000000068C668400C00000013000000420100003C00000006000000020000000000000068C668C000
310
00008002E426C00000000068C668C00000000068C668C00000008002E426C00000000068C668400C000000130000004A0100003C0000000600000002000000000000C0C79E68C000000020040029C0000000C0C79E68C0000000C0FBAA68C000000020BCD428C0000000A0FBAA68C00C00000013000000520100003C000000
310
0600000002000000000000C0C79E68C000000020040029C0000000C0C79E68C0000000C0C79E68C000000020040029C0000000C0C79E68400C000000130000005A0100003C0000000600000002000000000000C0C79E68C000000020040029C0000000C0C79E6840000000C0FBAA68C000000020BCD428C000000080FBAA68
310
400C00000013000000620100003C0000000600000002000000000000C0FBAA68C000000020BCD428C0000000A0FBAA68C0000000C0FBAA68C000000020BCD428C000000080FBAA68400C000000130000006A0100003C00000006000000020000000000006067316AC000000020DE5612C00000006067316AC0000000A01C23
310
6AC000000020FCC213C0000000C01D236AC00C00000013000000720100003C0000000600000002000000000000A01C236AC000000020FCC213C0000000C01D236AC0000000A01C236AC000000020FCC213C0000000C01D236A400C000000130000007A0100003C0000000600000002000000000000A01C236AC000000020FC
310
C213C0000000C01D236A400000006067316AC000000020DE5612C00000008067316A400C00000013000000820100003C0000000600000002000000000000A01C236AC000000020FCC213C0000000C01D236AC0000000004A1E6AC0000000C0943115C0000000004A1E6AC00C000000130000008A0100003C00000006000000
310
02000000000000004A1E6AC0000000C0943115C0000000004A1E6A40000000A01C236AC000000020FCC213C0000000C01D236A400C00000013000000920100003C0000000600000002000000000000E0A7096AC0000000E064241BC0000000E0A7096AC0000000C02DFD69C000000080C2051DC0000000C02DFD69C00C0000
310
00130000009A0100003C0000000600000002000000000000C02DFD69C000000080C2051DC0000000C02DFD6940000000E0A7096AC0000000E064241BC000000000A8096A400C00000013000000A20100003C0000000600000002000000000000804FDA69C000000040B6E622C0000000804FDA69C000000040A6B269C00000
310
008002A124C000000040A6B269C00C00000013000000AA0100003C000000060000000200000000000040A6B269C00000008002A124C000000040A6B26940000000804FDA69C000000040B6E622C0000000804FDA69400C00000013000000B20100003C0000000600000002000000000000E08F9969C0000000C0012425C000
310
0000E08F9969C0000000E0CB7A69C0000000E01E5025C0000000E0CB7A69C00C00000013000000BA0100003C0000000600000002000000000000E0CB7A69C0000000E01E5025C000000000CC7A6940000000E08F9969C0000000C0012425C000000000909969400C00000013000000C20100003C0000000600000002000000
310
000000A0696F69C000000040754325C0000000A0696F69C0000000800A5269C0000000E0DC0226C0000000800A5269C00C00000013000000CA0100003C0000000600000002000000000000800A5269C0000000E0DC0226C0000000800A526940000000A0696F69C000000040754325C000000080696F69400C000000130000
310
00D20100003C000000060000000200000000000000E80F69C000000020040026C0000000E0E70F69C00000004008E168C000000020040026C00000002008E168C00C00000013000000DA0100003C00000006000000020000000000004008E168C000000020040026C00000002008E168C00000004008E168C0000000200400
310
26C00000000008E168400C00000013000000E20100003C00000006000000020000000000004008E168C000000020040026C00000000008E1684000000000E80F69C000000020040026C000000000E80F69400C00000013000000EA0100003C00000006000000020000000000004008E168C000000020040026C00000002008
310
E168C000000040D4D468C0000000204C2B26C000000040D4D468C00C00000013000000F20100003C000000060000000200000000000040D4D468C0000000204C2B26C000000040D4D468C000000040D4D468C0000000204C2B26C000000040D4D468400C00000013000000FA0100003C000000060000000200000000000040
310
D4D468C0000000204C2B26C000000040D4D468400000004008E168C000000020040026C00000000008E168400C00000013000000020200003C000000060000000200000000000040D4D468C0000000204C2B26C000000040D4D468C00000000068C668C00000008002E426C00000000068C668C00C000000130000000A0200
310
003C00000006000000020000000000000068C668C00000008002E426C00000000068C6684000000040D4D468C0000000204C2B26C000000040D4D468400C00000013000000120200003C0000000600000002000000000000E067B968C0000000C0051C28C0000000E067B968C0000000C0FBAA68C000000020BCD428C00000
310
00A0FBAA68C00C000000130000001A0200003C0000000600000002000000000000C0FBAA68C000000020BCD428C000000080FBAA6840000000E067B968C0000000C0051C28C00000000068B968400C00000013000000220200003C000000060000000200000000000040B72D6AC0000000A0C9FDF0BF00000000B72D6A4000
310
0000604E0E6EC0000000002300F4BF000000004E0E6E400C000000130000002A0200003C000000060000000200000000000040B72D6AC0000000A0C9FDF0BF00000020B72D6AC0000000604E0E6EC0000000002300F4BF000000404E0E6EC00C00000013000000320200003C0000000600000002000000000000604E0E6EC0
310
000000002300F4BF000000404E0E6EC0000000604E0E6EC0000000002300F4BF000000004E0E6E400C000000130000003A0200003C0000000600000002000000000000604E0E6EC0000000002300F4BF000000004E0E6E40000000604E166EC000000040072906C0000000004E166E400C00000013000000420200003C0000
310
000600000002000000000000604E0E6EC0000000002300F4BF000000404E0E6EC0000000604E166EC000000040072906C0000000404E166EC00C000000130000004A0200003C0000000600000002000000000000604E166EC000000040072906C0000000404E166EC0000000604E166EC000000040072906C0000000004E16
310
6E400C00000013000000520200003C0000000600000002000000000000604E166EC000000040072906C0000000004E166E4000000040275370C0000000C0072906C000000000275370400C000000130000005A0200003C0000000600000002000000000000604E166EC000000040072906C0000000404E166EC00000004027
310
5370C0000000C0072906C000000020275370C00C00000013000000620200003C000000060000000200000000000040275370C0000000C0072906C000000020275370C000000040275370C0000000C0072906C000000000275370400C000000130000006A0200003C000000060000000200000000000040275370C0000000C0
310
072906C00000000027537040000000C0E75570C0000000408807E6BF000000C0E75570400C00000013000000720200003C000000060000000200000000000040275370C0000000C0072906C000000020275370C0000000C0E75570C0000000608807E6BF000000E0E75570C00C000000130000007A0200003C000000060000
310
0002000000000000C0E75570C0000000608807E6BF000000E0E75570C0000000C0E75570C0000000408807E6BF000000C0E75570400C00000013000000820200003C0000000600000002000000000000C0E75570C0000000408807E6BF000000C0E755704000000000F4FF70C0000000E04800E0BF00000000F4FF70400C00
310
0000130000008A0200003C0000000600000002000000000000C0E75570C0000000608807E6BF000000E0E75570C000000000F4FF70C0000000E04800E0BF00000000F4FF70C00C00000013000000920200003C000000060000000200000000000000F4FF70C0000000E04800E0BF00000000F4FF70C000000000F4FF70C000
310
0000E04800E0BF00000000F4FF70400C000000130000009A0200003C000000060000000200000000000000F4FF70C0000000E04800E0BF00000000F4FF704000000000F4FF70C0000000A0C33B02BF00000000F4FF70400C00000013000000A20200003C000000060000000200000000000000F4FF70C0000000E04800E0BF
310
00000000F4FF70C000000000F4FF70C0000000A0C33B02BF00000000F4FF70C00C00000013000000AA0200003C000000060000000200000000000000F4FF70C0000000A0C33B02BF00000000F4FF70C000000000F4FF70C0000000A0C33B02BF00000000F4FF70400C00000013000000B20200003C00000006000000020000
310
0000000000F4FF70C0000000A0C33B02BF00000000F4FF704000000040052971C0000000A0D24A02BF00000000052971400C00000013000000BA0200003C000000060000000200000000000000F4FF70C0000000A0C33B02BF00000000F4FF70C000000040052971C0000000A0D24A02BF00000020052971C00C0000001300
310
0000C20200003C000000060000000200000000000040052971C0000000A0D24A02BF00000020052971C000000040052971C0000000A0D24A02BF00000000052971400C00000013000000CA0200003C000000060000000200000000000040052971C0000000A0D24A02BF0000000005297140000000808D2B71C0000000E0A5
310
349EBF000000808D2B71400C00000013000000D20200003C000000060000000200000000000040052971C0000000A0D24A02BF00000020052971C0000000808D2B71C000000060B2349EBF000000808D2B71C00C00000013000000DA0200003C0000000600000002000000000000808D2B71C000000060B2349EBF00000080
310
8D2B71C0000000808D2B71C0000000E0A5349EBF000000808D2B71400C00000013000000E20200003C0000000600000002000000000000808D2B71C0000000E0A5349EBF000000808D2B7140000000A0992D71C0000000A0691ABBBF000000C0992D71400C00000013000000EA0200003C0000000600000002000000000000
310
808D2B71C000000060B2349EBF000000808D2B71C0000000A0992D71C0000000E06B1ABBBF000000C0992D71C00C00000013000000F20200003C0000000600000002000000000000A0992D71C0000000E06B1ABBBF000000C0992D71C0000000A0992D71C0000000A0691ABBBF000000C0992D71400C00000013000000FA02
310
00003C0000000600000002000000000000A0992D71C0000000A0691ABBBF000000C0992D714000000060922F71C00000006036DBD1BF000000808E2F71400C00000013000000020300003C0000000600000002000000000000A0992D71C0000000E06B1ABBBF000000C0992D71C000000060922F71C00000006037DBD1BF00
310
0000608E2F71C00C000000130000000A0300003C000000060000000200000000000060922F71C00000006037DBD1BF000000608E2F71C000000060922F71C00000006036DBD1BF000000808E2F71400C00000013000000120300003C000000060000000200000000000060922F71C00000006036DBD1BF000000808E2F7140
310
00000000F42F71C000000040AD86E0BF00000000F42F71400C000000130000001A0300003C000000060000000200000000000060922F71C00000006037DBD1BF000000608E2F71C000000000F42F71C000000000AD86E0BF00000000F42F71C00C00000013000000220300003C000000060000000200000000000000F42F71
310
C000000000AD86E0BF00000000F42F71C000000000F42F71C000000040AD86E0BF00000000F42F71400C000000130000002A0300003C000000060000000200000000000000F42F71C000000040AD86E0BF00000000F42F7140000000C0E41D71C000000020B7AB1BC0000000C0E41D71400C00000013000000320300003C00
310
0000060000000200000000000000F42F71C000000000AD86E0BF00000000F42F71C0000000C0E41D71C000000020B7AB1BC0000000C0E41D71C00C000000130000003A0300003C0000000600000002000000000000C0E41D71C000000020B7AB1BC0000000C0E41D71C0000000C0E41D71C000000020B7AB1BC0000000C0E4
310
1D71400C00000013000000420300003C0000000600000002000000000000C0E41D71C000000020B7AB1BC0000000C0E41D7140000000808E0F71C0000000A07E6A1EC0000000808E0F71400C000000130000004A0300003C0000000600000002000000000000C0E41D71C000000020B7AB1BC0000000C0E41D71C000000080
310
8E0F71C0000000A07E6A1EC0000000808E0F71C00C00000013000000520300003C0000000600000002000000000000808E0F71C0000000A07E6A1EC0000000808E0F71C0000000808E0F71C0000000A07E6A1EC0000000808E0F71400C000000130000005A0300003C0000000600000002000000000000808E0F71C0000000
310
A07E6A1EC0000000808E0F71400000000063F670C0000000C0341F21C00000000063F670400C00000013000000620300003C0000000600000002000000000000808E0F71C0000000A07E6A1EC0000000808E0F71C00000000063F670C0000000C0341F21C00000000063F670C00C000000130000006A0300003C0000000600
310
0000020000000000000063F670C0000000C0341F21C00000000063F670C00000000063F670C0000000C0341F21C00000000063F670400C00000013000000720300003C00000006000000020000000000000063F670C0000000C0341F21C00000000063F6704000000040F6E870C0000000C0922024C000000000F6E870400C
310
000000130000007A0300003C00000006000000020000000000000063F670C0000000C0341F21C00000000063F670C000000040F6E870C0000000C0922024C000000020F6E870C00C00000013000000820300003C000000060000000200000000000040F6E870C0000000C0922024C000000020F6E870C000000040F6E870C0
310
000000C0922024C000000000F6E870400C000000130000008A0300003C000000060000000200000000000040F6E870C0000000C0922024C000000000F6E87040000000C08ED970C0000000408DAB26C0000000C08ED970400C00000013000000920300003C000000060000000200000000000040F6E870C0000000C0922024
310
C000000020F6E870C0000000C08ED970C0000000408DAB26C0000000A08ED970C00C000000130000009A0300003C0000000600000002000000000000C08ED970C0000000408DAB26C0000000A08ED970C0000000C08ED970C0000000408DAB26C0000000C08ED970400C00000013000000A20300003C000000060000000200
310
0000000000C08ED970C0000000408DAB26C0000000C08ED97040000000802CC970C000000020AD8829C0000000802CC970400C00000013000000AA0300003C0000000600000002000000000000C08ED970C0000000408DAB26C0000000A08ED970C0000000802CC970C000000020AD8829C0000000A02CC970C00C00000013
310
000000B20300003C0000000600000002000000000000802CC970C000000020AD8829C0000000A02CC970C0000000802CC970C000000020AD8829C0000000802CC970400C00000013000000BA0300003C0000000600000002000000000000802CC970C000000020AD8829C0000000802CC9704000000060B3B970C0000000C0
310
099F2CC000000080B3B970400C00000013000000C20300003C0000000600000002000000000000802CC970C000000020AD8829C0000000A02CC970C000000060B3B970C0000000C0099F2CC000000060B3B970C00C00000013000000CA0300003C000000060000000200000000000060B3B970C0000000C0099F2CC0000000
310
60B3B970C000000060B3B970C0000000C0099F2CC000000080B3B970400C00000013000000D20300003C000000060000000200000000000060B3B970C0000000C0099F2CC000000080B3B970400000006014A270C000000040168D2FC00000008014A270400C00000013000000DA0300003C00000006000000020000000000
310
0060B3B970C0000000C0099F2CC000000060B3B970C00000006014A270C000000040168D2FC00000006014A270C00C00000013000000E20300003C00000006000000020000000000006014A270C000000040168D2FC00000006014A270C00000006014A270C000000040168D2FC00000008014A270400C00000013000000EA
310
0300003C00000006000000020000000000006014A270C000000040168D2FC00000008014A27040000000C0F78370C00000008054A630C000000000F88370400C00000013000000F20300003C00000006000000020000000000006014A270C000000040168D2FC00000006014A270C0000000C0F78370C00000008054A630C0
310
000000C0F78370C00C00000013000000FA0300003C0000000600000002000000000000C0F78370C00000008054A630C0000000C0F78370C0000000C0F78370C00000008054A630C000000000F88370400C00000013000000020400003C0000000600000002000000000000C0F78370C00000008054A630C000000000F88370
310
4000000040D56370C0000000809D9130C000000080D56370400C000000130000000A0400003C0000000600000002000000000000C0F78370C00000008054A630C0000000C0F78370C000000040D56370C0000000809D9130C000000040D56370C00C00000013000000120400003C000000060000000200000000000040D563
310
70C0000000809D9130C000000040D56370C000000040D56370C0000000809D9130C000000080D56370400C000000130000001A0400003C000000060000000200000000000040D56370C0000000809D9130C000000080D563704000000080A24670C0000000E0463E2FC000000080A24670400C00000013000000220400003C
310
000000060000000200000000000040D56370C0000000809D9130C000000040D56370C000000080A24670C0000000E0463E2FC000000080A24670C00C000000130000002A0400003C000000060000000200000000000080A24670C0000000E0463E2FC000000080A24670C000000080A24670C0000000E0463E2FC000000080
310
A24670400C00000013000000320400003C000000060000000200000000000080A24670C0000000E0463E2FC000000080A2467040000000A0203170C0000000408C222CC000000080203170400C000000130000003A0400003C000000060000000200000000000080A24670C0000000E0463E2FC000000080A24670C0000000
310
A0203170C0000000408C222CC0000000A0203170C00C00000013000000420400003C0000000600000002000000000000A0203170C0000000408C222CC0000000A0203170C0000000A0203170C0000000408C222CC000000080203170400C000000130000004A0400003C0000000600000002000000000000A0203170C00000
310
00408C222CC0000000802031704000000040042570C0000000C098FA28C000000080042570400C00000013000000520400003C0000000600000002000000000000A0203170C0000000408C222CC0000000A0203170C000000040042570C0000000C098FA28C000000060042570C00C000000130000005A0400003C00000006
310
0000000200000000000040042570C0000000C098FA28C000000060042570C000000040042570C0000000C098FA28C000000080042570400C00000013000000620400003C000000060000000200000000000040042570C0000000C098FA28C0000000800425704000000000031D70C0000000C04D2926C000000000031D7040
310
0C000000130000006A0400003C000000060000000200000000000040042570C0000000C098FA28C000000060042570C000000000031D70C0000000C04D2926C000000020031D70C00C00000013000000720400003C000000060000000200000000000000031D70C0000000C04D2926C000000020031D70C000000000031D70
310
C0000000C04D2926C000000000031D70400C000000130000007A0400003C000000060000000200000000000000031D70C0000000C04D2926C000000000031D704000000080DA1070C0000000A0301223C000000080DA1070400C00000013000000820400003C000000060000000200000000000000031D70C0000000C04D29
310
26C000000020031D70C000000080DA1070C0000000A0301223C000000080DA1070C00C000000130000008A0400003C000000060000000200000000000080DA1070C0000000A0301223C000000080DA1070C000000080DA1070C0000000A0301223C000000080DA1070400C00000013000000920400003C0000000600000002
310
00000000000080DA1070C0000000A0301223C000000080DA10704000000000C4F66FC00000006008AF20C000000000C4F66F400C000000130000009A0400003C000000060000000200000000000080DA1070C0000000A0301223C000000080DA1070C000000000C4F66FC00000006008AF20C0000000E0C3F66FC00C000000
310
13000000A20400003C000000060000000200000000000000C4F66FC00000006008AF20C0000000E0C3F66FC000000000C4F66FC00000006008AF20C000000000C4F66F400C00000013000000AA0400003C000000060000000200000000000000C4F66FC00000006008AF20C000000000C4F66F4000000040CFC26FC0000000
310
E0898920C000000000CFC26F400C00000013000000B20400003C000000060000000200000000000000C4F66FC00000006008AF20C0000000E0C3F66FC000000040CFC26FC0000000E0898920C000000020CFC26FC00C00000013000000BA0400003C000000060000000200000000000040CFC26FC0000000E0898920C00000
310
0020CFC26FC000000040CFC26FC0000000E0898920C000000000CFC26F400C00000013000000C20400003C000000060000000200000000000040CFC26FC0000000E0898920C000000000CFC26F40000000406FA56FC000000040363921C0000000006FA56F400C00000013000000CA0400003C000000060000000200000000
310
000040CFC26FC0000000E0898920C000000020CFC26FC0000000406FA56FC000000040363921C0000000406FA56FC00C00000013000000D20400003C0000000600000002000000000000406FA56FC000000040363921C0000000406FA56FC0000000406FA56FC000000040363921C0000000006FA56F400C00000013000000
310
DA0400003C0000000600000002000000000000406FA56FC000000040363921C0000000006FA56F4000000040838F6FC000000080391122C000000000838F6F400C00000013000000E20400003C0000000600000002000000000000406FA56FC000000040363921C0000000406FA56FC000000040838F6FC000000080391122
310
C000000020838F6FC00C00000013000000EA0400003C000000060000000200000000000040838F6FC000000080391122C000000020838F6FC000000040838F6FC000000080391122C000000000838F6F400C00000013000000F20400003C000000060000000200000000000040838F6FC000000080391122C000000000838F
310
6F4000000040FA756FC000000080D17123C000000000FA756F400C00000013000000FA0400003C000000060000000200000000000040838F6FC000000080391122C000000020838F6FC000000040FA756FC000000080D17123C000000040FA756FC00C00000013000000020500003C000000060000000200000000000040FA
310
756FC000000080D17123C000000040FA756FC000000040FA756FC000000080D17123C000000000FA756F400C000000130000000A0500003C000000060000000200000000000040FA756FC000000080D17123C000000000FA756F4000000040ED5D6FC000000000530525C000000080ED5D6F400C0000001300000012050000
310
3C000000060000000200000000000040FA756FC000000080D17123C000000040FA756FC000000040ED5D6FC000000000530525C000000060ED5D6FC00C000000130000001A0500003C000000060000000200000000000040ED5D6FC000000000530525C000000060ED5D6FC000000040ED5D6FC000000000530525C0000000
310
80ED5D6F400C00000013000000220500003C000000060000000200000000000040ED5D6FC000000000530525C000000080ED5D6F4000000000E44A6FC0000000007D6226C000000080E34A6F400C000000130000002A0500003C000000060000000200000000000040ED5D6FC000000000530525C000000060ED5D6FC00000
310
0000E44A6FC0000000007D6226C0000000C0E34A6FC00C00000013000000320500003C000000060000000200000000000000E44A6FC0000000007D6226C0000000C0E34A6FC000000000E44A6FC0000000007D6226C000000080E34A6F400C000000130000003A0500003C000000060000000200000000000000E44A6FC000
310
0000007D6226C000000080E34A6F400000008025316FC0000000C0092028C00000008025316F400C00000013000000420500003C000000060000000200000000000000E44A6FC0000000007D6226C0000000C0E34A6FC00000008025316FC0000000C0092028C00000006025316FC00C000000130000004A0500003C000000
310
06000000020000000000008025316FC0000000C0092028C00000006025316FC00000008025316FC0000000C0092028C00000008025316F400C00000013000000520500003C00000006000000020000000000008025316FC0000000C0092028C00000008025316F4000000080F9166FC000000080976429C000000000FA166F
310
400C000000130000005A0500003C00000006000000020000000000008025316FC0000000C0092028C00000006025316FC000000080F9166FC000000080976429C0000000C0F9166FC00C00000013000000620500003C000000060000000200000000000080F9166FC000000080976429C0000000C0F9166FC000000080F916
310
6FC000000080976429C000000000FA166F400C000000130000006A0500003C000000060000000200000000000080F9166FC000000080976429C000000000FA166F4000000040A0016FC0000000A0609929C000000080A0016F400C00000013000000720500003C000000060000000200000000000080F9166FC00000008097
310
6429C0000000C0F9166FC000000040A0016FC0000000A0609929C000000040A0016FC00C000000130000007A0500003C000000060000000200000000000040A0016FC0000000A0609929C000000040A0016FC000000040A0016FC0000000A0609929C000000080A0016F400C00000013000000820500003C00000006000000
310
0200000000000040A0016FC0000000A0609929C000000080A0016F40000000A092ED6EC00000000045BD28C00000008092ED6E400C000000130000008A0500003C000000060000000200000000000040A0016FC0000000A0609929C000000040A0016FC0000000A092ED6EC00000000045BD28C0000000A092ED6EC00C0000
310
0013000000920500003C0000000600000002000000000000A092ED6EC00000000045BD28C0000000A092ED6EC0000000A092ED6EC00000000045BD28C00000008092ED6E400C000000130000009A0500003C0000000600000002000000000000A092ED6EC00000000045BD28C00000008092ED6E40000000008BDD6EC00000
310
00A0244727C0000000008BDD6E400C00000013000000A20500003C0000000600000002000000000000A092ED6EC00000000045BD28C0000000A092ED6EC0000000008BDD6EC0000000A0244727C0000000008BDD6EC00C00000013000000AA0500003C0000000600000002000000000000008BDD6EC0000000A0244727C000
310
0000008BDD6EC0000000008BDD6EC0000000A0244727C0000000008BDD6E400C00000013000000B20500003C0000000600000002000000000000008BDD6EC0000000A0244727C0000000008BDD6E40000000404EC86EC000000080304D26C0000000004EC86E400C00000013000000BA0500003C0000000600000002000000
310
000000008BDD6EC0000000A0244727C0000000008BDD6EC0000000404EC86EC000000080304D26C0000000404EC86EC00C00000013000000C20500003C0000000600000002000000000000404EC86EC000000080304D26C0000000404EC86EC0000000404EC86EC000000080304D26C0000000004EC86E400C000000130000
310
00CA0500003C0000000600000002000000000000404EC86EC000000080304D26C0000000004EC86E4000000020E4B36EC0000000608EB627C000000000E4B36E400C00000013000000D20500003C0000000600000002000000000000404EC86EC000000080304D26C0000000404EC86EC000000020E4B36EC0000000608EB6
310
27C000000040E4B36EC00C00000013000000DA0500003C000000060000000200000000000020E4B36EC0000000608EB627C000000040E4B36EC000000020E4B36EC0000000608EB627C000000000E4B36E400C00000013000000E20500003C000000060000000200000000000020E4B36EC0000000608EB627C000000000E4
310
B36E4000000060E6996EC000000000994A29C000000000E6996E400C00000013000000EA0500003C000000060000000200000000000020E4B36EC0000000608EB627C000000040E4B36EC000000060E6996EC000000000994A29C000000060E6996EC00C00000013000000F20500003C000000060000000200000000000060
310
E6996EC000000000994A29C000000060E6996EC000000060E6996EC000000000994A29C000000000E6996E400C00000013000000FA0500003C000000060000000200000000000060E6996EC000000000994A29C000000000E6996E4000000040ED786EC0000000E0929D2AC000000000ED786E400C00000013000000020600
310
003C000000060000000200000000000060E6996EC000000000994A29C000000060E6996EC000000040ED786EC0000000E0929D2AC000000040ED786EC00C000000130000000A0600003C000000060000000200000000000040ED786EC0000000E0929D2AC000000040ED786EC000000040ED786EC0000000E0929D2AC00000
310
0000ED786E400C00000013000000120600003C000000060000000200000000000040ED786EC0000000E0929D2AC000000000ED786E40000000C0ED546EC000000060B1422BC000000000EE546E400C000000130000001A0600003C000000060000000200000000000040ED786EC0000000E0929D2AC000000040ED786EC000
310
0000C0ED546EC000000060B1422BC0000000C0ED546EC00C00000013000000220600003C0000000600000002000000000000C0ED546EC000000060B1422BC0000000C0ED546EC0000000C0ED546EC000000060B1422BC000000000EE546E400C000000130000002A0600003C0000000600000002000000000000C0ED546EC0
310
00000060B1422BC000000000EE546E40000000C0F62B6EC0000000E00A2D2BC000000080F62B6E400C00000013000000320600003C0000000600000002000000000000C0ED546EC000000060B1422BC0000000C0ED546EC0000000C0F62B6EC0000000E00A2D2BC0000000A0F62B6EC00C000000130000003A0600003C0000
310
000600000002000000000000C0F62B6EC0000000E00A2D2BC0000000A0F62B6EC0000000C0F62B6EC0000000E00A2D2BC000000080F62B6E400C00000013000000420600003C0000000600000002000000000000C0F62B6EC0000000E00A2D2BC000000080F62B6E40000000007B096EC000000020AF3E2AC0000000007B09
310
6E400C000000130000004A0600003C0000000600000002000000000000C0F62B6EC0000000E00A2D2BC0000000A0F62B6EC0000000007B096EC000000020AF3E2AC0000000007B096EC00C00000013000000520600003C0000000600000002000000000000007B096EC000000020AF3E2AC0000000007B096EC0000000007B
310
096EC000000020AF3E2AC0000000007B096E400C000000130000005A0600003C0000000600000002000000000000007B096EC000000020AF3E2AC0000000007B096E4000000000D4F06DC000000060EB9628C000000000D4F06D400C00000013000000620600003C0000000600000002000000000000007B096EC000000020
310
AF3E2AC0000000007B096EC000000000D4F06DC000000060EB9628C000000000D4F06DC00C000000130000006A0600003C000000060000000200000000000000D4F06DC000000060EB9628C000000000D4F06DC000000000D4F06DC000000060EB9628C000000000D4F06D400C00000013000000720600003C000000060000
310
000200000000000000D4F06DC000000060EB9628C000000000D4F06D400000008079E16DC000000020E7A526C0000000007AE16D400C000000130000007A0600003C000000060000000200000000000000D4F06DC000000060EB9628C000000000D4F06DC00000008079E16DC000000020E7A526C0000000C079E16DC00C00
310
000013000000820600003C00000006000000020000000000008079E16DC000000020E7A526C0000000C079E16DC00000008079E16DC000000020E7A526C0000000007AE16D400C000000130000008A0600003C00000006000000020000000000008079E16DC000000020E7A526C0000000007AE16D40000000A07BD66DC000
310
0000A03D7624C0000000807BD66D400C00000013000000920600003C00000006000000020000000000008079E16DC000000020E7A526C0000000C079E16DC0000000A07BD66DC0000000A03D7624C0000000807BD66DC00C000000130000009A0600003C0000000600000002000000000000A07BD66DC0000000A03D7624C0
310
000000807BD66DC0000000A07BD66DC0000000A03D7624C0000000807BD66D400C00000013000000A20600003C0000000600000002000000000000A07BD66DC0000000A03D7624C0000000807BD66D400000004045C36DC0000000E036E822C00000000045C36D400C00000013000000AA0600003C00000006000000020000
310
00000000A07BD66DC0000000A03D7624C0000000807BD66DC00000004045C36DC0000000E036E822C00000004045C36DC00C00000013000000B20600003C00000006000000020000000000004045C36DC0000000E036E822C00000004045C36DC00000004045C36DC0000000E036E822C00000000045C36D400C0000001300
310
0000BA0600003C00000006000000020000000000004045C36DC0000000E036E822C00000000045C36D40000000C0ACA06DC0000000C0B54722C000000000ADA06D400C00000013000000C20600003C00000006000000020000000000004045C36DC0000000E036E822C00000004045C36DC0000000C0ACA06DC0000000C0B5
310
4722C0000000C0ACA06DC00C00000013000000CA0600003C0000000600000002000000000000C0ACA06DC0000000C0B54722C0000000C0ACA06DC0000000C0ACA06DC0000000C0B54722C000000000ADA06D400C00000013000000D20600003C0000000600000002000000000000C0ACA06DC0000000C0B54722C000000000
310
ADA06D4000000000E0886DC0000000E02DDB20C000000000E0886D400C00000013000000DA0600003C0000000600000002000000000000C0ACA06DC0000000C0B54722C0000000C0ACA06DC000000000E0886DC0000000E02DDB20C000000020E0886DC00C00000013000000E20600003C0000000600000002000000000000
310
00E0886DC0000000E02DDB20C000000020E0886DC000000000E0886DC0000000E02DDB20C000000000E0886D400C00000013000000EA0600003C000000060000000200000000000000E0886DC0000000E02DDB20C000000000E0886D40000000C05A836DC0000000C095C91FC0000000C05A836D400C00000013000000F206
310
00003C000000060000000200000000000000E0886DC0000000E02DDB20C000000020E0886DC0000000C05A836DC0000000C095C91FC0000000C05A836DC00C00000013000000FA0600003C0000000600000002000000000000C05A836DC0000000C095C91FC0000000C05A836DC0000000C05A836DC0000000C095C91FC000
310
0000C05A836D400C00000013000000020700003C0000000600000002000000000000C05A836DC0000000C095C91FC0000000C05A836D4000000000E86F6DC0000000C0080012C000000000E86F6D400C000000130000000A0700003C0000000600000002000000000000C05A836DC0000000C095C91FC0000000C05A836DC0
310
00000000E86F6DC0000000C0080012C000000000E86F6DC00C00000013000000120700003C000000060000000200000000000000E86F6DC0000000C0080012C000000000E86F6DC000000000E86F6DC0000000C0080012C000000000E86F6D400C000000130000001A0700003C000000060000000200000000000000E86F6D
310
C0000000C0080012C000000000E86F6D40000000C0A13D6AC000000060080012C0000000C0A13D6A400C00000013000000220700003C000000060000000200000000000000E86F6DC0000000C0080012C000000000E86F6DC0000000C0A13D6AC000000060080012C0000000C0A13D6AC00C000000130000002A0700003C00
310
0000060000000200000000000080212569400000008076AB1BC000000080212569C000000080212569400000008076AB1BC000000080212569400C00000013000000320700003C000000060000000200000000000040B72D6A4000000060B6FDF0BF00000000B72D6A4000000080212569400000008076AB1BC00000008021
310
2569400C000000130000003A0700003C000000060000000200000000000040B72D6A4000000060B6FDF0BF00000020B72D6AC000000040B72D6A4000000060B6FDF0BF00000000B72D6A400C00000013000000420700003C000000060000000200000000000080212569400000008076AB1BC000000080212569C000000040
310
B72D6A4000000060B6FDF0BF00000020B72D6AC00C000000130000004A0700003C0000000600000002000000000000C0A13D6A40000000A0030012C0000000C0A13D6AC0000000C0A13D6A40000000A0030012C0000000C0A13D6A400C00000013000000520700003C00000006000000020000000000006067316A40000000
310
60D95612C00000008067316A40000000C0A13D6A40000000A0030012C0000000C0A13D6A400C000000130000005A0700003C00000006000000020000000000006067316A4000000060D95612C00000006067316AC00000006067316A4000000060D95612C00000008067316A400C00000013000000620700003C0000000600
310
000002000000000000C0A13D6A40000000A0030012C0000000C0A13D6AC00000006067316A4000000060D95612C00000006067316AC00C000000130000006A0700003C0000000600000002000000000000004A1E6A4000000000903115C0000000004A1E6AC0000000004A1E6A4000000000903115C0000000004A1E6A400C
310
00000013000000720700003C00000006000000020000000000000021136A4000000020DE2D19C00000000021136A40000000004A1E6A4000000000903115C0000000004A1E6A400C000000130000007A0700003C00000006000000020000000000000021136A4000000020DE2D19C00000000021136AC00000000021136A40
310
00000020DE2D19C00000000021136A400C00000013000000820700003C0000000600000002000000000000004A1E6A4000000000903115C0000000004A1E6AC00000000021136A4000000020DE2D19C00000000021136AC00C000000130000008A0700003C00000006000000020000000000000021136A4000000020DE2D19
310
C00000000021136A40000000E0A7096A400000002060241BC000000000A8096A400C00000013000000920700003C0000000600000002000000000000E0A7096A400000002060241BC0000000E0A7096AC0000000E0A7096A400000002060241BC000000000A8096A400C000000130000009A0700003C000000060000000200
310
00000000000021136A4000000020DE2D19C00000000021136AC0000000E0A7096A400000002060241BC0000000E0A7096AC00C00000013000000A20700003C0000000600000002000000000000C02DFD6940000000C0BD051DC0000000C02DFD69C0000000C02DFD6940000000C0BD051DC0000000C02DFD69400C00000013
310
000000AA0700003C0000000600000002000000000000E04AF269400000002060BE20C0000000C04AF26940000000C02DFD6940000000C0BD051DC0000000C02DFD69400C00000013000000B20700003C0000000600000002000000000000E04AF269400000002060BE20C0000000C04AF269C0000000E04AF2694000000020
310
60BE20C0000000C04AF269400C00000013000000BA0700003C0000000600000002000000000000C02DFD6940000000C0BD051DC0000000C02DFD69C0000000E04AF269400000002060BE20C0000000C04AF269C00C00000013000000C20700003C0000000600000002000000000000E04AF269400000002060BE20C0000000
310
C04AF26940000000804FDA694000000000B4E622C0000000804FDA69400C00000013000000CA0700003C0000000600000002000000000000804FDA694000000000B4E622C0000000804FDA69C0000000804FDA694000000000B4E622C0000000804FDA69400C00000013000000D20700003C00000006000000020000000000
310
00E04AF269400000002060BE20C0000000C04AF269C0000000804FDA694000000000B4E622C0000000804FDA69C00C00000013000000DA0700003C000000060000000200000000000040A6B269400000004000A124C000000040A6B269C000000040A6B269400000004000A124C000000040A6B269400C00000013000000E2
310
0700003C0000000600000002000000000000E08F99694000000080FF2325C0000000009099694000000040A6B269400000004000A124C000000040A6B269400C00000013000000EA0700003C0000000600000002000000000000E08F99694000000080FF2325C0000000E08F9969C0000000E08F99694000000080FF2325C0
310
00000000909969400C00000013000000F20700003C000000060000000200000000000040A6B269400000004000A124C000000040A6B269C0000000E08F99694000000080FF2325C0000000E08F9969C00C00000013000000FA0700003C0000000600000002000000000000E0CB7A6940000000A01C5025C0000000E0CB7A69
310
C0000000E0CB7A6940000000A01C5025C000000000CC7A69400C00000013000000020800003C0000000600000002000000000000A0696F694000000000734325C000000080696F6940000000E0CB7A6940000000A01C5025C000000000CC7A69400C000000130000000A0800003C0000000600000002000000000000A0696F
310
694000000000734325C0000000A0696F69C0000000A0696F694000000000734325C000000080696F69400C00000013000000120800003C0000000600000002000000000000E0CB7A6940000000A01C5025C0000000E0CB7A69C0000000A0696F694000000000734325C0000000A0696F69C00C000000130000001A0800003C
310
0000000600000002000000000000800A526940000000A0DA0226C0000000800A5269C0000000800A526940000000A0DA0226C0000000800A5269400C00000013000000220800003C0000000600000002000000000000C0D4286940000000A0953E26C0000000C0D4286940000000800A526940000000A0DA0226C000000080
310
0A5269400C000000130000002A0800003C0000000600000002000000000000C0D4286940000000A0953E26C0000000C0D42869C0000000C0D4286940000000A0953E26C0000000C0D42869400C00000013000000320800003C0000000600000002000000000000800A526940000000A0DA0226C0000000800A5269C0000000
310
C0D4286940000000A0953E26C0000000C0D42869C00C000000130000003A0800003C0000000600000002000000000000C0D4286940000000A0953E26C0000000C0D428694000000000E80F6940000000E0010026C000000000E80F69400C00000013000000420800003C000000060000000200000000000000E80F69400000
310
00E0010026C0000000E0E70F69C000000000E80F6940000000E0010026C000000000E80F69400C000000130000004A0800003C0000000600000002000000000000C0D4286940000000A0953E26C0000000C0D42869C000000000E80F6940000000E0010026C0000000E0E70F69C00C00000013000000520800003C00000006
310
000000020000000000000068C668400000004000E426C00000000068C668C00000000068C668400000004000E426C00000000068C668400C000000130000005A0800003C0000000600000002000000000000E067B9684000000080031C28C00000000068B968400000000068C668400000004000E426C00000000068C66840
310
0C00000013000000620800003C0000000600000002000000000000E067B9684000000080031C28C0000000E067B968C0000000E067B9684000000080031C28C00000000068B968400C000000130000006A0800003C00000006000000020000000000000068C668400000004000E426C00000000068C668C0000000E067B968
310
4000000080031C28C0000000E067B968C00C00000013000000720800003C0000000600000002000000000000C0FBAA6840000000E0B9D428C0000000A0FBAA68C0000000C0FBAA6840000000E0B9D428C000000080FBAA68400C000000130000007A0800003C0000000600000002000000000000C0C79E6840000000E00100
310
29C0000000C0C79E6840000000C0FBAA6840000000E0B9D428C000000080FBAA68400C00000013000000820800003C0000000600000002000000000000C0C79E6840000000E0010029C0000000C0C79E68C0000000C0C79E6840000000E0010029C0000000C0C79E68400C000000130000008A0800003C0000000600000002
310
000000000000C0FBAA6840000000E0B9D428C0000000A0FBAA68C0000000C0C79E6840000000E0010029C0000000C0C79E68C00C00000013000000920800003C00000006000000020000000000006067316A4000000060D95612C00000008067316A40000000A01C236A4000000060F7C213C0000000C01D236A400C000000
310
130000009A0800003C0000000600000002000000000000A01C236A4000000060F7C213C0000000C01D236AC0000000A01C236A4000000060F7C213C0000000C01D236A400C00000013000000A20800003C00000006000000020000000000006067316A4000000060D95612C00000006067316AC0000000A01C236A40000000
310
60F7C213C0000000C01D236AC00C00000013000000AA0800003C0000000600000002000000000000004A1E6A4000000000903115C0000000004A1E6A40000000A01C236A4000000060F7C213C0000000C01D236A400C00000013000000B20800003C0000000600000002000000000000004A1E6A4000000000903115C00000
310
00004A1E6AC0000000A01C236A4000000060F7C213C0000000C01D236AC00C00000013000000BA0800003C0000000600000002000000000000E0A7096A400000002060241BC000000000A8096A40000000C02DFD6940000000C0BD051DC0000000C02DFD69400C00000013000000C20800003C000000060000000200000000
310
0000E0A7096A400000002060241BC0000000E0A7096AC0000000C02DFD6940000000C0BD051DC0000000C02DFD69C00C00000013000000CA0800003C0000000600000002000000000000804FDA694000000000B4E622C0000000804FDA694000000040A6B269400000004000A124C000000040A6B269400C00000013000000
310
D20800003C0000000600000002000000000000804FDA694000000000B4E622C0000000804FDA69C000000040A6B269400000004000A124C000000040A6B269C00C00000013000000DA0800003C0000000600000002000000000000E08F99694000000080FF2325C00000000090996940000000E0CB7A6940000000A01C5025
310
C000000000CC7A69400C00000013000000E20800003C0000000600000002000000000000E08F99694000000080FF2325C0000000E08F9969C0000000E0CB7A6940000000A01C5025C0000000E0CB7A69C00C00000013000000EA0800003C0000000600000002000000000000A0696F694000000000734325C000000080696F
310
6940000000800A526940000000A0DA0226C0000000800A5269400C00000013000000F20800003C0000000600000002000000000000A0696F694000000000734325C0000000A0696F69C0000000800A526940000000A0DA0226C0000000800A5269C00C00000013000000FA0800003C000000060000000200000000000000E8
310
0F6940000000E0010026C000000000E80F69400000004008E16840000000E0010026C00000000008E168400C00000013000000020900003C00000006000000020000000000004008E16840000000E0010026C00000002008E168C00000004008E16840000000E0010026C00000000008E168400C000000130000000A090000
310
3C000000060000000200000000000000E80F6940000000E0010026C0000000E0E70F69C00000004008E16840000000E0010026C00000002008E168C00C00000013000000120900003C00000006000000020000000000004008E16840000000E0010026C00000000008E1684000000040D4D46840000000E0492B26C0000000
310
40D4D468400C000000130000001A0900003C000000060000000200000000000040D4D46840000000E0492B26C000000040D4D468C000000040D4D46840000000E0492B26C000000040D4D468400C00000013000000220900003C00000006000000020000000000004008E16840000000E0010026C00000002008E168C00000
310
0040D4D46840000000E0492B26C000000040D4D468C00C000000130000002A0900003C00000006000000020000000000000068C668400000004000E426C00000000068C6684000000040D4D46840000000E0492B26C000000040D4D468400C00000013000000320900003C00000006000000020000000000000068C6684000
310
00004000E426C00000000068C668C000000040D4D46840000000E0492B26C000000040D4D468C00C000000130000003A0900003C0000000600000002000000000000E067B9684000000080031C28C00000000068B96840000000C0FBAA6840000000E0B9D428C000000080FBAA68400C00000013000000420900003C000000
310
0600000002000000000000E067B9684000000080031C28C0000000E067B968C0000000C0FBAA6840000000E0B9D428C0000000A0FBAA68C00C000000130000004A0900003C0000000600000002000000000000604E0E6E40000000000D00F4BF000000404E0E6EC0000000604E0E6E40000000000D00F4BF000000004E0E6E
310
400C00000013000000520900003C0000000600000002000000000000604E0E6E40000000000D00F4BF000000404E0E6EC000000040B72D6A4000000060B6FDF0BF00000020B72D6AC00C000000130000005A0900003C000000060000000200000000000040B72D6A4000000060B6FDF0BF00000000B72D6A40000000604E0E
310
6E40000000000D00F4BF000000004E0E6E400C00000013000000620900003C0000000600000002000000000000604E166E4000000040FC2806C0000000404E166EC0000000604E166E4000000040FC2806C0000000004E166E400C000000130000006A0900003C0000000600000002000000000000604E0E6E40000000000D
310
00F4BF000000404E0E6EC0000000604E166E4000000040FC2806C0000000404E166EC00C00000013000000720900003C0000000600000002000000000000604E0E6E40000000000D00F4BF000000004E0E6E40000000604E166E4000000040FC2806C0000000004E166E400C000000130000007A0900003C00000006000000
310
020000000000004027537040000000C0FB2806C000000020275370C00000004027537040000000C0FB2806C000000000275370400C00000013000000820900003C0000000600000002000000000000604E166E4000000040FC2806C0000000404E166EC00000004027537040000000C0FB2806C000000020275370C00C0000
310
00130000008A0900003C0000000600000002000000000000604E166E4000000040FC2806C0000000004E166E400000004027537040000000C0FB2806C000000000275370400C00000013000000920900003C0000000600000002000000000000C0E7557040000000405807E6BF000000E0E75570C0000000C0E75570400000
310
00405807E6BF00000000E85570400C000000130000009A0900003C00000006000000020000000000004027537040000000C0FB2806C000000020275370C0000000C0E7557040000000405807E6BF000000E0E75570C00C00000013000000A20900003C00000006000000020000000000004027537040000000C0FB2806C000
310
00000027537040000000C0E7557040000000405807E6BF00000000E85570400C00000013000000AA0900003C000000060000000200000000000000F4FF7040000000001700E0BF00000000F4FF70C000000000F4FF7040000000001700E0BF00000000F4FF70400C00000013000000B20900003C0000000600000002000000
310
000000C0E7557040000000405807E6BF000000E0E75570C000000000F4FF7040000000001700E0BF00000000F4FF70C00C00000013000000BA0900003C0000000600000002000000000000C0E7557040000000405807E6BF00000000E855704000000000F4FF7040000000001700E0BF00000000F4FF70400C000000130000
310
00C20900003C000000060000000200000000000000F4FF704000000080F110E7BE00000000F4FF70C000000000F4FF704000000080F110E7BE00000000F4FF70400C00000013000000CA0900003C000000060000000200000000000000F4FF7040000000001700E0BF00000000F4FF70C000000000F4FF704000000080F110
310
E7BE00000000F4FF70C00C00000013000000D20900003C000000060000000200000000000000F4FF7040000000001700E0BF00000000F4FF704000000000F4FF704000000080F110E7BE00000000F4FF70400C00000013000000DA0900003C00000006000000020000000000004005297140000000A0B5D4E6BE0000002005
310
2971C00000004005297140000000A0B5D4E6BE00000000052971400C00000013000000E20900003C000000060000000200000000000000F4FF704000000080F110E7BE00000000F4FF70C00000004005297140000000A0B5D4E6BE00000020052971C00C00000013000000EA0900003C000000060000000200000000000000
310
F4FF704000000080F110E7BE00000000F4FF70400000004005297140000000A0B5D4E6BE00000000052971400C00000013000000F20900003C0000000600000002000000000000808D2B7140000000205A2E9EBF000000808D2B71C0000000808D2B7140000000205A2E9EBF000000808D2B71400C00000013000000FA0900
310
003C00000006000000020000000000004005297140000000A0B5D4E6BE00000020052971C0000000808D2B7140000000205A2E9EBF000000808D2B71C00C00000013000000020A00003C00000006000000020000000000004005297140000000A0B5D4E6BE0000000005297140000000808D2B7140000000205A2E9EBF0000
310
00808D2B71400C000000130000000A0A00003C0000000600000002000000000000A0992D714000000060D618BBBF000000C0992D71C0000000A0992D714000000060D618BBBF000000C0992D71400C00000013000000120A00003C0000000600000002000000000000808D2B7140000000205A2E9EBF000000808D2B71C000
310
0000A0992D714000000060D618BBBF000000C0992D71C00C000000130000001A0A00003C0000000600000002000000000000808D2B7140000000205A2E9EBF000000808D2B7140000000A0992D714000000060D618BBBF000000C0992D71400C00000013000000220A00003C000000060000000200000000000060922F7140
310
000000A0D1DAD1BF000000608E2F71C000000060922F7140000000A0D1DAD1BF000000808E2F71400C000000130000002A0A00003C0000000600000002000000000000A0992D714000000060D618BBBF000000C0992D71C000000060922F7140000000A0D1DAD1BF000000608E2F71C00C00000013000000320A00003C0000
310
000600000002000000000000A0992D714000000060D618BBBF000000C0992D714000000060922F7140000000A0D1DAD1BF000000808E2F71400C000000130000003A0A00003C000000060000000200000000000000F42F7140000000C07A86E0BF00000000F42F71C000000000F42F7140000000C07A86E0BF00000000F42F
310
71400C00000013000000420A00003C000000060000000200000000000060922F7140000000A0D1DAD1BF000000608E2F71C000000000F42F7140000000C07A86E0BF00000000F42F71C00C000000130000004A0A00003C000000060000000200000000000060922F7140000000A0D1DAD1BF000000808E2F714000000000F4
310
2F7140000000C07A86E0BF00000000F42F71400C00000013000000520A00003C0000000600000002000000000000C0E41D7140000000E0B0AB1BC0000000C0E41D71C0000000C0E41D7140000000E0B0AB1BC0000000C0E41D71400C000000130000005A0A00003C000000060000000200000000000000F42F7140000000C0
310
7A86E0BF00000000F42F71C0000000C0E41D7140000000E0B0AB1BC0000000C0E41D71C00C00000013000000620A00003C000000060000000200000000000000F42F7140000000C07A86E0BF00000000F42F7140000000C0E41D7140000000E0B0AB1BC0000000C0E41D71400C000000130000006A0A00003C000000060000
310
0002000000000000808E0F714000000060786A1EC0000000808E0F71C0000000808E0F714000000060786A1EC0000000808E0F71400C00000013000000720A00003C0000000600000002000000000000C0E41D7140000000E0B0AB1BC0000000C0E41D71C0000000808E0F714000000060786A1EC0000000808E0F71C00C00
310
0000130000007A0A00003C0000000600000002000000000000C0E41D7140000000E0B0AB1BC0000000C0E41D7140000000808E0F714000000060786A1EC0000000808E0F71400C00000013000000820A00003C00000006000000020000000000000063F67040000000C0311F21C00000000063F670C00000000063F6704000
310
0000C0311F21C00000000063F670400C000000130000008A0A00003C0000000600000002000000000000808E0F714000000060786A1EC0000000808E0F71C00000000063F67040000000C0311F21C00000000063F670C00C00000013000000920A00003C0000000600000002000000000000808E0F714000000060786A1EC0
310
000000808E0F71400000000063F67040000000C0311F21C00000000063F670400C000000130000009A0A00003C000000060000000200000000000040F6E87040000000C08F2024C000000020F6E870C000000040F6E87040000000C08F2024C000000000F6E870400C00000013000000A20A00003C00000006000000020000
310
000000000063F67040000000C0311F21C00000000063F670C000000040F6E87040000000C08F2024C000000020F6E870C00C00000013000000AA0A00003C00000006000000020000000000000063F67040000000C0311F21C00000000063F6704000000040F6E87040000000C08F2024C000000000F6E870400C0000001300
310
0000B20A00003C0000000600000002000000000000C08ED97040000000408AAB26C0000000A08ED970C0000000C08ED97040000000408AAB26C0000000C08ED970400C00000013000000BA0A00003C000000060000000200000000000040F6E87040000000C08F2024C000000020F6E870C0000000C08ED97040000000408A
310
AB26C0000000A08ED970C00C00000013000000C20A00003C000000060000000200000000000040F6E87040000000C08F2024C000000000F6E87040000000C08ED97040000000408AAB26C0000000C08ED970400C00000013000000CA0A00003C0000000600000002000000000000802CC9704000000020AA8829C0000000A0
310
2CC970C0000000802CC9704000000020AA8829C0000000802CC970400C00000013000000D20A00003C0000000600000002000000000000C08ED97040000000408AAB26C0000000A08ED970C0000000802CC9704000000020AA8829C0000000A02CC970C00C00000013000000DA0A00003C0000000600000002000000000000
310
C08ED97040000000408AAB26C0000000C08ED97040000000802CC9704000000020AA8829C0000000802CC970400C00000013000000E20A00003C000000060000000200000000000060B3B97040000000C0069F2CC000000060B3B970C000000060B3B97040000000C0069F2CC000000080B3B970400C00000013000000EA0A
310
00003C0000000600000002000000000000802CC9704000000020AA8829C0000000A02CC970C000000060B3B97040000000C0069F2CC000000060B3B970C00C00000013000000F20A00003C0000000600000002000000000000802CC9704000000020AA8829C0000000802CC9704000000060B3B97040000000C0069F2CC000
310
000080B3B970400C00000013000000FA0A00003C00000006000000020000000000006014A2704000000040138D2FC00000006014A270C00000006014A2704000000040138D2FC00000008014A270400C00000013000000020B00003C000000060000000200000000000060B3B97040000000C0069F2CC000000060B3B970C0
310
0000006014A2704000000040138D2FC00000006014A270C00C000000130000000A0B00003C000000060000000200000000000060B3B97040000000C0069F2CC000000080B3B970400000006014A2704000000040138D2FC00000008014A270400C00000013000000120B00003C0000000600000002000000000000C0F78370
310
400000000053A630C0000000C0F78370C0000000C0F78370400000000053A630C000000000F88370400C000000130000001A0B00003C00000006000000020000000000006014A2704000000040138D2FC00000006014A270C0000000C0F78370400000000053A630C0000000C0F78370C00C00000013000000220B00003C00
310
000006000000020000000000006014A2704000000040138D2FC00000008014A27040000000C0F78370400000000053A630C000000000F88370400C000000130000002A0B00003C000000060000000200000000000040D5637040000000009C9130C000000040D56370C000000040D5637040000000009C9130C000000080D5
310
6370400C00000013000000320B00003C0000000600000002000000000000C0F78370400000000053A630C0000000C0F78370C000000040D5637040000000009C9130C000000040D56370C00C000000130000003A0B00003C0000000600000002000000000000C0F78370400000000053A630C000000000F883704000000040
310
D5637040000000009C9130C000000080D56370400C00000013000000420B00003C000000060000000200000000000080A2467040000000E0433E2FC000000080A24670C000000080A2467040000000E0433E2FC000000080A24670400C000000130000004A0B00003C000000060000000200000000000040D5637040000000
310
009C9130C000000040D56370C000000080A2467040000000E0433E2FC000000080A24670C00C00000013000000520B00003C000000060000000200000000000040D5637040000000009C9130C000000080D563704000000080A2467040000000E0433E2FC000000080A24670400C000000130000005A0B00003C0000000600
310
000002000000000000A0203170400000004089222CC0000000A0203170C0000000A0203170400000004089222CC000000080203170400C00000013000000620B00003C000000060000000200000000000080A2467040000000E0433E2FC000000080A24670C0000000A0203170400000004089222CC0000000A0203170C00C
310
000000130000006A0B00003C000000060000000200000000000080A2467040000000E0433E2FC000000080A2467040000000A0203170400000004089222CC000000080203170400C00000013000000720B00003C00000006000000020000000000004004257040000000C095FA28C000000060042570C00000004004257040
310
000000C095FA28C000000080042570400C000000130000007A0B00003C0000000600000002000000000000A0203170400000004089222CC0000000A0203170C00000004004257040000000C095FA28C000000060042570C00C00000013000000820B00003C0000000600000002000000000000A0203170400000004089222C
310
C000000080203170400000004004257040000000C095FA28C000000080042570400C000000130000008A0B00003C000000060000000200000000000000031D7040000000C04A2926C000000020031D70C000000000031D7040000000C04A2926C000000000031D70400C00000013000000920B00003C000000060000000200
310
00000000004004257040000000C095FA28C000000060042570C000000000031D7040000000C04A2926C000000020031D70C00C000000130000009A0B00003C00000006000000020000000000004004257040000000C095FA28C0000000800425704000000000031D7040000000C04A2926C000000000031D70400C00000013
310
000000A20B00003C000000060000000200000000000080DA107040000000A02D1223C000000080DA1070C000000080DA107040000000A02D1223C000000080DA1070400C00000013000000AA0B00003C000000060000000200000000000000031D7040000000C04A2926C000000020031D70C000000080DA107040000000A0
310
2D1223C000000080DA1070C00C00000013000000B20B00003C000000060000000200000000000000031D7040000000C04A2926C000000000031D704000000080DA107040000000A02D1223C000000080DA1070400C00000013000000BA0B00003C000000060000000200000000000000C4F66F400000006005AF20C0000000
310
E0C3F66FC000000000C4F66F400000006005AF20C000000000C4F66F400C00000013000000C20B00003C000000060000000200000000000080DA107040000000A02D1223C000000080DA1070C000000000C4F66F400000006005AF20C0000000E0C3F66FC00C00000013000000CA0B00003C00000006000000020000000000
310
0080DA107040000000A02D1223C000000080DA10704000000000C4F66F400000006005AF20C000000000C4F66F400C00000013000000D20B00003C000000060000000200000000000040CFC26F40000000E0868920C000000020CFC26FC000000040CFC26F40000000E0868920C000000000CFC26F400C00000013000000DA
310
0B00003C000000060000000200000000000000C4F66F400000006005AF20C0000000E0C3F66FC000000040CFC26F40000000E0868920C000000020CFC26FC00C00000013000000E20B00003C000000060000000200000000000000C4F66F400000006005AF20C000000000C4F66F4000000040CFC26F40000000E0868920C0
310
00000000CFC26F400C00000013000000EA0B00003C0000000600000002000000000000406FA56F4000000040333921C0000000406FA56FC0000000406FA56F4000000040333921C0000000006FA56F400C00000013000000F20B00003C000000060000000200000000000040CFC26F40000000E0868920C000000020CFC26F
310
C0000000406FA56F4000000040333921C0000000406FA56FC00C00000013000000FA0B00003C000000060000000200000000000040CFC26F40000000E0868920C000000000CFC26F40000000406FA56F4000000040333921C0000000006FA56F400C00000013000000020C00003C000000060000000200000000000040838F
310
6F4000000080361122C000000020838F6FC000000040838F6F4000000080361122C000000000838F6F400C000000130000000A0C00003C0000000600000002000000000000406FA56F4000000040333921C0000000406FA56FC000000040838F6F4000000080361122C000000020838F6FC00C00000013000000120C00003C
310
0000000600000002000000000000406FA56F4000000040333921C0000000006FA56F4000000040838F6F4000000080361122C000000000838F6F400C000000130000001A0C00003C000000060000000200000000000040FA756F4000000080CE7123C000000040FA756FC000000040FA756F4000000080CE7123C000000000
310
FA756F400C00000013000000220C00003C000000060000000200000000000040838F6F4000000080361122C000000020838F6FC000000040FA756F4000000080CE7123C000000040FA756FC00C000000130000002A0C00003C000000060000000200000000000040838F6F4000000080361122C000000000838F6F40000000
310
40FA756F4000000080CE7123C000000000FA756F400C00000013000000320C00003C000000060000000200000000000040ED5D6F4000000000500525C000000060ED5D6FC000000040ED5D6F4000000000500525C000000080ED5D6F400C000000130000003A0C00003C000000060000000200000000000040FA756F400000
310
0080CE7123C000000040FA756FC000000040ED5D6F4000000000500525C000000060ED5D6FC00C00000013000000420C00003C000000060000000200000000000040FA756F4000000080CE7123C000000000FA756F4000000040ED5D6F4000000000500525C000000080ED5D6F400C000000130000004A0C00003C00000006
310
0000000200000000000000E44A6F40000000407A6226C0000000C0E34A6FC000000000E44A6F40000000407A6226C000000080E34A6F400C00000013000000520C00003C000000060000000200000000000040ED5D6F4000000000500525C000000060ED5D6FC000000000E44A6F40000000407A6226C0000000C0E34A6FC0
310
0C000000130000005A0C00003C000000060000000200000000000040ED5D6F4000000000500525C000000080ED5D6F4000000000E44A6F40000000407A6226C000000080E34A6F400C00000013000000620C00003C00000006000000020000000000008025316F4000000000072028C00000006025316FC00000008025316F
310
4000000000072028C00000008025316F400C000000130000006A0C00003C000000060000000200000000000000E44A6F40000000407A6226C0000000C0E34A6FC00000008025316F4000000000072028C00000006025316FC00C00000013000000720C00003C000000060000000200000000000000E44A6F40000000407A62
310
26C000000080E34A6F400000008025316F4000000000072028C00000008025316F400C000000130000007A0C00003C000000060000000200000000000080F9166F40000000C0946429C0000000C0F9166FC000000080F9166F40000000C0946429C000000000FA166F400C00000013000000820C00003C0000000600000002
310
0000000000008025316F4000000000072028C00000006025316FC000000080F9166F40000000C0946429C0000000C0F9166FC00C000000130000008A0C00003C00000006000000020000000000008025316F4000000000072028C00000008025316F4000000080F9166F40000000C0946429C000000000FA166F400C000000
310
13000000920C00003C000000060000000200000000000040A0016F40000000E05D9929C000000040A0016FC000000040A0016F40000000E05D9929C000000080A0016F400C000000130000009A0C00003C000000060000000200000000000080F9166F40000000C0946429C0000000C0F9166FC000000040A0016F40000000
310
E05D9929C000000040A0016FC00C00000013000000A20C00003C000000060000000200000000000080F9166F40000000C0946429C000000000FA166F4000000040A0016F40000000E05D9929C000000080A0016F400C00000013000000AA0C00003C0000000600000002000000000000A092ED6E400000004042BD28C00000
310
00A092ED6EC0000000A092ED6E400000004042BD28C00000008092ED6E400C00000013000000B20C00003C000000060000000200000000000040A0016F40000000E05D9929C000000040A0016FC0000000A092ED6E400000004042BD28C0000000A092ED6EC00C00000013000000BA0C00003C000000060000000200000000
310
000040A0016F40000000E05D9929C000000080A0016F40000000A092ED6E400000004042BD28C00000008092ED6E400C00000013000000C20C00003C0000000600000002000000000000008BDD6E40000000E0214727C0000000008BDD6EC0000000008BDD6E40000000E0214727C0000000008BDD6E400C00000013000000
310
CA0C00003C0000000600000002000000000000A092ED6E400000004042BD28C0000000A092ED6EC0000000008BDD6E40000000E0214727C0000000008BDD6EC00C00000013000000D20C00003C0000000600000002000000000000A092ED6E400000004042BD28C00000008092ED6E40000000008BDD6E40000000E0214727
310
C0000000008BDD6E400C00000013000000DA0C00003C0000000600000002000000000000404EC86E40000000C02D4D26C0000000404EC86EC0000000404EC86E40000000C02D4D26C0000000004EC86E400C00000013000000E20C00003C0000000600000002000000000000008BDD6E40000000E0214727C0000000008BDD
310
6EC0000000404EC86E40000000C02D4D26C0000000404EC86EC00C00000013000000EA0C00003C0000000600000002000000000000008BDD6E40000000E0214727C0000000008BDD6E40000000404EC86E40000000C02D4D26C0000000004EC86E400C00000013000000F20C00003C000000060000000200000000000020E4
310
B36E40000000A08BB627C000000040E4B36EC000000020E4B36E40000000A08BB627C000000000E4B36E400C00000013000000FA0C00003C0000000600000002000000000000404EC86E40000000C02D4D26C0000000404EC86EC000000020E4B36E40000000A08BB627C000000040E4B36EC00C00000013000000020D0000
310
3C0000000600000002000000000000404EC86E40000000C02D4D26C0000000004EC86E4000000020E4B36E40000000A08BB627C000000000E4B36E400C000000130000000A0D00003C000000060000000200000000000060E6996E4000000040964A29C000000060E6996EC000000060E6996E4000000040964A29C0000000
310
00E6996E400C00000013000000120D00003C000000060000000200000000000020E4B36E40000000A08BB627C000000040E4B36EC000000060E6996E4000000040964A29C000000060E6996EC00C000000130000001A0D00003C000000060000000200000000000020E4B36E40000000A08BB627C000000000E4B36E400000
310
0060E6996E4000000040964A29C000000000E6996E400C00000013000000220D00003C000000060000000200000000000040ED786E4000000020909D2AC000000040ED786EC000000040ED786E4000000020909D2AC000000000ED786E400C000000130000002A0D00003C000000060000000200000000000060E6996E4000
310
000040964A29C000000060E6996EC000000040ED786E4000000020909D2AC000000040ED786EC00C00000013000000320D00003C000000060000000200000000000060E6996E4000000040964A29C000000000E6996E4000000040ED786E4000000020909D2AC000000000ED786E400C000000130000003A0D00003C000000
310
0600000002000000000000C0ED546E40000000A0AE422BC0000000C0ED546EC0000000C0ED546E40000000A0AE422BC000000000EE546E400C00000013000000420D00003C000000060000000200000000000040ED786E4000000020909D2AC000000040ED786EC0000000C0ED546E40000000A0AE422BC0000000C0ED546E
310
C00C000000130000004A0D00003C000000060000000200000000000040ED786E4000000020909D2AC000000000ED786E40000000C0ED546E40000000A0AE422BC000000000EE546E400C00000013000000520D00003C0000000600000002000000000000C0F62B6E4000000020082D2BC0000000A0F62B6EC0000000C0F62B
310
6E4000000020082D2BC000000080F62B6E400C000000130000005A0D00003C0000000600000002000000000000C0ED546E40000000A0AE422BC0000000C0ED546EC0000000C0F62B6E4000000020082D2BC0000000A0F62B6EC00C00000013000000620D00003C0000000600000002000000000000C0ED546E40000000A0AE
310
422BC000000000EE546E40000000C0F62B6E4000000020082D2BC000000080F62B6E400C000000130000006A0D00003C0000000600000002000000000000007B096E4000000060AC3E2AC0000000007B096EC0000000007B096E4000000060AC3E2AC0000000007B096E400C00000013000000720D00003C00000006000000
310
02000000000000C0F62B6E4000000020082D2BC0000000A0F62B6EC0000000007B096E4000000060AC3E2AC0000000007B096EC00C000000130000007A0D00003C0000000600000002000000000000C0F62B6E4000000020082D2BC000000080F62B6E40000000007B096E4000000060AC3E2AC0000000007B096E400C0000
310
0013000000820D00003C000000060000000200000000000000D4F06D40000000A0E89628C000000000D4F06DC000000000D4F06D40000000A0E89628C000000000D4F06D400C000000130000008A0D00003C0000000600000002000000000000007B096E4000000060AC3E2AC0000000007B096EC000000000D4F06D400000
310
00A0E89628C000000000D4F06DC00C00000013000000920D00003C0000000600000002000000000000007B096E4000000060AC3E2AC0000000007B096E4000000000D4F06D40000000A0E89628C000000000D4F06D400C000000130000009A0D00003C00000006000000020000000000008079E16D4000000060E4A526C000
310
0000C079E16DC00000008079E16D4000000060E4A526C0000000007AE16D400C00000013000000A20D00003C000000060000000200000000000000D4F06D40000000A0E89628C000000000D4F06DC00000008079E16D4000000060E4A526C0000000C079E16DC00C00000013000000AA0D00003C0000000600000002000000
310
00000000D4F06D40000000A0E89628C000000000D4F06D400000008079E16D4000000060E4A526C0000000007AE16D400C00000013000000B20D00003C0000000600000002000000000000A07BD66D40000000E03A7624C0000000807BD66DC0000000A07BD66D40000000E03A7624C0000000807BD66D400C000000130000
310
00BA0D00003C00000006000000020000000000008079E16D4000000060E4A526C0000000C079E16DC0000000A07BD66D40000000E03A7624C0000000807BD66DC00C00000013000000C20D00003C00000006000000020000000000008079E16D4000000060E4A526C0000000007AE16D40000000A07BD66D40000000E03A76
310
24C0000000807BD66D400C00000013000000CA0D00003C00000006000000020000000000004045C36D400000002034E822C00000004045C36DC00000004045C36D400000002034E822C00000000045C36D400C00000013000000D20D00003C0000000600000002000000000000A07BD66D40000000E03A7624C0000000807B
310
D66DC00000004045C36D400000002034E822C00000004045C36DC00C00000013000000DA0D00003C0000000600000002000000000000A07BD66D40000000E03A7624C0000000807BD66D400000004045C36D400000002034E822C00000000045C36D400C00000013000000E20D00003C0000000600000002000000000000C0
310
ACA06D4000000000B34722C0000000C0ACA06DC0000000C0ACA06D4000000000B34722C000000000ADA06D400C00000013000000EA0D00003C00000006000000020000000000004045C36D400000002034E822C00000004045C36DC0000000C0ACA06D4000000000B34722C0000000C0ACA06DC00C00000013000000F20D00
310
003C00000006000000020000000000004045C36D400000002034E822C00000000045C36D40000000C0ACA06D4000000000B34722C000000000ADA06D400C00000013000000FA0D00003C000000060000000200000000000000E0886D40000000202BDB20C000000020E0886DC000000000E0886D40000000202BDB20C00000
310
0000E0886D400C00000013000000020E00003C0000000600000002000000000000C0ACA06D4000000000B34722C0000000C0ACA06DC000000000E0886D40000000202BDB20C000000020E0886DC00C000000130000000A0E00003C0000000600000002000000000000C0ACA06D4000000000B34722C000000000ADA06D4000
310
000000E0886D40000000202BDB20C000000000E0886D400C00000013000000120E00003C0000000600000002000000000000C05A836D400000004090C91FC0000000C05A836DC0000000C05A836D400000004090C91FC0000000C05A836D400C000000130000001A0E00003C000000060000000200000000000000E0886D40
310
000000202BDB20C000000020E0886DC0000000C05A836D400000004090C91FC0000000C05A836DC00C00000013000000220E00003C000000060000000200000000000000E0886D40000000202BDB20C000000000E0886D40000000C05A836D400000004090C91FC0000000C05A836D400C000000130000002A0E00003C0000
310
00060000000200000000000000E86F6D4000000040030012C000000000E86F6DC000000000E86F6D4000000040030012C000000000E86F6D400C00000013000000320E00003C0000000600000002000000000000C05A836D400000004090C91FC0000000C05A836DC000000000E86F6D4000000040030012C000000000E86F
310
6DC00C000000130000003A0E00003C0000000600000002000000000000C05A836D400000004090C91FC0000000C05A836D4000000000E86F6D4000000040030012C000000000E86F6D400C00000013000000420E00003C000000060000000200000000000000E86F6D4000000040030012C000000000E86F6DC0000000C0A1
310
3D6A40000000A0030012C0000000C0A13D6AC00C000000130000004A0E00003C0000000600000002000000000000C0A13D6A40000000A0030012C0000000C0A13D6A4000000000E86F6D4000000040030012C000000000E86F6D400C00000013000000520E00003C00000006000000020000000000008025316FC0000000C0
310
092028C00000006025316FC00000008025316F4000000000072028C00000006025316FC00C000000130000005A0E00003C000000060000000200000000000080F9166FC000000080976429C0000000C0F9166FC000000080F9166F40000000C0946429C0000000C0F9166FC00C00000013000000620E00003C000000060000
310
000200000000000000E44A6FC0000000007D6226C0000000C0E34A6FC000000000E44A6F40000000407A6226C0000000C0E34A6FC00C000000130000006A0E00003C000000060000000200000000000040ED5D6FC000000000530525C000000060ED5D6FC000000040ED5D6F4000000000500525C000000060ED5D6FC00C00
310
000013000000720E00003C000000060000000200000000000040FA756FC000000080D17123C000000040FA756FC000000040FA756F4000000080CE7123C000000040FA756FC00C000000130000007A0E00003C000000060000000200000000000040838F6FC000000080391122C000000020838F6FC000000040838F6F4000
310
000080361122C000000020838F6FC00C00000013000000820E00003C0000000600000002000000000000406FA56FC000000040363921C0000000406FA56FC0000000406FA56F4000000040333921C0000000406FA56FC00C000000130000008A0E00003C000000060000000200000000000040CFC26FC0000000E0898920C0
310
00000020CFC26FC000000040CFC26F40000000E0868920C000000020CFC26FC00C00000013000000920E00003C000000060000000200000000000000C4F66FC00000006008AF20C0000000E0C3F66FC000000000C4F66F400000006005AF20C0000000E0C3F66FC00C000000130000009A0E00003C00000006000000020000
310
0000000080DA1070C0000000A0301223C000000080DA1070C000000080DA107040000000A02D1223C000000080DA1070C00C00000013000000A20E00003C000000060000000200000000000000031D70C0000000C04D2926C000000020031D70C000000000031D7040000000C04A2926C000000020031D70C00C0000001300
310
0000AA0E00003C000000060000000200000000000040042570C0000000C098FA28C000000060042570C00000004004257040000000C095FA28C000000060042570C00C00000013000000B20E00003C0000000600000002000000000000A0203170C0000000408C222CC0000000A0203170C0000000A0203170400000004089
310
222CC0000000A0203170C00C00000013000000BA0E00003C000000060000000200000000000080A24670C0000000E0463E2FC000000080A24670C000000080A2467040000000E0433E2FC000000080A24670C00C00000013000000C20E00003C000000060000000200000000000040D56370C0000000809D9130C000000040
310
D56370C000000040D5637040000000009C9130C000000040D56370C00C00000013000000CA0E00003C0000000600000002000000000000C0F78370C00000008054A630C0000000C0F78370C0000000C0F78370400000000053A630C0000000C0F78370C00C00000013000000D20E00003C0000000600000002000000000000
310
6014A270C000000040168D2FC00000006014A270C00000006014A2704000000040138D2FC00000006014A270C00C00000013000000DA0E00003C000000060000000200000000000060B3B970C0000000C0099F2CC000000060B3B970C000000060B3B97040000000C0069F2CC000000060B3B970C00C00000013000000E20E
310
00003C0000000600000002000000000000802CC970C000000020AD8829C0000000A02CC970C0000000802CC9704000000020AA8829C0000000A02CC970C00C00000013000000EA0E00003C0000000600000002000000000000C08ED970C0000000408DAB26C0000000A08ED970C0000000C08ED97040000000408AAB26C000
310
0000A08ED970C00C00000013000000F20E00003C000000060000000200000000000040F6E870C0000000C0922024C000000020F6E870C000000040F6E87040000000C08F2024C000000020F6E870C00C00000013000000FA0E00003C00000006000000020000000000000063F670C0000000C0341F21C00000000063F670C0
310
0000000063F67040000000C0311F21C00000000063F670C00C00000013000000020F00003C0000000600000002000000000000808E0F71C0000000A07E6A1EC0000000808E0F71C0000000808E0F714000000060786A1EC0000000808E0F71C00C000000130000000A0F00003C0000000600000002000000000000C0E41D71
310
C000000020B7AB1BC0000000C0E41D71C0000000C0E41D7140000000E0B0AB1BC0000000C0E41D71C00C00000013000000120F00003C000000060000000200000000000000F42F71C000000000AD86E0BF00000000F42F71C000000000F42F7140000000C07A86E0BF00000000F42F71C00C000000130000001A0F00003C00
310
0000060000000200000000000060922F71C00000006037DBD1BF000000608E2F71C000000060922F7140000000A0D1DAD1BF000000608E2F71C00C00000013000000220F00003C0000000600000002000000000000A0992D71C0000000E06B1ABBBF000000C0992D71C0000000A0992D714000000060D618BBBF000000C099
310
2D71C00C000000130000002A0F00003C0000000600000002000000000000808D2B71C000000060B2349EBF000000808D2B71C0000000808D2B7140000000205A2E9EBF000000808D2B71C00C00000013000000320F00003C000000060000000200000000000040052971C0000000A0D24A02BF00000020052971C000000040
310
05297140000000A0B5D4E6BE00000020052971C00C000000130000003A0F00003C000000060000000200000000000000F4FF70C0000000A0C33B02BF00000000F4FF70C000000000F4FF704000000080F110E7BE00000000F4FF70C00C00000013000000420F00003C000000060000000200000000000000F4FF70C0000000
310
E04800E0BF00000000F4FF70C000000000F4FF7040000000001700E0BF00000000F4FF70C00C000000130000004A0F00003C0000000600000002000000000000C0E75570C0000000608807E6BF000000E0E75570C0000000C0E7557040000000405807E6BF000000E0E75570C00C00000013000000520F00003C0000000600
310
00000200000000000040275370C0000000C0072906C000000020275370C00000004027537040000000C0FB2806C000000020275370C00C000000130000005A0F00003C0000000600000002000000000000604E166EC000000040072906C0000000404E166EC0000000604E166E4000000040FC2806C0000000404E166EC00C
310
00000013000000620F00003C0000000600000002000000000000604E0E6EC0000000002300F4BF000000404E0E6EC0000000604E0E6E40000000000D00F4BF000000404E0E6EC00C000000130000006A0F00003C000000060000000200000000000040B72D6AC0000000A0C9FDF0BF00000020B72D6AC000000040B72D6A40
310
00000060B6FDF0BF00000020B72D6AC00C00000013000000720F00003C000000060000000200000000000080212569C0000000007BAB1BC000000080212569C000000080212569400000008076AB1BC000000080212569C00C000000130000007A0F00003C000000060000000200000000000080212569C0000000007BAB1B
310
C0000000802125694000000080212569400000008076AB1BC000000080212569400C00000013000000820F00003C000000060000000200000000000040B72D6AC0000000A0C9FDF0BF00000000B72D6A4000000040B72D6A4000000060B6FDF0BF00000000B72D6A400C000000130000008A0F00003C000000060000000200
310
0000000000604E0E6EC0000000002300F4BF000000004E0E6E40000000604E0E6E40000000000D00F4BF000000004E0E6E400C00000013000000920F00003C0000000600000002000000000000604E166EC000000040072906C0000000004E166E40000000604E166E4000000040FC2806C0000000004E166E400C00000013
310
0000009A0F00003C000000060000000200000000000040275370C0000000C0072906C000000000275370400000004027537040000000C0FB2806C000000000275370400C00000013000000A20F00003C0000000600000002000000000000C0E75570C0000000408807E6BF000000C0E7557040000000C0E755704000000040
310
5807E6BF00000000E85570400C00000013000000AA0F00003C000000060000000200000000000000F4FF70C0000000E04800E0BF00000000F4FF704000000000F4FF7040000000001700E0BF00000000F4FF70400C00000013000000B20F00003C000000060000000200000000000000F4FF70C0000000A0C33B02BF000000
310
00F4FF704000000000F4FF704000000080F110E7BE00000000F4FF70400C00000013000000BA0F00003C000000060000000200000000000040052971C0000000A0D24A02BF00000000052971400000004005297140000000A0B5D4E6BE00000000052971400C00000013000000C20F00003C00000006000000020000000000
310
00808D2B71C0000000E0A5349EBF000000808D2B7140000000808D2B7140000000205A2E9EBF000000808D2B71400C00000013000000CA0F00003C0000000600000002000000000000A0992D71C0000000A0691ABBBF000000C0992D7140000000A0992D714000000060D618BBBF000000C0992D71400C00000013000000D2
310
0F00003C000000060000000200000000000060922F71C00000006036DBD1BF000000808E2F714000000060922F7140000000A0D1DAD1BF000000808E2F71400C00000013000000DA0F00003C000000060000000200000000000000F42F71C000000040AD86E0BF00000000F42F714000000000F42F7140000000C07A86E0BF
310
00000000F42F71400C00000013000000E20F00003C0000000600000002000000000000C0E41D71C000000020B7AB1BC0000000C0E41D7140000000C0E41D7140000000E0B0AB1BC0000000C0E41D71400C00000013000000EA0F00003C0000000600000002000000000000808E0F71C0000000A07E6A1EC0000000808E0F71
310
40000000808E0F714000000060786A1EC0000000808E0F71400C00000013000000F20F00003C00000006000000020000000000000063F670C0000000C0341F21C00000000063F670400000000063F67040000000C0311F21C00000000063F670400C00000013000000FA0F00003C000000060000000200000000000040F6E8
310
70C0000000C0922024C000000000F6E8704000000040F6E87040000000C08F2024C000000000F6E870400C00000013000000021000003C0000000600000002000000000000C08ED970C0000000408DAB26C0000000C08ED97040000000C08ED97040000000408AAB26C0000000C08ED970400C000000130000000A1000003C
310
0000000600000002000000000000802CC970C000000020AD8829C0000000802CC97040000000802CC9704000000020AA8829C0000000802CC970400C00000013000000121000003C000000060000000200000000000060B3B970C0000000C0099F2CC000000080B3B9704000000060B3B97040000000C0069F2CC000000080
310
B3B970400C000000130000001A1000003C00000006000000020000000000006014A270C000000040168D2FC00000008014A270400000006014A2704000000040138D2FC00000008014A270400C00000013000000221000003C0000000600000002000000000000C0F78370C00000008054A630C000000000F8837040000000
310
C0F78370400000000053A630C000000000F88370400C000000130000002A1000003C000000060000000200000000000040D56370C0000000809D9130C000000080D563704000000040D5637040000000009C9130C000000080D56370400C00000013000000321000003C000000060000000200000000000080A24670C00000
310
00E0463E2FC000000080A246704000000080A2467040000000E0433E2FC000000080A24670400C000000130000003A1000003C0000000600000002000000000000A0203170C0000000408C222CC00000008020317040000000A0203170400000004089222CC000000080203170400C00000013000000421000003C00000006
310
0000000200000000000040042570C0000000C098FA28C000000080042570400000004004257040000000C095FA28C000000080042570400C000000130000004A1000003C000000060000000200000000000000031D70C0000000C04D2926C000000000031D704000000000031D7040000000C04A2926C000000000031D7040
310
0C00000013000000521000003C000000060000000200000000000080DA1070C0000000A0301223C000000080DA10704000000080DA107040000000A02D1223C000000080DA1070400C000000130000005A1000003C000000060000000200000000000000C4F66FC00000006008AF20C000000000C4F66F4000000000C4F66F
310
400000006005AF20C000000000C4F66F400C00000013000000621000003C000000060000000200000000000040CFC26FC0000000E0898920C000000000CFC26F4000000040CFC26F40000000E0868920C000000000CFC26F400C000000130000006A1000003C0000000600000002000000000000406FA56FC0000000403639
310
21C0000000006FA56F40000000406FA56F4000000040333921C0000000006FA56F400C00000013000000721000003C000000060000000200000000000040838F6FC000000080391122C000000000838F6F4000000040838F6F4000000080361122C000000000838F6F400C000000130000007A1000003C0000000600000002
310
00000000000040FA756FC000000080D17123C000000000FA756F4000000040FA756F4000000080CE7123C000000000FA756F400C00000013000000821000003C000000060000000200000000000040ED5D6FC000000000530525C000000080ED5D6F4000000040ED5D6F4000000000500525C000000080ED5D6F400C000000
310
130000008A1000003C000000060000000200000000000000E44A6FC0000000007D6226C000000080E34A6F4000000000E44A6F40000000407A6226C000000080E34A6F400C00000013000000921000003C00000006000000020000000000008025316FC0000000C0092028C00000008025316F400000008025316F40000000
310
00072028C00000008025316F400C000000130000009A1000003C000000060000000200000000000080F9166FC000000080976429C000000000FA166F4000000080F9166F40000000C0946429C000000000FA166F400C00000013000000A21000003C000000060000000200000000000040A0016FC0000000A0609929C00000
310
0080A0016F4000000040A0016F40000000E05D9929C000000080A0016F400C00000013000000AA1000003C0000000600000002000000000000A092ED6EC00000000045BD28C00000008092ED6E40000000A092ED6E400000004042BD28C00000008092ED6E400C00000013000000B21000003C000000060000000200000000
310
0000008BDD6EC0000000A0244727C0000000008BDD6E40000000008BDD6E40000000E0214727C0000000008BDD6E400C00000013000000BA1000003C0000000600000002000000000000404EC86EC000000080304D26C0000000004EC86E40000000404EC86E40000000C02D4D26C0000000004EC86E400C00000013000000
310
C21000003C000000060000000200000000000020E4B36EC0000000608EB627C000000000E4B36E4000000020E4B36E40000000A08BB627C000000000E4B36E400C00000013000000CA1000003C000000060000000200000000000060E6996EC000000000994A29C000000000E6996E4000000060E6996E4000000040964A29
310
C000000000E6996E400C00000013000000D21000003C000000060000000200000000000040ED786EC0000000E0929D2AC000000000ED786E4000000040ED786E4000000020909D2AC000000000ED786E400C00000013000000DA1000003C0000000600000002000000000000C0ED546EC000000060B1422BC000000000EE54
310
6E40000000C0ED546E40000000A0AE422BC000000000EE546E400C00000013000000E21000003C0000000600000002000000000000C0F62B6EC0000000E00A2D2BC000000080F62B6E40000000C0F62B6E4000000020082D2BC000000080F62B6E400C00000013000000EA1000003C0000000600000002000000000000007B
310
096EC000000020AF3E2AC0000000007B096E40000000007B096E4000000060AC3E2AC0000000007B096E400C00000013000000F21000003C000000060000000200000000000000D4F06DC000000060EB9628C000000000D4F06D4000000000D4F06D40000000A0E89628C000000000D4F06D400C00000013000000FA100000
310
3C00000006000000020000000000008079E16DC000000020E7A526C0000000007AE16D400000008079E16D4000000060E4A526C0000000007AE16D400C00000013000000021100003C0000000600000002000000000000A07BD66DC0000000A03D7624C0000000807BD66D40000000A07BD66D40000000E03A7624C0000000
310
807BD66D400C000000130000000A1100003C00000006000000020000000000004045C36DC0000000E036E822C00000000045C36D400000004045C36D400000002034E822C00000000045C36D400C00000013000000121100003C0000000600000002000000000000C0ACA06DC0000000C0B54722C000000000ADA06D400000
310
00C0ACA06D4000000000B34722C000000000ADA06D400C000000130000001A1100003C000000060000000200000000000000E0886DC0000000E02DDB20C000000000E0886D4000000000E0886D40000000202BDB20C000000000E0886D400C00000013000000221100003C0000000600000002000000000000C05A836DC000
310
0000C095C91FC0000000C05A836D40000000C05A836D400000004090C91FC0000000C05A836D400C000000130000002A1100003C000000060000000200000000000000E86F6DC0000000C0080012C000000000E86F6D4000000000E86F6D4000000040030012C000000000E86F6D400C00000013000000321100003C000000
310
0600000002000000000000C0A13D6AC000000060080012C0000000C0A13D6A40000000C0A13D6A40000000A0030012C0000000C0A13D6A400C000000130000003A1100003C00000006000000020000000000006067316AC000000020DE5612C00000008067316A400000006067316A4000000060D95612C00000008067316A
310
400C00000013000000421100003C0000000600000002000000000000A01C236AC000000020FCC213C0000000C01D236A40000000A01C236A4000000060F7C213C0000000C01D236A400C000000130000004A1100003C0000000600000002000000000000004A1E6AC0000000C0943115C0000000004A1E6A40000000004A1E
310
6A4000000000903115C0000000004A1E6A400C00000013000000521100003C00000006000000020000000000000021136AC0000000E0E22D19C00000000021136A400000000021136A4000000020DE2D19C00000000021136A400C000000130000005A1100003C0000000600000002000000000000E0A7096AC0000000E064
310
241BC000000000A8096A40000000E0A7096A400000002060241BC000000000A8096A400C00000013000000621100003C0000000600000002000000000000C02DFD69C000000080C2051DC0000000C02DFD6940000000C02DFD6940000000C0BD051DC0000000C02DFD69400C000000130000006A1100003C00000006000000
310
02000000000000E04AF269C0000000A062BE20C0000000C04AF26940000000E04AF269400000002060BE20C0000000C04AF269400C00000013000000721100003C0000000600000002000000000000804FDA69C000000040B6E622C0000000804FDA6940000000804FDA694000000000B4E622C0000000804FDA69400C0000
310
00130000007A1100003C000000060000000200000000000040A6B269C00000008002A124C000000040A6B2694000000040A6B269400000004000A124C000000040A6B269400C00000013000000821100003C0000000600000002000000000000E08F9969C0000000C0012425C00000000090996940000000E08F9969400000
310
0080FF2325C000000000909969400C000000130000008A1100003C0000000600000002000000000000E0CB7A69C0000000E01E5025C000000000CC7A6940000000E0CB7A6940000000A01C5025C000000000CC7A69400C00000013000000921100003C0000000600000002000000000000A0696F69C000000040754325C000
310
000080696F6940000000A0696F694000000000734325C000000080696F69400C000000130000009A1100003C0000000600000002000000000000800A5269C0000000E0DC0226C0000000800A526940000000800A526940000000A0DA0226C0000000800A5269400C00000013000000A21100003C0000000600000002000000
310
000000C0D42869C0000000E0973E26C0000000C0D4286940000000C0D4286940000000A0953E26C0000000C0D42869400C00000013000000AA1100003C000000060000000200000000000000E80F69C000000020040026C000000000E80F694000000000E80F6940000000E0010026C000000000E80F69400C000000130000
310
00B21100003C00000006000000020000000000004008E168C000000020040026C00000000008E168400000004008E16840000000E0010026C00000000008E168400C00000013000000BA1100003C000000060000000200000000000040D4D468C0000000204C2B26C000000040D4D4684000000040D4D46840000000E0492B
310
26C000000040D4D468400C00000013000000C21100003C00000006000000020000000000000068C668C00000008002E426C00000000068C668400000000068C668400000004000E426C00000000068C668400C00000013000000CA1100003C0000000600000002000000000000E067B968C0000000C0051C28C00000000068
310
B96840000000E067B9684000000080031C28C00000000068B968400C00000013000000D21100003C0000000600000002000000000000C0FBAA68C000000020BCD428C000000080FBAA6840000000C0FBAA6840000000E0B9D428C000000080FBAA68400C00000013000000DA1100003C0000000600000002000000000000C0
310
C79E68C000000020040029C0000000C0C79E6840000000C0C79E6840000000E0010029C0000000C0C79E68400C00000013000000E21100003C0000000600000002000000000000C0C79E68C000000020040029C0000000C0C79E68C0000000C0C79E6840000000E0010029C0000000C0C79E68C00C00000013000000EA1100
310
003C0000000600000002000000000000C0FBAA68C000000020BCD428C0000000A0FBAA68C0000000C0FBAA6840000000E0B9D428C0000000A0FBAA68C00C00000013000000F21100003C0000000600000002000000000000E067B968C0000000C0051C28C0000000E067B968C0000000E067B9684000000080031C28C00000
310
00E067B968C00C00000013000000FA1100003C00000006000000020000000000000068C668C00000008002E426C00000000068C668C00000000068C668400000004000E426C00000000068C668C00C00000013000000021200003C000000060000000200000000000040D4D468C0000000204C2B26C000000040D4D468C000
310
000040D4D46840000000E0492B26C000000040D4D468C00C000000130000000A1200003C00000006000000020000000000004008E168C000000020040026C00000002008E168C00000004008E16840000000E0010026C00000002008E168C00C00000013000000121200003C000000060000000200000000000000E80F69C0
310
00000020040026C0000000E0E70F69C000000000E80F6940000000E0010026C0000000E0E70F69C00C000000130000001A1200003C0000000600000002000000000000C0D42869C0000000E0973E26C0000000C0D42869C0000000C0D4286940000000A0953E26C0000000C0D42869C00C00000013000000221200003C0000
310
000600000002000000000000800A5269C0000000E0DC0226C0000000800A5269C0000000800A526940000000A0DA0226C0000000800A5269C00C000000130000002A1200003C0000000600000002000000000000A0696F69C000000040754325C0000000A0696F69C0000000A0696F694000000000734325C0000000A0696F
310
69C00C00000013000000321200003C0000000600000002000000000000E0CB7A69C0000000E01E5025C0000000E0CB7A69C0000000E0CB7A6940000000A01C5025C0000000E0CB7A69C00C000000130000003A1200003C0000000600000002000000000000E08F9969C0000000C0012425C0000000E08F9969C0000000E08F
310
99694000000080FF2325C0000000E08F9969C00C00000013000000421200003C000000060000000200000000000040A6B269C00000008002A124C000000040A6B269C000000040A6B269400000004000A124C000000040A6B269C00C000000130000004A1200003C0000000600000002000000000000804FDA69C000000040
310
B6E622C0000000804FDA69C0000000804FDA694000000000B4E622C0000000804FDA69C00C00000013000000521200003C0000000600000002000000000000E04AF269C0000000A062BE20C0000000C04AF269C0000000E04AF269400000002060BE20C0000000C04AF269C00C000000130000005A1200003C000000060000
310
0002000000000000C02DFD69C000000080C2051DC0000000C02DFD69C0000000C02DFD6940000000C0BD051DC0000000C02DFD69C00C00000013000000621200003C0000000600000002000000000000E0A7096AC0000000E064241BC0000000E0A7096AC0000000E0A7096A400000002060241BC0000000E0A7096AC00C00
310
0000130000006A1200003C00000006000000020000000000000021136AC0000000E0E22D19C00000000021136AC00000000021136A4000000020DE2D19C00000000021136AC00C00000013000000721200003C0000000600000002000000000000004A1E6AC0000000C0943115C0000000004A1E6AC0000000004A1E6A4000
310
000000903115C0000000004A1E6AC00C000000130000007A1200003C0000000600000002000000000000A01C236AC000000020FCC213C0000000C01D236AC0000000A01C236A4000000060F7C213C0000000C01D236AC00C00000013000000821200003C00000006000000020000000000006067316AC000000020DE5612C0
310
0000006067316AC00000006067316A4000000060D95612C00000006067316AC00C000000130000008A1200003C0000000600000002000000000000C0A13D6AC000000060080012C0000000C0A13D6AC0000000C0A13D6A40000000A0030012C0000000C0A13D6AC00C00000013000000921200003C00000006000000020000
310
0000000000E86F6DC0000000C0080012C000000000E86F6DC000000000E86F6D4000000040030012C000000000E86F6DC00C000000130000009A1200003C0000000600000002000000000000C05A836DC0000000C095C91FC0000000C05A836DC0000000C05A836D400000004090C91FC0000000C05A836DC00C0000001300
310
0000A21200003C000000060000000200000000000000E0886DC0000000E02DDB20C000000020E0886DC000000000E0886D40000000202BDB20C000000020E0886DC00C00000013000000AA1200003C0000000600000002000000000000C0ACA06DC0000000C0B54722C0000000C0ACA06DC0000000C0ACA06D4000000000B3
310
4722C0000000C0ACA06DC00C00000013000000B21200003C00000006000000020000000000004045C36DC0000000E036E822C00000004045C36DC00000004045C36D400000002034E822C00000004045C36DC00C00000013000000BA1200003C0000000600000002000000000000A07BD66DC0000000A03D7624C000000080
310
7BD66DC0000000A07BD66D40000000E03A7624C0000000807BD66DC00C00000013000000C21200003C00000006000000020000000000008079E16DC000000020E7A526C0000000C079E16DC00000008079E16D4000000060E4A526C0000000C079E16DC00C00000013000000CA1200003C0000000600000002000000000000
310
00D4F06DC000000060EB9628C000000000D4F06DC000000000D4F06D40000000A0E89628C000000000D4F06DC00C00000013000000D21200003C0000000600000002000000000000007B096EC000000020AF3E2AC0000000007B096EC0000000007B096E4000000060AC3E2AC0000000007B096EC00C00000013000000DA12
310
00003C0000000600000002000000000000C0F62B6EC0000000E00A2D2BC0000000A0F62B6EC0000000C0F62B6E4000000020082D2BC0000000A0F62B6EC00C00000013000000E21200003C0000000600000002000000000000C0ED546EC000000060B1422BC0000000C0ED546EC0000000C0ED546E40000000A0AE422BC000
310
0000C0ED546EC00C00000013000000EA1200003C000000060000000200000000000040ED786EC0000000E0929D2AC000000040ED786EC000000040ED786E4000000020909D2AC000000040ED786EC00C00000013000000F21200003C000000060000000200000000000060E6996EC000000000994A29C000000060E6996EC0
310
00000060E6996E4000000040964A29C000000060E6996EC00C00000013000000FA1200003C000000060000000200000000000020E4B36EC0000000608EB627C000000040E4B36EC000000020E4B36E40000000A08BB627C000000040E4B36EC00C00000013000000021300003C0000000600000002000000000000404EC86E
310
C000000080304D26C0000000404EC86EC0000000404EC86E40000000C02D4D26C0000000404EC86EC00C000000130000000A1300003C0000000600000002000000000000008BDD6EC0000000A0244727C0000000008BDD6EC0000000008BDD6E40000000E0214727C0000000008BDD6EC00C00000013000000121300003C00
310
00000600000002000000000000A092ED6EC00000000045BD28C0000000A092ED6EC0000000A092ED6E400000004042BD28C0000000A092ED6EC00C000000130000001A1300003C000000060000000200000000000040A0016FC0000000A0609929C000000040A0016FC000000040A0016F40000000E05D9929C000000040A0
310
016FC0
100
AcDbSubDMesh
 71
     2
 72
     0
 91
        0
 92
      308
 10
-196.9618835449218
 20
-12.50003147125244
 30
-196.9618835449218
 10
-201.1603393554687
 20
-6.917461395263671
 30
-201.1603393554687
 10
-209.4286193847656
 20
-1.061959862709045
 30
-209.4286041259766
 10
-240.4470672607422
 20
-1.250033378601074
 30
-240.4470520019531
 10
-240.6970672607422
 20
-2.770033359527587
 30
-240.6970520019531
 10
-261.1970825195312
 20
-2.770034313201904
 30
-261.1970520019531
 10
-261.3690795898437
 20
-0.68841952085495
 30
-261.3691101074219
 10
-271.9970703125
 20
-0.5000347495079041
 30
-271.9970703125
 10
-271.9970703125
 20
-0.0000347775530827
 30
-271.9970703125
 10
-274.5637817382812
 20
-0.0000348897483491
 30
-274.5637512207031
 10
-274.7220458984375
 20
-0.0294978972524405
 30
-274.7220458984375
 10
-274.8500061035156
 20
-0.1058719083666801
 30
-274.8500366210937
 10
-274.9732360839844
 20
-0.2790049016475677
 30
-274.9722595214844
 10
-274.9970703125
 20
-0.5164399147033692
 30
-274.9970703125
 10
-273.8683471679688
 20
-6.917690753936767
 30
-273.8683471679688
 10
-272.9722900390625
 20
-7.603998661041259
 30
-272.9722900390625
 10
-271.399169921875
 20
-8.560949325561523
 30
-271.399169921875
 10
-270.5601196289062
 20
-10.06361961364746
 30
-270.5600891113281
 10
-269.5973510742188
 20
-11.33506202697754
 30
-269.5973205566406
 10
-268.5733642578125
 20
-12.76694583892822
 30
-268.5733947753906
 10
-267.6062927246094
 20
-14.31062126159668
 30
-267.6062927246094
 10
-266.1299743652344
 20
-15.77556037902832
 30
-266.1299743652344
 10
-264.2479858398437
 20
-16.64972686767578
 30
-264.2479858398437
 10
-262.2395629882813
 20
-16.56880950927734
 30
-262.2395629882813
 10
-260.4146728515625
 20
-15.6216344833374
 30
-260.4146728515625
 10
-259.0704650878906
 20
-14.06747627258301
 30
-259.0704650878906
 10
-258.3135375976563
 20
-12.48944664001465
 30
-258.3135681152344
 10
-257.813232421875
 20
-11.0806713104248
 30
-257.8132629394531
 10
-257.0533447265625
 20
-9.535527229309082
 30
-257.0533447265625
 10
-255.71142578125
 20
-8.341860771179199
 30
-255.7114105224609
 10
-254.0877990722656
 20
-8.268630027770996
 30
-254.0877838134766
 10
-253.1698303222656
 20
-8.61174201965332
 30
-253.1698303222656
 10
-252.4847717285156
 20
-9.033641815185546
 30
-252.4847564697266
 10
-251.6867980957031
 20
-9.722301483154296
 30
-251.6867980957031
 10
-250.9352111816406
 20
-10.51039886474609
 30
-250.9352264404297
 10
-250.34033203125
 20
-11.1923599243164
 30
-250.3403015136719
 10
-249.5358276367188
 20
-12.06257438659668
 30
-249.5358123779297
 10
-248.7179565429688
 20
-12.69646835327148
 30
-248.7179870605469
 10
-248.0508117675781
 20
-12.79956531524658
 30
-248.0508117675781
 10
-247.4241485595703
 20
-12.36966705322265
 30
-247.4241485595703
 10
-246.9232177734375
 20
-11.6389513015747
 30
-246.9232177734375
 10
-246.2595520019531
 20
-11.15076065063476
 30
-246.2595520019531
 10
-245.6215972900391
 20
-11.85655498504639
 30
-245.6216125488281
 10
-244.8093719482422
 20
-12.64569854736328
 30
-244.8093719482422
 10
-243.7789611816406
 20
-13.30776119232178
 30
-243.7789611816406
 10
-242.6540222167969
 20
-13.63025951385498
 30
-242.6540222167969
 10
-241.3738708496094
 20
-13.58797359466553
 30
-241.3738555908203
 10
-240.2962646484375
 20
-13.12242984771728
 30
-240.2962646484375
 10
-239.52587890625
 20
-12.29476451873779
 30
-239.52587890625
 10
-239.0460815429687
 20
-11.32402896881103
 30
-239.0461120605469
 10
-238.7025909423828
 20
-10.23093891143799
 30
-238.7025756835937
 10
-238.1022033691406
 20
-9.453543663024902
 30
-238.1022033691406
 10
-237.0210876464844
 20
-9.140058517456054
 30
-237.0210876464844
 10
-236.27734375
 20
-8.428084373474121
 30
-236.2773590087891
 10
-236.1048278808594
 20
-7.946860313415527
 30
-236.1048278808594
 10
-235.4970703125
 20
-4.500033378601074
 30
-235.4970703125
 10
-209.9259948730469
 20
-4.500031948089599
 30
-209.9259948730469
 10
-209.5438690185547
 20
-4.584831714630126
 30
-209.5438690185547
 10
-209.0972442626953
 20
-4.940414905548095
 30
-209.0973815917969
 10
-208.946533203125
 20
-5.298418998718261
 30
-208.946533203125
 10
-208.5977783203125
 20
-6.294810771942138
 30
-208.5977783203125
 10
-208.3017425537109
 20
-6.785541057586669
 30
-208.3017425537109
 10
-207.9118347167969
 20
-7.255624771118164
 30
-207.9118347167969
 10
-207.5716400146484
 20
-8.371846199035644
 30
-207.5716247558594
 10
-206.8222045898437
 20
-9.45060920715332
 30
-206.8222045898437
 10
-205.5827941894531
 20
-10.31447219848633
 30
-205.5827941894531
 10
-204.7988128662109
 20
-10.57032585144043
 30
-204.7988128662109
 10
-203.8373870849609
 20
-10.65648555755615
 30
-203.8373870849609
 10
-203.4816436767578
 20
-10.63175392150879
 30
-203.4816436767578
 10
-202.5637817382813
 20
-11.00559139251709
 30
-202.5637817382813
 10
-201.2759704589844
 20
-11.12225246429443
 30
-201.2759704589844
 10
-200.4970703125
 20
-11.00003147125244
 30
-200.4970550537109
 10
-199.0322570800781
 20
-11.00003147125244
 30
-199.032241821289
 10
-198.6509094238281
 20
-11.08456516265869
 30
-198.6509094238281
 10
-198.2001953125
 20
-11.44533157348633
 30
-198.2001953125
 10
-197.7939300537109
 20
-12.05473136901855
 30
-197.7939300537109
 10
-197.3432312011718
 20
-12.41549777984619
 30
-197.3432159423828
 10
-196.9618835449218
 20
-12.50003147125244
 30
196.9618835449218
 10
-209.4286193847656
 20
-1.061959862709045
 30
209.4285888671875
 10
-240.4470672607422
 20
-1.250033378601074
 30
240.447021484375
 10
-240.6970672607422
 20
-2.770033359527587
 30
240.697021484375
 10
-261.1970825195312
 20
-2.770034313201904
 30
261.197021484375
 10
-261.3690795898437
 20
-0.6884194612503052
 30
261.3690795898437
 10
-271.9970703125
 20
-0.5000347495079041
 30
271.9970703125
 10
-271.9970703125
 20
-0.0000347775530827
 30
271.9970703125
 10
-274.5637817382812
 20
-0.0000348897483491
 30
274.563720703125
 10
-274.7220458984375
 20
-0.0294977109879255
 30
274.7220458984375
 10
-274.8500061035156
 20
-0.1058717742562294
 30
274.8500366210937
 10
-274.9732360839844
 20
-0.2790046632289886
 30
274.9722900390625
 10
-274.9970703125
 20
-0.5164400339126587
 30
274.9970703125
 10
-273.8683471679688
 20
-6.917690753936767
 30
273.8683471679688
 10
-272.9722900390625
 20
-7.603998661041259
 30
272.9722900390625
 10
-271.399169921875
 20
-8.560949325561523
 30
271.399169921875
 10
-270.5601196289062
 20
-10.06361961364746
 30
270.56005859375
 10
-269.5973510742188
 20
-11.33506202697754
 30
269.5973510742188
 10
-268.5733642578125
 20
-12.76694583892822
 30
268.5733642578125
 10
-267.6062927246094
 20
-14.31062126159668
 30
267.6063232421875
 10
-266.1299743652344
 20
-15.77556037902832
 30
266.1300048828125
 10
-264.2479858398437
 20
-16.64972686767578
 30
264.248046875
 10
-262.2395629882813
 20
-16.56880950927734
 30
262.2396240234375
 10
-260.4146728515625
 20
-15.6216344833374
 30
260.4146728515625
 10
-259.0704650878906
 20
-14.06747627258301
 30
259.0704345703125
 10
-258.3135375976563
 20
-12.48944664001465
 30
258.3135986328125
 10
-257.813232421875
 20
-11.0806713104248
 30
257.813232421875
 10
-257.0533447265625
 20
-9.535527229309082
 30
257.0533447265625
 10
-255.71142578125
 20
-8.341860771179199
 30
255.71142578125
 10
-254.0877990722656
 20
-8.268630027770996
 30
254.0877685546875
 10
-253.1698303222656
 20
-8.61174201965332
 30
253.1697998046875
 10
-252.4847717285156
 20
-9.033641815185546
 30
252.4847412109375
 10
-251.6867980957031
 20
-9.722301483154296
 30
251.686767578125
 10
-250.9352111816406
 20
-10.51039886474609
 30
250.9352416992188
 10
-250.34033203125
 20
-11.1923599243164
 30
250.3402709960937
 10
-249.5358276367188
 20
-12.06257438659668
 30
249.5358276367188
 10
-248.7179565429688
 20
-12.69646835327148
 30
248.718017578125
 10
-248.0508117675781
 20
-12.79956531524658
 30
248.0508422851563
 10
-247.4241485595703
 20
-12.36966705322265
 30
247.4241333007813
 10
-246.9232177734375
 20
-11.6389513015747
 30
246.9232177734375
 10
-246.2595520019531
 20
-11.15076065063476
 30
246.259521484375
 10
-245.6215972900391
 20
-11.85655498504639
 30
245.62158203125
 10
-244.8093719482422
 20
-12.64569854736328
 30
244.809326171875
 10
-243.7789611816406
 20
-13.30776119232178
 30
243.7789306640625
 10
-242.6540222167969
 20
-13.63025951385498
 30
242.654052734375
 10
-241.3738708496094
 20
-13.58797359466553
 30
241.3738403320313
 10
-240.2962646484375
 20
-13.12242984771728
 30
240.2962646484375
 10
-239.52587890625
 20
-12.29476451873779
 30
239.52587890625
 10
-239.0460815429687
 20
-11.32402896881103
 30
239.046142578125
 10
-238.7025909423828
 20
-10.23093891143799
 30
238.7025756835937
 10
-238.1022033691406
 20
-9.453543663024902
 30
238.1021728515625
 10
-237.0210876464844
 20
-9.140058517456054
 30
237.0211181640625
 10
-236.27734375
 20
-8.428084373474121
 30
236.27734375
 10
-236.1048278808594
 20
-7.946860313415527
 30
236.1048278808594
 10
-235.4970703125
 20
-4.500033378601074
 30
235.4970703125
 10
-209.9259948730469
 20
-4.500031948089599
 30
209.9259948730469
 10
-197.3432312011718
 20
-12.41549777984619
 30
197.3432006835937
 10
-197.7939300537109
 20
-12.05473136901855
 30
197.7939453125
 10
-198.2001953125
 20
-11.44533157348633
 30
198.2001953125
 10
-198.6509094238281
 20
-11.08456516265869
 30
198.6509094238281
 10
-199.0322570800781
 20
-11.00003147125244
 30
199.0322265625
 10
-200.4970703125
 20
-11.00003147125244
 30
200.4970703125
 10
-201.2759704589844
 20
-11.12225246429443
 30
201.2759704589844
 10
-202.5637817382813
 20
-11.00559139251709
 30
202.5637817382813
 10
-203.4816436767578
 20
-10.63175392150879
 30
203.4816284179687
 10
-203.8373870849609
 20
-10.65648555755615
 30
203.83740234375
 10
-204.7988128662109
 20
-10.57032585144043
 30
204.798828125
 10
-205.5827941894531
 20
-10.31447219848633
 30
205.5827941894531
 10
-206.8222045898437
 20
-9.45060920715332
 30
206.8222045898437
 10
-207.5716400146484
 20
-8.371846199035644
 30
207.5716247558594
 10
-207.9118347167969
 20
-7.255624771118164
 30
207.9118347167969
 10
-208.3017425537109
 20
-6.785541057586669
 30
208.3017578125
 10
-208.5977783203125
 20
-6.294810771942138
 30
208.5977783203125
 10
-208.946533203125
 20
-5.298418998718261
 30
208.946533203125
 10
-209.0972442626953
 20
-4.940414905548095
 30
209.0973815917969
 10
-209.5438690185547
 20
-4.584831714630126
 30
209.5438842773437
 10
-201.1603393554687
 20
-6.917461395263671
 30
201.1603393554687
 10
240.4470672607422
 20
-1.250012397766113
 30
-240.4470520019531
 10
240.6970672607422
 20
-2.770012378692626
 30
-240.6970520019531
 10
261.1970825195312
 20
-2.77001142501831
 30
-261.1970520019531
 10
261.3690795898437
 20
-0.6883965730667115
 30
-261.3691101074219
 10
271.9970703125
 20
-0.5000109672546387
 30
-271.9970703125
 10
271.9970703125
 20
-0.0000109988141048
 30
-271.9970703125
 10
274.5637817382812
 20
-0.0000108866197479
 30
-274.5637512207031
 10
274.7220458984375
 20
-0.0294736940413714
 30
-274.7220458984375
 10
274.8500061035156
 20
-0.1058477386832237
 30
-274.8500366210937
 10
274.9732360839844
 20
-0.2789806425571442
 30
-274.9722595214844
 10
274.9970703125
 20
-0.5164159536361695
 30
-274.9970703125
 10
273.8683471679688
 20
-6.917666912078857
 30
-273.8683471679688
 10
272.9722900390625
 20
-7.603974819183349
 30
-272.9722900390625
 10
271.399169921875
 20
-8.560926437377929
 30
-271.399169921875
 10
270.5601196289062
 20
-10.06359672546387
 30
-270.5600891113281
 10
269.5973510742188
 20
-11.33503913879394
 30
-269.5973205566406
 10
268.5733642578125
 20
-12.76692295074463
 30
-268.5733947753906
 10
267.6062927246094
 20
-14.31059837341308
 30
-267.6062927246094
 10
266.1299743652344
 20
-15.77553749084472
 30
-266.1299743652344
 10
264.2479858398437
 20
-16.64970397949218
 30
-264.2479858398437
 10
262.2395629882813
 20
-16.56878662109375
 30
-262.2395629882813
 10
260.4146728515625
 20
-15.62161159515381
 30
-260.4146728515625
 10
259.0704650878906
 20
-14.06745338439941
 30
-259.0704650878906
 10
258.3135375976563
 20
-12.48942375183105
 30
-258.3135681152344
 10
257.813232421875
 20
-11.08064842224121
 30
-257.8132629394531
 10
257.0533447265625
 20
-9.535504341125488
 30
-257.0533447265625
 10
255.71142578125
 20
-8.341837882995605
 30
-255.7114105224609
 10
254.0877990722656
 20
-8.268607139587402
 30
-254.0877838134766
 10
253.1698303222656
 20
-8.611719131469726
 30
-253.1698303222656
 10
252.4847717285156
 20
-9.033618927001953
 30
-252.4847564697266
 10
251.6867980957031
 20
-9.722278594970703
 30
-251.6867980957031
 10
250.9352111816406
 20
-10.5103759765625
 30
-250.9352264404297
 10
250.34033203125
 20
-11.19233894348144
 30
-250.3403015136719
 10
249.5358276367188
 20
-12.06255340576172
 30
-249.5358123779297
 10
248.7179565429688
 20
-12.69644737243652
 30
-248.7179870605469
 10
248.0508117675781
 20
-12.79954433441162
 30
-248.0508117675781
 10
247.4241485595703
 20
-12.36964607238769
 30
-247.4241485595703
 10
246.9232177734375
 20
-11.63893032073974
 30
-246.9232177734375
 10
246.2595520019531
 20
-11.1507396697998
 30
-246.2595520019531
 10
245.6215972900391
 20
-11.85653400421142
 30
-245.6216125488281
 10
244.8093719482422
 20
-12.64567756652832
 30
-244.8093719482422
 10
243.7789611816406
 20
-13.30774021148682
 30
-243.7789611816406
 10
242.6540222167969
 20
-13.63023853302002
 30
-242.6540222167969
 10
241.3738708496094
 20
-13.58795261383056
 30
-241.3738555908203
 10
240.2962646484375
 20
-13.12240886688232
 30
-240.2962646484375
 10
239.52587890625
 20
-12.29474353790283
 30
-239.52587890625
 10
239.0460815429687
 20
-11.32400798797607
 30
-239.0461120605469
 10
238.7025909423828
 20
-10.23091793060302
 30
-238.7025756835937
 10
238.1022033691406
 20
-9.453522682189941
 30
-238.1022033691406
 10
237.0210876464844
 20
-9.140037536621093
 30
-237.0210876464844
 10
236.27734375
 20
-8.42806339263916
 30
-236.2773590087891
 10
236.1048278808594
 20
-7.946839332580566
 30
-236.1048278808594
 10
235.4970703125
 20
-4.500012397766113
 30
-235.4970703125
 10
209.9259948730469
 20
-4.500013828277587
 30
-209.9259948730469
 10
201.1603393554687
 20
-6.917444229125976
 30
-201.1603393554687
 10
209.4286193847656
 20
-1.061941504478454
 30
-209.4286041259766
 10
209.4286193847656
 20
-1.061941504478454
 30
209.4285888671875
 10
209.5438690185547
 20
-4.584813594818115
 30
-209.5438690185547
 10
209.5438690185547
 20
-4.584813594818115
 30
209.5438842773437
 10
209.9259948730469
 20
-4.500013828277587
 30
209.9259948730469
 10
208.946533203125
 20
-5.29840087890625
 30
-208.946533203125
 10
208.5977783203125
 20
-6.294792652130126
 30
-208.5977783203125
 10
208.5977783203125
 20
-6.294792652130126
 30
208.5977783203125
 10
208.946533203125
 20
-5.29840087890625
 30
208.946533203125
 10
208.3017425537109
 20
-6.785522937774658
 30
-208.3017425537109
 10
208.3017425537109
 20
-6.785522937774658
 30
208.3017578125
 10
207.9118347167969
 20
-7.255606651306152
 30
-207.9118347167969
 10
207.5716400146484
 20
-8.371827125549316
 30
-207.5716247558594
 10
207.5716400146484
 20
-8.371827125549316
 30
207.5716247558594
 10
207.9118347167969
 20
-7.255606651306152
 30
207.9118347167969
 10
206.8222045898437
 20
-9.450592041015625
 30
-206.8222045898437
 10
206.8222045898437
 20
-9.450592041015625
 30
206.8222045898437
 10
205.5827941894531
 20
-10.31445503234863
 30
-205.5827941894531
 10
204.7988128662109
 20
-10.57030868530273
 30
-204.7988128662109
 10
204.7988128662109
 20
-10.57030868530273
 30
204.798828125
 10
205.5827941894531
 20
-10.31445503234863
 30
205.5827941894531
 10
203.8373870849609
 20
-10.65646839141845
 30
-203.8373870849609
 10
203.4816436767578
 20
-10.63173675537109
 30
-203.4816436767578
 10
203.4816436767578
 20
-10.63173675537109
 30
203.4816284179687
 10
203.8373870849609
 20
-10.65646839141845
 30
203.83740234375
 10
202.5637817382813
 20
-11.00557422637939
 30
-202.5637817382813
 10
201.2759704589844
 20
-11.12223529815674
 30
-201.2759704589844
 10
201.2759704589844
 20
-11.12223529815674
 30
201.2759704589844
 10
202.5637817382813
 20
-11.00557422637939
 30
202.5637817382813
 10
200.4970703125
 20
-11.00001430511474
 30
-200.4970550537109
 10
200.4970703125
 20
-11.00001430511474
 30
200.4970703125
 10
198.2001953125
 20
-11.44531440734863
 30
-198.2001953125
 10
197.7939300537109
 20
-12.05471420288086
 30
-197.7939300537109
 10
197.7939300537109
 20
-12.05471420288086
 30
197.7939453125
 10
198.2001953125
 20
-11.44531440734863
 30
198.2001953125
 10
197.3432312011718
 20
-12.41548061370849
 30
-197.3432159423828
 10
196.9618835449218
 20
-12.50001430511474
 30
-196.9618835449218
 10
196.9618835449218
 20
-12.50001430511474
 30
196.9618835449218
 10
240.4470672607422
 20
-1.250012397766113
 30
240.447021484375
 10
240.6970672607422
 20
-2.770012378692626
 30
240.697021484375
 10
261.1970825195312
 20
-2.77001142501831
 30
261.197021484375
 10
261.3690795898437
 20
-0.6883965730667115
 30
261.369140625
 10
271.9970703125
 20
-0.5000109672546387
 30
271.9970703125
 10
271.9970703125
 20
-0.0000109988141048
 30
271.9970703125
 10
274.5637817382812
 20
-0.0000108866197479
 30
274.563720703125
 10
274.7220458984375
 20
-0.0294736940413714
 30
274.7220458984375
 10
274.8500061035156
 20
-0.1058477386832237
 30
274.8500366210937
 10
274.9732360839844
 20
-0.2789806425571442
 30
274.9722900390625
 10
274.9970703125
 20
-0.5164159536361695
 30
274.9970703125
 10
273.8683471679688
 20
-6.917666912078857
 30
273.8683471679688
 10
272.9722900390625
 20
-7.603974819183349
 30
272.9722900390625
 10
271.399169921875
 20
-8.560926437377929
 30
271.399169921875
 10
270.5601196289062
 20
-10.06359672546387
 30
270.56005859375
 10
269.5973510742188
 20
-11.33503913879394
 30
269.5973510742188
 10
268.5733642578125
 20
-12.76692295074463
 30
268.5733642578125
 10
267.6062927246094
 20
-14.31059837341308
 30
267.6063232421875
 10
266.1299743652344
 20
-15.77553749084472
 30
266.1300048828125
 10
264.2479858398437
 20
-16.64970397949218
 30
264.248046875
 10
262.2395629882813
 20
-16.56878662109375
 30
262.2396240234375
 10
260.4146728515625
 20
-15.62161159515381
 30
260.4146728515625
 10
259.0704650878906
 20
-14.06745338439941
 30
259.0704345703125
 10
258.3135375976563
 20
-12.48942375183105
 30
258.3135986328125
 10
257.813232421875
 20
-11.08064842224121
 30
257.813232421875
 10
257.0533447265625
 20
-9.535504341125488
 30
257.0533447265625
 10
255.71142578125
 20
-8.341837882995605
 30
255.71142578125
 10
254.0877990722656
 20
-8.268607139587402
 30
254.0877685546875
 10
253.1698303222656
 20
-8.611719131469726
 30
253.1697998046875
 10
252.4847717285156
 20
-9.033618927001953
 30
252.4847412109375
 10
251.6867980957031
 20
-9.722278594970703
 30
251.686767578125
 10
250.9352111816406
 20
-10.5103759765625
 30
250.9352416992188
 10
250.34033203125
 20
-11.19233894348144
 30
250.3402709960937
 10
249.5358276367188
 20
-12.06255340576172
 30
249.5358276367188
 10
248.7179565429688
 20
-12.69644737243652
 30
248.718017578125
 10
248.0508117675781
 20
-12.79954433441162
 30
248.0508422851563
 10
247.4241485595703
 20
-12.36964607238769
 30
247.4241333007813
 10
246.9232177734375
 20
-11.63893032073974
 30
246.9232177734375
 10
246.2595520019531
 20
-11.1507396697998
 30
246.259521484375
 10
245.6215972900391
 20
-11.85653400421142
 30
245.62158203125
 10
244.8093719482422
 20
-12.64567756652832
 30
244.809326171875
 10
243.7789611816406
 20
-13.30774021148682
 30
243.7789306640625
 10
242.6540222167969
 20
-13.63023853302002
 30
242.654052734375
 10
241.3738708496094
 20
-13.58795261383056
 30
241.3738403320313
 10
240.2962646484375
 20
-13.12240886688232
 30
240.2962646484375
 10
239.52587890625
 20
-12.29474353790283
 30
239.52587890625
 10
239.0460815429687
 20
-11.32400798797607
 30
239.046142578125
 10
238.7025909423828
 20
-10.23091793060302
 30
238.7025756835937
 10
238.1022033691406
 20
-9.453522682189941
 30
238.1021728515625
 10
237.0210876464844
 20
-9.140037536621093
 30
237.0211181640625
 10
236.27734375
 20
-8.42806339263916
 30
236.27734375
 10
236.1048278808594
 20
-7.946839332580566
 30
236.1048278808594
 10
235.4970703125
 20
-4.500012397766113
 30
235.4970703125
 10
201.1603393554687
 20
-6.917444229125976
 30
201.1603393554687
 10
209.0972442626953
 20
-4.940396785736083
 30
-209.0973815917969
 10
209.0972442626953
 20
-4.940396785736083
 30
209.0973815917969
 10
199.0322570800781
 20
-11.00001430511474
 30
-199.032241821289
 10
199.0322570800781
 20
-11.00001430511474
 30
199.0322265625
 10
198.6509094238281
 20
-11.08454799652099
 30
-198.6509094238281
 10
198.6509094238281
 20
-11.08454799652099
 30
198.6509094238281
 10
197.3432312011718
 20
-12.41548061370849
 30
197.3432006835937
 93
     1530
 90
        4
 90
        1
 90
        2
 90
       78
 90
      153
 90
        4
 90
       56
 90
       57
 90
      152
 90
      132
 90
        4
 90
       59
 90
       60
 90
      149
 90
      150
 90
        4
 90
       60
 90
       61
 90
      148
 90
      149
 90
        4
 90
       62
 90
       63
 90
      146
 90
      147
 90
        4
 90
       63
 90
       64
 90
      145
 90
      146
 90
        4
 90
       65
 90
       66
 90
      143
 90
      144
 90
        4
 90
       67
 90
       68
 90
      141
 90
      142
 90
        4
 90
       69
 90
       70
 90
      139
 90
      140
 90
        4
 90
       70
 90
       71
 90
      138
 90
      139
 90
        4
 90
       74
 90
       75
 90
      134
 90
      135
 90
        4
 90
       76
 90
        0
 90
       77
 90
      133
 90
        4
 90
       57
 90
       58
 90
      151
 90
      152
 90
        4
 90
       58
 90
       59
 90
      150
 90
      151
 90
        4
 90
       61
 90
       62
 90
      147
 90
      148
 90
        4
 90
       64
 90
       65
 90
      144
 90
      145
 90
        4
 90
       66
 90
       67
 90
      142
 90
      143
 90
        4
 90
       68
 90
       69
 90
      140
 90
      141
 90
        4
 90
       71
 90
       72
 90
      137
 90
      138
 90
        4
 90
       72
 90
       73
 90
      136
 90
      137
 90
        4
 90
       73
 90
       74
 90
      135
 90
      136
 90
        4
 90
       75
 90
       76
 90
      133
 90
      134
 90
        4
 90
       79
 90
       78
 90
        2
 90
        3
 90
        4
 90
       80
 90
       79
 90
        3
 90
        4
 90
        4
 90
       81
 90
       80
 90
        4
 90
        5
 90
        4
 90
       82
 90
       81
 90
        5
 90
        6
 90
        4
 90
       83
 90
       82
 90
        6
 90
        7
 90
        4
 90
       84
 90
       83
 90
        7
 90
        8
 90
        4
 90
       85
 90
       84
 90
        8
 90
        9
 90
        4
 90
       86
 90
       85
 90
        9
 90
       10
 90
        4
 90
       87
 90
       86
 90
       10
 90
       11
 90
        4
 90
       88
 90
       87
 90
       11
 90
       12
 90
        4
 90
       89
 90
       88
 90
       12
 90
       13
 90
        4
 90
       90
 90
       89
 90
       13
 90
       14
 90
        4
 90
       91
 90
       90
 90
       14
 90
       15
 90
        4
 90
       92
 90
       91
 90
       15
 90
       16
 90
        4
 90
       93
 90
       92
 90
       16
 90
       17
 90
        4
 90
       94
 90
       93
 90
       17
 90
       18
 90
        4
 90
       95
 90
       94
 90
       18
 90
       19
 90
        4
 90
       96
 90
       95
 90
       19
 90
       20
 90
        4
 90
       97
 90
       96
 90
       20
 90
       21
 90
        4
 90
       98
 90
       97
 90
       21
 90
       22
 90
        4
 90
       99
 90
       98
 90
       22
 90
       23
 90
        4
 90
      100
 90
       99
 90
       23
 90
       24
 90
        4
 90
      101
 90
      100
 90
       24
 90
       25
 90
        4
 90
      102
 90
      101
 90
       25
 90
       26
 90
        4
 90
      103
 90
      102
 90
       26
 90
       27
 90
        4
 90
      104
 90
      103
 90
       27
 90
       28
 90
        4
 90
      105
 90
      104
 90
       28
 90
       29
 90
        4
 90
      106
 90
      105
 90
       29
 90
       30
 90
        4
 90
      107
 90
      106
 90
       30
 90
       31
 90
        4
 90
      108
 90
      107
 90
       31
 90
       32
 90
        4
 90
      109
 90
      108
 90
       32
 90
       33
 90
        4
 90
      110
 90
      109
 90
       33
 90
       34
 90
        4
 90
      111
 90
      110
 90
       34
 90
       35
 90
        4
 90
      112
 90
      111
 90
       35
 90
       36
 90
        4
 90
      113
 90
      112
 90
       36
 90
       37
 90
        4
 90
      114
 90
      113
 90
       37
 90
       38
 90
        4
 90
      115
 90
      114
 90
       38
 90
       39
 90
        4
 90
      116
 90
      115
 90
       39
 90
       40
 90
        4
 90
      117
 90
      116
 90
       40
 90
       41
 90
        4
 90
      118
 90
      117
 90
       41
 90
       42
 90
        4
 90
      119
 90
      118
 90
       42
 90
       43
 90
        4
 90
      120
 90
      119
 90
       43
 90
       44
 90
        4
 90
      121
 90
      120
 90
       44
 90
       45
 90
        4
 90
      122
 90
      121
 90
       45
 90
       46
 90
        4
 90
      123
 90
      122
 90
       46
 90
       47
 90
        4
 90
      124
 90
      123
 90
       47
 90
       48
 90
        4
 90
      125
 90
      124
 90
       48
 90
       49
 90
        4
 90
      126
 90
      125
 90
       49
 90
       50
 90
        4
 90
      127
 90
      126
 90
       50
 90
       51
 90
        4
 90
      128
 90
      127
 90
       51
 90
       52
 90
        4
 90
      129
 90
      128
 90
       52
 90
       53
 90
        4
 90
      130
 90
      129
 90
       53
 90
       54
 90
        4
 90
      131
 90
      130
 90
       54
 90
       55
 90
        4
 90
      132
 90
      131
 90
       55
 90
       56
 90
        4
 90
      208
 90
      300
 90
      210
 90
      209
 90
        4
 90
      207
 90
      213
 90
      212
 90
      211
 90
        4
 90
      214
 90
      217
 90
      216
 90
      215
 90
        4
 90
      215
 90
      216
 90
      219
 90
      218
 90
        4
 90
      220
 90
      223
 90
      222
 90
      221
 90
        4
 90
      221
 90
      222
 90
      225
 90
      224
 90
        4
 90
      226
 90
      229
 90
      228
 90
      227
 90
        4
 90
      230
 90
      233
 90
      232
 90
      231
 90
        4
 90
      234
 90
      237
 90
      236
 90
      235
 90
        4
 90
      235
 90
      236
 90
      239
 90
      238
 90
        4
 90
      240
 90
      243
 90
      242
 90
      241
 90
        4
 90
      244
 90
      307
 90
      246
 90
      245
 90
        4
 90
      211
 90
      212
 90
      302
 90
      301
 90
        4
 90
      301
 90
      302
 90
      217
 90
      214
 90
        4
 90
      218
 90
      219
 90
      223
 90
      220
 90
        4
 90
      224
 90
      225
 90
      229
 90
      226
 90
        4
 90
      227
 90
      228
 90
      233
 90
      230
 90
        4
 90
      231
 90
      232
 90
      237
 90
      234
 90
        4
 90
      238
 90
      239
 90
      304
 90
      303
 90
        4
 90
      303
 90
      304
 90
      306
 90
      305
 90
        4
 90
      305
 90
      306
 90
      243
 90
      240
 90
        4
 90
      241
 90
      242
 90
      307
 90
      244
 90
        4
 90
      247
 90
      154
 90
      209
 90
      210
 90
        4
 90
      248
 90
      155
 90
      154
 90
      247
 90
        4
 90
      249
 90
      156
 90
      155
 90
      248
 90
        4
 90
      250
 90
      157
 90
      156
 90
      249
 90
        4
 90
      251
 90
      158
 90
      157
 90
      250
 90
        4
 90
      252
 90
      159
 90
      158
 90
      251
 90
        4
 90
      253
 90
      160
 90
      159
 90
      252
 90
        4
 90
      254
 90
      161
 90
      160
 90
      253
 90
        4
 90
      255
 90
      162
 90
      161
 90
      254
 90
        4
 90
      256
 90
      163
 90
      162
 90
      255
 90
        4
 90
      257
 90
      164
 90
      163
 90
      256
 90
        4
 90
      258
 90
      165
 90
      164
 90
      257
 90
        4
 90
      259
 90
      166
 90
      165
 90
      258
 90
        4
 90
      260
 90
      167
 90
      166
 90
      259
 90
        4
 90
      261
 90
      168
 90
      167
 90
      260
 90
        4
 90
      262
 90
      169
 90
      168
 90
      261
 90
        4
 90
      263
 90
      170
 90
      169
 90
      262
 90
        4
 90
      264
 90
      171
 90
      170
 90
      263
 90
        4
 90
      265
 90
      172
 90
      171
 90
      264
 90
        4
 90
      266
 90
      173
 90
      172
 90
      265
 90
        4
 90
      267
 90
      174
 90
      173
 90
      266
 90
        4
 90
      268
 90
      175
 90
      174
 90
      267
 90
        4
 90
      269
 90
      176
 90
      175
 90
      268
 90
        4
 90
      270
 90
      177
 90
      176
 90
      269
 90
        4
 90
      271
 90
      178
 90
      177
 90
      270
 90
        4
 90
      272
 90
      179
 90
      178
 90
      271
 90
        4
 90
      273
 90
      180
 90
      179
 90
      272
 90
        4
 90
      274
 90
      181
 90
      180
 90
      273
 90
        4
 90
      275
 90
      182
 90
      181
 90
      274
 90
        4
 90
      276
 90
      183
 90
      182
 90
      275
 90
        4
 90
      277
 90
      184
 90
      183
 90
      276
 90
        4
 90
      278
 90
      185
 90
      184
 90
      277
 90
        4
 90
      279
 90
      186
 90
      185
 90
      278
 90
        4
 90
      280
 90
      187
 90
      186
 90
      279
 90
        4
 90
      281
 90
      188
 90
      187
 90
      280
 90
        4
 90
      282
 90
      189
 90
      188
 90
      281
 90
        4
 90
      283
 90
      190
 90
      189
 90
      282
 90
        4
 90
      284
 90
      191
 90
      190
 90
      283
 90
        4
 90
      285
 90
      192
 90
      191
 90
      284
 90
        4
 90
      286
 90
      193
 90
      192
 90
      285
 90
        4
 90
      287
 90
      194
 90
      193
 90
      286
 90
        4
 90
      288
 90
      195
 90
      194
 90
      287
 90
        4
 90
      289
 90
      196
 90
      195
 90
      288
 90
        4
 90
      290
 90
      197
 90
      196
 90
      289
 90
        4
 90
      291
 90
      198
 90
      197
 90
      290
 90
        4
 90
      292
 90
      199
 90
      198
 90
      291
 90
        4
 90
      293
 90
      200
 90
      199
 90
      292
 90
        4
 90
      294
 90
      201
 90
      200
 90
      293
 90
        4
 90
      295
 90
      202
 90
      201
 90
      294
 90
        4
 90
      296
 90
      203
 90
      202
 90
      295
 90
        4
 90
      297
 90
      204
 90
      203
 90
      296
 90
        4
 90
      298
 90
      205
 90
      204
 90
      297
 90
        4
 90
      299
 90
      206
 90
      205
 90
      298
 90
        4
 90
      213
 90
      207
 90
      206
 90
      299
 90
        4
 90
       37
 90
       36
 90
      187
 90
      188
 90
        4
 90
       36
 90
       35
 90
      186
 90
      187
 90
        4
 90
       35
 90
       34
 90
      185
 90
      186
 90
        4
 90
       34
 90
       33
 90
      184
 90
      185
 90
        4
 90
       33
 90
       32
 90
      183
 90
      184
 90
        4
 90
       32
 90
       31
 90
      182
 90
      183
 90
        4
 90
       31
 90
       30
 90
      181
 90
      182
 90
        4
 90
       30
 90
       29
 90
      180
 90
      181
 90
        4
 90
       29
 90
       28
 90
      179
 90
      180
 90
        4
 90
       28
 90
       27
 90
      178
 90
      179
 90
        4
 90
       27
 90
       26
 90
      177
 90
      178
 90
        4
 90
       26
 90
       25
 90
      176
 90
      177
 90
        4
 90
       25
 90
       24
 90
      175
 90
      176
 90
        4
 90
       24
 90
       23
 90
      174
 90
      175
 90
        4
 90
       23
 90
       22
 90
      173
 90
      174
 90
        4
 90
       22
 90
       21
 90
      172
 90
      173
 90
        4
 90
       21
 90
       20
 90
      171
 90
      172
 90
        4
 90
       20
 90
       19
 90
      170
 90
      171
 90
        4
 90
       19
 90
       18
 90
      169
 90
      170
 90
        4
 90
       18
 90
       17
 90
      168
 90
      169
 90
        4
 90
       17
 90
       16
 90
      167
 90
      168
 90
        4
 90
       16
 90
       15
 90
      166
 90
      167
 90
        4
 90
       15
 90
       14
 90
      165
 90
      166
 90
        4
 90
       14
 90
       13
 90
      164
 90
      165
 90
        4
 90
       13
 90
       12
 90
      163
 90
      164
 90
        4
 90
       12
 90
       11
 90
      162
 90
      163
 90
        4
 90
       11
 90
       10
 90
      161
 90
      162
 90
        4
 90
       10
 90
        9
 90
      160
 90
      161
 90
        4
 90
        9
 90
        8
 90
      159
 90
      160
 90
        4
 90
        8
 90
        7
 90
      158
 90
      159
 90
        4
 90
        7
 90
        6
 90
      157
 90
      158
 90
        4
 90
        6
 90
        5
 90
      156
 90
      157
 90
        4
 90
        5
 90
        4
 90
      155
 90
      156
 90
        4
 90
        4
 90
        3
 90
      154
 90
      155
 90
        4
 90
        3
 90
        2
 90
      209
 90
      154
 90
        4
 90
        2
 90
        1
 90
      208
 90
      209
 90
        4
 90
        1
 90
      153
 90
      300
 90
      208
 90
        4
 90
      153
 90
       78
 90
      210
 90
      300
 90
        4
 90
       78
 90
       79
 90
      247
 90
      210
 90
        4
 90
       79
 90
       80
 90
      248
 90
      247
 90
        4
 90
       80
 90
       81
 90
      249
 90
      248
 90
        4
 90
       81
 90
       82
 90
      250
 90
      249
 90
        4
 90
       82
 90
       83
 90
      251
 90
      250
 90
        4
 90
       83
 90
       84
 90
      252
 90
      251
 90
        4
 90
       84
 90
       85
 90
      253
 90
      252
 90
        4
 90
       85
 90
       86
 90
      254
 90
      253
 90
        4
 90
       86
 90
       87
 90
      255
 90
      254
 90
        4
 90
       87
 90
       88
 90
      256
 90
      255
 90
        4
 90
       88
 90
       89
 90
      257
 90
      256
 90
        4
 90
       89
 90
       90
 90
      258
 90
      257
 90
        4
 90
       90
 90
       91
 90
      259
 90
      258
 90
        4
 90
       91
 90
       92
 90
      260
 90
      259
 90
        4
 90
       92
 90
       93
 90
      261
 90
      260
 90
        4
 90
       93
 90
       94
 90
      262
 90
      261
 90
        4
 90
       94
 90
       95
 90
      263
 90
      262
 90
        4
 90
       95
 90
       96
 90
      264
 90
      263
 90
        4
 90
       96
 90
       97
 90
      265
 90
      264
 90
        4
 90
       97
 90
       98
 90
      266
 90
      265
 90
        4
 90
       98
 90
       99
 90
      267
 90
      266
 90
        4
 90
       99
 90
      100
 90
      268
 90
      267
 90
        4
 90
      100
 90
      101
 90
      269
 90
      268
 90
        4
 90
      101
 90
      102
 90
      270
 90
      269
 90
        4
 90
      102
 90
      103
 90
      271
 90
      270
 90
        4
 90
      103
 90
      104
 90
      272
 90
      271
 90
        4
 90
      104
 90
      105
 90
      273
 90
      272
 90
        4
 90
      105
 90
      106
 90
      274
 90
      273
 90
        4
 90
      106
 90
      107
 90
      275
 90
      274
 90
        4
 90
      107
 90
      108
 90
      276
 90
      275
 90
        4
 90
      108
 90
      109
 90
      277
 90
      276
 90
        4
 90
      109
 90
      110
 90
      278
 90
      277
 90
        4
 90
      110
 90
      111
 90
      279
 90
      278
 90
        4
 90
      111
 90
      112
 90
      280
 90
      279
 90
        4
 90
      112
 90
      113
 90
      281
 90
      280
 90
        4
 90
      113
 90
      114
 90
      282
 90
      281
 90
        4
 90
      114
 90
      115
 90
      283
 90
      282
 90
        4
 90
      115
 90
      116
 90
      284
 90
      283
 90
        4
 90
      116
 90
      117
 90
      285
 90
      284
 90
        4
 90
      117
 90
      118
 90
      286
 90
      285
 90
        4
 90
      118
 90
      119
 90
      287
 90
      286
 90
        4
 90
      119
 90
      120
 90
      288
 90
      287
 90
        4
 90
      120
 90
      121
 90
      289
 90
      288
 90
        4
 90
      121
 90
      122
 90
      290
 90
      289
 90
        4
 90
      122
 90
      123
 90
      291
 90
      290
 90
        4
 90
      123
 90
      124
 90
      292
 90
      291
 90
        4
 90
      124
 90
      125
 90
      293
 90
      292
 90
        4
 90
      125
 90
      126
 90
      294
 90
      293
 90
        4
 90
      126
 90
      127
 90
      295
 90
      294
 90
        4
 90
      127
 90
      128
 90
      296
 90
      295
 90
        4
 90
      128
 90
      129
 90
      297
 90
      296
 90
        4
 90
      129
 90
      130
 90
      298
 90
      297
 90
        4
 90
      130
 90
      131
 90
      299
 90
      298
 90
        4
 90
      131
 90
      132
 90
      213
 90
      299
 90
        4
 90
      132
 90
      152
 90
      212
 90
      213
 90
        4
 90
      152
 90
      151
 90
      302
 90
      212
 90
        4
 90
      151
 90
      150
 90
      217
 90
      302
 90
        4
 90
      150
 90
      149
 90
      216
 90
      217
 90
        4
 90
      149
 90
      148
 90
      219
 90
      216
 90
        4
 90
      148
 90
      147
 90
      223
 90
      219
 90
        4
 90
      147
 90
      146
 90
      222
 90
      223
 90
        4
 90
      146
 90
      145
 90
      225
 90
      222
 90
        4
 90
      145
 90
      144
 90
      229
 90
      225
 90
        4
 90
      144
 90
      143
 90
      228
 90
      229
 90
        4
 90
      143
 90
      142
 90
      233
 90
      228
 90
        4
 90
      142
 90
      141
 90
      232
 90
      233
 90
        4
 90
      141
 90
      140
 90
      237
 90
      232
 90
        4
 90
      140
 90
      139
 90
      236
 90
      237
 90
        4
 90
      139
 90
      138
 90
      239
 90
      236
 90
        4
 90
      138
 90
      137
 90
      304
 90
      239
 90
        4
 90
      137
 90
      136
 90
      306
 90
      304
 90
        4
 90
      136
 90
      135
 90
      243
 90
      306
 90
        4
 90
      135
 90
      134
 90
      242
 90
      243
 90
        4
 90
      134
 90
      133
 90
      307
 90
      242
 90
        4
 90
      133
 90
       77
 90
      246
 90
      307
 90
        4
 90
       77
 90
        0
 90
      245
 90
      246
 90
        4
 90
        0
 90
       76
 90
      244
 90
      245
 90
        4
 90
       76
 90
       75
 90
      241
 90
      244
 90
        4
 90
       75
 90
       74
 90
      240
 90
      241
 90
        4
 90
       74
 90
       73
 90
      305
 90
      240
 90
        4
 90
       73
 90
       72
 90
      303
 90
      305
 90
        4
 90
       72
 90
       71
 90
      238
 90
      303
 90
        4
 90
       71
 90
       70
 90
      235
 90
      238
 90
        4
 90
       70
 90
       69
 90
      234
 90
      235
 90
        4
 90
       69
 90
       68
 90
      231
 90
      234
 90
        4
 90
       68
 90
       67
 90
      230
 90
      231
 90
        4
 90
       67
 90
       66
 90
      227
 90
      230
 90
        4
 90
       66
 90
       65
 90
      226
 90
      227
 90
        4
 90
       65
 90
       64
 90
      224
 90
      226
 90
        4
 90
       64
 90
       63
 90
      221
 90
      224
 90
        4
 90
       63
 90
       62
 90
      220
 90
      221
 90
        4
 90
       62
 90
       61
 90
      218
 90
      220
 90
        4
 90
       61
 90
       60
 90
      215
 90
      218
 90
        4
 90
       60
 90
       59
 90
      214
 90
      215
 90
        4
 90
       59
 90
       58
 90
      301
 90
      214
 90
        4
 90
       58
 90
       57
 90
      211
 90
      301
 90
        4
 90
       57
 90
       56
 90
      207
 90
      211
 90
        4
 90
       56
 90
       55
 90
      206
 90
      207
 90
        4
 90
       55
 90
       54
 90
      205
 90
      206
 90
        4
 90
       54
 90
       53
 90
      204
 90
      205
 90
        4
 90
       53
 90
       52
 90
      203
 90
      204
 90
        4
 90
       52
 90
       51
 90
      202
 90
      203
 90
        4
 90
       51
 90
       50
 90
      201
 90
      202
 90
        4
 90
       50
 90
       49
 90
      200
 90
      201
 90
        4
 90
       49
 90
       48
 90
      199
 90
      200
 90
        4
 90
       48
 90
       47
 90
      198
 90
      199
 90
        4
 90
       47
 90
       46
 90
      197
 90
      198
 90
        4
 90
       46
 90
       45
 90
      196
 90
      197
 90
        4
 90
       45
 90
       44
 90
      195
 90
      196
 90
        4
 90
       44
 90
       43
 90
      194
 90
      195
 90
        4
 90
       43
 90
       42
 90
      193
 90
      194
 90
        4
 90
       42
 90
       41
 90
      192
 90
      193
 90
        4
 90
       41
 90
       40
 90
      191
 90
      192
 90
        4
 90
       40
 90
       39
 90
      190
 90
      191
 90
        4
 90
       39
 90
       38
 90
      189
 90
      190
 90
        4
 90
       38
 90
       37
 90
      188
 90
      189
 94
      612
 90
        1
 90
        2
 90
        2
 90
       78
 90
       78
 90
      153
 90
        1
 90
      153
 90
       56
 90
       57
 90
       57
 90
      152
 90
      132
 90
      152
 90
       56
 90
      132
 90
       59
 90
       60
 90
       60
 90
      149
 90
      149
 90
      150
 90
       59
 90
      150
 90
       60
 90
       61
 90
       61
 90
      148
 90
      148
 90
      149
 90
       62
 90
       63
 90
       63
 90
      146
 90
      146
 90
      147
 90
       62
 90
      147
 90
       63
 90
       64
 90
       64
 90
      145
 90
      145
 90
      146
 90
       65
 90
       66
 90
       66
 90
      143
 90
      143
 90
      144
 90
       65
 90
      144
 90
       67
 90
       68
 90
       68
 90
      141
 90
      141
 90
      142
 90
       67
 90
      142
 90
       69
 90
       70
 90
       70
 90
      139
 90
      139
 90
      140
 90
       69
 90
      140
 90
       70
 90
       71
 90
       71
 90
      138
 90
      138
 90
      139
 90
       74
 90
       75
 90
       75
 90
      134
 90
      134
 90
      135
 90
       74
 90
      135
 90
        0
 90
       76
 90
        0
 90
       77
 90
       77
 90
      133
 90
       76
 90
      133
 90
       57
 90
       58
 90
       58
 90
      151
 90
      151
 90
      152
 90
       58
 90
       59
 90
      150
 90
      151
 90
       61
 90
       62
 90
      147
 90
      148
 90
       64
 90
       65
 90
      144
 90
      145
 90
       66
 90
       67
 90
      142
 90
      143
 90
       68
 90
       69
 90
      140
 90
      141
 90
       71
 90
       72
 90
       72
 90
      137
 90
      137
 90
      138
 90
       72
 90
       73
 90
       73
 90
      136
 90
      136
 90
      137
 90
       73
 90
       74
 90
      135
 90
      136
 90
       75
 90
       76
 90
      133
 90
      134
 90
       78
 90
       79
 90
        2
 90
        3
 90
        3
 90
       79
 90
       79
 90
       80
 90
        3
 90
        4
 90
        4
 90
       80
 90
       80
 90
       81
 90
        4
 90
        5
 90
        5
 90
       81
 90
       81
 90
       82
 90
        5
 90
        6
 90
        6
 90
       82
 90
       82
 90
       83
 90
        6
 90
        7
 90
        7
 90
       83
 90
       83
 90
       84
 90
        7
 90
        8
 90
        8
 90
       84
 90
       84
 90
       85
 90
        8
 90
        9
 90
        9
 90
       85
 90
       85
 90
       86
 90
        9
 90
       10
 90
       10
 90
       86
 90
       86
 90
       87
 90
       10
 90
       11
 90
       11
 90
       87
 90
       87
 90
       88
 90
       11
 90
       12
 90
       12
 90
       88
 90
       88
 90
       89
 90
       12
 90
       13
 90
       13
 90
       89
 90
       89
 90
       90
 90
       13
 90
       14
 90
       14
 90
       90
 90
       90
 90
       91
 90
       14
 90
       15
 90
       15
 90
       91
 90
       91
 90
       92
 90
       15
 90
       16
 90
       16
 90
       92
 90
       92
 90
       93
 90
       16
 90
       17
 90
       17
 90
       93
 90
       93
 90
       94
 90
       17
 90
       18
 90
       18
 90
       94
 90
       94
 90
       95
 90
       18
 90
       19
 90
       19
 90
       95
 90
       95
 90
       96
 90
       19
 90
       20
 90
       20
 90
       96
 90
       96
 90
       97
 90
       20
 90
       21
 90
       21
 90
       97
 90
       97
 90
       98
 90
       21
 90
       22
 90
       22
 90
       98
 90
       98
 90
       99
 90
       22
 90
       23
 90
       23
 90
       99
 90
       99
 90
      100
 90
       23
 90
       24
 90
       24
 90
      100
 90
      100
 90
      101
 90
       24
 90
       25
 90
       25
 90
      101
 90
      101
 90
      102
 90
       25
 90
       26
 90
       26
 90
      102
 90
      102
 90
      103
 90
       26
 90
       27
 90
       27
 90
      103
 90
      103
 90
      104
 90
       27
 90
       28
 90
       28
 90
      104
 90
      104
 90
      105
 90
       28
 90
       29
 90
       29
 90
      105
 90
      105
 90
      106
 90
       29
 90
       30
 90
       30
 90
      106
 90
      106
 90
      107
 90
       30
 90
       31
 90
       31
 90
      107
 90
      107
 90
      108
 90
       31
 90
       32
 90
       32
 90
      108
 90
      108
 90
      109
 90
       32
 90
       33
 90
       33
 90
      109
 90
      109
 90
      110
 90
       33
 90
       34
 90
       34
 90
      110
 90
      110
 90
      111
 90
       34
 90
       35
 90
       35
 90
      111
 90
      111
 90
      112
 90
       35
 90
       36
 90
       36
 90
      112
 90
      112
 90
      113
 90
       36
 90
       37
 90
       37
 90
      113
 90
      113
 90
      114
 90
       37
 90
       38
 90
       38
 90
      114
 90
      114
 90
      115
 90
       38
 90
       39
 90
       39
 90
      115
 90
      115
 90
      116
 90
       39
 90
       40
 90
       40
 90
      116
 90
      116
 90
      117
 90
       40
 90
       41
 90
       41
 90
      117
 90
      117
 90
      118
 90
       41
 90
       42
 90
       42
 90
      118
 90
      118
 90
      119
 90
       42
 90
       43
 90
       43
 90
      119
 90
      119
 90
      120
 90
       43
 90
       44
 90
       44
 90
      120
 90
      120
 90
      121
 90
       44
 90
       45
 90
       45
 90
      121
 90
      121
 90
      122
 90
       45
 90
       46
 90
       46
 90
      122
 90
      122
 90
      123
 90
       46
 90
       47
 90
       47
 90
      123
 90
      123
 90
      124
 90
       47
 90
       48
 90
       48
 90
      124
 90
      124
 90
      125
 90
       48
 90
       49
 90
       49
 90
      125
 90
      125
 90
      126
 90
       49
 90
       50
 90
       50
 90
      126
 90
      126
 90
      127
 90
       50
 90
       51
 90
       51
 90
      127
 90
      127
 90
      128
 90
       51
 90
       52
 90
       52
 90
      128
 90
      128
 90
      129
 90
       52
 90
       53
 90
       53
 90
      129
 90
      129
 90
      130
 90
       53
 90
       54
 90
       54
 90
      130
 90
      130
 90
      131
 90
       54
 90
       55
 90
       55
 90
      131
 90
      131
 90
      132
 90
       55
 90
       56
 90
      208
 90
      300
 90
      210
 90
      300
 90
      209
 90
      210
 90
      208
 90
      209
 90
      207
 90
      213
 90
      212
 90
      213
 90
      211
 90
      212
 90
      207
 90
      211
 90
      214
 90
      217
 90
      216
 90
      217
 90
      215
 90
      216
 90
      214
 90
      215
 90
      216
 90
      219
 90
      218
 90
      219
 90
      215
 90
      218
 90
      220
 90
      223
 90
      222
 90
      223
 90
      221
 90
      222
 90
      220
 90
      221
 90
      222
 90
      225
 90
      224
 90
      225
 90
      221
 90
      224
 90
      226
 90
      229
 90
      228
 90
      229
 90
      227
 90
      228
 90
      226
 90
      227
 90
      230
 90
      233
 90
      232
 90
      233
 90
      231
 90
      232
 90
      230
 90
      231
 90
      234
 90
      237
 90
      236
 90
      237
 90
      235
 90
      236
 90
      234
 90
      235
 90
      236
 90
      239
 90
      238
 90
      239
 90
      235
 90
      238
 90
      240
 90
      243
 90
      242
 90
      243
 90
      241
 90
      242
 90
      240
 90
      241
 90
      244
 90
      307
 90
      246
 90
      307
 90
      245
 90
      246
 90
      244
 90
      245
 90
      212
 90
      302
 90
      301
 90
      302
 90
      211
 90
      301
 90
      217
 90
      302
 90
      214
 90
      301
 90
      219
 90
      223
 90
      218
 90
      220
 90
      225
 90
      229
 90
      224
 90
      226
 90
      228
 90
      233
 90
      227
 90
      230
 90
      232
 90
      237
 90
      231
 90
      234
 90
      239
 90
      304
 90
      303
 90
      304
 90
      238
 90
      303
 90
      304
 90
      306
 90
      305
 90
      306
 90
      303
 90
      305
 90
      243
 90
      306
 90
      240
 90
      305
 90
      242
 90
      307
 90
      241
 90
      244
 90
      154
 90
      247
 90
      154
 90
      209
 90
      210
 90
      247
 90
      155
 90
      248
 90
      154
 90
      155
 90
      247
 90
      248
 90
      156
 90
      249
 90
      155
 90
      156
 90
      248
 90
      249
 90
      157
 90
      250
 90
      156
 90
      157
 90
      249
 90
      250
 90
      158
 90
      251
 90
      157
 90
      158
 90
      250
 90
      251
 90
      159
 90
      252
 90
      158
 90
      159
 90
      251
 90
      252
 90
      160
 90
      253
 90
      159
 90
      160
 90
      252
 90
      253
 90
      161
 90
      254
 90
      160
 90
      161
 90
      253
 90
      254
 90
      162
 90
      255
 90
      161
 90
      162
 90
      254
 90
      255
 90
      163
 90
      256
 90
      162
 90
      163
 90
      255
 90
      256
 90
      164
 90
      257
 90
      163
 90
      164
 90
      256
 90
      257
 90
      165
 90
      258
 90
      164
 90
      165
 90
      257
 90
      258
 90
      166
 90
      259
 90
      165
 90
      166
 90
      258
 90
      259
 90
      167
 90
      260
 90
      166
 90
      167
 90
      259
 90
      260
 90
      168
 90
      261
 90
      167
 90
      168
 90
      260
 90
      261
 90
      169
 90
      262
 90
      168
 90
      169
 90
      261
 90
      262
 90
      170
 90
      263
 90
      169
 90
      170
 90
      262
 90
      263
 90
      171
 90
      264
 90
      170
 90
      171
 90
      263
 90
      264
 90
      172
 90
      265
 90
      171
 90
      172
 90
      264
 90
      265
 90
      173
 90
      266
 90
      172
 90
      173
 90
      265
 90
      266
 90
      174
 90
      267
 90
      173
 90
      174
 90
      266
 90
      267
 90
      175
 90
      268
 90
      174
 90
      175
 90
      267
 90
      268
 90
      176
 90
      269
 90
      175
 90
      176
 90
      268
 90
      269
 90
      177
 90
      270
 90
      176
 90
      177
 90
      269
 90
      270
 90
      178
 90
      271
 90
      177
 90
      178
 90
      270
 90
      271
 90
      179
 90
      272
 90
      178
 90
      179
 90
      271
 90
      272
 90
      180
 90
      273
 90
      179
 90
      180
 90
      272
 90
      273
 90
      181
 90
      274
 90
      180
 90
      181
 90
      273
 90
      274
 90
      182
 90
      275
 90
      181
 90
      182
 90
      274
 90
      275
 90
      183
 90
      276
 90
      182
 90
      183
 90
      275
 90
      276
 90
      184
 90
      277
 90
      183
 90
      184
 90
      276
 90
      277
 90
      185
 90
      278
 90
      184
 90
      185
 90
      277
 90
      278
 90
      186
 90
      279
 90
      185
 90
      186
 90
      278
 90
      279
 90
      187
 90
      280
 90
      186
 90
      187
 90
      279
 90
      280
 90
      188
 90
      281
 90
      187
 90
      188
 90
      280
 90
      281
 90
      189
 90
      282
 90
      188
 90
      189
 90
      281
 90
      282
 90
      190
 90
      283
 90
      189
 90
      190
 90
      282
 90
      283
 90
      191
 90
      284
 90
      190
 90
      191
 90
      283
 90
      284
 90
      192
 90
      285
 90
      191
 90
      192
 90
      284
 90
      285
 90
      193
 90
      286
 90
      192
 90
      193
 90
      285
 90
      286
 90
      194
 90
      287
 90
      193
 90
      194
 90
      286
 90
      287
 90
      195
 90
      288
 90
      194
 90
      195
 90
      287
 90
      288
 90
      196
 90
      289
 90
      195
 90
      196
 90
      288
 90
      289
 90
      197
 90
      290
 90
      196
 90
      197
 90
      289
 90
      290
 90
      198
 90
      291
 90
      197
 90
      198
 90
      290
 90
      291
 90
      199
 90
      292
 90
      198
 90
      199
 90
      291
 90
      292
 90
      200
 90
      293
 90
      199
 90
      200
 90
      292
 90
      293
 90
      201
 90
      294
 90
      200
 90
      201
 90
      293
 90
      294
 90
      202
 90
      295
 90
      201
 90
      202
 90
      294
 90
      295
 90
      203
 90
      296
 90
      202
 90
      203
 90
      295
 90
      296
 90
      204
 90
      297
 90
      203
 90
      204
 90
      296
 90
      297
 90
      205
 90
      298
 90
      204
 90
      205
 90
      297
 90
      298
 90
      206
 90
      299
 90
      205
 90
      206
 90
      298
 90
      299
 90
      206
 90
      207
 90
      213
 90
      299
 90
       36
 90
      187
 90
       37
 90
      188
 90
       35
 90
      186
 90
       34
 90
      185
 90
       33
 90
      184
 90
       32
 90
      183
 90
       31
 90
      182
 90
       30
 90
      181
 90
       29
 90
      180
 90
       28
 90
      179
 90
       27
 90
      178
 90
       26
 90
      177
 90
       25
 90
      176
 90
       24
 90
      175
 90
       23
 90
      174
 90
       22
 90
      173
 90
       21
 90
      172
 90
       20
 90
      171
 90
       19
 90
      170
 90
       18
 90
      169
 90
       17
 90
      168
 90
       16
 90
      167
 90
       15
 90
      166
 90
       14
 90
      165
 90
       13
 90
      164
 90
       12
 90
      163
 90
       11
 90
      162
 90
       10
 90
      161
 90
        9
 90
      160
 90
        8
 90
      159
 90
        7
 90
      158
 90
        6
 90
      157
 90
        5
 90
      156
 90
        4
 90
      155
 90
        3
 90
      154
 90
        2
 90
      209
 90
        1
 90
      208
 90
      153
 90
      300
 90
       78
 90
      210
 90
       79
 90
      247
 90
       80
 90
      248
 90
       81
 90
      249
 90
       82
 90
      250
 90
       83
 90
      251
 90
       84
 90
      252
 90
       85
 90
      253
 90
       86
 90
      254
 90
       87
 90
      255
 90
       88
 90
      256
 90
       89
 90
      257
 90
       90
 90
      258
 90
       91
 90
      259
 90
       92
 90
      260
 90
       93
 90
      261
 90
       94
 90
      262
 90
       95
 90
      263
 90
       96
 90
      264
 90
       97
 90
      265
 90
       98
 90
      266
 90
       99
 90
      267
 90
      100
 90
      268
 90
      101
 90
      269
 90
      102
 90
      270
 90
      103
 90
      271
 90
      104
 90
      272
 90
      105
 90
      273
 90
      106
 90
      274
 90
      107
 90
      275
 90
      108
 90
      276
 90
      109
 90
      277
 90
      110
 90
      278
 90
      111
 90
      279
 90
      112
 90
      280
 90
      113
 90
      281
 90
      114
 90
      282
 90
      115
 90
      283
 90
      116
 90
      284
 90
      117
 90
      285
 90
      118
 90
      286
 90
      119
 90
      287
 90
      120
 90
      288
 90
      121
 90
      289
 90
      122
 90
      290
 90
      123
 90
      291
 90
      124
 90
      292
 90
      125
 90
      293
 90
      126
 90
      294
 90
      127
 90
      295
 90
      128
 90
      296
 90
      129
 90
      297
 90
      130
 90
      298
 90
      131
 90
      299
 90
      132
 90
      213
 90
      152
 90
      212
 90
      151
 90
      302
 90
      150
 90
      217
 90
      149
 90
      216
 90
      148
 90
      219
 90
      147
 90
      223
 90
      146
 90
      222
 90
      145
 90
      225
 90
      144
 90
      229
 90
      143
 90
      228
 90
      142
 90
      233
 90
      141
 90
      232
 90
      140
 90
      237
 90
      139
 90
      236
 90
      138
 90
      239
 90
      137
 90
      304
 90
      136
 90
      306
 90
      135
 90
      243
 90
      134
 90
      242
 90
      133
 90
      307
 90
       77
 90
      246
 90
        0
 90
      245
 90
       76
 90
      244
 90
       75
 90
      241
 90
       74
 90
      240
 90
       73
 90
      305
 90
       72
 90
      303
 90
       71
 90
      238
 90
       70
 90
      235
 90
       69
 90
      234
 90
       68
 90
      231
 90
       67
 90
      230
 90
       66
 90
      227
 90
       65
 90
      226
 90
       64
 90
      224
 90
       63
 90
      221
 90
       62
 90
      220
 90
       61
 90
      218
 90
       60
 90
      215
 90
       59
 90
      214
 90
       58
 90
      301
 90
       57
 90
      211
 90
       56
 90
      207
 90
       55
 90
      206
 90
       54
 90
      205
 90
       53
 90
      204
 90
       52
 90
      203
 90
       51
 90
      202
 90
       50
 90
      201
 90
       49
 90
      200
 90
       48
 90
      199
 90
       47
 90
      198
 90
       46
 90
      197
 90
       45
 90
      196
 90
       44
 90
      195
 90
       43
 90
      194
 90
       42
 90
      193
 90
       41
 90
      192
 90
       40
 90
      191
 90
       39
 90
      190
 90
       38
 90
      189
 95
      612
140
0.0
140
0.0
140
0.0
140
0.0
140
0.0
140
0.0
140
0.0
140
0.0
140
0.0
140
0.0
140
0.0
140
0.0
140
0.0
140
0.0
140
0.0
140
0.0
140
0.0
140
0.0
140
0.0
140
0.0
140
0.0
140
0.0
140
0.0
140
0.0
140
0.0
140
0.0
140
0.0
140
0.0
140
0.0
140
0.0
140
0.0
140
0.0
140
0.0
140
0.0
140
0.0
140
0.0
140
0.0
140
0.0
140
0.0
140
0.0
140
0.0
140
0.0
140
0.0
140
0.0
140
0.0
140
0.0
140
0.0
140
0.0
140
0.0
140
0.0
140
0.0
140
0.0
140
0.0
140
0.0
140
0.0
140
0.0
140
0.0
140
0.0
140
0.0
140
0.0
140
0.0
140
0.0
140
0.0
140
0.0
140
0.0
140
0.0
140
0.0
140
0.0
140
0.0
140
0.0
140
0.0
140
0.0
140
0.0
140
0.0
140
0.0
140
0.0
140
0.0
140
0.0
140
0.0
140
0.0
140
0.0
140
0.0
140
0.0
140
0.0
140
0.0
140
0.0
140
0.0
140
0.0
140
0.0
140
0.0
140
0.0
140
0.0
140
0.0
140
0.0
140
0.0
140
0.0
140
0.0
140
0.0
140
0.0
140
0.0
140
0.0
140
0.0
140
0.0
140
0.0
140
0.0
140
0.0
140
0.0
140
0.0
140
0.0
140
0.0
140
0.0
140
0.0
140
0.0
140
0.0
140
0.0
140
0.0
140
0.0
140
0.0
140
0.0
140
0.0
140
0.0
140
0.0
140
0.0
140
0.0
140
0.0
140
0.0
140
0.0
140
0.0
140
0.0
140
0.0
140
0.0
140
0.0
140
0.0
140
0.0
140
0.0
140
0.0
140
0.0
140
0.0
140
0.0
140
0.0
140
0.0
140
0.0
140
0.0
140
0.0
140
0.0
140
0.0
140
0.0
140
0.0
140
0.0
140
0.0
140
0.0
140
0.0
140
0.0
140
0.0
140
0.0
140
0.0
140
0.0
140
0.0
140
0.0
140
0.0
140
0.0
140
0.0
140
0.0
140
0.0
140
0.0
140
0.0
140
0.0
140
0.0
140
0.0
140
0.0
140
0.0
140
0.0
140
0.0
140
0.0
140
0.0
140
0.0
140
0.0
140
0.0
140
0.0
140
0.0
140
0.0
140
0.0
140
0.0
140
0.0
140
0.0
140
0.0
140
0.0
140
0.0
140
0.0
140
0.0
140
0.0
140
0.0
140
0.0
140
0.0
140
0.0
140
0.0
140
0.0
140
0.0
140
0.0
140
0.0
140
0.0
140
0.0
140
0.0
140
0.0
140
0.0
140
0.0
140
0.0
140
0.0
140
0.0
140
0.0
140
0.0
140
0.0
140
0.0
140
0.0
140
0.0
140
0.0
140
0.0
140
0.0
140
0.0
140
0.0
140
0.0
140
0.0
140
0.0
140
0.0
140
0.0
140
0.0
140
0.0
140
0.0
140
0.0
140
0.0
140
0.0
140
0.0
140
0.0
140
0.0
140
0.0
140
0.0
140
0.0
140
0.0
140
0.0
140
0.0
140
0.0
140
0.0
140
0.0
140
0.0
140
0.0
140
0.0
140
0.0
140
0.0
140
0.0
140
0.0
140
0.0
140
0.0
140
0.0
140
0.0
140
0.0
140
0.0
140
0.0
140
0.0
140
0.0
140
0.0
140
0.0
140
0.0
140
0.0
140
0.0
140
0.0
140
0.0
140
0.0
140
0.0
140
0.0
140
0.0
140
0.0
140
0.0
140
0.0
140
0.0
140
0.0
140
0.0
140
0.0
140
0.0
140
0.0
140
0.0
140
0.0
140
0.0
140
0.0
140
0.0
140
0.0
140
0.0
140
0.0
140
0.0
140
0.0
140
0.0
140
0.0
140
0.0
140
0.0
140
0.0
140
0.0
140
0.0
140
0.0
140
0.0
140
0.0
140
0.0
140
0.0
140
0.0
140
0.0
140
0.0
140
0.0
140
0.0
140
0.0
140
0.0
140
0.0
140
0.0
140
0.0
140
0.0
140
0.0
140
0.0
140
0.0
140
0.0
140
0.0
140
0.0
140
0.0
140
0.0
140
0.0
140
0.0
140
0.0
140
0.0
140
0.0
140
0.0
140
0.0
140
0.0
140
0.0
140
0.0
140
0.0
140
0.0
140
0.0
140
0.0
140
0.0
140
0.0
140
0.0
140
0.0
140
0.0
140
0.0
140
0.0
140
0.0
140
0.0
140
0.0
140
0.0
140
0.0
140
0.0
140
0.0
140
0.0
140
0.0
140
0.0
140
0.0
140
0.0
140
0.0
140
0.0
140
0.0
140
0.0
140
0.0
140
0.0
140
0.0
140
0.0
140
0.0
140
0.0
140
0.0
140
0.0
140
0.0
140
0.0
140
0.0
140
0.0
140
0.0
140
0.0
140
0.0
140
0.0
140
0.0
140
0.0
140
0.0
140
0.0
140
0.0
140
0.0
140
0.0
140
0.0
140
0.0
140
0.0
140
0.0
140
0.0
140
0.0
140
0.0
140
0.0
140
0.0
140
0.0
140
0.0
140
0.0
140
0.0
140
0.0
140
0.0
140
0.0
140
0.0
140
0.0
140
0.0
140
0.0
140
0.0
140
0.0
140
0.0
140
0.0
140
0.0
140
0.0
140
0.0
140
0.0
140
0.0
140
0.0
140
0.0
140
0.0
140
0.0
140
0.0
140
0.0
140
0.0
140
0.0
140
0.0
140
0.0
140
0.0
140
0.0
140
0.0
140
0.0
140
0.0
140
0.0
140
0.0
140
0.0
140
0.0
140
0.0
140
0.0
140
0.0
140
0.0
140
0.0
140
0.0
140
0.0
140
0.0
140
0.0
140
0.0
140
0.0
140
0.0
140
0.0
140
0.0
140
0.0
140
0.0
140
0.0
140
0.0
140
0.0
140
0.0
140
0.0
140
0.0
140
0.0
140
0.0
140
0.0
140
0.0
140
0.0
140
0.0
140
0.0
140
0.0
140
0.0
140
0.0
140
0.0
140
0.0
140
0.0
140
0.0
140
0.0
140
0.0
140
0.0
140
0.0
140
0.0
140
0.0
140
0.0
140
0.0
140
0.0
140
0.0
140
0.0
140
0.0
140
0.0
140
0.0
140
0.0
140
0.0
140
0.0
140
0.0
140
0.0
140
0.0
140
0.0
140
0.0
140
0.0
140
0.0
140
0.0
140
0.0
140
0.0
140
0.0
140
0.0
140
0.0
140
0.0
140
0.0
140
0.0
140
0.0
140
0.0
140
0.0
140
0.0
140
0.0
140
0.0
140
0.0
140
0.0
140
0.0
140
0.0
140
0.0
140
0.0
140
0.0
140
0.0
140
0.0
140
0.0
140
0.0
140
0.0
140
0.0
140
0.0
140
0.0
140
0.0
140
0.0
140
0.0
140
0.0
140
0.0
140
0.0
140
0.0
140
0.0
140
0.0
140
0.0
140
0.0
140
0.0
140
0.0
140
0.0
140
0.0
140
0.0
140
0.0
140
0.0
140
0.0
140
0.0
140
0.0
140
0.0
140
0.0
140
0.0
140
0.0
140
0.0
140
0.0
140
0.0
140
0.0
140
0.0
140
0.0
140
0.0
140
0.0
140
0.0
140
0.0
140
0.0
140
0.0
140
0.0
140
0.0
140
0.0
140
0.0
140
0.0
140
0.0
140
0.0
140
0.0
140
0.0
140
0.0
140
0.0
140
0.0
140
0.0
140
0.0
140
0.0
140
0.0
140
0.0
140
0.0
140
0.0
140
0.0
140
0.0
140
0.0
140
0.0
140
0.0
140
0.0
140
0.0
140
0.0
140
0.0
140
0.0
140
0.0
140
0.0
140
0.0
140
0.0
140
0.0
140
0.0
140
0.0
140
0.0
140
0.0
140
0.0
140
0.0
140
0.0
140
0.0
140
0.0
140
0.0
140
0.0
140
0.0
140
0.0
140
0.0
140
0.0
140
0.0
140
0.0
140
0.0
140
0.0
140
0.0
140
0.0
140
0.0
140
0.0
 90
        0
  0
ENDSEC
  0
SECTION
  2
OBJECTS
  0
DICTIONARY
  5
C
330
0
100
AcDbDictionary
281
     1
  3
ACAD_COLOR
350
DC
  3
ACAD_DETAILVIEWSTYLE
350
F5
  3
ACAD_GROUP
350
D
  3
ACAD_LAYOUT
350
1A
  3
ACAD_MATERIAL
350
AA
  3
ACAD_MLEADERSTYLE
350
F1
  3
ACAD_MLINESTYLE
350
17
  3
ACAD_PLOTSETTINGS
350
19
  3
ACAD_PLOTSTYLENAME
350
E
  3
ACAD_SCALELIST
350
DF
  3
ACAD_SECTIONVIEWSTYLE
350
F3
  3
ACAD_TABLESTYLE
350
DD
  3
ACAD_VISUALSTYLE
350
C3
  3
ACDB_RECOMPOSE_DATA
350
106
  3
AcDbVariableDictionary
350
FA
  0
DICTIONARY
  5
DC
102
{ACAD_REACTORS
330
C
102
}
330
C
100
AcDbDictionary
281
     1
  0
DICTIONARY
  5
F5
102
{ACAD_REACTORS
330
C
102
}
330
C
100
AcDbDictionary
281
     1
  3
Imperial24
350
F6
  0
DICTIONARY
  5
D
102
{ACAD_REACTORS
330
C
102
}
330
C
100
AcDbDictionary
281
     1
  0
DICTIONARY
  5
1A
102
{ACAD_REACTORS
330
C
102
}
330
C
100
AcDbDictionary
281
     1
  3
Layout1
350
1E
  3
Layout2
350
26
  3
Model
350
22
  0
DICTIONARY
  5
AA
102
{ACAD_REACTORS
330
C
102
}
330
C
100
AcDbDictionary
281
     1
  3
ByBlock
350
B3
  3
ByLayer
350
AB
  3
Global
350
BB
  0
DICTIONARY
  5
F1
102
{ACAD_REACTORS
330
C
102
}
330
C
100
AcDbDictionary
281
     1
  3
Standard
350
F2
  0
DICTIONARY
  5
17
102
{ACAD_REACTORS
330
C
102
}
330
C
100
AcDbDictionary
281
     1
  3
Standard
350
18
  0
DICTIONARY
  5
19
102
{ACAD_REACTORS
330
C
102
}
330
C
100
AcDbDictionary
281
     1
  0
ACDBDICTIONARYWDFLT
  5
E
102
{ACAD_REACTORS
330
C
102
}
330
C
100
AcDbDictionary
281
     1
  3
ByLayer
350
2D
  3
Normal
350
F
100
AcDbDictionaryWithDefault
340
F
  0
DICTIONARY
  5
DF
102
{ACAD_REACTORS
330
C
102
}
330
C
100
AcDbDictionary
281
     1
  3
A0
350
E0
  3
A1
350
E1
  3
A2
350
E2
  3
A3
350
E3
  3
A4
350
E4
  3
A5
350
E5
  3
A6
350
E6
  3
A7
350
E7
  3
A8
350
E8
  3
A9
350
E9
  3
B0
350
EA
  3
B1
350
EB
  3
B2
350
EC
  3
B3
350
ED
  3
B4
350
EE
  3
B5
350
EF
  3
B6
350
F0
  0
DICTIONARY
  5
F3
102
{ACAD_REACTORS
330
C
102
}
330
C
100
AcDbDictionary
281
     1
  3
Imperial24
350
F4
  0
DICTIONARY
  5
DD
102
{ACAD_REACTORS
330
C
102
}
330
C
100
AcDbDictionary
281
     1
  3
Standard
350
DE
  0
DICTIONARY
  5
C3
102
{ACAD_REACTORS
330
C
102
}
330
C
100
AcDbDictionary
281
     1
  3
2dWireframe
350
C9
  3
Basic
350
C8
  3
Brighten
350
CF
  3
ColorChange
350
D3
  3
Conceptual
350
CC
  3
Dim
350
CE
  3
EdgeColorOff
350
DB
  3
Facepattern
350
D2
  3
Flat
350
C4
  3
FlatWithEdges
350
C5
  3
Gouraud
350
C6
  3
GouraudWithEdges
350
C7
  3
Hidden
350
CB
  3
JitterOff
350
D9
  3
Linepattern
350
D1
  3
OverhangOff
350
DA
  3
Realistic
350
CD
  3
Shaded
350
D8
  3
Shaded with edges
350
D7
  3
Shades of Gray
350
D4
  3
Sketchy
350
D5
  3
Thicken
350
D0
  3
Wireframe
350
CA
  3
X-Ray
350
D6
  0
XRECORD
  5
106
102
{ACAD_REACTORS
330
C
102
}
330
C
100
AcDbXrecord
280
     1
 90
        1
330
DE
  0
DICTIONARY
  5
FA
102
{ACAD_REACTORS
330
C
102
}
330
C
100
AcDbDictionary
281
     1
  3
CANNOSCALE
350
100
  3
CMLEADERSTYLE
350
FC
  3
CTABLESTYLE
350
FB
  3
CVIEWDETAILSTYLE
350
FD
  3
CVIEWSECTIONSTYLE
350
FE
  3
LAYEREVAL
350
102
  3
LAYERNOTIFY
350
103
  3
LIGHTINGUNITS
350
101
  3
MSLTSCALE
350
FF
  0
ACDBDETAILVIEWSTYLE
  5
F6
102
{ACAD_XDICTIONARY
360
13B
102
}
102
{ACAD_REACTORS
330
F5
102
}
330
F5
100
AcDbModelDocViewStyle
 70
     0
  3
Imperial24
290
     0
100
AcDbDetailViewStyle
 70
     0
 71
     0
 90
        3
 71
     1
340
11
 62
   256
 40
0.24
340
0
 62
   256
 40
0.24
300

 40
0.36
280
     3
 71
     2
340
16
 90
       25
 62
   256
 71
     3
340
11
 62
   256
 40
0.24
 90
        1
 40
0.75
 90
        1
300
%<\AcVar ViewType \f "%tc1">% %<\AcVar ViewDetailId>%\PSCALE %<\AcVar ViewScale \f "%sn">%
 71
     4
340
16
 90
       25
 62
   256
340
16
 90
       25
 62
   256
280
     0
  0
LAYOUT
  5
1E
102
{ACAD_REACTORS
330
1A
102
}
330
1A
100
AcDbPlotSettings
  1

  2
\\KTXNTBDC\CASF2PN1
  4

  6

 40
0.0
 41
0.0
 42
0.0
 43
0.0
 44
0.0
 45
0.0
 46
0.0
 47
0.0
 48
0.0
 49
0.0
140
0.0
141
0.0
142
1.0
143
1.0
 70
   688
 72
     0
 73
     0
 74
     5
  7

 75
    16
147
1.0
 76
     0
 77
     2
 78
   300
148
0.0
149
0.0
100
AcDbLayout
  1
Layout1
 70
     1
 71
     1
 10
0.0
 20
0.0
 11
12.0
 21
9.0
 12
0.0
 22
0.0
 32
0.0
 14
1.000000000000000E+20
 24
1.000000000000000E+20
 34
1.000000000000000E+20
 15
-1.000000000000000E+20
 25
-1.000000000000000E+20
 35
-1.000000000000000E+20
146
0.0
 13
0.0
 23
0.0
 33
0.0
 16
1.0
 26
0.0
 36
0.0
 17
0.0
 27
1.0
 37
0.0
 76
     0
330
1B
  0
LAYOUT
  5
26
102
{ACAD_REACTORS
330
1A
102
}
330
1A
100
AcDbPlotSettings
  1

  2
\\KTXNTBDC\CASF2PN1
  4

  6

 40
0.0
 41
0.0
 42
0.0
 43
0.0
 44
0.0
 45
0.0
 46
0.0
 47
0.0
 48
0.0
 49
0.0
140
0.0
141
0.0
142
1.0
143
1.0
 70
   688
 72
     0
 73
     0
 74
     5
  7

 75
    16
147
1.0
 76
     0
 77
     2
 78
   300
148
0.0
149
0.0
100
AcDbLayout
  1
Layout2
 70
     1
 71
     2
 10
0.0
 20
0.0
 11
12.0
 21
9.0
 12
0.0
 22
0.0
 32
0.0
 14
0.0
 24
0.0
 34
0.0
 15
0.0
 25
0.0
 35
0.0
146
0.0
 13
0.0
 23
0.0
 33
0.0
 16
1.0
 26
0.0
 36
0.0
 17
0.0
 27
1.0
 37
0.0
 76
     0
330
23
  0
LAYOUT
  5
22
102
{ACAD_REACTORS
330
1A
102
}
330
1A
100
AcDbPlotSettings
  1

  2
\\KTXNTBDC\CASF2PN1
  4

  6

 40
0.0
 41
0.0
 42
0.0
 43
0.0
 44
0.0
 45
0.0
 46
0.0
 47
0.0
 48
0.0
 49
0.0
140
0.0
141
0.0
142
1.0
143
1.0
 70
  1712
 72
     0
 73
     0
 74
     0
  7

 75
     0
147
1.0
 76
     0
 77
     2
 78
   300
148
0.0
149
0.0
100
AcDbLayout
  1
Model
 70
     1
 71
     0
 10
0.0
 20
0.0
 11
12.0
 21
9.0
 12
0.0
 22
0.0
 32
0.0
 14
0.0
 24
0.0
 34
0.0
 15
0.0
 25
0.0
 35
0.0
146
0.0
 13
0.0
 23
0.0
 33
0.0
 16
1.0
 26
0.0
 36
0.0
 17
0.0
 27
1.0
 37
0.0
 76
     0
330
1F
  0
MATERIAL
  5
B3
102
{ACAD_XDICTIONARY
360
B4
102
}
102
{ACAD_REACTORS
330
AA
102
}
330
AA
100
AcDbMaterial
  1
ByBlock
 72
     0
 43
0.0208333333333333
 43
0.0
 43
0.0
 43
0.0
 43
0.0
 43
0.0208333333333333
 43
0.0
 43
0.0
 43
0.0
 43
0.0
 43
1.0
 43
0.0
 43
0.0
 43
0.0
 43
0.0
 43
1.0
 77
     0
 47
0.0208333333333333
 47
0.0
 47
0.0
 47
0.0
 47
0.0
 47
0.0208333333333333
 47
0.0
 47
0.0
 47
0.0
 47
0.0
 47
1.0
 47
0.0
 47
0.0
 47
0.0
 47
0.0
 47
1.0
171
     0
 49
0.0208333333333333
 49
0.0
 49
0.0
 49
0.0
 49
0.0
 49
0.0208333333333333
 49
0.0
 49
0.0
 49
0.0
 49
0.0
 49
1.0
 49
0.0
 49
0.0
 49
0.0
 49
0.0
 49
1.0
175
     0
142
0.0208333333333333
142
0.0
142
0.0
142
0.0
142
0.0
142
0.0208333333333333
142
0.0
142
0.0
142
0.0
142
0.0
142
1.0
142
0.0
142
0.0
142
0.0
142
0.0
142
1.0
179
     0
144
0.0208333333333333
144
0.0
144
0.0
144
0.0
144
0.0
144
0.0208333333333333
144
0.0
144
0.0
144
0.0
144
0.0
144
1.0
144
0.0
144
0.0
144
0.0
144
0.0
144
1.0
147
0.0208333333333333
147
0.0
147
0.0
147
0.0
147
0.0
147
0.0208333333333333
147
0.0
147
0.0
147
0.0
147
0.0
147
1.0
147
0.0
147
0.0
147
0.0
147
0.0
147
1.0
  0
MATERIAL
  5
AB
102
{ACAD_XDICTIONARY
360
AC
102
}
102
{ACAD_REACTORS
330
AA
102
}
330
AA
100
AcDbMaterial
  1
ByLayer
 72
     0
 43
0.0208333333333333
 43
0.0
 43
0.0
 43
0.0
 43
0.0
 43
0.0208333333333333
 43
0.0
 43
0.0
 43
0.0
 43
0.0
 43
1.0
 43
0.0
 43
0.0
 43
0.0
 43
0.0
 43
1.0
 77
     0
 47
0.0208333333333333
 47
0.0
 47
0.0
 47
0.0
 47
0.0
 47
0.0208333333333333
 47
0.0
 47
0.0
 47
0.0
 47
0.0
 47
1.0
 47
0.0
 47
0.0
 47
0.0
 47
0.0
 47
1.0
171
     0
 49
0.0208333333333333
 49
0.0
 49
0.0
 49
0.0
 49
0.0
 49
0.0208333333333333
 49
0.0
 49
0.0
 49
0.0
 49
0.0
 49
1.0
 49
0.0
 49
0.0
 49
0.0
 49
0.0
 49
1.0
175
     0
142
0.0208333333333333
142
0.0
142
0.0
142
0.0
142
0.0
142
0.0208333333333333
142
0.0
142
0.0
142
0.0
142
0.0
142
1.0
142
0.0
142
0.0
142
0.0
142
0.0
142
1.0
179
     0
144
0.0208333333333333
144
0.0
144
0.0
144
0.0
144
0.0
144
0.0208333333333333
144
0.0
144
0.0
144
0.0
144
0.0
144
1.0
144
0.0
144
0.0
144
0.0
144
0.0
144
1.0
147
0.0208333333333333
147
0.0
147
0.0
147
0.0
147
0.0
147
0.0208333333333333
147
0.0
147
0.0
147
0.0
147
0.0
147
1.0
147
0.0
147
0.0
147
0.0
147
0.0
147
1.0
  0
MATERIAL
  5
BB
102
{ACAD_XDICTIONARY
360
BC
102
}
102
{ACAD_REACTORS
330
AA
102
}
330
AA
100
AcDbMaterial
  1
Global
 72
     0
 43
0.0208333333333333
 43
0.0
 43
0.0
 43
0.0
 43
0.0
 43
0.0208333333333333
 43
0.0
 43
0.0
 43
0.0
 43
0.0
 43
1.0
 43
0.0
 43
0.0
 43
0.0
 43
0.0
 43
1.0
 77
     0
 47
0.0208333333333333
 47
0.0
 47
0.0
 47
0.0
 47
0.0
 47
0.0208333333333333
 47
0.0
 47
0.0
 47
0.0
 47
0.0
 47
1.0
 47
0.0
 47
0.0
 47
0.0
 47
0.0
 47
1.0
171
     0
 49
0.0208333333333333
 49
0.0
 49
0.0
 49
0.0
 49
0.0
 49
0.0208333333333333
 49
0.0
 49
0.0
 49
0.0
 49
0.0
 49
1.0
 49
0.0
 49
0.0
 49
0.0
 49
0.0
 49
1.0
175
     0
142
0.0208333333333333
142
0.0
142
0.0
142
0.0
142
0.0
142
0.0208333333333333
142
0.0
142
0.0
142
0.0
142
0.0
142
1.0
142
0.0
142
0.0
142
0.0
142
0.0
142
1.0
179
     0
144
0.0208333333333333
144
0.0
144
0.0
144
0.0
144
0.0
144
0.0208333333333333
144
0.0
144
0.0
144
0.0
144
0.0
144
1.0
144
0.0
144
0.0
144
0.0
144
0.0
144
1.0
147
0.0208333333333333
147
0.0
147
0.0
147
0.0
147
0.0
147
0.0208333333333333
147
0.0
147
0.0
147
0.0
147
0.0
147
1.0
147
0.0
147
0.0
147
0.0
147
0.0
147
1.0
  0
MLEADERSTYLE
  5
F2
102
{ACAD_XDICTIONARY
360
137
102
}
102
{ACAD_REACTORS
330
F1
102
}
330
F1
100
AcDbMLeaderStyle
179
     2
170
     2
171
     1
172
     0
 90
        2
 40
0.0
 41
0.0
173
     1
 91
-1056964608
340
14
 92
       -2
290
     1
 42
0.09
291
     1
 43
0.36
  3
Standard
 44
0.18
300

342
11
174
     1
178
     6
175
     1
176
     0
 93
-1056964608
 45
0.18
292
     0
297
     0
 46
0.18
 94
-1056964608
 47
1.0
 49
1.0
140
1.0
293
     1
141
0.0
294
     1
177
     0
142
1.0
295
     0
296
     0
143
0.125
271
     0
272
     9
273
     9
  0
MLINESTYLE
  5
18
102
{ACAD_REACTORS
330
17
102
}
330
17
100
AcDbMlineStyle
  2
STANDARD
 70
     0
  3

 62
   256
 51
90.0
 52
90.0
 71
     2
 49
0.5
 62
   256
  6
BYLAYER
 49
-0.5
 62
   256
  6
BYLAYER
  0
ACDBPLACEHOLDER
  5
2D
102
{ACAD_REACTORS
330
E
102
}
330
E
  0
ACDBPLACEHOLDER
  5
F
102
{ACAD_REACTORS
330
E
102
}
330
E
  0
SCALE
  5
E0
102
{ACAD_REACTORS
330
DF
102
}
330
DF
100
AcDbScale
 70
     0
300
1:1
140
1.0
141
1.0
290
     1
  0
SCALE
  5
E1
102
{ACAD_REACTORS
330
DF
102
}
330
DF
100
AcDbScale
 70
     0
300
1/128" = 1'-0"
140
0.0078125
141
12.0
290
     0
  0
SCALE
  5
E2
102
{ACAD_REACTORS
330
DF
102
}
330
DF
100
AcDbScale
 70
     0
300
1/64" = 1'-0"
140
0.015625
141
12.0
290
     0
  0
SCALE
  5
E3
102
{ACAD_REACTORS
330
DF
102
}
330
DF
100
AcDbScale
 70
     0
300
1/32" = 1'-0"
140
0.03125
141
12.0
290
     0
  0
SCALE
  5
E4
102
{ACAD_REACTORS
330
DF
102
}
330
DF
100
AcDbScale
 70
     0
300
1/16" = 1'-0"
140
0.0625
141
12.0
290
     0
  0
SCALE
  5
E5
102
{ACAD_REACTORS
330
DF
102
}
330
DF
100
AcDbScale
 70
     0
300
3/32" = 1'-0"
140
0.09375
141
12.0
290
     0
  0
SCALE
  5
E6
102
{ACAD_REACTORS
330
DF
102
}
330
DF
100
AcDbScale
 70
     0
300
1/8" = 1'-0"
140
0.125
141
12.0
290
     0
  0
SCALE
  5
E7
102
{ACAD_REACTORS
330
DF
102
}
330
DF
100
AcDbScale
 70
     0
300
3/16" = 1'-0"
140
0.1875
141
12.0
290
     0
  0
SCALE
  5
E8
102
{ACAD_REACTORS
330
DF
102
}
330
DF
100
AcDbScale
 70
     0
300
1/4" = 1'-0"
140
0.25
141
12.0
290
     0
  0
SCALE
  5
E9
102
{ACAD_REACTORS
330
DF
102
}
330
DF
100
AcDbScale
 70
     0
300
3/8" = 1'-0"
140
0.375
141
12.0
290
     0
  0
SCALE
  5
EA
102
{ACAD_REACTORS
330
DF
102
}
330
DF
100
AcDbScale
 70
     0
300
1/2" = 1'-0"
140
0.5
141
12.0
290
     0
  0
SCALE
  5
EB
102
{ACAD_REACTORS
330
DF
102
}
330
DF
100
AcDbScale
 70
     0
300
3/4" = 1'-0"
140
0.75
141
12.0
290
     0
  0
SCALE
  5
EC
102
{ACAD_REACTORS
330
DF
102
}
330
DF
100
AcDbScale
 70
     0
300
1" = 1'-0"
140
1.0
141
12.0
290
     0
  0
SCALE
  5
ED
102
{ACAD_REACTORS
330
DF
102
}
330
DF
100
AcDbScale
 70
     0
300
1-1/2" = 1'-0"
140
1.5
141
12.0
290
     0
  0
SCALE
  5
EE
102
{ACAD_REACTORS
330
DF
102
}
330
DF
100
AcDbScale
 70
     0
300
3" = 1'-0"
140
3.0
141
12.0
290
     0
  0
SCALE
  5
EF
102
{ACAD_REACTORS
330
DF
102
}
330
DF
100
AcDbScale
 70
     0
300
6" = 1'-0"
140
6.0
141
12.0
290
     0
  0
SCALE
  5
F0
102
{ACAD_REACTORS
330
DF
102
}
330
DF
100
AcDbScale
 70
     0
300
1'-0" = 1'-0"
140
12.0
141
12.0
290
     0
  0
ACDBSECTIONVIEWSTYLE
  5
F4
102
{ACAD_XDICTIONARY
360
139
102
}
102
{ACAD_REACTORS
330
F3
102
}
330
F3
100
AcDbModelDocViewStyle
 70
     0
  3
Imperial24
290
     0
100
AcDbSectionViewStyle
 70
     0
 71
     0
 90
       78
 71
     1
340
11
 62
   256
 40
0.24
340
0
340
0
 62
   256
 40
0.24
300
I, O, Q, S, X, Z
 40
0.48
 90
        3
 40
0.18
 90
        1
 71
     2
340
16
 90
       25
 62
   256
340
16
 90
       50
 62
   256
 40
0.24
 40
0.0
 40
0.24
 71
     3
340
11
 62
   256
 40
0.24
 90
        1
 40
0.75
 90
        1
300
%<\AcVar ViewType \f "%tc1">% %<\AcVar ViewSectionStartId>%-%<\AcVar ViewSectionEndId>%\PSCALE %<\AcVar ViewScale \f "%sn">%
 71
     4
 62
   256
 62
   257
300
ANSI31
 40
1.0
 90
        0
290
     0
290
     0
 90
        6
 40
0.0
 40
1.570796326794896
 40
0.2617993877991494
 40
1.308996938995747
 40
-0.2617993877991494
 40
1.832595714594046
  0
TABLESTYLE
  5
DE
102
{ACAD_XDICTIONARY
360
104
102
}
102
{ACAD_REACTORS
330
DD
102
}
330
DD
100
AcDbTableStyle
280
     0
  3
Standard
 70
     0
 71
     0
 40
0.06
 41
0.06
280
     0
281
     0
  7
Standard
140
0.18
170
     2
 62
     0
 63
     7
283
     0
 90
      512
 91
        0
  1

274
    -2
284
     1
 64
     0
275
    -2
285
     1
 65
     0
276
    -2
286
     1
 66
     0
277
    -2
287
     1
 67
     0
278
    -2
288
     1
 68
     0
279
    -2
289
     1
 69
     0
  7
Standard
140
0.25
170
     5
 62
     0
 63
     7
283
     0
 90
      512
 91
        0
  1

274
    -2
284
     1
 64
     0
275
    -2
285
     1
 65
     0
276
    -2
286
     1
 66
     0
277
    -2
287
     1
 67
     0
278
    -2
288
     1
 68
     0
279
    -2
289
     1
 69
     0
  7
Standard
140
0.18
170
     5
 62
     0
 63
     7
283
     0
 90
      512
 91
        0
  1

274
    -2
284
     1
 64
     0
275
    -2
285
     1
 65
     0
276
    -2
286
     1
 66
     0
277
    -2
287
     1
 67
     0
278
    -2
288
     1
 68
     0
279
    -2
289
     1
 69
     0
  0
VISUALSTYLE
  5
C9
102
{ACAD_XDICTIONARY
360
111
102
}
102
{ACAD_REACTORS
330
C3
102
}
330
C3
100
AcDbVisualStyle
  2
2dWireframe
 70
     4
177
     2
291
     0
 71
     0
176
     1
 72
     2
176
     1
 73
     0
176
     1
 90
        0
176
     1
 40
0.6
176
     1
 41
30.0
176
     1
 63
     7
421
 16777215
176
     1
 74
     1
176
     1
 91
        4
176
     1
 64
     7
176
     1
 65
   257
176
     1
 75
     1
176
     1
175
     1
176
     1
 42
1.0
176
     1
 92
        0
176
     1
 66
   257
176
     1
 43
1.0
176
     1
 76
     1
176
     1
 77
     6
176
     1
 78
     2
176
     1
 67
     7
176
     1
 79
     5
176
     1
170
     0
176
     1
171
     0
176
     1
290
     0
176
     1
 93
        1
176
     1
 44
0.0
176
     1
173
     0
176
     1
1001
ACAD
1000
AcDbSavedByObjectVersion
1070
     0
  0
VISUALSTYLE
  5
C8
102
{ACAD_XDICTIONARY
360
10F
102
}
102
{ACAD_REACTORS
330
C3
102
}
330
C3
100
AcDbVisualStyle
  2
Basic
 70
     7
177
     2
291
     1
 71
     1
176
     1
 72
     0
176
     1
 73
     1
176
     1
 90
        0
176
     1
 40
0.6
176
     1
 41
30.0
176
     1
 63
     7
421
 16777215
176
     1
 74
     0
176
     1
 91
        4
176
     1
 64
     7
176
     1
 65
   257
176
     1
 75
     1
176
     1
175
     1
176
     1
 42
1.0
176
     1
 92
        8
176
     1
 66
     7
176
     1
 43
1.0
176
     1
 76
     1
176
     1
 77
     6
176
     1
 78
     2
176
     1
 67
     7
176
     1
 79
     5
176
     1
170
     0
176
     1
171
     0
176
     1
290
     0
176
     1
 93
        1
176
     1
 44
0.0
176
     1
173
     0
176
     1
1001
ACAD
1000
AcDbSavedByObjectVersion
1070
     0
  0
VISUALSTYLE
  5
CF
102
{ACAD_XDICTIONARY
360
11D
102
}
102
{ACAD_REACTORS
330
C3
102
}
330
C3
100
AcDbVisualStyle
  2
Brighten
 70
    12
177
     2
291
     1
 71
     2
176
     1
 72
     2
176
     1
 73
     0
176
     1
 90
        0
176
     1
 40
0.6
176
     1
 41
30.0
176
     1
 63
     7
421
 16777215
176
     1
 74
     1
176
     1
 91
        4
176
     1
 64
     7
176
     1
 65
   257
176
     1
 75
     1
176
     1
175
     1
176
     1
 42
1.0
176
     1
 92
        8
176
     1
 66
     7
176
     1
 43
1.0
176
     1
 76
     1
176
     1
 77
     6
176
     1
 78
     2
176
     1
 67
     7
176
     1
 79
     5
176
     1
170
     0
176
     1
171
     0
176
     1
290
     0
176
     1
 93
        1
176
     1
 44
50.0
176
     1
173
     0
176
     1
1001
ACAD
1000
AcDbSavedByObjectVersion
1070
     0
  0
VISUALSTYLE
  5
D3
102
{ACAD_XDICTIONARY
360
125
102
}
102
{ACAD_REACTORS
330
C3
102
}
330
C3
100
AcDbVisualStyle
  2
ColorChange
 70
    16
177
     2
291
     1
 71
     2
176
     1
 72
     2
176
     1
 73
     3
176
     1
 90
        0
176
     1
 40
0.6
176
     1
 41
30.0
176
     1
 63
     8
421
  8421504
176
     1
 74
     1
176
     1
 91
        4
176
     1
 64
     7
176
     1
 65
   257
176
     1
 75
     1
176
     1
175
     1
176
     1
 42
1.0
176
     1
 92
        8
176
     1
 66
     8
424
  8421504
176
     1
 43
1.0
176
     1
 76
     1
176
     1
 77
     6
176
     1
 78
     2
176
     1
 67
     7
176
     1
 79
     5
176
     1
170
     0
176
     1
171
     0
176
     1
290
     0
176
     1
 93
        1
176
     1
 44
0.0
176
     1
173
     0
176
     1
1001
ACAD
1000
AcDbSavedByObjectVersion
1070
     0
  0
VISUALSTYLE
  5
CC
102
{ACAD_XDICTIONARY
360
117
102
}
102
{ACAD_REACTORS
330
C3
102
}
330
C3
100
AcDbVisualStyle
  2
Conceptual
 70
     9
177
     2
291
     0
 71
     3
176
     1
 72
     2
176
     1
 73
     0
176
     1
 90
        0
176
     1
 40
0.6
176
     1
 41
30.0
176
     1
 63
     7
421
 16777215
176
     1
 74
     2
176
     1
 91
        2
176
     1
 64
     7
176
     1
 65
   257
176
     1
 75
     1
176
     1
175
     1
176
     1
 42
179.0
176
     1
 92
        8
176
     1
 66
     7
176
     1
 43
1.0
176
     1
 76
     1
176
     1
 77
     6
176
     1
 78
     2
176
     1
 67
     7
176
     1
 79
     3
176
     1
170
     0
176
     1
171
     0
176
     1
290
     0
176
     1
 93
        1
176
     1
 44
0.0
176
     1
173
     0
176
     1
1001
ACAD
1000
AcDbSavedByObjectVersion
1070
     0
  0
VISUALSTYLE
  5
CE
102
{ACAD_XDICTIONARY
360
11B
102
}
102
{ACAD_REACTORS
330
C3
102
}
330
C3
100
AcDbVisualStyle
  2
Dim
 70
    11
177
     2
291
     1
 71
     2
176
     1
 72
     2
176
     1
 73
     0
176
     1
 90
        0
176
     1
 40
0.6
176
     1
 41
30.0
176
     1
 63
     7
421
 16777215
176
     1
 74
     1
176
     1
 91
        4
176
     1
 64
     7
176
     1
 65
   257
176
     1
 75
     1
176
     1
175
     1
176
     1
 42
1.0
176
     1
 92
        8
176
     1
 66
     7
176
     1
 43
1.0
176
     1
 76
     1
176
     1
 77
     6
176
     1
 78
     2
176
     1
 67
     7
176
     1
 79
     5
176
     1
170
     0
176
     1
171
     0
176
     1
290
     0
176
     1
 93
        1
176
     1
 44
-50.0
176
     1
173
     0
176
     1
1001
ACAD
1000
AcDbSavedByObjectVersion
1070
     0
  0
VISUALSTYLE
  5
DB
102
{ACAD_XDICTIONARY
360
135
102
}
102
{ACAD_REACTORS
330
C3
102
}
330
C3
100
AcDbVisualStyle
  2
EdgeColorOff
 70
    22
177
     2
291
     1
 71
     2
176
     0
 72
     2
176
     0
 73
     0
176
     0
 90
        0
176
     0
 40
0.6
176
     0
 41
30.0
176
     0
 63
     7
421
 16777215
176
     0
 74
     1
176
     0
 91
        4
176
     0
 64
     7
176
     0
 65
   257
176
     0
 75
     1
176
     0
175
     1
176
     0
 42
1.0
176
     0
 92
        8
176
     2
 66
     7
176
     0
 43
1.0
176
     0
 76
     1
176
     0
 77
     6
176
     0
 78
     2
176
     0
 67
     7
176
     0
 79
     5
176
     0
170
     0
176
     0
171
     0
176
     0
290
     0
176
     0
 93
        1
176
     0
 44
0.0
176
     0
173
     0
176
     0
1001
ACAD
1000
AcDbSavedByObjectVersion
1070
     0
  0
VISUALSTYLE
  5
D2
102
{ACAD_XDICTIONARY
360
123
102
}
102
{ACAD_REACTORS
330
C3
102
}
330
C3
100
AcDbVisualStyle
  2
Facepattern
 70
    15
177
     2
291
     1
 71
     2
176
     1
 72
     2
176
     1
 73
     0
176
     1
 90
        0
176
     1
 40
0.6
176
     1
 41
30.0
176
     1
 63
     7
421
 16777215
176
     1
 74
     1
176
     1
 91
        4
176
     1
 64
     7
176
     1
 65
   257
176
     1
 75
     1
176
     1
175
     1
176
     1
 42
1.0
176
     1
 92
        8
176
     1
 66
     7
176
     1
 43
1.0
176
     1
 76
     1
176
     1
 77
     6
176
     1
 78
     2
176
     1
 67
     7
176
     1
 79
     5
176
     1
170
     0
176
     1
171
     0
176
     1
290
     0
176
     1
 93
        1
176
     1
 44
0.0
176
     1
173
     0
176
     1
1001
ACAD
1000
AcDbSavedByObjectVersion
1070
     0
  0
VISUALSTYLE
  5
C4
102
{ACAD_XDICTIONARY
360
107
102
}
102
{ACAD_REACTORS
330
C3
102
}
330
C3
100
AcDbVisualStyle
  2
Flat
 70
     0
177
     2
291
     1
 71
     2
176
     1
 72
     1
176
     1
 73
     1
176
     1
 90
        2
176
     1
 40
0.6
176
     1
 41
30.0
176
     1
 63
     7
421
 16777215
176
     1
 74
     0
176
     1
 91
        0
176
     1
 64
     7
176
     1
 65
   257
176
     1
 75
     1
176
     1
175
     1
176
     1
 42
1.0
176
     1
 92
        8
176
     1
 66
     7
176
     1
 43
1.0
176
     1
 76
     1
176
     1
 77
     6
176
     1
 78
     2
176
     1
 67
     7
176
     1
 79
     5
176
     1
170
     0
176
     1
171
     0
176
     1
290
     0
176
     1
 93
       13
176
     1
 44
0.0
176
     1
173
     0
176
     1
1001
ACAD
1000
AcDbSavedByObjectVersion
1070
     0
  0
VISUALSTYLE
  5
C5
102
{ACAD_XDICTIONARY
360
109
102
}
102
{ACAD_REACTORS
330
C3
102
}
330
C3
100
AcDbVisualStyle
  2
FlatWithEdges
 70
     1
177
     2
291
     1
 71
     2
176
     1
 72
     1
176
     1
 73
     1
176
     1
 90
        2
176
     1
 40
0.6
176
     1
 41
30.0
176
     1
 63
     7
421
 16777215
176
     1
 74
     1
176
     1
 91
        0
176
     1
 64
     7
176
     1
 65
   257
176
     1
 75
     1
176
     1
175
     1
176
     1
 42
1.0
176
     1
 92
        0
176
     1
 66
   257
176
     1
 43
1.0
176
     1
 76
     1
176
     1
 77
     6
176
     1
 78
     2
176
     1
 67
     7
176
     1
 79
     5
176
     1
170
     0
176
     1
171
     0
176
     1
290
     0
176
     1
 93
       13
176
     1
 44
0.0
176
     1
173
     0
176
     1
1001
ACAD
1000
AcDbSavedByObjectVersion
1070
     0
  0
VISUALSTYLE
  5
C6
102
{ACAD_XDICTIONARY
360
10B
102
}
102
{ACAD_REACTORS
330
C3
102
}
330
C3
100
AcDbVisualStyle
  2
Gouraud
 70
     2
177
     2
291
     1
 71
     2
176
     1
 72
     2
176
     1
 73
     1
176
     1
 90
        2
176
     1
 40
0.6
176
     1
 41
30.0
176
     1
 63
     7
421
 16777215
176
     1
 74
     0
176
     1
 91
        0
176
     1
 64
     7
176
     1
 65
   257
176
     1
 75
     1
176
     1
175
     1
176
     1
 42
1.0
176
     1
 92
        0
176
     1
 66
     7
176
     1
 43
1.0
176
     1
 76
     1
176
     1
 77
     6
176
     1
 78
     2
176
     1
 67
     7
176
     1
 79
     5
176
     1
170
     0
176
     1
171
     0
176
     1
290
     0
176
     1
 93
       13
176
     1
 44
0.0
176
     1
173
     0
176
     1
1001
ACAD
1000
AcDbSavedByObjectVersion
1070
     0
  0
VISUALSTYLE
  5
C7
102
{ACAD_XDICTIONARY
360
10D
102
}
102
{ACAD_REACTORS
330
C3
102
}
330
C3
100
AcDbVisualStyle
  2
GouraudWithEdges
 70
     3
177
     2
291
     1
 71
     2
176
     1
 72
     2
176
     1
 73
     1
176
     1
 90
        2
176
     1
 40
0.6
176
     1
 41
30.0
176
     1
 63
     7
421
 16777215
176
     1
 74
     1
176
     1
 91
        0
176
     1
 64
     7
176
     1
 65
   257
176
     1
 75
     1
176
     1
175
     1
176
     1
 42
1.0
176
     1
 92
        0
176
     1
 66
   257
176
     1
 43
1.0
176
     1
 76
     1
176
     1
 77
     6
176
     1
 78
     2
176
     1
 67
     7
176
     1
 79
     5
176
     1
170
     0
176
     1
171
     0
176
     1
290
     0
176
     1
 93
       13
176
     1
 44
0.0
176
     1
173
     0
176
     1
1001
ACAD
1000
AcDbSavedByObjectVersion
1070
     0
  0
VISUALSTYLE
  5
CB
102
{ACAD_XDICTIONARY
360
115
102
}
102
{ACAD_REACTORS
330
C3
102
}
330
C3
100
AcDbVisualStyle
  2
Hidden
 70
     6
177
     2
291
     0
 71
     1
176
     1
 72
     2
176
     1
 73
     2
176
     1
 90
        0
176
     1
 40
0.6
176
     1
 41
30.0
176
     1
 63
     7
421
 16777215
176
     1
 74
     2
176
     1
 91
        2
176
     1
 64
     7
176
     1
 65
   257
176
     1
 75
     2
176
     1
175
     1
176
     1
 42
40.0
176
     1
 92
        0
176
     1
 66
   257
176
     1
 43
1.0
176
     1
 76
     1
176
     1
 77
     6
176
     1
 78
     2
176
     1
 67
     7
176
     1
 79
     3
176
     1
170
     0
176
     1
171
     0
176
     1
290
     0
176
     1
 93
        1
176
     1
 44
0.0
176
     1
173
     0
176
     1
1001
ACAD
1000
AcDbSavedByObjectVersion
1070
     0
  0
VISUALSTYLE
  5
D9
102
{ACAD_XDICTIONARY
360
131
102
}
102
{ACAD_REACTORS
330
C3
102
}
330
C3
100
AcDbVisualStyle
  2
JitterOff
 70
    20
177
     2
291
     1
 71
     2
176
     0
 72
     2
176
     0
 73
     0
176
     0
 90
        0
176
     0
 40
0.6
176
     0
 41
30.0
176
     0
 63
     7
421
 16777215
176
     0
 74
     1
176
     0
 91
        4
176
     0
 64
     7
176
     0
 65
   257
176
     0
 75
     1
176
     0
175
     1
176
     0
 42
1.0
176
     0
 92
       10
176
     2
 66
     7
176
     0
 43
1.0
176
     0
 76
     1
176
     0
 77
     6
176
     0
 78
     2
176
     0
 67
     7
176
     0
 79
     5
176
     0
170
     0
176
     0
171
     0
176
     0
290
     0
176
     0
 93
        1
176
     0
 44
0.0
176
     0
173
     0
176
     0
1001
ACAD
1000
AcDbSavedByObjectVersion
1070
     0
  0
VISUALSTYLE
  5
D1
102
{ACAD_XDICTIONARY
360
121
102
}
102
{ACAD_REACTORS
330
C3
102
}
330
C3
100
AcDbVisualStyle
  2
Linepattern
 70
    14
177
     2
291
     1
 71
     2
176
     1
 72
     2
176
     1
 73
     0
176
     1
 90
        0
176
     1
 40
0.6
176
     1
 41
30.0
176
     1
 63
     7
421
 16777215
176
     1
 74
     1
176
     1
 91
        4
176
     1
 64
     7
176
     1
 65
   257
176
     1
 75
     7
176
     1
175
     7
176
     1
 42
1.0
176
     1
 92
        8
176
     1
 66
     7
176
     1
 43
1.0
176
     1
 76
     1
176
     1
 77
     6
176
     1
 78
     2
176
     1
 67
     7
176
     1
 79
     5
176
     1
170
     0
176
     1
171
     0
176
     1
290
     0
176
     1
 93
        1
176
     1
 44
0.0
176
     1
173
     0
176
     1
1001
ACAD
1000
AcDbSavedByObjectVersion
1070
     0
  0
VISUALSTYLE
  5
DA
102
{ACAD_XDICTIONARY
360
133
102
}
102
{ACAD_REACTORS
330
C3
102
}
330
C3
100
AcDbVisualStyle
  2
OverhangOff
 70
    21
177
     2
291
     1
 71
     2
176
     0
 72
     2
176
     0
 73
     0
176
     0
 90
        0
176
     0
 40
0.6
176
     0
 41
30.0
176
     0
 63
     7
421
 16777215
176
     0
 74
     1
176
     0
 91
        4
176
     0
 64
     7
176
     0
 65
   257
176
     0
 75
     1
176
     0
175
     1
176
     0
 42
1.0
176
     0
 92
        9
176
     2
 66
     7
176
     0
 43
1.0
176
     0
 76
     1
176
     0
 77
     6
176
     0
 78
     2
176
     0
 67
     7
176
     0
 79
     5
176
     0
170
     0
176
     0
171
     0
176
     0
290
     0
176
     0
 93
        1
176
     0
 44
0.0
176
     0
173
     0
176
     0
1001
ACAD
1000
AcDbSavedByObjectVersion
1070
     0
  0
VISUALSTYLE
  5
CD
102
{ACAD_XDICTIONARY
360
119
102
}
102
{ACAD_REACTORS
330
C3
102
}
330
C3
100
AcDbVisualStyle
  2
Realistic
 70
     8
177
     2
291
     0
 71
     2
176
     1
 72
     3
176
     1
 73
     0
176
     1
 90
        2
176
     1
 40
0.6
176
     1
 41
30.0
176
     1
 63
     7
421
 16777215
176
     1
 74
     0
176
     1
 91
        0
176
     1
 64
     7
176
     1
 65
   257
176
     1
 75
     1
176
     1
175
     1
176
     1
 42
1.0
176
     1
 92
        8
176
     1
 66
   257
176
     1
 43
1.0
176
     1
 76
     1
176
     1
 77
     6
176
     1
 78
     2
176
     1
 67
     7
176
     1
 79
     3
176
     1
170
     0
176
     1
171
     0
176
     1
290
     0
176
     1
 93
       13
176
     1
 44
0.0
176
     1
173
     0
176
     1
1001
ACAD
1000
AcDbSavedByObjectVersion
1070
     0
  0
VISUALSTYLE
  5
D8
102
{ACAD_XDICTIONARY
360
12F
102
}
102
{ACAD_REACTORS
330
C3
102
}
330
C3
100
AcDbVisualStyle
  2
Shaded
 70
    27
177
     2
291
     0
 71
     2
176
     1
 72
     2
176
     1
 73
     1
176
     1
 90
        2
176
     1
 40
0.6
176
     1
 41
30.0
176
     1
 63
     7
421
 16777215
176
     1
 74
     0
176
     1
 91
        4
176
     1
 64
     7
176
     1
 65
   257
176
     1
 75
     1
176
     1
175
     1
176
     1
 42
1.0
176
     1
 92
        8
176
     1
 66
   257
176
     1
 43
1.0
176
     1
 76
     1
176
     1
 77
     6
176
     1
 78
     2
176
     1
 67
     8
425
  7895160
176
     1
 79
     3
176
     1
170
     0
176
     1
171
     0
176
     1
290
     0
176
     1
 93
        5
176
     1
 44
0.0
176
     1
173
     0
176
     1
1001
ACAD
1000
AcDbSavedByObjectVersion
1070
     0
  0
VISUALSTYLE
  5
D7
102
{ACAD_XDICTIONARY
360
12D
102
}
102
{ACAD_REACTORS
330
C3
102
}
330
C3
100
AcDbVisualStyle
  2
Shaded with edges
 70
    26
177
     2
291
     0
 71
     2
176
     1
 72
     2
176
     1
 73
     1
176
     1
 90
        2
176
     1
 40
0.6
176
     1
 41
30.0
176
     1
 63
     7
421
 16777215
176
     1
 74
     1
176
     1
 91
       10
176
     1
 64
     7
176
     1
 65
   257
176
     1
 75
     2
176
     1
175
     1
176
     1
 42
1.0
176
     1
 92
        8
176
     1
 66
   257
176
     1
 43
1.0
176
     1
 76
     1
176
     1
 77
     6
176
     1
 78
     2
176
     1
 67
     7
176
     1
 79
     3
176
     1
170
     0
176
     1
171
     0
176
     1
290
     0
176
     1
 93
        5
176
     1
 44
0.0
176
     1
173
     0
176
     1
1001
ACAD
1000
AcDbSavedByObjectVersion
1070
     0
  0
VISUALSTYLE
  5
D4
102
{ACAD_XDICTIONARY
360
127
102
}
102
{ACAD_REACTORS
330
C3
102
}
330
C3
100
AcDbVisualStyle
  2
Shades of Gray
 70
    23
177
     2
291
     0
 71
     2
176
     1
 72
     2
176
     1
 73
     3
176
     1
 90
        0
176
     1
 40
0.6
176
     1
 41
30.0
176
     1
 63
     7
421
 16777215
176
     1
 74
     2
176
     1
 91
        2
176
     1
 64
     7
176
     1
 65
     7
176
     1
 75
     1
176
     1
175
     1
176
     1
 42
40.0
176
     1
 92
        8
176
     1
 66
     7
176
     1
 43
1.0
176
     1
 76
     1
176
     1
 77
     6
176
     1
 78
     2
176
     1
 67
     7
176
     1
 79
     3
176
     1
170
     0
176
     1
171
     0
176
     1
290
     0
176
     1
 93
        1
176
     1
 44
0.0
176
     1
173
     0
176
     1
1001
ACAD
1000
AcDbSavedByObjectVersion
1070
     0
  0
VISUALSTYLE
  5
D5
102
{ACAD_XDICTIONARY
360
129
102
}
102
{ACAD_REACTORS
330
C3
102
}
330
C3
100
AcDbVisualStyle
  2
Sketchy
 70
    24
177
     2
291
     0
 71
     1
176
     1
 72
     2
176
     1
 73
     2
176
     1
 90
        0
176
     1
 40
0.6
176
     1
 41
30.0
176
     1
 63
     7
421
 16777215
176
     1
 74
     2
176
     1
 91
        2
176
     1
 64
     7
176
     1
 65
     7
176
     1
 75
     1
176
     1
175
     1
176
     1
 42
40.0
176
     1
 92
       11
176
     1
 66
     7
176
     1
 43
1.0
176
     1
 76
     1
176
     1
 77
     6
176
     1
 78
     2
176
     1
 67
     7
176
     1
 79
     6
176
     1
170
     0
176
     1
171
     0
176
     1
290
     0
176
     1
 93
        1
176
     1
 44
0.0
176
     1
173
     0
176
     1
1001
ACAD
1000
AcDbSavedByObjectVersion
1070
     0
  0
VISUALSTYLE
  5
D0
102
{ACAD_XDICTIONARY
360
11F
102
}
102
{ACAD_REACTORS
330
C3
102
}
330
C3
100
AcDbVisualStyle
  2
Thicken
 70
    13
177
     2
291
     1
 71
     2
176
     1
 72
     2
176
     1
 73
     0
176
     1
 90
        0
176
     1
 40
0.6
176
     1
 41
30.0
176
     1
 63
     7
421
 16777215
176
     1
 74
     1
176
     1
 91
        4
176
     1
 64
     7
176
     1
 65
   257
176
     1
 75
     1
176
     1
175
     1
176
     1
 42
1.0
176
     1
 92
       12
176
     1
 66
     7
176
     1
 43
1.0
176
     1
 76
     1
176
     1
 77
     6
176
     1
 78
     2
176
     1
 67
     7
176
     1
 79
     5
176
     1
170
     0
176
     1
171
     0
176
     1
290
     0
176
     1
 93
        1
176
     1
 44
0.0
176
     1
173
     0
176
     1
1001
ACAD
1000
AcDbSavedByObjectVersion
1070
     0
  0
VISUALSTYLE
  5
CA
102
{ACAD_XDICTIONARY
360
113
102
}
102
{ACAD_REACTORS
330
C3
102
}
330
C3
100
AcDbVisualStyle
  2
Wireframe
 70
     5
177
     2
291
     0
 71
     0
176
     1
 72
     2
176
     1
 73
     0
176
     1
 90
        0
176
     1
 40
0.6
176
     1
 41
30.0
176
     1
 63
     7
421
 16777215
176
     1
 74
     1
176
     1
 91
        4
176
     1
 64
     7
176
     1
 65
   257
176
     1
 75
     1
176
     1
175
     1
176
     1
 42
1.0
176
     1
 92
        0
176
     1
 66
   257
176
     1
 43
1.0
176
     1
 76
     1
176
     1
 77
     6
176
     1
 78
     2
176
     1
 67
     7
176
     1
 79
     3
176
     1
170
     0
176
     1
171
     0
176
     1
290
     0
176
     1
 93
        1
176
     1
 44
0.0
176
     1
173
     0
176
     1
1001
ACAD
1000
AcDbSavedByObjectVersion
1070
     0
  0
VISUALSTYLE
  5
D6
102
{ACAD_XDICTIONARY
360
12B
102
}
102
{ACAD_REACTORS
330
C3
102
}
330
C3
100
AcDbVisualStyle
  2
X-Ray
 70
    25
177
     2
291
     0
 71
     2
176
     1
 72
     2
176
     1
 73
     1
176
     1
 90
        1
176
     1
 40
0.5
176
     1
 41
30.0
176
     1
 63
     7
421
 16777215
176
     1
 74
     1
176
     1
 91
        0
176
     1
 64
     7
176
     1
 65
   257
176
     1
 75
     1
176
     1
175
     1
176
     1
 42
1.0
176
     1
 92
        8
176
     1
 66
     7
176
     1
 43
1.0
176
     1
 76
     1
176
     1
 77
     6
176
     1
 78
     2
176
     1
 67
     7
176
     1
 79
     3
176
     1
170
     0
176
     1
171
     0
176
     1
290
     0
176
     1
 93
       13
176
     1
 44
0.0
176
     1
173
     0
176
     1
1001
ACAD
1000
AcDbSavedByObjectVersion
1070
     0
  0
DICTIONARYVAR
  5
100
102
{ACAD_REACTORS
330
FA
102
}
330
FA
100
DictionaryVariables
280
     0
  1
1:1
  0
DICTIONARYVAR
  5
FC
102
{ACAD_REACTORS
330
FA
102
}
330
FA
100
DictionaryVariables
280
     0
  1
STANDARD
  0
DICTIONARYVAR
  5
FB
102
{ACAD_REACTORS
330
FA
102
}
330
FA
100
DictionaryVariables
280
     0
  1
STANDARD
  0
DICTIONARYVAR
  5
FD
102
{ACAD_REACTORS
330
FA
102
}
330
FA
100
DictionaryVariables
280
     0
  1
Imperial24
  0
DICTIONARYVAR
  5
FE
102
{ACAD_REACTORS
330
FA
102
}
330
FA
100
DictionaryVariables
280
     0
  1
Imperial24
  0
DICTIONARYVAR
  5
102
102
{ACAD_REACTORS
330
FA
102
}
330
FA
100
DictionaryVariables
280
     0
  1
1
  0
DICTIONARYVAR
  5
103
102
{ACAD_REACTORS
330
FA
102
}
330
FA
100
DictionaryVariables
280
     0
  1
15
  0
DICTIONARYVAR
  5
101
102
{ACAD_REACTORS
330
FA
102
}
330
FA
100
DictionaryVariables
280
     0
  1
0
  0
DICTIONARYVAR
  5
FF
102
{ACAD_REACTORS
330
FA
102
}
330
FA
100
DictionaryVariables
280
     0
  1
0
  0
DICTIONARY
  5
13B
330
F6
100
AcDbDictionary
280
     1
281
     1
  3
ACAD_XREC_ROUNDTRIP
360
13C
  0
DICTIONARY
  5
B4
330
B3
100
AcDbDictionary
280
     1
281
     1
  3
BUMPTILE
360
B6
  3
DIFFUSETILE
360
B5
  3
OPACITYTILE
360
B9
  3
REFLECTIONTILE
360
B8
  3
REFRACTIONTILE
360
BA
  3
SPECULARTILE
360
B7
  0
DICTIONARY
  5
AC
330
AB
100
AcDbDictionary
280
     1
281
     1
  3
BUMPTILE
360
AE
  3
DIFFUSETILE
360
AD
  3
OPACITYTILE
360
B1
  3
REFLECTIONTILE
360
B0
  3
REFRACTIONTILE
360
B2
  3
SPECULARTILE
360
AF
  0
DICTIONARY
  5
BC
330
BB
100
AcDbDictionary
280
     1
281
     1
  3
BUMPTILE
360
BE
  3
DIFFUSETILE
360
BD
  3
OPACITYTILE
360
C1
  3
REFLECTIONTILE
360
C0
  3
REFRACTIONTILE
360
C2
  3
SPECULARTILE
360
BF
  0
DICTIONARY
  5
137
330
F2
100
AcDbDictionary
280
     1
281
     1
  3
ACAD_XREC_ROUNDTRIP
360
138
  0
DICTIONARY
  5
139
330
F4
100
AcDbDictionary
280
     1
281
     1
  3
ACAD_XREC_ROUNDTRIP
360
13A
  0
DICTIONARY
  5
104
330
DE
100
AcDbDictionary
280
     1
281
     1
  3
ACAD_ROUNDTRIP_2008_TABLESTYLE_CELLSTYLEMAP
360
105
  0
DICTIONARY
  5
111
330
C9
100
AcDbDictionary
280
     1
281
     1
  3
ACAD_XREC_ROUNDTRIP
360
112
  0
DICTIONARY
  5
10F
330
C8
100
AcDbDictionary
280
     1
281
     1
  3
ACAD_XREC_ROUNDTRIP
360
110
  0
DICTIONARY
  5
11D
330
CF
100
AcDbDictionary
280
     1
281
     1
  3
ACAD_XREC_ROUNDTRIP
360
11E
  0
DICTIONARY
  5
125
330
D3
100
AcDbDictionary
280
     1
281
     1
  3
ACAD_XREC_ROUNDTRIP
360
126
  0
DICTIONARY
  5
117
330
CC
100
AcDbDictionary
280
     1
281
     1
  3
ACAD_XREC_ROUNDTRIP
360
118
  0
DICTIONARY
  5
11B
330
CE
100
AcDbDictionary
280
     1
281
     1
  3
ACAD_XREC_ROUNDTRIP
360
11C
  0
DICTIONARY
  5
135
330
DB
100
AcDbDictionary
280
     1
281
     1
  3
ACAD_XREC_ROUNDTRIP
360
136
  0
DICTIONARY
  5
123
330
D2
100
AcDbDictionary
280
     1
281
     1
  3
ACAD_XREC_ROUNDTRIP
360
124
  0
DICTIONARY
  5
107
330
C4
100
AcDbDictionary
280
     1
281
     1
  3
ACAD_XREC_ROUNDTRIP
360
108
  0
DICTIONARY
  5
109
330
C5
100
AcDbDictionary
280
     1
281
     1
  3
ACAD_XREC_ROUNDTRIP
360
10A
  0
DICTIONARY
  5
10B
330
C6
100
AcDbDictionary
280
     1
281
     1
  3
ACAD_XREC_ROUNDTRIP
360
10C
  0
DICTIONARY
  5
10D
330
C7
100
AcDbDictionary
280
     1
281
     1
  3
ACAD_XREC_ROUNDTRIP
360
10E
  0
DICTIONARY
  5
115
330
CB
100
AcDbDictionary
280
     1
281
     1
  3
ACAD_XREC_ROUNDTRIP
360
116
  0
DICTIONARY
  5
131
330
D9
100
AcDbDictionary
280
     1
281
     1
  3
ACAD_XREC_ROUNDTRIP
360
132
  0
DICTIONARY
  5
121
330
D1
100
AcDbDictionary
280
     1
281
     1
  3
ACAD_XREC_ROUNDTRIP
360
122
  0
DICTIONARY
  5
133
330
DA
100
AcDbDictionary
280
     1
281
     1
  3
ACAD_XREC_ROUNDTRIP
360
134
  0
DICTIONARY
  5
119
330
CD
100
AcDbDictionary
280
     1
281
     1
  3
ACAD_XREC_ROUNDTRIP
360
11A
  0
DICTIONARY
  5
12F
330
D8
100
AcDbDictionary
280
     1
281
     1
  3
ACAD_XREC_ROUNDTRIP
360
130
  0
DICTIONARY
  5
12D
330
D7
100
AcDbDictionary
280
     1
281
     1
  3
ACAD_XREC_ROUNDTRIP
360
12E
  0
DICTIONARY
  5
127
330
D4
100
AcDbDictionary
280
     1
281
     1
  3
ACAD_XREC_ROUNDTRIP
360
128
  0
DICTIONARY
  5
129
330
D5
100
AcDbDictionary
280
     1
281
     1
  3
ACAD_XREC_ROUNDTRIP
360
12A
  0
DICTIONARY
  5
11F
330
D0
100
AcDbDictionary
280
     1
281
     1
  3
ACAD_XREC_ROUNDTRIP
360
120
  0
DICTIONARY
  5
113
330
CA
100
AcDbDictionary
280
     1
281
     1
  3
ACAD_XREC_ROUNDTRIP
360
114
  0
DICTIONARY
  5
12B
330
D6
100
AcDbDictionary
280
     1
281
     1
  3
ACAD_XREC_ROUNDTRIP
360
12C
  0
XRECORD
  5
13C
102
{ACAD_REACTORS
330
13B
102
}
330
13B
100
AcDbXrecord
280
     1
102
DISPLAYNAME
  1
Imperial24
102
FLAGS
 90
        0
  0
XRECORD
  5
B6
102
{ACAD_REACTORS
330
B4
102
}
330
B4
100
AcDbXrecord
280
     1
270
     1
271
     1
  0
XRECORD
  5
B5
102
{ACAD_REACTORS
330
B4
102
}
330
B4
100
AcDbXrecord
280
     1
270
     1
271
     1
  0
XRECORD
  5
B9
102
{ACAD_REACTORS
330
B4
102
}
330
B4
100
AcDbXrecord
280
     1
270
     1
271
     1
  0
XRECORD
  5
B8
102
{ACAD_REACTORS
330
B4
102
}
330
B4
100
AcDbXrecord
280
     1
270
     1
271
     1
  0
XRECORD
  5
BA
102
{ACAD_REACTORS
330
B4
102
}
330
B4
100
AcDbXrecord
280
     1
270
     1
271
     1
  0
XRECORD
  5
B7
102
{ACAD_REACTORS
330
B4
102
}
330
B4
100
AcDbXrecord
280
     1
270
     1
271
     1
  0
XRECORD
  5
AE
102
{ACAD_REACTORS
330
AC
102
}
330
AC
100
AcDbXrecord
280
     1
270
     1
271
     1
  0
XRECORD
  5
AD
102
{ACAD_REACTORS
330
AC
102
}
330
AC
100
AcDbXrecord
280
     1
270
     1
271
     1
  0
XRECORD
  5
B1
102
{ACAD_REACTORS
330
AC
102
}
330
AC
100
AcDbXrecord
280
     1
270
     1
271
     1
  0
XRECORD
  5
B0
102
{ACAD_REACTORS
330
AC
102
}
330
AC
100
AcDbXrecord
280
     1
270
     1
271
     1
  0
XRECORD
  5
B2
102
{ACAD_REACTORS
330
AC
102
}
330
AC
100
AcDbXrecord
280
     1
270
     1
271
     1
  0
XRECORD
  5
AF
102
{ACAD_REACTORS
330
AC
102
}
330
AC
100
AcDbXrecord
280
     1
270
     1
271
     1
  0
XRECORD
  5
BE
102
{ACAD_REACTORS
330
BC
102
}
330
BC
100
AcDbXrecord
280
     1
270
     1
271
     1
  0
XRECORD
  5
BD
102
{ACAD_REACTORS
330
BC
102
}
330
BC
100
AcDbXrecord
280
     1
270
     1
271
     1
  0
XRECORD
  5
C1
102
{ACAD_REACTORS
330
BC
102
}
330
BC
100
AcDbXrecord
280
     1
270
     1
271
     1
  0
XRECORD
  5
C0
102
{ACAD_REACTORS
330
BC
102
}
330
BC
100
AcDbXrecord
280
     1
270
     1
271
     1
  0
XRECORD
  5
C2
102
{ACAD_REACTORS
330
BC
102
}
330
BC
100
AcDbXrecord
280
     1
270
     1
271
     1
  0
XRECORD
  5
BF
102
{ACAD_REACTORS
330
BC
102
}
330
BC
100
AcDbXrecord
280
     1
270
     1
271
     1
  0
XRECORD
  5
138
102
{ACAD_REACTORS
330
137
102
}
330
137
100
AcDbXrecord
280
     1
102
ACAD_ROUNDTRIP_2012_MLEADER_STYLE
298
     1
  0
XRECORD
  5
13A
102
{ACAD_REACTORS
330
139
102
}
330
139
100
AcDbXrecord
280
     1
102
DISPLAYNAME
  1
Imperial24
102
FLAGS
 90
        0
  0
CELLSTYLEMAP
  5
105
102
{ACAD_REACTORS
330
104
102
}
330
104
100
AcDbCellStyleMap
 90
        3
300
CELLSTYLE
  1
TABLEFORMAT_BEGIN
 90
        5
170
     1
 91
        0
 92
    32768
 62
   257
 93
        1
300
CONTENTFORMAT
  1
CONTENTFORMAT_BEGIN
 90
        0
 91
        0
 92
      512
 93
        0
300

 40
0.0
140
1.0
 94
        5
 62
     0
340
11
144
0.25
309
CONTENTFORMAT_END
171
     0
 94
        0
309
TABLEFORMAT_END
  1
CELLSTYLE_BEGIN
 90
        1
 91
        1
300
_TITLE
309
CELLSTYLE_END
300
CELLSTYLE
  1
TABLEFORMAT_BEGIN
 90
        5
170
     1
 91
        0
 92
        0
 62
   257
 93
        1
300
CONTENTFORMAT
  1
CONTENTFORMAT_BEGIN
 90
        0
 91
        0
 92
      512
 93
        0
300

 40
0.0
140
1.0
 94
        5
 62
     0
340
11
144
0.18
309
CONTENTFORMAT_END
171
     0
 94
        0
309
TABLEFORMAT_END
  1
CELLSTYLE_BEGIN
 90
        2
 91
        1
300
_HEADER
309
CELLSTYLE_END
300
CELLSTYLE
  1
TABLEFORMAT_BEGIN
 90
        5
170
     1
 91
        0
 92
        0
 62
   257
 93
        1
300
CONTENTFORMAT
  1
CONTENTFORMAT_BEGIN
 90
        0
 91
        0
 92
      512
 93
        0
300

 40
0.0
140
1.0
 94
        2
 62
     0
340
11
144
0.18
309
CONTENTFORMAT_END
171
     0
 94
        0
309
TABLEFORMAT_END
  1
CELLSTYLE_BEGIN
 90
        3
 91
        2
300
_DATA
309
CELLSTYLE_END
  0
XRECORD
  5
112
102
{ACAD_REACTORS
330
111
102
}
330
111
100
AcDbXrecord
280
     1
102
RTVSPost2010Prop28
280
     1
102
RTVSPost2010PropOp28
 70
     1
102
RTVSPost2010Prop29
280
     1
102
RTVSPost2010PropOp29
 70
     1
102
RTVSPost2010Prop30
280
     0
102
RTVSPost2010PropOp30
 70
     1
102
RTVSPost2010Prop31
280
     0
102
RTVSPost2010PropOp31
 70
     1
102
RTVSPost2010Prop32
280
     0
102
RTVSPost2010PropOp32
 70
     1
102
RTVSPost2010Prop33
280
     0
102
RTVSPost2010PropOp33
 70
     1
102
RTVSPost2010Prop34
280
     0
102
RTVSPost2010PropOp34
 70
     1
102
RTVSPost2010Prop35
280
     0
102
RTVSPost2010PropOp35
 70
     1
102
RTVSPost2010Prop36
280
     0
102
RTVSPost2010PropOp36
 70
     1
102
RTVSPost2010Prop37
 90
       50
102
RTVSPost2010PropOp37
 70
     1
102
RTVSPost2010Prop38
140
0.0
102
RTVSPost2010PropOp38
 70
     1
102
RTVSPost2010Prop39
140
1.0
102
RTVSPost2010PropOp39
 70
     1
102
RTVSPost2010Prop40
 90
        0
102
RTVSPost2010PropOp40
 70
     1
102
RTVSPost2010Prop41ColorIndex
 90
       18
102
RTVSPost2010Prop41ColorRGB
 90
        0
102
RTVSPost2010PropOp41
 70
     1
102
RTVSPost2010Prop42
 90
       50
102
RTVSPost2010PropOp42
 70
     1
102
RTVSPost2010Prop43
 90
        3
102
RTVSPost2010PropOp43
 70
     1
102
RTVSPost2010Prop44ColorIndex
 90
        5
102
RTVSPost2010Prop44ColorRGB
 90
      255
102
RTVSPost2010PropOp44
 70
     1
102
RTVSPost2010Prop45
280
     0
102
RTVSPost2010PropOp45
 70
     1
102
RTVSPost2010Prop46
 90
       50
102
RTVSPost2010PropOp46
 70
     1
102
RTVSPost2010Prop47
 90
       50
102
RTVSPost2010PropOp47
 70
     1
102
RTVSPost2010Prop48
 90
       50
102
RTVSPost2010PropOp48
 70
     1
102
RTVSPost2010Prop49
280
     0
102
RTVSPost2010PropOp49
 70
     1
102
RTVSPost2010Prop50
 90
       50
102
RTVSPost2010PropOp50
 70
     1
102
RTVSPost2010Prop51ColorIndex
 90
      256
102
RTVSPost2010Prop51ColorRGB
 90
-16777216
102
RTVSPost2010PropOp51
 70
     0
102
RTVSPost2010Prop52
140
1.0
102
RTVSPost2010PropOp52
 70
     0
102
RTVSPost2010Prop53
 90
        2
102
RTVSPost2010PropOp53
 70
     1
102
RTVSPost2010Prop54
  1
strokes_ogs.tif
102
RTVSPost2010PropOp54
 70
     1
102
RTVSPost2010Prop55
280
     0
102
RTVSPost2010PropOp55
 70
     1
102
RTVSPost2010Prop56
140
1.0
102
RTVSPost2010PropOp56
 70
     1
102
RTVSPost2010Prop57
140
1.0
102
RTVSPost2010PropOp57
 70
     1
  0
XRECORD
  5
110
102
{ACAD_REACTORS
330
10F
102
}
330
10F
100
AcDbXrecord
280
     1
102
RTVSPost2010Prop28
280
     0
102
RTVSPost2010PropOp28
 70
     1
102
RTVSPost2010Prop29
280
     1
102
RTVSPost2010PropOp29
 70
     1
102
RTVSPost2010Prop30
280
     1
102
RTVSPost2010PropOp30
 70
     1
102
RTVSPost2010Prop31
280
     0
102
RTVSPost2010PropOp31
 70
     1
102
RTVSPost2010Prop32
280
     0
102
RTVSPost2010PropOp32
 70
     1
102
RTVSPost2010Prop33
280
     0
102
RTVSPost2010PropOp33
 70
     1
102
RTVSPost2010Prop34
280
     0
102
RTVSPost2010PropOp34
 70
     1
102
RTVSPost2010Prop35
280
     0
102
RTVSPost2010PropOp35
 70
     1
102
RTVSPost2010Prop36
280
     0
102
RTVSPost2010PropOp36
 70
     1
102
RTVSPost2010Prop37
 90
       50
102
RTVSPost2010PropOp37
 70
     1
102
RTVSPost2010Prop38
140
0.0
102
RTVSPost2010PropOp38
 70
     1
102
RTVSPost2010Prop39
140
1.0
102
RTVSPost2010PropOp39
 70
     1
102
RTVSPost2010Prop40
 90
        0
102
RTVSPost2010PropOp40
 70
     1
102
RTVSPost2010Prop41ColorIndex
 90
       18
102
RTVSPost2010Prop41ColorRGB
 90
        0
102
RTVSPost2010PropOp41
 70
     1
102
RTVSPost2010Prop42
 90
       50
102
RTVSPost2010PropOp42
 70
     1
102
RTVSPost2010Prop43
 90
        3
102
RTVSPost2010PropOp43
 70
     1
102
RTVSPost2010Prop44ColorIndex
 90
        5
102
RTVSPost2010Prop44ColorRGB
 90
      255
102
RTVSPost2010PropOp44
 70
     1
102
RTVSPost2010Prop45
280
     0
102
RTVSPost2010PropOp45
 70
     1
102
RTVSPost2010Prop46
 90
       50
102
RTVSPost2010PropOp46
 70
     1
102
RTVSPost2010Prop47
 90
       50
102
RTVSPost2010PropOp47
 70
     1
102
RTVSPost2010Prop48
 90
       50
102
RTVSPost2010PropOp48
 70
     1
102
RTVSPost2010Prop49
280
     0
102
RTVSPost2010PropOp49
 70
     1
102
RTVSPost2010Prop50
 90
       50
102
RTVSPost2010PropOp50
 70
     1
102
RTVSPost2010Prop51ColorIndex
 90
      256
102
RTVSPost2010Prop51ColorRGB
 90
-16777216
102
RTVSPost2010PropOp51
 70
     0
102
RTVSPost2010Prop52
140
1.0
102
RTVSPost2010PropOp52
 70
     0
102
RTVSPost2010Prop53
 90
        2
102
RTVSPost2010PropOp53
 70
     1
102
RTVSPost2010Prop54
  1
strokes_ogs.tif
102
RTVSPost2010PropOp54
 70
     1
102
RTVSPost2010Prop55
280
     0
102
RTVSPost2010PropOp55
 70
     1
102
RTVSPost2010Prop56
140
1.0
102
RTVSPost2010PropOp56
 70
     1
102
RTVSPost2010Prop57
140
1.0
102
RTVSPost2010PropOp57
 70
     1
  0
XRECORD
  5
11E
102
{ACAD_REACTORS
330
11D
102
}
330
11D
100
AcDbXrecord
280
     1
102
RTVSPost2010Prop28
280
     0
102
RTVSPost2010PropOp28
 70
     1
102
RTVSPost2010Prop29
280
     1
102
RTVSPost2010PropOp29
 70
     1
102
RTVSPost2010Prop30
280
     1
102
RTVSPost2010PropOp30
 70
     1
102
RTVSPost2010Prop31
280
     0
102
RTVSPost2010PropOp31
 70
     1
102
RTVSPost2010Prop32
280
     0
102
RTVSPost2010PropOp32
 70
     1
102
RTVSPost2010Prop33
280
     0
102
RTVSPost2010PropOp33
 70
     1
102
RTVSPost2010Prop34
280
     0
102
RTVSPost2010PropOp34
 70
     1
102
RTVSPost2010Prop35
280
     0
102
RTVSPost2010PropOp35
 70
     1
102
RTVSPost2010Prop36
280
     0
102
RTVSPost2010PropOp36
 70
     1
102
RTVSPost2010Prop37
 90
       50
102
RTVSPost2010PropOp37
 70
     1
102
RTVSPost2010Prop38
140
0.0
102
RTVSPost2010PropOp38
 70
     1
102
RTVSPost2010Prop39
140
1.0
102
RTVSPost2010PropOp39
 70
     1
102
RTVSPost2010Prop40
 90
        0
102
RTVSPost2010PropOp40
 70
     1
102
RTVSPost2010Prop41ColorIndex
 90
       18
102
RTVSPost2010Prop41ColorRGB
 90
        0
102
RTVSPost2010PropOp41
 70
     1
102
RTVSPost2010Prop42
 90
       50
102
RTVSPost2010PropOp42
 70
     1
102
RTVSPost2010Prop43
 90
        3
102
RTVSPost2010PropOp43
 70
     1
102
RTVSPost2010Prop44ColorIndex
 90
        5
102
RTVSPost2010Prop44ColorRGB
 90
      255
102
RTVSPost2010PropOp44
 70
     1
102
RTVSPost2010Prop45
280
     0
102
RTVSPost2010PropOp45
 70
     1
102
RTVSPost2010Prop46
 90
       50
102
RTVSPost2010PropOp46
 70
     1
102
RTVSPost2010Prop47
 90
       50
102
RTVSPost2010PropOp47
 70
     1
102
RTVSPost2010Prop48
 90
       50
102
RTVSPost2010PropOp48
 70
     1
102
RTVSPost2010Prop49
280
     0
102
RTVSPost2010PropOp49
 70
     1
102
RTVSPost2010Prop50
 90
       50
102
RTVSPost2010PropOp50
 70
     1
102
RTVSPost2010Prop51ColorIndex
 90
      256
102
RTVSPost2010Prop51ColorRGB
 90
-16777216
102
RTVSPost2010PropOp51
 70
     0
102
RTVSPost2010Prop52
140
1.0
102
RTVSPost2010PropOp52
 70
     0
102
RTVSPost2010Prop53
 90
        2
102
RTVSPost2010PropOp53
 70
     1
102
RTVSPost2010Prop54
  1
strokes_ogs.tif
102
RTVSPost2010PropOp54
 70
     1
102
RTVSPost2010Prop55
280
     0
102
RTVSPost2010PropOp55
 70
     1
102
RTVSPost2010Prop56
140
1.0
102
RTVSPost2010PropOp56
 70
     1
102
RTVSPost2010Prop57
140
1.0
102
RTVSPost2010PropOp57
 70
     1
  0
XRECORD
  5
126
102
{ACAD_REACTORS
330
125
102
}
330
125
100
AcDbXrecord
280
     1
102
RTVSPost2010Prop28
280
     0
102
RTVSPost2010PropOp28
 70
     1
102
RTVSPost2010Prop29
280
     1
102
RTVSPost2010PropOp29
 70
     1
102
RTVSPost2010Prop30
280
     1
102
RTVSPost2010PropOp30
 70
     1
102
RTVSPost2010Prop31
280
     0
102
RTVSPost2010PropOp31
 70
     1
102
RTVSPost2010Prop32
280
     0
102
RTVSPost2010PropOp32
 70
     1
102
RTVSPost2010Prop33
280
     0
102
RTVSPost2010PropOp33
 70
     1
102
RTVSPost2010Prop34
280
     0
102
RTVSPost2010PropOp34
 70
     1
102
RTVSPost2010Prop35
280
     0
102
RTVSPost2010PropOp35
 70
     1
102
RTVSPost2010Prop36
280
     0
102
RTVSPost2010PropOp36
 70
     1
102
RTVSPost2010Prop37
 90
       50
102
RTVSPost2010PropOp37
 70
     1
102
RTVSPost2010Prop38
140
0.0
102
RTVSPost2010PropOp38
 70
     1
102
RTVSPost2010Prop39
140
1.0
102
RTVSPost2010PropOp39
 70
     1
102
RTVSPost2010Prop40
 90
        0
102
RTVSPost2010PropOp40
 70
     1
102
RTVSPost2010Prop41ColorIndex
 90
       18
102
RTVSPost2010Prop41ColorRGB
 90
        0
102
RTVSPost2010PropOp41
 70
     1
102
RTVSPost2010Prop42
 90
       50
102
RTVSPost2010PropOp42
 70
     1
102
RTVSPost2010Prop43
 90
        3
102
RTVSPost2010PropOp43
 70
     1
102
RTVSPost2010Prop44ColorIndex
 90
        5
102
RTVSPost2010Prop44ColorRGB
 90
      255
102
RTVSPost2010PropOp44
 70
     1
102
RTVSPost2010Prop45
280
     0
102
RTVSPost2010PropOp45
 70
     1
102
RTVSPost2010Prop46
 90
       50
102
RTVSPost2010PropOp46
 70
     1
102
RTVSPost2010Prop47
 90
       50
102
RTVSPost2010PropOp47
 70
     1
102
RTVSPost2010Prop48
 90
       50
102
RTVSPost2010PropOp48
 70
     1
102
RTVSPost2010Prop49
280
     0
102
RTVSPost2010PropOp49
 70
     1
102
RTVSPost2010Prop50
 90
       50
102
RTVSPost2010PropOp50
 70
     1
102
RTVSPost2010Prop51ColorIndex
 90
      256
102
RTVSPost2010Prop51ColorRGB
 90
-16777216
102
RTVSPost2010PropOp51
 70
     0
102
RTVSPost2010Prop52
140
1.0
102
RTVSPost2010PropOp52
 70
     0
102
RTVSPost2010Prop53
 90
        2
102
RTVSPost2010PropOp53
 70
     1
102
RTVSPost2010Prop54
  1
strokes_ogs.tif
102
RTVSPost2010PropOp54
 70
     1
102
RTVSPost2010Prop55
280
     0
102
RTVSPost2010PropOp55
 70
     1
102
RTVSPost2010Prop56
140
1.0
102
RTVSPost2010PropOp56
 70
     1
102
RTVSPost2010Prop57
140
1.0
102
RTVSPost2010PropOp57
 70
     1
  0
XRECORD
  5
118
102
{ACAD_REACTORS
330
117
102
}
330
117
100
AcDbXrecord
280
     1
102
RTVSPost2010Prop28
280
     0
102
RTVSPost2010PropOp28
 70
     1
102
RTVSPost2010Prop29
280
     1
102
RTVSPost2010PropOp29
 70
     1
102
RTVSPost2010Prop30
280
     1
102
RTVSPost2010PropOp30
 70
     1
102
RTVSPost2010Prop31
280
     0
102
RTVSPost2010PropOp31
 70
     1
102
RTVSPost2010Prop32
280
     0
102
RTVSPost2010PropOp32
 70
     1
102
RTVSPost2010Prop33
280
     0
102
RTVSPost2010PropOp33
 70
     1
102
RTVSPost2010Prop34
280
     0
102
RTVSPost2010PropOp34
 70
     1
102
RTVSPost2010Prop35
280
     0
102
RTVSPost2010PropOp35
 70
     1
102
RTVSPost2010Prop36
280
     0
102
RTVSPost2010PropOp36
 70
     1
102
RTVSPost2010Prop37
 90
       50
102
RTVSPost2010PropOp37
 70
     1
102
RTVSPost2010Prop38
140
0.0
102
RTVSPost2010PropOp38
 70
     1
102
RTVSPost2010Prop39
140
1.0
102
RTVSPost2010PropOp39
 70
     1
102
RTVSPost2010Prop40
 90
        0
102
RTVSPost2010PropOp40
 70
     1
102
RTVSPost2010Prop41ColorIndex
 90
       18
102
RTVSPost2010Prop41ColorRGB
 90
        0
102
RTVSPost2010PropOp41
 70
     1
102
RTVSPost2010Prop42
 90
       50
102
RTVSPost2010PropOp42
 70
     1
102
RTVSPost2010Prop43
 90
        3
102
RTVSPost2010PropOp43
 70
     1
102
RTVSPost2010Prop44ColorIndex
 90
        5
102
RTVSPost2010Prop44ColorRGB
 90
      255
102
RTVSPost2010PropOp44
 70
     1
102
RTVSPost2010Prop45
280
     0
102
RTVSPost2010PropOp45
 70
     1
102
RTVSPost2010Prop46
 90
       50
102
RTVSPost2010PropOp46
 70
     1
102
RTVSPost2010Prop47
 90
       50
102
RTVSPost2010PropOp47
 70
     1
102
RTVSPost2010Prop48
 90
       50
102
RTVSPost2010PropOp48
 70
     1
102
RTVSPost2010Prop49
280
     0
102
RTVSPost2010PropOp49
 70
     1
102
RTVSPost2010Prop50
 90
       50
102
RTVSPost2010PropOp50
 70
     1
102
RTVSPost2010Prop51ColorIndex
 90
      256
102
RTVSPost2010Prop51ColorRGB
 90
-16777216
102
RTVSPost2010PropOp51
 70
     0
102
RTVSPost2010Prop52
140
1.0
102
RTVSPost2010PropOp52
 70
     0
102
RTVSPost2010Prop53
 90
        2
102
RTVSPost2010PropOp53
 70
     1
102
RTVSPost2010Prop54
  1
strokes_ogs.tif
102
RTVSPost2010PropOp54
 70
     1
102
RTVSPost2010Prop55
280
     0
102
RTVSPost2010PropOp55
 70
     1
102
RTVSPost2010Prop56
140
1.0
102
RTVSPost2010PropOp56
 70
     1
102
RTVSPost2010Prop57
140
1.0
102
RTVSPost2010PropOp57
 70
     1
  0
XRECORD
  5
11C
102
{ACAD_REACTORS
330
11B
102
}
330
11B
100
AcDbXrecord
280
     1
102
RTVSPost2010Prop28
280
     0
102
RTVSPost2010PropOp28
 70
     1
102
RTVSPost2010Prop29
280
     1
102
RTVSPost2010PropOp29
 70
     1
102
RTVSPost2010Prop30
280
     1
102
RTVSPost2010PropOp30
 70
     1
102
RTVSPost2010Prop31
280
     0
102
RTVSPost2010PropOp31
 70
     1
102
RTVSPost2010Prop32
280
     0
102
RTVSPost2010PropOp32
 70
     1
102
RTVSPost2010Prop33
280
     0
102
RTVSPost2010PropOp33
 70
     1
102
RTVSPost2010Prop34
280
     0
102
RTVSPost2010PropOp34
 70
     1
102
RTVSPost2010Prop35
280
     0
102
RTVSPost2010PropOp35
 70
     1
102
RTVSPost2010Prop36
280
     0
102
RTVSPost2010PropOp36
 70
     1
102
RTVSPost2010Prop37
 90
       50
102
RTVSPost2010PropOp37
 70
     1
102
RTVSPost2010Prop38
140
0.0
102
RTVSPost2010PropOp38
 70
     1
102
RTVSPost2010Prop39
140
1.0
102
RTVSPost2010PropOp39
 70
     1
102
RTVSPost2010Prop40
 90
        0
102
RTVSPost2010PropOp40
 70
     1
102
RTVSPost2010Prop41ColorIndex
 90
       18
102
RTVSPost2010Prop41ColorRGB
 90
        0
102
RTVSPost2010PropOp41
 70
     1
102
RTVSPost2010Prop42
 90
       50
102
RTVSPost2010PropOp42
 70
     1
102
RTVSPost2010Prop43
 90
        3
102
RTVSPost2010PropOp43
 70
     1
102
RTVSPost2010Prop44ColorIndex
 90
        5
102
RTVSPost2010Prop44ColorRGB
 90
      255
102
RTVSPost2010PropOp44
 70
     1
102
RTVSPost2010Prop45
280
     0
102
RTVSPost2010PropOp45
 70
     1
102
RTVSPost2010Prop46
 90
       50
102
RTVSPost2010PropOp46
 70
     1
102
RTVSPost2010Prop47
 90
       50
102
RTVSPost2010PropOp47
 70
     1
102
RTVSPost2010Prop48
 90
       50
102
RTVSPost2010PropOp48
 70
     1
102
RTVSPost2010Prop49
280
     0
102
RTVSPost2010PropOp49
 70
     1
102
RTVSPost2010Prop50
 90
       50
102
RTVSPost2010PropOp50
 70
     1
102
RTVSPost2010Prop51ColorIndex
 90
      256
102
RTVSPost2010Prop51ColorRGB
 90
-16777216
102
RTVSPost2010PropOp51
 70
     0
102
RTVSPost2010Prop52
140
1.0
102
RTVSPost2010PropOp52
 70
     0
102
RTVSPost2010Prop53
 90
        2
102
RTVSPost2010PropOp53
 70
     1
102
RTVSPost2010Prop54
  1
strokes_ogs.tif
102
RTVSPost2010PropOp54
 70
     1
102
RTVSPost2010Prop55
280
     0
102
RTVSPost2010PropOp55
 70
     1
102
RTVSPost2010Prop56
140
1.0
102
RTVSPost2010PropOp56
 70
     1
102
RTVSPost2010Prop57
140
1.0
102
RTVSPost2010PropOp57
 70
     1
  0
XRECORD
  5
136
102
{ACAD_REACTORS
330
135
102
}
330
135
100
AcDbXrecord
280
     1
102
RTVSPost2010Prop28
280
     0
102
RTVSPost2010PropOp28
 70
     0
102
RTVSPost2010Prop29
280
     1
102
RTVSPost2010PropOp29
 70
     0
102
RTVSPost2010Prop30
280
     1
102
RTVSPost2010PropOp30
 70
     0
102
RTVSPost2010Prop31
280
     0
102
RTVSPost2010PropOp31
 70
     0
102
RTVSPost2010Prop32
280
     0
102
RTVSPost2010PropOp32
 70
     0
102
RTVSPost2010Prop33
280
     0
102
RTVSPost2010PropOp33
 70
     0
102
RTVSPost2010Prop34
280
     0
102
RTVSPost2010PropOp34
 70
     0
102
RTVSPost2010Prop35
280
     0
102
RTVSPost2010PropOp35
 70
     0
102
RTVSPost2010Prop36
280
     0
102
RTVSPost2010PropOp36
 70
     0
102
RTVSPost2010Prop37
 90
       50
102
RTVSPost2010PropOp37
 70
     0
102
RTVSPost2010Prop38
140
0.0
102
RTVSPost2010PropOp38
 70
     0
102
RTVSPost2010Prop39
140
1.0
102
RTVSPost2010PropOp39
 70
     0
102
RTVSPost2010Prop40
 90
        0
102
RTVSPost2010PropOp40
 70
     0
102
RTVSPost2010Prop41ColorIndex
 90
       18
102
RTVSPost2010Prop41ColorRGB
 90
        0
102
RTVSPost2010PropOp41
 70
     0
102
RTVSPost2010Prop42
 90
       50
102
RTVSPost2010PropOp42
 70
     0
102
RTVSPost2010Prop43
 90
        3
102
RTVSPost2010PropOp43
 70
     0
102
RTVSPost2010Prop44ColorIndex
 90
        5
102
RTVSPost2010Prop44ColorRGB
 90
      255
102
RTVSPost2010PropOp44
 70
     0
102
RTVSPost2010Prop45
280
     0
102
RTVSPost2010PropOp45
 70
     0
102
RTVSPost2010Prop46
 90
       50
102
RTVSPost2010PropOp46
 70
     0
102
RTVSPost2010Prop47
 90
       50
102
RTVSPost2010PropOp47
 70
     0
102
RTVSPost2010Prop48
 90
       50
102
RTVSPost2010PropOp48
 70
     0
102
RTVSPost2010Prop49
280
     0
102
RTVSPost2010PropOp49
 70
     0
102
RTVSPost2010Prop50
 90
       50
102
RTVSPost2010PropOp50
 70
     0
102
RTVSPost2010Prop51ColorIndex
 90
      256
102
RTVSPost2010Prop51ColorRGB
 90
-16777216
102
RTVSPost2010PropOp51
 70
     0
102
RTVSPost2010Prop52
140
1.0
102
RTVSPost2010PropOp52
 70
     0
102
RTVSPost2010Prop53
 90
        2
102
RTVSPost2010PropOp53
 70
     0
102
RTVSPost2010Prop54
  1
strokes_ogs.tif
102
RTVSPost2010PropOp54
 70
     0
102
RTVSPost2010Prop55
280
     0
102
RTVSPost2010PropOp55
 70
     0
102
RTVSPost2010Prop56
140
1.0
102
RTVSPost2010PropOp56
 70
     0
102
RTVSPost2010Prop57
140
1.0
102
RTVSPost2010PropOp57
 70
     0
  0
XRECORD
  5
124
102
{ACAD_REACTORS
330
123
102
}
330
123
100
AcDbXrecord
280
     1
102
RTVSPost2010Prop28
280
     0
102
RTVSPost2010PropOp28
 70
     1
102
RTVSPost2010Prop29
280
     1
102
RTVSPost2010PropOp29
 70
     1
102
RTVSPost2010Prop30
280
     1
102
RTVSPost2010PropOp30
 70
     1
102
RTVSPost2010Prop31
280
     0
102
RTVSPost2010PropOp31
 70
     1
102
RTVSPost2010Prop32
280
     0
102
RTVSPost2010PropOp32
 70
     1
102
RTVSPost2010Prop33
280
     0
102
RTVSPost2010PropOp33
 70
     1
102
RTVSPost2010Prop34
280
     0
102
RTVSPost2010PropOp34
 70
     1
102
RTVSPost2010Prop35
280
     0
102
RTVSPost2010PropOp35
 70
     1
102
RTVSPost2010Prop36
280
     0
102
RTVSPost2010PropOp36
 70
     1
102
RTVSPost2010Prop37
 90
       50
102
RTVSPost2010PropOp37
 70
     1
102
RTVSPost2010Prop38
140
0.0
102
RTVSPost2010PropOp38
 70
     1
102
RTVSPost2010Prop39
140
1.0
102
RTVSPost2010PropOp39
 70
     1
102
RTVSPost2010Prop40
 90
        0
102
RTVSPost2010PropOp40
 70
     1
102
RTVSPost2010Prop41ColorIndex
 90
       18
102
RTVSPost2010Prop41ColorRGB
 90
        0
102
RTVSPost2010PropOp41
 70
     1
102
RTVSPost2010Prop42
 90
       50
102
RTVSPost2010PropOp42
 70
     1
102
RTVSPost2010Prop43
 90
        3
102
RTVSPost2010PropOp43
 70
     1
102
RTVSPost2010Prop44ColorIndex
 90
        5
102
RTVSPost2010Prop44ColorRGB
 90
      255
102
RTVSPost2010PropOp44
 70
     1
102
RTVSPost2010Prop45
280
     0
102
RTVSPost2010PropOp45
 70
     1
102
RTVSPost2010Prop46
 90
       50
102
RTVSPost2010PropOp46
 70
     1
102
RTVSPost2010Prop47
 90
       50
102
RTVSPost2010PropOp47
 70
     1
102
RTVSPost2010Prop48
 90
       50
102
RTVSPost2010PropOp48
 70
     1
102
RTVSPost2010Prop49
280
     0
102
RTVSPost2010PropOp49
 70
     1
102
RTVSPost2010Prop50
 90
       50
102
RTVSPost2010PropOp50
 70
     1
102
RTVSPost2010Prop51ColorIndex
 90
      256
102
RTVSPost2010Prop51ColorRGB
 90
-16777216
102
RTVSPost2010PropOp51
 70
     0
102
RTVSPost2010Prop52
140
1.0
102
RTVSPost2010PropOp52
 70
     0
102
RTVSPost2010Prop53
 90
        2
102
RTVSPost2010PropOp53
 70
     1
102
RTVSPost2010Prop54
  1
strokes_ogs.tif
102
RTVSPost2010PropOp54
 70
     1
102
RTVSPost2010Prop55
280
     0
102
RTVSPost2010PropOp55
 70
     1
102
RTVSPost2010Prop56
140
1.0
102
RTVSPost2010PropOp56
 70
     1
102
RTVSPost2010Prop57
140
1.0
102
RTVSPost2010PropOp57
 70
     1
  0
XRECORD
  5
108
102
{ACAD_REACTORS
330
107
102
}
330
107
100
AcDbXrecord
280
     1
102
RTVSPost2010Prop28
280
     0
102
RTVSPost2010PropOp28
 70
     1
102
RTVSPost2010Prop29
280
     1
102
RTVSPost2010PropOp29
 70
     1
102
RTVSPost2010Prop30
280
     1
102
RTVSPost2010PropOp30
 70
     1
102
RTVSPost2010Prop31
280
     0
102
RTVSPost2010PropOp31
 70
     1
102
RTVSPost2010Prop32
280
     0
102
RTVSPost2010PropOp32
 70
     1
102
RTVSPost2010Prop33
280
     0
102
RTVSPost2010PropOp33
 70
     1
102
RTVSPost2010Prop34
280
     0
102
RTVSPost2010PropOp34
 70
     1
102
RTVSPost2010Prop35
280
     0
102
RTVSPost2010PropOp35
 70
     1
102
RTVSPost2010Prop36
280
     0
102
RTVSPost2010PropOp36
 70
     1
102
RTVSPost2010Prop37
 90
       50
102
RTVSPost2010PropOp37
 70
     1
102
RTVSPost2010Prop38
140
0.0
102
RTVSPost2010PropOp38
 70
     1
102
RTVSPost2010Prop39
140
1.0
102
RTVSPost2010PropOp39
 70
     1
102
RTVSPost2010Prop40
 90
        0
102
RTVSPost2010PropOp40
 70
     1
102
RTVSPost2010Prop41ColorIndex
 90
       18
102
RTVSPost2010Prop41ColorRGB
 90
        0
102
RTVSPost2010PropOp41
 70
     1
102
RTVSPost2010Prop42
 90
       50
102
RTVSPost2010PropOp42
 70
     1
102
RTVSPost2010Prop43
 90
        3
102
RTVSPost2010PropOp43
 70
     1
102
RTVSPost2010Prop44ColorIndex
 90
        5
102
RTVSPost2010Prop44ColorRGB
 90
      255
102
RTVSPost2010PropOp44
 70
     1
102
RTVSPost2010Prop45
280
     0
102
RTVSPost2010PropOp45
 70
     1
102
RTVSPost2010Prop46
 90
       50
102
RTVSPost2010PropOp46
 70
     1
102
RTVSPost2010Prop47
 90
       50
102
RTVSPost2010PropOp47
 70
     1
102
RTVSPost2010Prop48
 90
       50
102
RTVSPost2010PropOp48
 70
     1
102
RTVSPost2010Prop49
280
     0
102
RTVSPost2010PropOp49
 70
     1
102
RTVSPost2010Prop50
 90
       50
102
RTVSPost2010PropOp50
 70
     1
102
RTVSPost2010Prop51ColorIndex
 90
      256
102
RTVSPost2010Prop51ColorRGB
 90
-16777216
102
RTVSPost2010PropOp51
 70
     0
102
RTVSPost2010Prop52
140
1.0
102
RTVSPost2010PropOp52
 70
     0
102
RTVSPost2010Prop53
 90
        2
102
RTVSPost2010PropOp53
 70
     1
102
RTVSPost2010Prop54
  1
strokes_ogs.tif
102
RTVSPost2010PropOp54
 70
     1
102
RTVSPost2010Prop55
280
     0
102
RTVSPost2010PropOp55
 70
     1
102
RTVSPost2010Prop56
140
1.0
102
RTVSPost2010PropOp56
 70
     1
102
RTVSPost2010Prop57
140
1.0
102
RTVSPost2010PropOp57
 70
     1
  0
XRECORD
  5
10A
102
{ACAD_REACTORS
330
109
102
}
330
109
100
AcDbXrecord
280
     1
102
RTVSPost2010Prop28
280
     0
102
RTVSPost2010PropOp28
 70
     1
102
RTVSPost2010Prop29
280
     1
102
RTVSPost2010PropOp29
 70
     1
102
RTVSPost2010Prop30
280
     1
102
RTVSPost2010PropOp30
 70
     1
102
RTVSPost2010Prop31
280
     0
102
RTVSPost2010PropOp31
 70
     1
102
RTVSPost2010Prop32
280
     0
102
RTVSPost2010PropOp32
 70
     1
102
RTVSPost2010Prop33
280
     0
102
RTVSPost2010PropOp33
 70
     1
102
RTVSPost2010Prop34
280
     0
102
RTVSPost2010PropOp34
 70
     1
102
RTVSPost2010Prop35
280
     0
102
RTVSPost2010PropOp35
 70
     1
102
RTVSPost2010Prop36
280
     0
102
RTVSPost2010PropOp36
 70
     1
102
RTVSPost2010Prop37
 90
       50
102
RTVSPost2010PropOp37
 70
     1
102
RTVSPost2010Prop38
140
0.0
102
RTVSPost2010PropOp38
 70
     1
102
RTVSPost2010Prop39
140
1.0
102
RTVSPost2010PropOp39
 70
     1
102
RTVSPost2010Prop40
 90
        0
102
RTVSPost2010PropOp40
 70
     1
102
RTVSPost2010Prop41ColorIndex
 90
       18
102
RTVSPost2010Prop41ColorRGB
 90
        0
102
RTVSPost2010PropOp41
 70
     1
102
RTVSPost2010Prop42
 90
       50
102
RTVSPost2010PropOp42
 70
     1
102
RTVSPost2010Prop43
 90
        3
102
RTVSPost2010PropOp43
 70
     1
102
RTVSPost2010Prop44ColorIndex
 90
        5
102
RTVSPost2010Prop44ColorRGB
 90
      255
102
RTVSPost2010PropOp44
 70
     1
102
RTVSPost2010Prop45
280
     0
102
RTVSPost2010PropOp45
 70
     1
102
RTVSPost2010Prop46
 90
       50
102
RTVSPost2010PropOp46
 70
     1
102
RTVSPost2010Prop47
 90
       50
102
RTVSPost2010PropOp47
 70
     1
102
RTVSPost2010Prop48
 90
       50
102
RTVSPost2010PropOp48
 70
     1
102
RTVSPost2010Prop49
280
     0
102
RTVSPost2010PropOp49
 70
     1
102
RTVSPost2010Prop50
 90
       50
102
RTVSPost2010PropOp50
 70
     1
102
RTVSPost2010Prop51ColorIndex
 90
      256
102
RTVSPost2010Prop51ColorRGB
 90
-16777216
102
RTVSPost2010PropOp51
 70
     0
102
RTVSPost2010Prop52
140
1.0
102
RTVSPost2010PropOp52
 70
     0
102
RTVSPost2010Prop53
 90
        2
102
RTVSPost2010PropOp53
 70
     1
102
RTVSPost2010Prop54
  1
strokes_ogs.tif
102
RTVSPost2010PropOp54
 70
     1
102
RTVSPost2010Prop55
280
     0
102
RTVSPost2010PropOp55
 70
     1
102
RTVSPost2010Prop56
140
1.0
102
RTVSPost2010PropOp56
 70
     1
102
RTVSPost2010Prop57
140
1.0
102
RTVSPost2010PropOp57
 70
     1
  0
XRECORD
  5
10C
102
{ACAD_REACTORS
330
10B
102
}
330
10B
100
AcDbXrecord
280
     1
102
RTVSPost2010Prop28
280
     0
102
RTVSPost2010PropOp28
 70
     1
102
RTVSPost2010Prop29
280
     1
102
RTVSPost2010PropOp29
 70
     1
102
RTVSPost2010Prop30
280
     1
102
RTVSPost2010PropOp30
 70
     1
102
RTVSPost2010Prop31
280
     0
102
RTVSPost2010PropOp31
 70
     1
102
RTVSPost2010Prop32
280
     0
102
RTVSPost2010PropOp32
 70
     1
102
RTVSPost2010Prop33
280
     0
102
RTVSPost2010PropOp33
 70
     1
102
RTVSPost2010Prop34
280
     0
102
RTVSPost2010PropOp34
 70
     1
102
RTVSPost2010Prop35
280
     0
102
RTVSPost2010PropOp35
 70
     1
102
RTVSPost2010Prop36
280
     0
102
RTVSPost2010PropOp36
 70
     1
102
RTVSPost2010Prop37
 90
       50
102
RTVSPost2010PropOp37
 70
     1
102
RTVSPost2010Prop38
140
0.0
102
RTVSPost2010PropOp38
 70
     1
102
RTVSPost2010Prop39
140
1.0
102
RTVSPost2010PropOp39
 70
     1
102
RTVSPost2010Prop40
 90
        0
102
RTVSPost2010PropOp40
 70
     1
102
RTVSPost2010Prop41ColorIndex
 90
       18
102
RTVSPost2010Prop41ColorRGB
 90
        0
102
RTVSPost2010PropOp41
 70
     1
102
RTVSPost2010Prop42
 90
       50
102
RTVSPost2010PropOp42
 70
     1
102
RTVSPost2010Prop43
 90
        3
102
RTVSPost2010PropOp43
 70
     1
102
RTVSPost2010Prop44ColorIndex
 90
        5
102
RTVSPost2010Prop44ColorRGB
 90
      255
102
RTVSPost2010PropOp44
 70
     1
102
RTVSPost2010Prop45
280
     0
102
RTVSPost2010PropOp45
 70
     1
102
RTVSPost2010Prop46
 90
       50
102
RTVSPost2010PropOp46
 70
     1
102
RTVSPost2010Prop47
 90
       50
102
RTVSPost2010PropOp47
 70
     1
102
RTVSPost2010Prop48
 90
       50
102
RTVSPost2010PropOp48
 70
     1
102
RTVSPost2010Prop49
280
     0
102
RTVSPost2010PropOp49
 70
     1
102
RTVSPost2010Prop50
 90
       50
102
RTVSPost2010PropOp50
 70
     1
102
RTVSPost2010Prop51ColorIndex
 90
      256
102
RTVSPost2010Prop51ColorRGB
 90
-16777216
102
RTVSPost2010PropOp51
 70
     0
102
RTVSPost2010Prop52
140
1.0
102
RTVSPost2010PropOp52
 70
     0
102
RTVSPost2010Prop53
 90
        2
102
RTVSPost2010PropOp53
 70
     1
102
RTVSPost2010Prop54
  1
strokes_ogs.tif
102
RTVSPost2010PropOp54
 70
     1
102
RTVSPost2010Prop55
280
     0
102
RTVSPost2010PropOp55
 70
     1
102
RTVSPost2010Prop56
140
1.0
102
RTVSPost2010PropOp56
 70
     1
102
RTVSPost2010Prop57
140
1.0
102
RTVSPost2010PropOp57
 70
     1
  0
XRECORD
  5
10E
102
{ACAD_REACTORS
330
10D
102
}
330
10D
100
AcDbXrecord
280
     1
102
RTVSPost2010Prop28
280
     0
102
RTVSPost2010PropOp28
 70
     1
102
RTVSPost2010Prop29
280
     1
102
RTVSPost2010PropOp29
 70
     1
102
RTVSPost2010Prop30
280
     1
102
RTVSPost2010PropOp30
 70
     1
102
RTVSPost2010Prop31
280
     0
102
RTVSPost2010PropOp31
 70
     1
102
RTVSPost2010Prop32
280
     0
102
RTVSPost2010PropOp32
 70
     1
102
RTVSPost2010Prop33
280
     0
102
RTVSPost2010PropOp33
 70
     1
102
RTVSPost2010Prop34
280
     0
102
RTVSPost2010PropOp34
 70
     1
102
RTVSPost2010Prop35
280
     0
102
RTVSPost2010PropOp35
 70
     1
102
RTVSPost2010Prop36
280
     0
102
RTVSPost2010PropOp36
 70
     1
102
RTVSPost2010Prop37
 90
       50
102
RTVSPost2010PropOp37
 70
     1
102
RTVSPost2010Prop38
140
0.0
102
RTVSPost2010PropOp38
 70
     1
102
RTVSPost2010Prop39
140
1.0
102
RTVSPost2010PropOp39
 70
     1
102
RTVSPost2010Prop40
 90
        0
102
RTVSPost2010PropOp40
 70
     1
102
RTVSPost2010Prop41ColorIndex
 90
       18
102
RTVSPost2010Prop41ColorRGB
 90
        0
102
RTVSPost2010PropOp41
 70
     1
102
RTVSPost2010Prop42
 90
       50
102
RTVSPost2010PropOp42
 70
     1
102
RTVSPost2010Prop43
 90
        3
102
RTVSPost2010PropOp43
 70
     1
102
RTVSPost2010Prop44ColorIndex
 90
        5
102
RTVSPost2010Prop44ColorRGB
 90
      255
102
RTVSPost2010PropOp44
 70
     1
102
RTVSPost2010Prop45
280
     0
102
RTVSPost2010PropOp45
 70
     1
102
RTVSPost2010Prop46
 90
       50
102
RTVSPost2010PropOp46
 70
     1
102
RTVSPost2010Prop47
 90
       50
102
RTVSPost2010PropOp47
 70
     1
102
RTVSPost2010Prop48
 90
       50
102
RTVSPost2010PropOp48
 70
     1
102
RTVSPost2010Prop49
280
     0
102
RTVSPost2010PropOp49
 70
     1
102
RTVSPost2010Prop50
 90
       50
102
RTVSPost2010PropOp50
 70
     1
102
RTVSPost2010Prop51ColorIndex
 90
      256
102
RTVSPost2010Prop51ColorRGB
 90
-16777216
102
RTVSPost2010PropOp51
 70
     0
102
RTVSPost2010Prop52
140
1.0
102
RTVSPost2010PropOp52
 70
     0
102
RTVSPost2010Prop53
 90
        2
102
RTVSPost2010PropOp53
 70
     1
102
RTVSPost2010Prop54
  1
strokes_ogs.tif
102
RTVSPost2010PropOp54
 70
     1
102
RTVSPost2010Prop55
280
     0
102
RTVSPost2010PropOp55
 70
     1
102
RTVSPost2010Prop56
140
1.0
102
RTVSPost2010PropOp56
 70
     1
102
RTVSPost2010Prop57
140
1.0
102
RTVSPost2010PropOp57
 70
     1
  0
XRECORD
  5
116
102
{ACAD_REACTORS
330
115
102
}
330
115
100
AcDbXrecord
280
     1
102
RTVSPost2010Prop28
280
     0
102
RTVSPost2010PropOp28
 70
     1
102
RTVSPost2010Prop29
280
     1
102
RTVSPost2010PropOp29
 70
     1
102
RTVSPost2010Prop30
280
     1
102
RTVSPost2010PropOp30
 70
     1
102
RTVSPost2010Prop31
280
     0
102
RTVSPost2010PropOp31
 70
     1
102
RTVSPost2010Prop32
280
     0
102
RTVSPost2010PropOp32
 70
     1
102
RTVSPost2010Prop33
280
     0
102
RTVSPost2010PropOp33
 70
     1
102
RTVSPost2010Prop34
280
     0
102
RTVSPost2010PropOp34
 70
     1
102
RTVSPost2010Prop35
280
     0
102
RTVSPost2010PropOp35
 70
     1
102
RTVSPost2010Prop36
280
     0
102
RTVSPost2010PropOp36
 70
     1
102
RTVSPost2010Prop37
 90
       50
102
RTVSPost2010PropOp37
 70
     1
102
RTVSPost2010Prop38
140
0.0
102
RTVSPost2010PropOp38
 70
     1
102
RTVSPost2010Prop39
140
1.0
102
RTVSPost2010PropOp39
 70
     1
102
RTVSPost2010Prop40
 90
        0
102
RTVSPost2010PropOp40
 70
     1
102
RTVSPost2010Prop41ColorIndex
 90
       18
102
RTVSPost2010Prop41ColorRGB
 90
        0
102
RTVSPost2010PropOp41
 70
     1
102
RTVSPost2010Prop42
 90
       50
102
RTVSPost2010PropOp42
 70
     1
102
RTVSPost2010Prop43
 90
        3
102
RTVSPost2010PropOp43
 70
     1
102
RTVSPost2010Prop44ColorIndex
 90
        5
102
RTVSPost2010Prop44ColorRGB
 90
      255
102
RTVSPost2010PropOp44
 70
     1
102
RTVSPost2010Prop45
280
     0
102
RTVSPost2010PropOp45
 70
     1
102
RTVSPost2010Prop46
 90
       50
102
RTVSPost2010PropOp46
 70
     1
102
RTVSPost2010Prop47
 90
       50
102
RTVSPost2010PropOp47
 70
     1
102
RTVSPost2010Prop48
 90
       50
102
RTVSPost2010PropOp48
 70
     1
102
RTVSPost2010Prop49
280
     0
102
RTVSPost2010PropOp49
 70
     1
102
RTVSPost2010Prop50
 90
       50
102
RTVSPost2010PropOp50
 70
     1
102
RTVSPost2010Prop51ColorIndex
 90
      256
102
RTVSPost2010Prop51ColorRGB
 90
-16777216
102
RTVSPost2010PropOp51
 70
     0
102
RTVSPost2010Prop52
140
1.0
102
RTVSPost2010PropOp52
 70
     0
102
RTVSPost2010Prop53
 90
        2
102
RTVSPost2010PropOp53
 70
     1
102
RTVSPost2010Prop54
  1
strokes_ogs.tif
102
RTVSPost2010PropOp54
 70
     1
102
RTVSPost2010Prop55
280
     0
102
RTVSPost2010PropOp55
 70
     1
102
RTVSPost2010Prop56
140
1.0
102
RTVSPost2010PropOp56
 70
     1
102
RTVSPost2010Prop57
140
1.0
102
RTVSPost2010PropOp57
 70
     1
  0
XRECORD
  5
132
102
{ACAD_REACTORS
330
131
102
}
330
131
100
AcDbXrecord
280
     1
102
RTVSPost2010Prop28
280
     0
102
RTVSPost2010PropOp28
 70
     0
102
RTVSPost2010Prop29
280
     1
102
RTVSPost2010PropOp29
 70
     0
102
RTVSPost2010Prop30
280
     1
102
RTVSPost2010PropOp30
 70
     0
102
RTVSPost2010Prop31
280
     0
102
RTVSPost2010PropOp31
 70
     0
102
RTVSPost2010Prop32
280
     0
102
RTVSPost2010PropOp32
 70
     0
102
RTVSPost2010Prop33
280
     0
102
RTVSPost2010PropOp33
 70
     0
102
RTVSPost2010Prop34
280
     0
102
RTVSPost2010PropOp34
 70
     0
102
RTVSPost2010Prop35
280
     0
102
RTVSPost2010PropOp35
 70
     0
102
RTVSPost2010Prop36
280
     0
102
RTVSPost2010PropOp36
 70
     0
102
RTVSPost2010Prop37
 90
       50
102
RTVSPost2010PropOp37
 70
     0
102
RTVSPost2010Prop38
140
0.0
102
RTVSPost2010PropOp38
 70
     0
102
RTVSPost2010Prop39
140
1.0
102
RTVSPost2010PropOp39
 70
     0
102
RTVSPost2010Prop40
 90
        0
102
RTVSPost2010PropOp40
 70
     0
102
RTVSPost2010Prop41ColorIndex
 90
       18
102
RTVSPost2010Prop41ColorRGB
 90
        0
102
RTVSPost2010PropOp41
 70
     0
102
RTVSPost2010Prop42
 90
       50
102
RTVSPost2010PropOp42
 70
     0
102
RTVSPost2010Prop43
 90
        3
102
RTVSPost2010PropOp43
 70
     0
102
RTVSPost2010Prop44ColorIndex
 90
        5
102
RTVSPost2010Prop44ColorRGB
 90
      255
102
RTVSPost2010PropOp44
 70
     0
102
RTVSPost2010Prop45
280
     0
102
RTVSPost2010PropOp45
 70
     0
102
RTVSPost2010Prop46
 90
       50
102
RTVSPost2010PropOp46
 70
     0
102
RTVSPost2010Prop47
 90
       50
102
RTVSPost2010PropOp47
 70
     0
102
RTVSPost2010Prop48
 90
       50
102
RTVSPost2010PropOp48
 70
     0
102
RTVSPost2010Prop49
280
     0
102
RTVSPost2010PropOp49
 70
     0
102
RTVSPost2010Prop50
 90
       50
102
RTVSPost2010PropOp50
 70
     0
102
RTVSPost2010Prop51ColorIndex
 90
      256
102
RTVSPost2010Prop51ColorRGB
 90
-16777216
102
RTVSPost2010PropOp51
 70
     0
102
RTVSPost2010Prop52
140
1.0
102
RTVSPost2010PropOp52
 70
     0
102
RTVSPost2010Prop53
 90
        2
102
RTVSPost2010PropOp53
 70
     0
102
RTVSPost2010Prop54
  1
strokes_ogs.tif
102
RTVSPost2010PropOp54
 70
     0
102
RTVSPost2010Prop55
280
     0
102
RTVSPost2010PropOp55
 70
     0
102
RTVSPost2010Prop56
140
1.0
102
RTVSPost2010PropOp56
 70
     0
102
RTVSPost2010Prop57
140
1.0
102
RTVSPost2010PropOp57
 70
     0
  0
XRECORD
  5
122
102
{ACAD_REACTORS
330
121
102
}
330
121
100
AcDbXrecord
280
     1
102
RTVSPost2010Prop28
280
     0
102
RTVSPost2010PropOp28
 70
     1
102
RTVSPost2010Prop29
280
     1
102
RTVSPost2010PropOp29
 70
     1
102
RTVSPost2010Prop30
280
     1
102
RTVSPost2010PropOp30
 70
     1
102
RTVSPost2010Prop31
280
     0
102
RTVSPost2010PropOp31
 70
     1
102
RTVSPost2010Prop32
280
     0
102
RTVSPost2010PropOp32
 70
     1
102
RTVSPost2010Prop33
280
     0
102
RTVSPost2010PropOp33
 70
     1
102
RTVSPost2010Prop34
280
     0
102
RTVSPost2010PropOp34
 70
     1
102
RTVSPost2010Prop35
280
     0
102
RTVSPost2010PropOp35
 70
     1
102
RTVSPost2010Prop36
280
     0
102
RTVSPost2010PropOp36
 70
     1
102
RTVSPost2010Prop37
 90
       50
102
RTVSPost2010PropOp37
 70
     1
102
RTVSPost2010Prop38
140
0.0
102
RTVSPost2010PropOp38
 70
     1
102
RTVSPost2010Prop39
140
1.0
102
RTVSPost2010PropOp39
 70
     1
102
RTVSPost2010Prop40
 90
        0
102
RTVSPost2010PropOp40
 70
     1
102
RTVSPost2010Prop41ColorIndex
 90
       18
102
RTVSPost2010Prop41ColorRGB
 90
        0
102
RTVSPost2010PropOp41
 70
     1
102
RTVSPost2010Prop42
 90
       50
102
RTVSPost2010PropOp42
 70
     1
102
RTVSPost2010Prop43
 90
        3
102
RTVSPost2010PropOp43
 70
     1
102
RTVSPost2010Prop44ColorIndex
 90
        5
102
RTVSPost2010Prop44ColorRGB
 90
      255
102
RTVSPost2010PropOp44
 70
     1
102
RTVSPost2010Prop45
280
     0
102
RTVSPost2010PropOp45
 70
     1
102
RTVSPost2010Prop46
 90
       50
102
RTVSPost2010PropOp46
 70
     1
102
RTVSPost2010Prop47
 90
       50
102
RTVSPost2010PropOp47
 70
     1
102
RTVSPost2010Prop48
 90
       50
102
RTVSPost2010PropOp48
 70
     1
102
RTVSPost2010Prop49
280
     0
102
RTVSPost2010PropOp49
 70
     1
102
RTVSPost2010Prop50
 90
       50
102
RTVSPost2010PropOp50
 70
     1
102
RTVSPost2010Prop51ColorIndex
 90
      256
102
RTVSPost2010Prop51ColorRGB
 90
-16777216
102
RTVSPost2010PropOp51
 70
     0
102
RTVSPost2010Prop52
140
1.0
102
RTVSPost2010PropOp52
 70
     0
102
RTVSPost2010Prop53
 90
        2
102
RTVSPost2010PropOp53
 70
     1
102
RTVSPost2010Prop54
  1
strokes_ogs.tif
102
RTVSPost2010PropOp54
 70
     1
102
RTVSPost2010Prop55
280
     0
102
RTVSPost2010PropOp55
 70
     1
102
RTVSPost2010Prop56
140
1.0
102
RTVSPost2010PropOp56
 70
     1
102
RTVSPost2010Prop57
140
1.0
102
RTVSPost2010PropOp57
 70
     1
  0
XRECORD
  5
134
102
{ACAD_REACTORS
330
133
102
}
330
133
100
AcDbXrecord
280
     1
102
RTVSPost2010Prop28
280
     0
102
RTVSPost2010PropOp28
 70
     0
102
RTVSPost2010Prop29
280
     1
102
RTVSPost2010PropOp29
 70
     0
102
RTVSPost2010Prop30
280
     1
102
RTVSPost2010PropOp30
 70
     0
102
RTVSPost2010Prop31
280
     0
102
RTVSPost2010PropOp31
 70
     0
102
RTVSPost2010Prop32
280
     0
102
RTVSPost2010PropOp32
 70
     0
102
RTVSPost2010Prop33
280
     0
102
RTVSPost2010PropOp33
 70
     0
102
RTVSPost2010Prop34
280
     0
102
RTVSPost2010PropOp34
 70
     0
102
RTVSPost2010Prop35
280
     0
102
RTVSPost2010PropOp35
 70
     0
102
RTVSPost2010Prop36
280
     0
102
RTVSPost2010PropOp36
 70
     0
102
RTVSPost2010Prop37
 90
       50
102
RTVSPost2010PropOp37
 70
     0
102
RTVSPost2010Prop38
140
0.0
102
RTVSPost2010PropOp38
 70
     0
102
RTVSPost2010Prop39
140
1.0
102
RTVSPost2010PropOp39
 70
     0
102
RTVSPost2010Prop40
 90
        0
102
RTVSPost2010PropOp40
 70
     0
102
RTVSPost2010Prop41ColorIndex
 90
       18
102
RTVSPost2010Prop41ColorRGB
 90
        0
102
RTVSPost2010PropOp41
 70
     0
102
RTVSPost2010Prop42
 90
       50
102
RTVSPost2010PropOp42
 70
     0
102
RTVSPost2010Prop43
 90
        3
102
RTVSPost2010PropOp43
 70
     0
102
RTVSPost2010Prop44ColorIndex
 90
        5
102
RTVSPost2010Prop44ColorRGB
 90
      255
102
RTVSPost2010PropOp44
 70
     0
102
RTVSPost2010Prop45
280
     0
102
RTVSPost2010PropOp45
 70
     0
102
RTVSPost2010Prop46
 90
       50
102
RTVSPost2010PropOp46
 70
     0
102
RTVSPost2010Prop47
 90
       50
102
RTVSPost2010PropOp47
 70
     0
102
RTVSPost2010Prop48
 90
       50
102
RTVSPost2010PropOp48
 70
     0
102
RTVSPost2010Prop49
280
     0
102
RTVSPost2010PropOp49
 70
     0
102
RTVSPost2010Prop50
 90
       50
102
RTVSPost2010PropOp50
 70
     0
102
RTVSPost2010Prop51ColorIndex
 90
      256
102
RTVSPost2010Prop51ColorRGB
 90
-16777216
102
RTVSPost2010PropOp51
 70
     0
102
RTVSPost2010Prop52
140
1.0
102
RTVSPost2010PropOp52
 70
     0
102
RTVSPost2010Prop53
 90
        2
102
RTVSPost2010PropOp53
 70
     0
102
RTVSPost2010Prop54
  1
strokes_ogs.tif
102
RTVSPost2010PropOp54
 70
     0
102
RTVSPost2010Prop55
280
     0
102
RTVSPost2010PropOp55
 70
     0
102
RTVSPost2010Prop56
140
1.0
102
RTVSPost2010PropOp56
 70
     0
102
RTVSPost2010Prop57
140
1.0
102
RTVSPost2010PropOp57
 70
     0
  0
XRECORD
  5
11A
102
{ACAD_REACTORS
330
119
102
}
330
119
100
AcDbXrecord
280
     1
102
RTVSPost2010Prop28
280
     0
102
RTVSPost2010PropOp28
 70
     1
102
RTVSPost2010Prop29
280
     1
102
RTVSPost2010PropOp29
 70
     1
102
RTVSPost2010Prop30
280
     1
102
RTVSPost2010PropOp30
 70
     1
102
RTVSPost2010Prop31
280
     0
102
RTVSPost2010PropOp31
 70
     1
102
RTVSPost2010Prop32
280
     0
102
RTVSPost2010PropOp32
 70
     1
102
RTVSPost2010Prop33
280
     0
102
RTVSPost2010PropOp33
 70
     1
102
RTVSPost2010Prop34
280
     0
102
RTVSPost2010PropOp34
 70
     1
102
RTVSPost2010Prop35
280
     0
102
RTVSPost2010PropOp35
 70
     1
102
RTVSPost2010Prop36
280
     0
102
RTVSPost2010PropOp36
 70
     1
102
RTVSPost2010Prop37
 90
       50
102
RTVSPost2010PropOp37
 70
     1
102
RTVSPost2010Prop38
140
0.0
102
RTVSPost2010PropOp38
 70
     1
102
RTVSPost2010Prop39
140
1.0
102
RTVSPost2010PropOp39
 70
     1
102
RTVSPost2010Prop40
 90
        0
102
RTVSPost2010PropOp40
 70
     1
102
RTVSPost2010Prop41ColorIndex
 90
       18
102
RTVSPost2010Prop41ColorRGB
 90
        0
102
RTVSPost2010PropOp41
 70
     1
102
RTVSPost2010Prop42
 90
       50
102
RTVSPost2010PropOp42
 70
     1
102
RTVSPost2010Prop43
 90
        3
102
RTVSPost2010PropOp43
 70
     1
102
RTVSPost2010Prop44ColorIndex
 90
        5
102
RTVSPost2010Prop44ColorRGB
 90
      255
102
RTVSPost2010PropOp44
 70
     1
102
RTVSPost2010Prop45
280
     0
102
RTVSPost2010PropOp45
 70
     1
102
RTVSPost2010Prop46
 90
       50
102
RTVSPost2010PropOp46
 70
     1
102
RTVSPost2010Prop47
 90
       50
102
RTVSPost2010PropOp47
 70
     1
102
RTVSPost2010Prop48
 90
       50
102
RTVSPost2010PropOp48
 70
     1
102
RTVSPost2010Prop49
280
     0
102
RTVSPost2010PropOp49
 70
     1
102
RTVSPost2010Prop50
 90
       50
102
RTVSPost2010PropOp50
 70
     1
102
RTVSPost2010Prop51ColorIndex
 90
      256
102
RTVSPost2010Prop51ColorRGB
 90
-16777216
102
RTVSPost2010PropOp51
 70
     0
102
RTVSPost2010Prop52
140
1.0
102
RTVSPost2010PropOp52
 70
     0
102
RTVSPost2010Prop53
 90
        2
102
RTVSPost2010PropOp53
 70
     1
102
RTVSPost2010Prop54
  1
strokes_ogs.tif
102
RTVSPost2010PropOp54
 70
     1
102
RTVSPost2010Prop55
280
     0
102
RTVSPost2010PropOp55
 70
     1
102
RTVSPost2010Prop56
140
1.0
102
RTVSPost2010PropOp56
 70
     1
102
RTVSPost2010Prop57
140
1.0
102
RTVSPost2010PropOp57
 70
     1
  0
XRECORD
  5
130
102
{ACAD_REACTORS
330
12F
102
}
330
12F
100
AcDbXrecord
280
     1
102
RTVSPost2010Prop28
280
     0
102
RTVSPost2010PropOp28
 70
     1
102
RTVSPost2010Prop29
280
     1
102
RTVSPost2010PropOp29
 70
     1
102
RTVSPost2010Prop30
280
     1
102
RTVSPost2010PropOp30
 70
     1
102
RTVSPost2010Prop31
280
     0
102
RTVSPost2010PropOp31
 70
     1
102
RTVSPost2010Prop32
280
     0
102
RTVSPost2010PropOp32
 70
     1
102
RTVSPost2010Prop33
280
     0
102
RTVSPost2010PropOp33
 70
     1
102
RTVSPost2010Prop34
280
     0
102
RTVSPost2010PropOp34
 70
     1
102
RTVSPost2010Prop35
280
     0
102
RTVSPost2010PropOp35
 70
     1
102
RTVSPost2010Prop36
280
     0
102
RTVSPost2010PropOp36
 70
     1
102
RTVSPost2010Prop37
 90
       50
102
RTVSPost2010PropOp37
 70
     1
102
RTVSPost2010Prop38
140
0.0
102
RTVSPost2010PropOp38
 70
     1
102
RTVSPost2010Prop39
140
1.0
102
RTVSPost2010PropOp39
 70
     1
102
RTVSPost2010Prop40
 90
        0
102
RTVSPost2010PropOp40
 70
     1
102
RTVSPost2010Prop41ColorIndex
 90
       18
102
RTVSPost2010Prop41ColorRGB
 90
        0
102
RTVSPost2010PropOp41
 70
     1
102
RTVSPost2010Prop42
 90
       50
102
RTVSPost2010PropOp42
 70
     1
102
RTVSPost2010Prop43
 90
        3
102
RTVSPost2010PropOp43
 70
     1
102
RTVSPost2010Prop44ColorIndex
 90
        5
102
RTVSPost2010Prop44ColorRGB
 90
      255
102
RTVSPost2010PropOp44
 70
     1
102
RTVSPost2010Prop45
280
     0
102
RTVSPost2010PropOp45
 70
     1
102
RTVSPost2010Prop46
 90
       50
102
RTVSPost2010PropOp46
 70
     1
102
RTVSPost2010Prop47
 90
       50
102
RTVSPost2010PropOp47
 70
     1
102
RTVSPost2010Prop48
 90
       50
102
RTVSPost2010PropOp48
 70
     1
102
RTVSPost2010Prop49
280
     0
102
RTVSPost2010PropOp49
 70
     1
102
RTVSPost2010Prop50
 90
       50
102
RTVSPost2010PropOp50
 70
     1
102
RTVSPost2010Prop51ColorIndex
 90
      256
102
RTVSPost2010Prop51ColorRGB
 90
-16777216
102
RTVSPost2010PropOp51
 70
     0
102
RTVSPost2010Prop52
140
1.0
102
RTVSPost2010PropOp52
 70
     0
102
RTVSPost2010Prop53
 90
        2
102
RTVSPost2010PropOp53
 70
     1
102
RTVSPost2010Prop54
  1
strokes_ogs.tif
102
RTVSPost2010PropOp54
 70
     1
102
RTVSPost2010Prop55
280
     0
102
RTVSPost2010PropOp55
 70
     1
102
RTVSPost2010Prop56
140
1.0
102
RTVSPost2010PropOp56
 70
     1
102
RTVSPost2010Prop57
140
1.0
102
RTVSPost2010PropOp57
 70
     1
  0
XRECORD
  5
12E
102
{ACAD_REACTORS
330
12D
102
}
330
12D
100
AcDbXrecord
280
     1
102
RTVSPost2010Prop28
280
     0
102
RTVSPost2010PropOp28
 70
     1
102
RTVSPost2010Prop29
280
     1
102
RTVSPost2010PropOp29
 70
     1
102
RTVSPost2010Prop30
280
     1
102
RTVSPost2010PropOp30
 70
     1
102
RTVSPost2010Prop31
280
     0
102
RTVSPost2010PropOp31
 70
     1
102
RTVSPost2010Prop32
280
     0
102
RTVSPost2010PropOp32
 70
     1
102
RTVSPost2010Prop33
280
     0
102
RTVSPost2010PropOp33
 70
     1
102
RTVSPost2010Prop34
280
     0
102
RTVSPost2010PropOp34
 70
     1
102
RTVSPost2010Prop35
280
     0
102
RTVSPost2010PropOp35
 70
     1
102
RTVSPost2010Prop36
280
     0
102
RTVSPost2010PropOp36
 70
     1
102
RTVSPost2010Prop37
 90
       50
102
RTVSPost2010PropOp37
 70
     1
102
RTVSPost2010Prop38
140
0.0
102
RTVSPost2010PropOp38
 70
     1
102
RTVSPost2010Prop39
140
1.0
102
RTVSPost2010PropOp39
 70
     1
102
RTVSPost2010Prop40
 90
        0
102
RTVSPost2010PropOp40
 70
     1
102
RTVSPost2010Prop41ColorIndex
 90
       18
102
RTVSPost2010Prop41ColorRGB
 90
        0
102
RTVSPost2010PropOp41
 70
     1
102
RTVSPost2010Prop42
 90
       50
102
RTVSPost2010PropOp42
 70
     1
102
RTVSPost2010Prop43
 90
        3
102
RTVSPost2010PropOp43
 70
     1
102
RTVSPost2010Prop44ColorIndex
 90
        5
102
RTVSPost2010Prop44ColorRGB
 90
      255
102
RTVSPost2010PropOp44
 70
     1
102
RTVSPost2010Prop45
280
     0
102
RTVSPost2010PropOp45
 70
     1
102
RTVSPost2010Prop46
 90
       50
102
RTVSPost2010PropOp46
 70
     1
102
RTVSPost2010Prop47
 90
       50
102
RTVSPost2010PropOp47
 70
     1
102
RTVSPost2010Prop48
 90
       50
102
RTVSPost2010PropOp48
 70
     1
102
RTVSPost2010Prop49
280
     0
102
RTVSPost2010PropOp49
 70
     1
102
RTVSPost2010Prop50
 90
       50
102
RTVSPost2010PropOp50
 70
     1
102
RTVSPost2010Prop51ColorIndex
 90
      256
102
RTVSPost2010Prop51ColorRGB
 90
-16777216
102
RTVSPost2010PropOp51
 70
     0
102
RTVSPost2010Prop52
140
1.0
102
RTVSPost2010PropOp52
 70
     0
102
RTVSPost2010Prop53
 90
        2
102
RTVSPost2010PropOp53
 70
     1
102
RTVSPost2010Prop54
  1
strokes_ogs.tif
102
RTVSPost2010PropOp54
 70
     1
102
RTVSPost2010Prop55
280
     0
102
RTVSPost2010PropOp55
 70
     1
102
RTVSPost2010Prop56
140
1.0
102
RTVSPost2010PropOp56
 70
     1
102
RTVSPost2010Prop57
140
1.0
102
RTVSPost2010PropOp57
 70
     1
  0
XRECORD
  5
128
102
{ACAD_REACTORS
330
127
102
}
330
127
100
AcDbXrecord
280
     1
102
RTVSPost2010Prop28
280
     0
102
RTVSPost2010PropOp28
 70
     1
102
RTVSPost2010Prop29
280
     1
102
RTVSPost2010PropOp29
 70
     1
102
RTVSPost2010Prop30
280
     1
102
RTVSPost2010PropOp30
 70
     1
102
RTVSPost2010Prop31
280
     0
102
RTVSPost2010PropOp31
 70
     1
102
RTVSPost2010Prop32
280
     0
102
RTVSPost2010PropOp32
 70
     1
102
RTVSPost2010Prop33
280
     0
102
RTVSPost2010PropOp33
 70
     1
102
RTVSPost2010Prop34
280
     0
102
RTVSPost2010PropOp34
 70
     1
102
RTVSPost2010Prop35
280
     0
102
RTVSPost2010PropOp35
 70
     1
102
RTVSPost2010Prop36
280
     0
102
RTVSPost2010PropOp36
 70
     1
102
RTVSPost2010Prop37
 90
       50
102
RTVSPost2010PropOp37
 70
     1
102
RTVSPost2010Prop38
140
0.0
102
RTVSPost2010PropOp38
 70
     1
102
RTVSPost2010Prop39
140
1.0
102
RTVSPost2010PropOp39
 70
     1
102
RTVSPost2010Prop40
 90
        0
102
RTVSPost2010PropOp40
 70
     1
102
RTVSPost2010Prop41ColorIndex
 90
       18
102
RTVSPost2010Prop41ColorRGB
 90
        0
102
RTVSPost2010PropOp41
 70
     1
102
RTVSPost2010Prop42
 90
       50
102
RTVSPost2010PropOp42
 70
     1
102
RTVSPost2010Prop43
 90
        3
102
RTVSPost2010PropOp43
 70
     1
102
RTVSPost2010Prop44ColorIndex
 90
        5
102
RTVSPost2010Prop44ColorRGB
 90
      255
102
RTVSPost2010PropOp44
 70
     1
102
RTVSPost2010Prop45
280
     0
102
RTVSPost2010PropOp45
 70
     1
102
RTVSPost2010Prop46
 90
       50
102
RTVSPost2010PropOp46
 70
     1
102
RTVSPost2010Prop47
 90
       50
102
RTVSPost2010PropOp47
 70
     1
102
RTVSPost2010Prop48
 90
       50
102
RTVSPost2010PropOp48
 70
     1
102
RTVSPost2010Prop49
280
     0
102
RTVSPost2010PropOp49
 70
     1
102
RTVSPost2010Prop50
 90
       50
102
RTVSPost2010PropOp50
 70
     1
102
RTVSPost2010Prop51ColorIndex
 90
      256
102
RTVSPost2010Prop51ColorRGB
 90
-16777216
102
RTVSPost2010PropOp51
 70
     0
102
RTVSPost2010Prop52
140
1.0
102
RTVSPost2010PropOp52
 70
     0
102
RTVSPost2010Prop53
 90
        2
102
RTVSPost2010PropOp53
 70
     1
102
RTVSPost2010Prop54
  1
strokes_ogs.tif
102
RTVSPost2010PropOp54
 70
     1
102
RTVSPost2010Prop55
280
     0
102
RTVSPost2010PropOp55
 70
     1
102
RTVSPost2010Prop56
140
1.0
102
RTVSPost2010PropOp56
 70
     1
102
RTVSPost2010Prop57
140
1.0
102
RTVSPost2010PropOp57
 70
     1
  0
XRECORD
  5
12A
102
{ACAD_REACTORS
330
129
102
}
330
129
100
AcDbXrecord
280
     1
102
RTVSPost2010Prop28
280
     0
102
RTVSPost2010PropOp28
 70
     1
102
RTVSPost2010Prop29
280
     1
102
RTVSPost2010PropOp29
 70
     1
102
RTVSPost2010Prop30
280
     1
102
RTVSPost2010PropOp30
 70
     1
102
RTVSPost2010Prop31
280
     0
102
RTVSPost2010PropOp31
 70
     1
102
RTVSPost2010Prop32
280
     0
102
RTVSPost2010PropOp32
 70
     1
102
RTVSPost2010Prop33
280
     0
102
RTVSPost2010PropOp33
 70
     1
102
RTVSPost2010Prop34
280
     0
102
RTVSPost2010PropOp34
 70
     1
102
RTVSPost2010Prop35
280
     0
102
RTVSPost2010PropOp35
 70
     1
102
RTVSPost2010Prop36
280
     0
102
RTVSPost2010PropOp36
 70
     1
102
RTVSPost2010Prop37
 90
       50
102
RTVSPost2010PropOp37
 70
     1
102
RTVSPost2010Prop38
140
0.0
102
RTVSPost2010PropOp38
 70
     1
102
RTVSPost2010Prop39
140
1.0
102
RTVSPost2010PropOp39
 70
     1
102
RTVSPost2010Prop40
 90
        0
102
RTVSPost2010PropOp40
 70
     1
102
RTVSPost2010Prop41ColorIndex
 90
       18
102
RTVSPost2010Prop41ColorRGB
 90
        0
102
RTVSPost2010PropOp41
 70
     1
102
RTVSPost2010Prop42
 90
       50
102
RTVSPost2010PropOp42
 70
     1
102
RTVSPost2010Prop43
 90
        3
102
RTVSPost2010PropOp43
 70
     1
102
RTVSPost2010Prop44ColorIndex
 90
        5
102
RTVSPost2010Prop44ColorRGB
 90
      255
102
RTVSPost2010PropOp44
 70
     1
102
RTVSPost2010Prop45
280
     0
102
RTVSPost2010PropOp45
 70
     1
102
RTVSPost2010Prop46
 90
       50
102
RTVSPost2010PropOp46
 70
     1
102
RTVSPost2010Prop47
 90
       50
102
RTVSPost2010PropOp47
 70
     1
102
RTVSPost2010Prop48
 90
       50
102
RTVSPost2010PropOp48
 70
     1
102
RTVSPost2010Prop49
280
     0
102
RTVSPost2010PropOp49
 70
     1
102
RTVSPost2010Prop50
 90
       50
102
RTVSPost2010PropOp50
 70
     1
102
RTVSPost2010Prop51ColorIndex
 90
      256
102
RTVSPost2010Prop51ColorRGB
 90
-16777216
102
RTVSPost2010PropOp51
 70
     0
102
RTVSPost2010Prop52
140
1.0
102
RTVSPost2010PropOp52
 70
     0
102
RTVSPost2010Prop53
 90
        2
102
RTVSPost2010PropOp53
 70
     1
102
RTVSPost2010Prop54
  1
strokes_ogs.tif
102
RTVSPost2010PropOp54
 70
     1
102
RTVSPost2010Prop55
280
     0
102
RTVSPost2010PropOp55
 70
     1
102
RTVSPost2010Prop56
140
1.0
102
RTVSPost2010PropOp56
 70
     1
102
RTVSPost2010Prop57
140
1.0
102
RTVSPost2010PropOp57
 70
     1
  0
XRECORD
  5
120
102
{ACAD_REACTORS
330
11F
102
}
330
11F
100
AcDbXrecord
280
     1
102
RTVSPost2010Prop28
280
     0
102
RTVSPost2010PropOp28
 70
     1
102
RTVSPost2010Prop29
280
     1
102
RTVSPost2010PropOp29
 70
     1
102
RTVSPost2010Prop30
280
     1
102
RTVSPost2010PropOp30
 70
     1
102
RTVSPost2010Prop31
280
     0
102
RTVSPost2010PropOp31
 70
     1
102
RTVSPost2010Prop32
280
     0
102
RTVSPost2010PropOp32
 70
     1
102
RTVSPost2010Prop33
280
     0
102
RTVSPost2010PropOp33
 70
     1
102
RTVSPost2010Prop34
280
     0
102
RTVSPost2010PropOp34
 70
     1
102
RTVSPost2010Prop35
280
     0
102
RTVSPost2010PropOp35
 70
     1
102
RTVSPost2010Prop36
280
     0
102
RTVSPost2010PropOp36
 70
     1
102
RTVSPost2010Prop37
 90
       50
102
RTVSPost2010PropOp37
 70
     1
102
RTVSPost2010Prop38
140
0.0
102
RTVSPost2010PropOp38
 70
     1
102
RTVSPost2010Prop39
140
1.0
102
RTVSPost2010PropOp39
 70
     1
102
RTVSPost2010Prop40
 90
        0
102
RTVSPost2010PropOp40
 70
     1
102
RTVSPost2010Prop41ColorIndex
 90
       18
102
RTVSPost2010Prop41ColorRGB
 90
        0
102
RTVSPost2010PropOp41
 70
     1
102
RTVSPost2010Prop42
 90
       50
102
RTVSPost2010PropOp42
 70
     1
102
RTVSPost2010Prop43
 90
        3
102
RTVSPost2010PropOp43
 70
     1
102
RTVSPost2010Prop44ColorIndex
 90
        5
102
RTVSPost2010Prop44ColorRGB
 90
      255
102
RTVSPost2010PropOp44
 70
     1
102
RTVSPost2010Prop45
280
     0
102
RTVSPost2010PropOp45
 70
     1
102
RTVSPost2010Prop46
 90
       50
102
RTVSPost2010PropOp46
 70
     1
102
RTVSPost2010Prop47
 90
       50
102
RTVSPost2010PropOp47
 70
     1
102
RTVSPost2010Prop48
 90
       50
102
RTVSPost2010PropOp48
 70
     1
102
RTVSPost2010Prop49
280
     0
102
RTVSPost2010PropOp49
 70
     1
102
RTVSPost2010Prop50
 90
       50
102
RTVSPost2010PropOp50
 70
     1
102
RTVSPost2010Prop51ColorIndex
 90
      256
102
RTVSPost2010Prop51ColorRGB
 90
-16777216
102
RTVSPost2010PropOp51
 70
     0
102
RTVSPost2010Prop52
140
1.0
102
RTVSPost2010PropOp52
 70
     0
102
RTVSPost2010Prop53
 90
        2
102
RTVSPost2010PropOp53
 70
     1
102
RTVSPost2010Prop54
  1
strokes_ogs.tif
102
RTVSPost2010PropOp54
 70
     1
102
RTVSPost2010Prop55
280
     0
102
RTVSPost2010PropOp55
 70
     1
102
RTVSPost2010Prop56
140
1.0
102
RTVSPost2010PropOp56
 70
     1
102
RTVSPost2010Prop57
140
1.0
102
RTVSPost2010PropOp57
 70
     1
  0
XRECORD
  5
114
102
{ACAD_REACTORS
330
113
102
}
330
113
100
AcDbXrecord
280
     1
102
RTVSPost2010Prop28
280
     0
102
RTVSPost2010PropOp28
 70
     1
102
RTVSPost2010Prop29
280
     1
102
RTVSPost2010PropOp29
 70
     1
102
RTVSPost2010Prop30
280
     1
102
RTVSPost2010PropOp30
 70
     1
102
RTVSPost2010Prop31
280
     0
102
RTVSPost2010PropOp31
 70
     1
102
RTVSPost2010Prop32
280
     0
102
RTVSPost2010PropOp32
 70
     1
102
RTVSPost2010Prop33
280
     0
102
RTVSPost2010PropOp33
 70
     1
102
RTVSPost2010Prop34
280
     0
102
RTVSPost2010PropOp34
 70
     1
102
RTVSPost2010Prop35
280
     0
102
RTVSPost2010PropOp35
 70
     1
102
RTVSPost2010Prop36
280
     0
102
RTVSPost2010PropOp36
 70
     1
102
RTVSPost2010Prop37
 90
       50
102
RTVSPost2010PropOp37
 70
     1
102
RTVSPost2010Prop38
140
0.0
102
RTVSPost2010PropOp38
 70
     1
102
RTVSPost2010Prop39
140
1.0
102
RTVSPost2010PropOp39
 70
     1
102
RTVSPost2010Prop40
 90
        0
102
RTVSPost2010PropOp40
 70
     1
102
RTVSPost2010Prop41ColorIndex
 90
       18
102
RTVSPost2010Prop41ColorRGB
 90
        0
102
RTVSPost2010PropOp41
 70
     1
102
RTVSPost2010Prop42
 90
       50
102
RTVSPost2010PropOp42
 70
     1
102
RTVSPost2010Prop43
 90
        3
102
RTVSPost2010PropOp43
 70
     1
102
RTVSPost2010Prop44ColorIndex
 90
        5
102
RTVSPost2010Prop44ColorRGB
 90
      255
102
RTVSPost2010PropOp44
 70
     1
102
RTVSPost2010Prop45
280
     0
102
RTVSPost2010PropOp45
 70
     1
102
RTVSPost2010Prop46
 90
       50
102
RTVSPost2010PropOp46
 70
     1
102
RTVSPost2010Prop47
 90
       50
102
RTVSPost2010PropOp47
 70
     1
102
RTVSPost2010Prop48
 90
       50
102
RTVSPost2010PropOp48
 70
     1
102
RTVSPost2010Prop49
280
     0
102
RTVSPost2010PropOp49
 70
     1
102
RTVSPost2010Prop50
 90
       50
102
RTVSPost2010PropOp50
 70
     1
102
RTVSPost2010Prop51ColorIndex
 90
      256
102
RTVSPost2010Prop51ColorRGB
 90
-16777216
102
RTVSPost2010PropOp51
 70
     0
102
RTVSPost2010Prop52
140
1.0
102
RTVSPost2010PropOp52
 70
     0
102
RTVSPost2010Prop53
 90
        2
102
RTVSPost2010PropOp53
 70
     1
102
RTVSPost2010Prop54
  1
strokes_ogs.tif
102
RTVSPost2010PropOp54
 70
     1
102
RTVSPost2010Prop55
280
     0
102
RTVSPost2010PropOp55
 70
     1
102
RTVSPost2010Prop56
140
1.0
102
RTVSPost2010PropOp56
 70
     1
102
RTVSPost2010Prop57
140
1.0
102
RTVSPost2010PropOp57
 70
     1
  0
XRECORD
  5
12C
102
{ACAD_REACTORS
330
12B
102
}
330
12B
100
AcDbXrecord
280
     1
102
RTVSPost2010Prop28
280
     0
102
RTVSPost2010PropOp28
 70
     1
102
RTVSPost2010Prop29
280
     1
102
RTVSPost2010PropOp29
 70
     1
102
RTVSPost2010Prop30
280
     1
102
RTVSPost2010PropOp30
 70
     1
102
RTVSPost2010Prop31
280
     0
102
RTVSPost2010PropOp31
 70
     1
102
RTVSPost2010Prop32
280
     0
102
RTVSPost2010PropOp32
 70
     1
102
RTVSPost2010Prop33
280
     0
102
RTVSPost2010PropOp33
 70
     1
102
RTVSPost2010Prop34
280
     0
102
RTVSPost2010PropOp34
 70
     1
102
RTVSPost2010Prop35
280
     0
102
RTVSPost2010PropOp35
 70
     1
102
RTVSPost2010Prop36
280
     0
102
RTVSPost2010PropOp36
 70
     1
102
RTVSPost2010Prop37
 90
       50
102
RTVSPost2010PropOp37
 70
     1
102
RTVSPost2010Prop38
140
0.0
102
RTVSPost2010PropOp38
 70
     1
102
RTVSPost2010Prop39
140
1.0
102
RTVSPost2010PropOp39
 70
     1
102
RTVSPost2010Prop40
 90
        0
102
RTVSPost2010PropOp40
 70
     1
102
RTVSPost2010Prop41ColorIndex
 90
       18
102
RTVSPost2010Prop41ColorRGB
 90
        0
102
RTVSPost2010PropOp41
 70
     1
102
RTVSPost2010Prop42
 90
       50
102
RTVSPost2010PropOp42
 70
     1
102
RTVSPost2010Prop43
 90
        3
102
RTVSPost2010PropOp43
 70
     1
102
RTVSPost2010Prop44ColorIndex
 90
        5
102
RTVSPost2010Prop44ColorRGB
 90
      255
102
RTVSPost2010PropOp44
 70
     1
102
RTVSPost2010Prop45
280
     0
102
RTVSPost2010PropOp45
 70
     1
102
RTVSPost2010Prop46
 90
       50
102
RTVSPost2010PropOp46
 70
     1
102
RTVSPost2010Prop47
 90
       50
102
RTVSPost2010PropOp47
 70
     1
102
RTVSPost2010Prop48
 90
       50
102
RTVSPost2010PropOp48
 70
     1
102
RTVSPost2010Prop49
280
     0
102
RTVSPost2010PropOp49
 70
     1
102
RTVSPost2010Prop50
 90
       50
102
RTVSPost2010PropOp50
 70
     1
102
RTVSPost2010Prop51ColorIndex
 90
      256
102
RTVSPost2010Prop51ColorRGB
 90
-16777216
102
RTVSPost2010PropOp51
 70
     0
102
RTVSPost2010Prop52
140
1.0
102
RTVSPost2010PropOp52
 70
     0
102
RTVSPost2010Prop53
 90
        2
102
RTVSPost2010PropOp53
 70
     1
102
RTVSPost2010Prop54
  1
strokes_ogs.tif
102
RTVSPost2010PropOp54
 70
     1
102
RTVSPost2010Prop55
280
     0
102
RTVSPost2010PropOp55
 70
     1
102
RTVSPost2010Prop56
140
1.0
102
RTVSPost2010PropOp56
 70
     1
102
RTVSPost2010Prop57
140
1.0
102
RTVSPost2010PropOp57
 70
     1
  0
ENDSEC
  0
EOF
