  0
SECTION
  2
HEADER
  9
$ACADVER
  1
AC1024
  9
$ACADMAINTVER
 70
   205
  9
$DWGCODEPAGE
  3
ANSI_1251
  9
$INSBASE
 10
0.0
 20
0.0
 30
0.0
  9
$EXTMIN
 10
1.000000000000000E+20
 20
1.000000000000000E+20
 30
1.000000000000000E+20
  9
$EXTMAX
 10
-1.000000000000000E+20
 20
-1.000000000000000E+20
 30
-1.000000000000000E+20
  9
$LIMMIN
 10
0.0
 20
0.0
  9
$LIMMAX
 10
12.0
 20
9.0
  9
$ORTHOMODE
 70
     0
  9
$REGENMODE
 70
     1
  9
$FILLMODE
 70
     1
  9
$QTEXTMODE
 70
     0
  9
$MIRRTEXT
 70
     1
  9
$LTSCALE
 40
1.0
  9
$ATTMODE
 70
     1
  9
$TEXTSIZE
 40
0.2
  9
$TRACEWID
 40
0.05
  9
$TEXTSTYLE
  7
Standard
  9
$CLAYER
  8
OracDecor_cornice_mouldings
  9
$CELTYPE
  6
ByLayer
  9
$CECOLOR
 62
   256
  9
$CELTSCALE
 40
1.0
  9
$DISPSILH
 70
     0
  9
$DIMSCALE
 40
1.0
  9
$DIMASZ
 40
0.18
  9
$DIMEXO
 40
0.0625
  9
$DIMDLI
 40
0.38
  9
$DIMRND
 40
0.0
  9
$DIMDLE
 40
0.0
  9
$DIMEXE
 40
0.18
  9
$DIMTP
 40
0.0
  9
$DIMTM
 40
0.0
  9
$DIMTXT
 40
0.18
  9
$DIMCEN
 40
0.09
  9
$DIMTSZ
 40
0.0
  9
$DIMTOL
 70
     0
  9
$DIMLIM
 70
     0
  9
$DIMTIH
 70
     1
  9
$DIMTOH
 70
     1
  9
$DIMSE1
 70
     0
  9
$DIMSE2
 70
     0
  9
$DIMTAD
 70
     0
  9
$DIMZIN
 70
     0
  9
$DIMBLK
  1

  9
$DIMASO
 70
     1
  9
$DIMSHO
 70
     1
  9
$DIMPOST
  1

  9
$DIMAPOST
  1

  9
$DIMALT
 70
     0
  9
$DIMALTD
 70
     2
  9
$DIMALTF
 40
25.4
  9
$DIMLFAC
 40
1.0
  9
$DIMTOFL
 70
     0
  9
$DIMTVP
 40
0.0
  9
$DIMTIX
 70
     0
  9
$DIMSOXD
 70
     0
  9
$DIMSAH
 70
     0
  9
$DIMBLK1
  1

  9
$DIMBLK2
  1

  9
$DIMSTYLE
  2
Standard
  9
$DIMCLRD
 70
     0
  9
$DIMCLRE
 70
     0
  9
$DIMCLRT
 70
     0
  9
$DIMTFAC
 40
1.0
  9
$DIMGAP
 40
0.09
  9
$DIMJUST
 70
     0
  9
$DIMSD1
 70
     0
  9
$DIMSD2
 70
     0
  9
$DIMTOLJ
 70
     1
  9
$DIMTZIN
 70
     0
  9
$DIMALTZ
 70
     0
  9
$DIMALTTZ
 70
     0
  9
$DIMUPT
 70
     0
  9
$DIMDEC
 70
     4
  9
$DIMTDEC
 70
     4
  9
$DIMALTU
 70
     2
  9
$DIMALTTD
 70
     2
  9
$DIMTXSTY
  7
Standard
  9
$DIMAUNIT
 70
     0
  9
$DIMADEC
 70
     0
  9
$DIMALTRND
 40
0.0
  9
$DIMAZIN
 70
     0
  9
$DIMDSEP
 70
    46
  9
$DIMATFIT
 70
     3
  9
$DIMFRAC
 70
     0
  9
$DIMLDRBLK
  1

  9
$DIMLUNIT
 70
     2
  9
$DIMLWD
 70
    -2
  9
$DIMLWE
 70
    -2
  9
$DIMTMOVE
 70
     0
  9
$DIMFXL
 40
1.0
  9
$DIMFXLON
 70
     0
  9
$DIMJOGANG
 40
0.7853981633974483
  9
$DIMTFILL
 70
     0
  9
$DIMTFILLCLR
 70
     0
  9
$DIMARCSYM
 70
     0
  9
$DIMLTYPE
  6

  9
$DIMLTEX1
  6

  9
$DIMLTEX2
  6

  9
$DIMTXTDIRECTION
 70
     0
  9
$LUNITS
 70
     2
  9
$LUPREC
 70
     4
  9
$SKETCHINC
 40
0.1
  9
$FILLETRAD
 40
0.5
  9
$AUNITS
 70
     0
  9
$AUPREC
 70
     0
  9
$MENU
  1
.
  9
$ELEVATION
 40
0.0
  9
$PELEVATION
 40
0.0
  9
$THICKNESS
 40
0.0
  9
$LIMCHECK
 70
     0
  9
$CHAMFERA
 40
0.5
  9
$CHAMFERB
 40
0.5
  9
$CHAMFERC
 40
1.0
  9
$CHAMFERD
 40
0.0
  9
$SKPOLY
 70
     0
  9
$TDCREATE
 40
2451380.930432396
  9
$TDUCREATE
 40
2451380.805432396
  9
$TDUPDATE
 40
2451380.966180555
  9
$TDUUPDATE
 40
2451380.841180556
  9
$TDINDWG
 40
0.0075622454
  9
$TDUSRTIMER
 40
0.0075532060
  9
$USRTIMER
 70
     1
  9
$ANGBASE
 50
0.0
  9
$ANGDIR
 70
     0
  9
$PDMODE
 70
     0
  9
$PDSIZE
 40
0.0
  9
$PLINEWID
 40
0.0
  9
$SPLFRAME
 70
     0
  9
$SPLINETYPE
 70
     6
  9
$SPLINESEGS
 70
     8
  9
$HANDSEED
  5
1B1
  9
$SURFTAB1
 70
     6
  9
$SURFTAB2
 70
     6
  9
$SURFTYPE
 70
     6
  9
$SURFU
 70
     6
  9
$SURFV
 70
     6
  9
$UCSBASE
  2

  9
$UCSNAME
  2

  9
$UCSORG
 10
0.0
 20
0.0
 30
0.0
  9
$UCSXDIR
 10
1.0
 20
0.0
 30
0.0
  9
$UCSYDIR
 10
0.0
 20
1.0
 30
0.0
  9
$UCSORTHOREF
  2

  9
$UCSORTHOVIEW
 70
     0
  9
$UCSORGTOP
 10
0.0
 20
0.0
 30
0.0
  9
$UCSORGBOTTOM
 10
0.0
 20
0.0
 30
0.0
  9
$UCSORGLEFT
 10
0.0
 20
0.0
 30
0.0
  9
$UCSORGRIGHT
 10
0.0
 20
0.0
 30
0.0
  9
$UCSORGFRONT
 10
0.0
 20
0.0
 30
0.0
  9
$UCSORGBACK
 10
0.0
 20
0.0
 30
0.0
  9
$PUCSBASE
  2

  9
$PUCSNAME
  2

  9
$PUCSORG
 10
0.0
 20
0.0
 30
0.0
  9
$PUCSXDIR
 10
1.0
 20
0.0
 30
0.0
  9
$PUCSYDIR
 10
0.0
 20
1.0
 30
0.0
  9
$PUCSORTHOREF
  2

  9
$PUCSORTHOVIEW
 70
     0
  9
$PUCSORGTOP
 10
0.0
 20
0.0
 30
0.0
  9
$PUCSORGBOTTOM
 10
0.0
 20
0.0
 30
0.0
  9
$PUCSORGLEFT
 10
0.0
 20
0.0
 30
0.0
  9
$PUCSORGRIGHT
 10
0.0
 20
0.0
 30
0.0
  9
$PUCSORGFRONT
 10
0.0
 20
0.0
 30
0.0
  9
$PUCSORGBACK
 10
0.0
 20
0.0
 30
0.0
  9
$USERI1
 70
     0
  9
$USERI2
 70
     0
  9
$USERI3
 70
     0
  9
$USERI4
 70
     0
  9
$USERI5
 70
     0
  9
$USERR1
 40
0.0
  9
$USERR2
 40
0.0
  9
$USERR3
 40
0.0
  9
$USERR4
 40
0.0
  9
$USERR5
 40
0.0
  9
$WORLDVIEW
 70
     1
  9
$SHADEDGE
 70
     3
  9
$SHADEDIF
 70
    70
  9
$TILEMODE
 70
     1
  9
$MAXACTVP
 70
    64
  9
$PINSBASE
 10
0.0
 20
0.0
 30
0.0
  9
$PLIMCHECK
 70
     0
  9
$PEXTMIN
 10
1.000000000000000E+20
 20
1.000000000000000E+20
 30
1.000000000000000E+20
  9
$PEXTMAX
 10
-1.000000000000000E+20
 20
-1.000000000000000E+20
 30
-1.000000000000000E+20
  9
$PLIMMIN
 10
0.0
 20
0.0
  9
$PLIMMAX
 10
12.0
 20
9.0
  9
$UNITMODE
 70
     0
  9
$VISRETAIN
 70
     1
  9
$PLINEGEN
 70
     0
  9
$PSLTSCALE
 70
     1
  9
$TREEDEPTH
 70
  3020
  9
$CMLSTYLE
  2
Standard
  9
$CMLJUST
 70
     0
  9
$CMLSCALE
 40
1.0
  9
$PROXYGRAPHICS
 70
     1
  9
$MEASUREMENT
 70
     1
  9
$CELWEIGHT
370
    -1
  9
$ENDCAPS
280
     0
  9
$JOINSTYLE
280
     0
  9
$LWDISPLAY
290
     0
  9
$INSUNITS
 70
     4
  9
$HYPERLINKBASE
  1

  9
$STYLESHEET
  1

  9
$XEDIT
290
     1
  9
$CEPSNTYPE
380
     0
  9
$PSTYLEMODE
290
     1
  9
$FINGERPRINTGUID
  2
{12F50282-3ED8-11D3-A8B7-0060B0F84BC6}
  9
$VERSIONGUID
  2
{12F50293-3ED8-11D3-A8B7-0060B0F84BC6}
  9
$EXTNAMES
290
     1
  9
$PSVPSCALE
 40
0.0
  9
$OLESTARTUP
290
     0
  9
$SORTENTS
280
   127
  9
$INDEXCTL
280
     0
  9
$HIDETEXT
280
     0
  9
$XCLIPFRAME
280
     2
  9
$HALOGAP
280
     0
  9
$OBSCOLOR
 70
   257
  9
$OBSLTYPE
280
     0
  9
$INTERSECTIONDISPLAY
280
     0
  9
$INTERSECTIONCOLOR
 70
   257
  9
$DIMASSOC
280
     1
  9
$PROJECTNAME
  1

  9
$CAMERADISPLAY
290
     0
  9
$LENSLENGTH
 40
50.0
  9
$CAMERAHEIGHT
 40
0.0
  9
$STEPSPERSEC
 40
2.0
  9
$STEPSIZE
 40
6.0
  9
$3DDWFPREC
 40
2.0
  9
$PSOLWIDTH
 40
0.25
  9
$PSOLHEIGHT
 40
4.0
  9
$LOFTANG1
 40
1.570796326794896
  9
$LOFTANG2
 40
1.570796326794896
  9
$LOFTMAG1
 40
0.0
  9
$LOFTMAG2
 40
0.0
  9
$LOFTPARAM
 70
     7
  9
$LOFTNORMALS
280
     1
  9
$LATITUDE
 40
37.795
  9
$LONGITUDE
 40
-122.394
  9
$NORTHDIRECTION
 40
0.0
  9
$TIMEZONE
 70
 -8000
  9
$LIGHTGLYPHDISPLAY
280
     1
  9
$TILEMODELIGHTSYNCH
280
     1
  9
$CMATERIAL
347
AB
  9
$SOLIDHIST
280
     0
  9
$SHOWHIST
280
     1
  9
$DWFFRAME
280
     2
  9
$DGNFRAME
280
     0
  9
$REALWORLDSCALE
290
     1
  9
$INTERFERECOLOR
 62
     1
  9
$INTERFEREOBJVS
345
CD
  9
$INTERFEREVPVS
346
CA
  9
$CSHADOW
280
     0
  9
$SHADOWPLANELOCATION
 40
0.0
  0
ENDSEC
  0
SECTION
  2
CLASSES
  0
CLASS
  1
ACDBDICTIONARYWDFLT
  2
AcDbDictionaryWithDefault
  3
ObjectDBX Classes
 90
        0
 91
        1
280
     0
281
     0
  0
CLASS
  1
ACDBPLACEHOLDER
  2
AcDbPlaceHolder
  3
ObjectDBX Classes
 90
        0
 91
        2
280
     0
281
     0
  0
CLASS
  1
LAYOUT
  2
AcDbLayout
  3
ObjectDBX Classes
 90
        0
 91
        3
280
     0
281
     0
  0
CLASS
  1
MATERIAL
  2
AcDbMaterial
  3
ObjectDBX Classes
 90
     1153
 91
        3
280
     0
281
     0
  0
CLASS
  1
VISUALSTYLE
  2
AcDbVisualStyle
  3
ObjectDBX Classes
 90
     4095
 91
       24
280
     0
281
     0
  0
CLASS
  1
TABLESTYLE
  2
AcDbTableStyle
  3
ObjectDBX Classes
 90
     4095
 91
        1
280
     0
281
     0
  0
CLASS
  1
SCALE
  2
AcDbScale
  3
ObjectDBX Classes
 90
     1153
 91
       17
280
     0
281
     0
  0
CLASS
  1
MLEADERSTYLE
  2
AcDbMLeaderStyle
  3
ACDB_MLEADERSTYLE_CLASS
 90
     4095
 91
        1
280
     0
281
     0
  0
CLASS
  1
ACDBSECTIONVIEWSTYLE
  2
AcDbSectionViewStyle
  3
ObjectDBX Classes
 90
     1025
 91
        1
280
     0
281
     0
  0
CLASS
  1
ACDBDETAILVIEWSTYLE
  2
AcDbDetailViewStyle
  3
ObjectDBX Classes
 90
     1025
 91
        1
280
     0
281
     0
  0
CLASS
  1
MESH
  2
AcDbSubDMesh
  3
ObjectDBX Classes
 90
        0
 91
        1
280
     0
281
     1
  0
CLASS
  1
DICTIONARYVAR
  2
AcDbDictionaryVar
  3
ObjectDBX Classes
 90
        0
 91
        9
280
     0
281
     0
  0
CLASS
  1
CELLSTYLEMAP
  2
AcDbCellStyleMap
  3
ObjectDBX Classes
 90
     1152
 91
        1
280
     0
281
     0
  0
ENDSEC
  0
SECTION
  2
TABLES
  0
TABLE
  2
VPORT
  5
8
330
0
100
AcDbSymbolTable
 70
     1
  0
VPORT
  5
A8
330
8
100
AcDbSymbolTableRecord
100
AcDbViewportTableRecord
  2
*Active
 70
     0
 10
0.0
 20
0.0
 11
1.0
 21
1.0
 12
-0.0000107895939436
 22
-4.899031639099121
 13
0.0
 23
0.0
 14
0.5
 24
0.5
 15
0.5
 25
0.5
 16
-1.0
 26
-1.0
 36
1.0
 17
0.0
 27
0.0
 37
0.0
 40
1087.000071417059
 41
1.712929570342449
 42
50.0
 43
0.0
 44
0.0
 50
0.0
 51
0.0
 71
     0
 72
   100
 73
     1
 74
     3
 75
     0
 76
     0
 77
     0
 78
     0
281
     0
 65
     1
110
0.0
120
0.0
130
0.0
111
1.0
121
0.0
131
0.0
112
0.0
122
1.0
132
0.0
 79
     0
146
0.0
348
C9
 60
     3
 61
     5
292
     1
282
     1
141
0.0
142
0.0
 63
   250
421
  3355443
  0
ENDTAB
  0
TABLE
  2
LTYPE
  5
5
330
0
100
AcDbSymbolTable
 70
     1
  0
LTYPE
  5
14
330
5
100
AcDbSymbolTableRecord
100
AcDbLinetypeTableRecord
  2
ByBlock
 70
     0
  3

 72
    65
 73
     0
 40
0.0
  0
LTYPE
  5
15
330
5
100
AcDbSymbolTableRecord
100
AcDbLinetypeTableRecord
  2
ByLayer
 70
     0
  3

 72
    65
 73
     0
 40
0.0
  0
LTYPE
  5
16
330
5
100
AcDbSymbolTableRecord
100
AcDbLinetypeTableRecord
  2
Continuous
 70
     0
  3
Solid line
 72
    65
 73
     0
 40
0.0
  0
ENDTAB
  0
TABLE
  2
LAYER
  5
2
330
0
100
AcDbSymbolTable
 70
     3
  0
LAYER
  5
10
330
2
100
AcDbSymbolTableRecord
100
AcDbLayerTableRecord
  2
0
 70
     0
 62
     7
  6
Continuous
370
    -3
390
F
347
BB
  0
LAYER
  5
2B
330
2
100
AcDbSymbolTableRecord
100
AcDbLayerTableRecord
  2
ASHADE
 70
     4
 62
     7
  6
Continuous
370
    -3
390
2D
347
BB
  0
LAYER
  5
F8
330
2
100
AcDbSymbolTableRecord
100
AcDbLayerTableRecord
  2
OracDecor_cornice_mouldings
 70
     0
 62
   151
420
 10140133
  6
Continuous
370
    -3
390
F
347
BB
  0
ENDTAB
  0
TABLE
  2
STYLE
  5
3
330
0
100
AcDbSymbolTable
 70
     2
  0
STYLE
  5
11
330
3
100
AcDbSymbolTableRecord
100
AcDbTextStyleTableRecord
  2
Standard
 70
     0
 40
0.0
 41
1.0
 50
0.0
 71
     0
 42
0.2
  3
txt
  4

  0
STYLE
  5
2C
330
3
100
AcDbSymbolTableRecord
100
AcDbTextStyleTableRecord
  2
ASHADE
 70
     0
 40
0.2
 41
1.0
 50
0.0
 71
     0
 42
0.2
  3
simplex
  4

  0
ENDTAB
  0
TABLE
  2
VIEW
  5
6
330
0
100
AcDbSymbolTable
 70
     0
  0
ENDTAB
  0
TABLE
  2
UCS
  5
7
330
0
100
AcDbSymbolTable
 70
     0
  0
ENDTAB
  0
TABLE
  2
APPID
  5
9
330
0
100
AcDbSymbolTable
 70
     6
  0
APPID
  5
12
330
9
100
AcDbSymbolTableRecord
100
AcDbRegAppTableRecord
  2
ACAD
 70
     0
  0
APPID
  5
8F
330
9
100
AcDbSymbolTableRecord
100
AcDbRegAppTableRecord
  2
AVE_RENDER
 70
     0
  0
APPID
  5
90
330
9
100
AcDbSymbolTableRecord
100
AcDbRegAppTableRecord
  2
AVE_ENTITY_MATERIAL
 70
     0
  0
APPID
  5
9C
330
9
100
AcDbSymbolTableRecord
100
AcDbRegAppTableRecord
  2
AVE_FINISH
 70
     0
  0
APPID
  5
9D
330
9
100
AcDbSymbolTableRecord
100
AcDbRegAppTableRecord
  2
AVE_MATERIAL
 70
     0
  0
APPID
  5
9E
330
9
100
AcDbSymbolTableRecord
100
AcDbRegAppTableRecord
  2
AVE_GLOBAL
 70
     0
  0
ENDTAB
  0
TABLE
  2
DIMSTYLE
  5
A
330
0
100
AcDbSymbolTable
 70
     1
100
AcDbDimStyleTable
 71
     0
  0
DIMSTYLE
105
27
330
A
100
AcDbSymbolTableRecord
100
AcDbDimStyleTableRecord
  2
Standard
 70
     0
340
11
  0
ENDTAB
  0
TABLE
  2
BLOCK_RECORD
  5
1
330
0
100
AcDbSymbolTable
 70
     6
  0
BLOCK_RECORD
  5
1F
330
1
100
AcDbSymbolTableRecord
100
AcDbBlockTableRecord
  2
*Model_Space
340
22
 70
     0
280
     1
281
     0
  0
BLOCK_RECORD
  5
1B
330
1
100
AcDbSymbolTableRecord
100
AcDbBlockTableRecord
  2
*Paper_Space
340
1E
 70
     0
280
     1
281
     0
  0
BLOCK_RECORD
  5
23
330
1
100
AcDbSymbolTableRecord
100
AcDbBlockTableRecord
  2
*Paper_Space0
340
26
 70
     0
280
     1
281
     0
  0
BLOCK_RECORD
  5
2E
330
1
100
AcDbSymbolTableRecord
100
AcDbBlockTableRecord
  2
direct
340
0
 70
     0
280
     1
281
     0
  0
BLOCK_RECORD
  5
42
330
1
100
AcDbSymbolTableRecord
100
AcDbBlockTableRecord
  2
overhead
340
0
 70
     0
280
     1
281
     0
  0
BLOCK_RECORD
  5
5F
330
1
100
AcDbSymbolTableRecord
100
AcDbBlockTableRecord
  2
sh_spot
340
0
 70
     0
280
     1
281
     0
  0
BLOCK_RECORD
  5
91
330
1
100
AcDbSymbolTableRecord
100
AcDbBlockTableRecord
  2
AVE_RENDER
340
0
102
{BLKREFS
331
94
331
95
331
96
331
97
331
98
331
99
331
9A
331
9B
102
}
 70
     0
280
     1
281
     0
  0
BLOCK_RECORD
  5
9F
330
1
100
AcDbSymbolTableRecord
100
AcDbBlockTableRecord
  2
AVE_GLOBAL
340
0
102
{BLKREFS
331
A2
102
}
 70
     0
280
     1
281
     0
  0
ENDTAB
  0
ENDSEC
  0
SECTION
  2
BLOCKS
  0
BLOCK
  5
20
330
1F
100
AcDbEntity
  8
0
100
AcDbBlockBegin
  2
*Model_Space
 70
     0
 10
0.0
 20
0.0
 30
0.0
  3
*Model_Space
  1

  0
ENDBLK
  5
21
330
1F
100
AcDbEntity
  8
0
100
AcDbBlockEnd
  0
BLOCK
  5
1C
330
1B
100
AcDbEntity
 67
     1
  8
0
100
AcDbBlockBegin
  2
*Paper_Space
 70
     0
 10
0.0
 20
0.0
 30
0.0
  3
*Paper_Space
  1

  0
ENDBLK
  5
1D
330
1B
100
AcDbEntity
 67
     1
  8
0
100
AcDbBlockEnd
  0
BLOCK
  5
24
330
23
100
AcDbEntity
 67
     1
  8
0
100
AcDbBlockBegin
  2
*Paper_Space0
 70
     0
 10
0.0
 20
0.0
 30
0.0
  3
*Paper_Space0
  1

  0
ENDBLK
  5
25
330
23
100
AcDbEntity
 67
     1
  8
0
100
AcDbBlockEnd
  0
BLOCK
  5
40
330
2E
100
AcDbEntity
  8
0
100
AcDbBlockBegin
  2
direct
 70
     2
 10
0.0
 20
0.0
 30
0.0
  3
direct
  1

  0
ATTDEF
  5
2F
330
2E
100
AcDbEntity
  8
ASHADE
  6
Continuous
 62
     1
100
AcDbText
 10
0.0
 20
-0.1
 30
0.0
 40
0.2
  1

  7
ASHADE
 72
     1
 11
0.0
 21
-0.1
 31
0.0
100
AcDbAttributeDefinition
280
     0
  3
Light Name
  2
SNAME
 70
     0
280
     0
  0
ARC
  5
30
330
2E
100
AcDbEntity
  8
ASHADE
  6
Continuous
 62
     7
100
AcDbCircle
 10
0.0
 20
0.0
 30
0.0
 40
0.3
100
AcDbArc
 50
205.6792886194569
 51
334.3207113805431
  0
ARC
  5
31
330
2E
100
AcDbEntity
  8
ASHADE
  6
Continuous
 62
     7
100
AcDbCircle
 10
0.0
 20
0.0
 30
0.0
 40
0.3
100
AcDbArc
 50
25.67928861945685
 51
154.3207113805431
  0
LINE
  5
32
330
2E
100
AcDbEntity
  8
ASHADE
  6
Continuous
 62
     7
100
AcDbLine
 10
-0.21
 20
0.2142428528562855
 30
0.0
 11
-0.21
 21
0.5
 31
0.0
  0
LINE
  5
33
330
2E
100
AcDbEntity
  8
ASHADE
  6
Continuous
 62
     7
100
AcDbLine
 10
-0.11
 20
0.2791057147390572
 30
0.0
 11
-0.11
 21
0.5
 31
0.0
  0
LINE
  5
34
330
2E
100
AcDbEntity
  8
ASHADE
  6
Continuous
 62
     7
100
AcDbLine
 10
0.21
 20
0.2142428528562855
 30
0.0
 11
0.21
 21
0.5
 31
0.0
  0
ATTDEF
  5
35
330
2E
100
AcDbEntity
  8
ASHADE
  6
Continuous
 62
     7
100
AcDbText
 10
0.0
 20
0.25
 30
0.0
 40
0.01
  1

100
AcDbAttributeDefinition
280
     0
  3
Look-at Y
  2
LAY
 70
     1
280
     0
  0
ATTDEF
  5
36
330
2E
100
AcDbEntity
  8
ASHADE
  6
Continuous
 62
     7
100
AcDbText
 10
0.0
 20
0.22
 30
0.0
 40
0.01
  1
1
100
AcDbAttributeDefinition
280
     0
  3
Light Intensity
  2
INTENSITY
 70
     1
280
     0
  0
ATTDEF
  5
37
330
2E
100
AcDbEntity
  8
ASHADE
  6
Continuous
 62
     7
100
AcDbText
 10
0.0
 20
0.16
 30
0.0
 40
0.01
  1
-1
100
AcDbAttributeDefinition
280
     0
  3
*not used*
  2
BEAMD
 70
     1
280
     0
  0
ATTDEF
  5
38
330
2E
100
AcDbEntity
  8
ASHADE
  6
Continuous
 62
     7
100
AcDbText
 10
0.0
 20
0.175
 30
0.0
 40
0.01
  1
-1
100
AcDbAttributeDefinition
280
     0
  3
*not used*
  2
CONED
 70
     1
280
     0
  0
ATTDEF
  5
39
330
2E
100
AcDbEntity
  8
ASHADE
  6
Continuous
 62
     7
100
AcDbText
 10
0.0
 20
0.19
 30
0.0
 40
0.01
  1
0
100
AcDbAttributeDefinition
280
     0
  3
Depth Map Size
  2
CONEA
 70
     1
280
     0
  0
ATTDEF
  5
3A
330
2E
100
AcDbEntity
  8
ASHADE
  6
Continuous
 62
     7
100
AcDbText
 10
0.0
 20
0.2050000000000001
 30
0.0
 40
0.01
  1
1,1,1
100
AcDbAttributeDefinition
280
     0
  3
Light Color (RGB)
  2
COLOR
 70
     1
280
     0
  0
ATTDEF
  5
3B
330
2E
100
AcDbEntity
  8
ASHADE
  6
Continuous
 62
     7
100
AcDbText
 10
0.0
 20
0.235
 30
0.0
 40
0.01
  1

100
AcDbAttributeDefinition
280
     0
  3
Look-at Z
  2
LAZ
 70
     1
280
     0
  0
LINE
  5
3C
330
2E
100
AcDbEntity
  8
ASHADE
  6
Continuous
 62
     7
100
AcDbLine
 10
0.0
 20
0.3
 30
0.0
 11
0.0
 21
0.5
 31
0.0
  0
LINE
  5
3D
330
2E
100
AcDbEntity
  8
ASHADE
  6
Continuous
 62
     7
100
AcDbLine
 10
0.11
 20
0.2791057147390572
 30
0.0
 11
0.11
 21
0.5
 31
0.0
  0
ATTDEF
  5
3E
330
2E
100
AcDbEntity
  8
ASHADE
  6
Continuous
 62
     7
100
AcDbText
 10
0.0
 20
0.265
 30
0.0
 40
0.01
  1

100
AcDbAttributeDefinition
280
     0
  3
Look-at X
  2
LAX
 70
     1
280
     0
  0
ATTDEF
  5
3F
330
2E
100
AcDbEntity
  8
ASHADE
  6
Continuous
 62
     7
100
AcDbText
 10
0.0
 20
0.28
 30
0.0
 40
0.01
  1

100
AcDbAttributeDefinition
280
     0
  3

  2
GNAME
 70
     1
280
     0
  0
ENDBLK
  5
41
330
2E
100
AcDbEntity
  8
0
100
AcDbBlockEnd
  0
BLOCK
  5
5D
330
42
100
AcDbEntity
  8
0
100
AcDbBlockBegin
  2
overhead
 70
     2
 10
0.0
 20
0.0
 30
0.0
  3
overhead
  1

  0
ATTDEF
  5
43
330
42
100
AcDbEntity
  8
ASHADE
  6
Continuous
 62
     1
100
AcDbText
 10
0.0
 20
-0.1
 30
0.0
 40
0.2
  1

  7
ASHADE
 72
     1
 11
0.0
 21
-0.1
 31
0.0
100
AcDbAttributeDefinition
280
     0
  3
Light Name
  2
SNAME
 70
     0
280
     0
  0
ARC
  5
44
330
42
100
AcDbEntity
  8
ASHADE
  6
Continuous
 62
     7
100
AcDbCircle
 10
0.0
 20
0.0
 30
0.0
 40
0.3
100
AcDbArc
 50
205.6792886194569
 51
334.3207113805431
  0
LINE
  5
45
330
42
100
AcDbEntity
  8
ASHADE
  6
Continuous
 62
     7
100
AcDbLine
 10
-0.2041413561583015
 20
-0.2198324514393848
 30
0.0
 11
-0.2721884748777353
 21
-0.2931099352525131
 31
0.0
  0
LINE
  5
46
330
42
100
AcDbEntity
  8
ASHADE
  6
Continuous
 62
     7
100
AcDbLine
 10
-0.1096591641591904
 20
-0.2792398032442862
 30
0.0
 11
-0.1279356915190555
 21
-0.3257797704516673
 31
0.0
  0
LINE
  5
47
330
42
100
AcDbEntity
  8
ASHADE
  6
Continuous
 62
     7
100
AcDbLine
 10
0.0
 20
-0.2999999999999999
 30
0.0
 11
0.0
 21
-0.4
 31
0.0
  0
LINE
  5
48
330
42
100
AcDbEntity
  8
ASHADE
  6
Continuous
 62
     7
100
AcDbLine
 10
0.1096591641591904
 20
-0.2792398032442862
 30
0.0
 11
0.1279356915190555
 21
-0.3257797704516673
 31
0.0
  0
LINE
  5
49
330
42
100
AcDbEntity
  8
ASHADE
  6
Continuous
 62
     7
100
AcDbLine
 10
0.2041413561583015
 20
-0.2198324514393848
 30
0.0
 11
0.2721884748777353
 21
-0.2931099352525131
 31
0.0
  0
ARC
  5
4A
330
42
100
AcDbEntity
  8
ASHADE
  6
Continuous
 62
     7
100
AcDbCircle
 10
0.0
 20
0.0
 30
0.0
 40
0.3
100
AcDbArc
 50
25.67928861945685
 51
154.3207113805431
  0
LINE
  5
4B
330
42
100
AcDbEntity
  8
ASHADE
  6
Continuous
 62
     7
100
AcDbLine
 10
-0.2703701166919155
 20
0.13
 30
0.0
 11
-0.3154318028072347
 21
0.1516666666666666
 31
0.0
  0
LINE
  5
4C
330
42
100
AcDbEntity
  8
ASHADE
  6
Continuous
 62
     7
100
AcDbLine
 10
-0.2703701166919155
 20
-0.13
 30
0.0
 11
-0.3154318028072347
 21
-0.1516666666666666
 31
0.0
  0
LINE
  5
4D
330
42
100
AcDbEntity
  8
ASHADE
  6
Continuous
 62
     7
100
AcDbLine
 10
-0.2041413561583015
 20
0.2198324514393849
 30
0.0
 11
-0.2721884748777353
 21
0.2931099352525131
 31
0.0
  0
LINE
  5
4E
330
42
100
AcDbEntity
  8
ASHADE
  6
Continuous
 62
     7
100
AcDbLine
 10
-0.1096591641591904
 20
0.2792398032442862
 30
0.0
 11
-0.1279356915190555
 21
0.3257797704516674
 31
0.0
  0
LINE
  5
4F
330
42
100
AcDbEntity
  8
ASHADE
  6
Continuous
 62
     7
100
AcDbLine
 10
0.2703701166919155
 20
-0.13
 30
0.0
 11
0.3154318028072347
 21
-0.1516666666666666
 31
0.0
  0
LINE
  5
50
330
42
100
AcDbEntity
  8
ASHADE
  6
Continuous
 62
     7
100
AcDbLine
 10
0.2703701166919155
 20
0.13
 30
0.0
 11
0.3154318028072347
 21
0.1516666666666666
 31
0.0
  0
LINE
  5
51
330
42
100
AcDbEntity
  8
ASHADE
  6
Continuous
 62
     7
100
AcDbLine
 10
0.0
 20
0.3
 30
0.0
 11
0.0
 21
0.4
 31
0.0
  0
ATTDEF
  5
52
330
42
100
AcDbEntity
  8
ASHADE
  6
Continuous
 62
     7
100
AcDbText
 10
0.0
 20
0.22
 30
0.0
 40
0.01
  1
1
100
AcDbAttributeDefinition
280
     0
  3
Light Intensity
  2
INTENSITY
 70
     1
280
     0
  0
ATTDEF
  5
53
330
42
100
AcDbEntity
  8
ASHADE
  6
Continuous
 62
     7
100
AcDbText
 10
0.0
 20
0.16
 30
0.0
 40
0.01
  1
-1
100
AcDbAttributeDefinition
280
     0
  3
*not used*
  2
BEAMD
 70
     1
280
     0
  0
ATTDEF
  5
54
330
42
100
AcDbEntity
  8
ASHADE
  6
Continuous
 62
     7
100
AcDbText
 10
0.0
 20
0.175
 30
0.0
 40
0.01
  1
-1
100
AcDbAttributeDefinition
280
     0
  3
*not used*
  2
CONED
 70
     1
280
     0
  0
ATTDEF
  5
55
330
42
100
AcDbEntity
  8
ASHADE
  6
Continuous
 62
     7
100
AcDbText
 10
0.0
 20
0.19
 30
0.0
 40
0.01
  1
0
100
AcDbAttributeDefinition
280
     0
  3
Depth Map Size
  2
CONEA
 70
     1
280
     0
  0
ATTDEF
  5
56
330
42
100
AcDbEntity
  8
ASHADE
  6
Continuous
 62
     7
100
AcDbText
 10
0.0
 20
0.2050000000000001
 30
0.0
 40
0.01
  1
1,1,1
100
AcDbAttributeDefinition
280
     0
  3
Light Color (RGB)
  2
COLOR
 70
     1
280
     0
  0
ATTDEF
  5
57
330
42
100
AcDbEntity
  8
ASHADE
  6
Continuous
 62
     7
100
AcDbText
 10
0.0
 20
0.235
 30
0.0
 40
0.01
  1

100
AcDbAttributeDefinition
280
     0
  3
Look-at Z
  2
LAZ
 70
     1
280
     0
  0
ATTDEF
  5
58
330
42
100
AcDbEntity
  8
ASHADE
  6
Continuous
 62
     7
100
AcDbText
 10
0.0
 20
0.25
 30
0.0
 40
0.01
  1

100
AcDbAttributeDefinition
280
     0
  3
Look-at Y
  2
LAY
 70
     1
280
     0
  0
ATTDEF
  5
59
330
42
100
AcDbEntity
  8
ASHADE
  6
Continuous
 62
     7
100
AcDbText
 10
0.0
 20
0.265
 30
0.0
 40
0.01
  1

100
AcDbAttributeDefinition
280
     0
  3
Look-at X
  2
LAX
 70
     1
280
     0
  0
ATTDEF
  5
5A
330
42
100
AcDbEntity
  8
ASHADE
  6
Continuous
 62
     7
100
AcDbText
 10
0.0
 20
0.28
 30
0.0
 40
0.01
  1

100
AcDbAttributeDefinition
280
     0
  3

  2
GNAME
 70
     1
280
     0
  0
LINE
  5
5B
330
42
100
AcDbEntity
  8
ASHADE
  6
Continuous
 62
     7
100
AcDbLine
 10
0.1096591641591904
 20
0.2792398032442862
 30
0.0
 11
0.1279356915190555
 21
0.3257797704516674
 31
0.0
  0
LINE
  5
5C
330
42
100
AcDbEntity
  8
ASHADE
  6
Continuous
 62
     7
100
AcDbLine
 10
0.2041413561583015
 20
0.2198324514393849
 30
0.0
 11
0.2721884748777353
 21
0.2931099352525131
 31
0.0
  0
ENDBLK
  5
5E
330
42
100
AcDbEntity
  8
0
100
AcDbBlockEnd
  0
BLOCK
  5
85
330
5F
100
AcDbEntity
  8
0
100
AcDbBlockBegin
  2
sh_spot
 70
     2
 10
0.0
 20
0.0
 30
0.0
  3
sh_spot
  1

  0
LINE
  5
60
330
5F
100
AcDbEntity
  8
ASHADE
  6
Continuous
 62
     7
100
AcDbLine
 10
0.25
 20
0.26
 30
0.0
 11
-0.25
 21
0.26
 31
0.0
  0
LINE
  5
61
330
5F
100
AcDbEntity
  8
ASHADE
  6
Continuous
 62
     7
100
AcDbLine
 10
-0.25
 20
-0.3399999999999999
 30
0.0
 11
0.25
 21
-0.3399999999999999
 31
0.0
  0
ATTDEF
  5
62
330
5F
100
AcDbEntity
  8
ASHADE
  6
Continuous
 62
     1
100
AcDbText
 10
0.0
 20
-0.1
 30
0.0
 40
0.2
  1

  7
ASHADE
 72
     1
 11
0.0
 21
-0.1
 31
0.0
100
AcDbAttributeDefinition
280
     0
  3
Light Name
  2
SNAME
 70
     0
280
     0
  0
LINE
  5
63
330
5F
100
AcDbEntity
  8
ASHADE
  6
Continuous
 62
     7
100
AcDbLine
 10
-0.25
 20
-0.13
 30
0.0
 11
-0.25
 21
-0.3399999999999999
 31
0.0
  0
LINE
  5
64
330
5F
100
AcDbEntity
  8
ASHADE
  6
Continuous
 62
     7
100
AcDbLine
 10
-0.25
 20
-0.18
 30
0.0
 11
-0.29
 21
-0.18
 31
0.0
  0
LINE
  5
65
330
5F
100
AcDbEntity
  8
ASHADE
  6
Continuous
 62
     7
100
AcDbLine
 10
-0.29
 20
-0.22
 30
0.0
 11
-0.25
 21
-0.22
 31
0.0
  0
LINE
  5
66
330
5F
100
AcDbEntity
  8
ASHADE
  6
Continuous
 62
     7
100
AcDbLine
 10
-0.29
 20
-0.18
 30
0.0
 11
-0.29
 21
-0.22
 31
0.0
  0
LINE
  5
67
330
5F
100
AcDbEntity
  8
ASHADE
  6
Continuous
 62
     7
100
AcDbLine
 10
-0.1045454545454545
 20
0.26
 30
0.0
 11
-0.15
 21
0.46
 31
0.0
  0
LINE
  5
68
330
5F
100
AcDbEntity
  8
ASHADE
  6
Continuous
 62
     7
100
AcDbLine
 10
-0.21
 20
0.26
 30
0.0
 11
-0.301304347826087
 21
0.46
 31
0.0
  0
LINE
  5
69
330
5F
100
AcDbEntity
  8
ASHADE
  6
Continuous
 62
     7
100
AcDbLine
 10
-0.25
 20
0.26
 30
0.0
 11
-0.25
 21
0.13
 31
0.0
  0
LINE
  5
6A
330
5F
100
AcDbEntity
  8
ASHADE
  6
Continuous
 62
     7
100
AcDbLine
 10
-0.25
 20
0.22
 30
0.0
 11
-0.29
 21
0.22
 31
0.0
  0
LINE
  5
6B
330
5F
100
AcDbEntity
  8
ASHADE
  6
Continuous
 62
     7
100
AcDbLine
 10
-0.29
 20
0.1799999999999999
 30
0.0
 11
-0.25
 21
0.1799999999999999
 31
0.0
  0
LINE
  5
6C
330
5F
100
AcDbEntity
  8
ASHADE
  6
Continuous
 62
     7
100
AcDbLine
 10
-0.29
 20
0.22
 30
0.0
 11
-0.29
 21
0.1799999999999999
 31
0.0
  0
ATTDEF
  5
6D
330
5F
100
AcDbEntity
  8
ASHADE
  6
Continuous
 62
     7
100
AcDbText
 10
0.0
 20
-0.24
 30
0.0
 40
0.01
  1
0
100
AcDbAttributeDefinition
280
     0
  3
Depth Map Size
  2
ZSIZE
 70
     1
280
     0
  0
ATTDEF
  5
6E
330
5F
100
AcDbEntity
  8
ASHADE
  6
Continuous
 62
     7
100
AcDbText
 10
0.0
 20
-0.3300000000000001
 30
0.0
 40
0.01
  1
0,0,0
100
AcDbAttributeDefinition
280
     0
  3
Look-from XYZ
  2
LFXYZ
 70
     1
280
     0
  0
ATTDEF
  5
6F
330
5F
100
AcDbEntity
  8
ASHADE
  6
Continuous
 62
     7
100
AcDbText
 10
0.0
 20
-0.315
 30
0.0
 40
0.01
  1
0.0
100
AcDbAttributeDefinition
280
     0
  3
Beam Distribution
  2
BEAMDI
 70
     1
280
     0
  0
ATTDEF
  5
70
330
5F
100
AcDbEntity
  8
ASHADE
  6
Continuous
 62
     7
100
AcDbText
 10
0.0
 20
-0.3
 30
0.0
 40
0.01
  1
0.0
100
AcDbAttributeDefinition
280
     0
  3
Cone Delta
  2
CONEDE
 70
     1
280
     0
  0
ATTDEF
  5
71
330
5F
100
AcDbEntity
  8
ASHADE
  6
Continuous
 62
     7
100
AcDbText
 10
0.0
 20
-0.2850000000000001
 30
0.0
 40
0.01
  1
10.0
100
AcDbAttributeDefinition
280
     0
  3
Cone Angle
  2
CONEAN
 70
     1
280
     0
  0
ATTDEF
  5
72
330
5F
100
AcDbEntity
  8
ASHADE
  6
Continuous
 62
     7
100
AcDbText
 10
0.0
 20
-0.27
 30
0.0
 40
0.01
  1
-1
100
AcDbAttributeDefinition
280
     0
  3
*not used*
  2
BIASMAX
 70
     1
280
     0
  0
ATTDEF
  5
73
330
5F
100
AcDbEntity
  8
ASHADE
  6
Continuous
 62
     7
100
AcDbText
 10
0.0
 20
-0.255
 30
0.0
 40
0.01
  1
-1
100
AcDbAttributeDefinition
280
     0
  3
*not used*
  2
BIASMIN
 70
     1
280
     0
  0
ATTDEF
  5
74
330
5F
100
AcDbEntity
  8
ASHADE
  6
Continuous
 62
     7
100
AcDbText
 10
0.0
 20
-0.225
 30
0.0
 40
0.01
  1
1,1,1
100
AcDbAttributeDefinition
280
     0
  3
Light Color (RGB)
  2
COLOR
 70
     1
280
     0
  0
ATTDEF
  5
75
330
5F
100
AcDbEntity
  8
ASHADE
  6
Continuous
 62
     7
100
AcDbText
 10
0.0
 20
-0.21
 30
0.0
 40
0.01
  1
1
100
AcDbAttributeDefinition
280
     0
  3
Light Intensity
  2
INTENSITY
 70
     1
280
     0
  0
ATTDEF
  5
76
330
5F
100
AcDbEntity
  8
ASHADE
  6
Continuous
 62
     7
100
AcDbText
 10
0.0
 20
-0.15
 30
0.0
 40
0.01
  1

100
AcDbAttributeDefinition
280
     0
  3

  2
GNAME
 70
     1
280
     0
  0
ATTDEF
  5
77
330
5F
100
AcDbEntity
  8
ASHADE
  6
Continuous
 62
     7
100
AcDbText
 10
0.0
 20
-0.195
 30
0.0
 40
0.01
  1

100
AcDbAttributeDefinition
280
     0
  3
Look-at Z
  2
LAZ
 70
     1
280
     0
  0
ATTDEF
  5
78
330
5F
100
AcDbEntity
  8
ASHADE
  6
Continuous
 62
     7
100
AcDbText
 10
0.0
 20
-0.18
 30
0.0
 40
0.01
  1

100
AcDbAttributeDefinition
280
     0
  3
Look-at Y
  2
LAY
 70
     1
280
     0
  0
ATTDEF
  5
79
330
5F
100
AcDbEntity
  8
ASHADE
  6
Continuous
 62
     7
100
AcDbText
 10
0.0
 20
-0.165
 30
0.0
 40
0.01
  1

100
AcDbAttributeDefinition
280
     0
  3
Look-at X
  2
LAX
 70
     1
280
     0
  0
LINE
  5
7A
330
5F
100
AcDbEntity
  8
ASHADE
  6
Continuous
 62
     7
100
AcDbLine
 10
0.25
 20
-0.3399999999999999
 30
0.0
 11
0.25
 21
-0.13
 31
0.0
  0
LINE
  5
7B
330
5F
100
AcDbEntity
  8
ASHADE
  6
Continuous
 62
     7
100
AcDbLine
 10
0.25
 20
-0.18
 30
0.0
 11
0.29
 21
-0.18
 31
0.0
  0
LINE
  5
7C
330
5F
100
AcDbEntity
  8
ASHADE
  6
Continuous
 62
     7
100
AcDbLine
 10
0.29
 20
-0.22
 30
0.0
 11
0.25
 21
-0.22
 31
0.0
  0
LINE
  5
7D
330
5F
100
AcDbEntity
  8
ASHADE
  6
Continuous
 62
     7
100
AcDbLine
 10
0.29
 20
-0.18
 30
0.0
 11
0.29
 21
-0.22
 31
0.0
  0
LINE
  5
7E
330
5F
100
AcDbEntity
  8
ASHADE
  6
Continuous
 62
     7
100
AcDbLine
 10
0.21
 20
0.26
 30
0.0
 11
0.301304347826087
 21
0.46
 31
0.0
  0
LINE
  5
7F
330
5F
100
AcDbEntity
  8
ASHADE
  6
Continuous
 62
     7
100
AcDbLine
 10
0.1045454545454545
 20
0.26
 30
0.0
 11
0.15
 21
0.46
 31
0.0
  0
LINE
  5
80
330
5F
100
AcDbEntity
  8
ASHADE
  6
Continuous
 62
     7
100
AcDbLine
 10
0.0
 20
0.26
 30
0.0
 11
0.0
 21
0.46
 31
0.0
  0
LINE
  5
81
330
5F
100
AcDbEntity
  8
ASHADE
  6
Continuous
 62
     7
100
AcDbLine
 10
0.25
 20
0.13
 30
0.0
 11
0.25
 21
0.26
 31
0.0
  0
LINE
  5
82
330
5F
100
AcDbEntity
  8
ASHADE
  6
Continuous
 62
     7
100
AcDbLine
 10
0.25
 20
0.22
 30
0.0
 11
0.29
 21
0.22
 31
0.0
  0
LINE
  5
83
330
5F
100
AcDbEntity
  8
ASHADE
  6
Continuous
 62
     7
100
AcDbLine
 10
0.29
 20
0.1799999999999999
 30
0.0
 11
0.25
 21
0.1799999999999999
 31
0.0
  0
LINE
  5
84
330
5F
100
AcDbEntity
  8
ASHADE
  6
Continuous
 62
     7
100
AcDbLine
 10
0.29
 20
0.22
 30
0.0
 11
0.29
 21
0.1799999999999999
 31
0.0
  0
ENDBLK
  5
86
330
5F
100
AcDbEntity
  8
0
100
AcDbBlockEnd
  0
BLOCK
  5
92
330
91
100
AcDbEntity
  8
ASHADE
100
AcDbBlockBegin
  2
AVE_RENDER
 70
     0
 10
0.0
 20
0.0
 30
0.0
  3
AVE_RENDER
  1
AVE_RENDER
  0
ENDBLK
  5
93
330
91
100
AcDbEntity
  8
0
100
AcDbBlockEnd
  0
BLOCK
  5
A0
330
9F
100
AcDbEntity
  8
ASHADE
100
AcDbBlockBegin
  2
AVE_GLOBAL
 70
     0
 10
0.0
 20
0.0
 30
0.0
  3
AVE_GLOBAL
  1
AVE_GLOBAL
  0
ENDBLK
  5
A1
330
9F
100
AcDbEntity
  8
0
100
AcDbBlockEnd
  0
ENDSEC
  0
SECTION
  2
ENTITIES
  0
INSERT
  5
94
330
1F
100
AcDbEntity
  8
ASHADE
 62
     1
100
AcDbBlockReference
  2
AVE_RENDER
 10
0.0
 20
0.0
 30
0.0
1001
AVE_RENDER
1002
{
1070
     7
1000
Pref
1070
    30
1070
    20
1070
     1
1070
     0
1000

1070
    10
1070
     1
1070
    10
1040
1.0
1070
     1
1040
0.3
1040
0.7
1040
0.0
1040
10.0
1010
-1.0
1020
-1.0
1030
-1.0
1040
0.3
1070
    49
1070
     0
1070
     0
1010
1.0
1020
1.0
1030
1.0
1040
45.0
1070
     1
1070
     0
1000
WCS
1040
0.0
1070
     0
1040
10.0
1002
}
  0
INSERT
  5
95
330
1F
100
AcDbEntity
  8
ASHADE
 62
     3
100
AcDbBlockReference
  2
AVE_RENDER
 10
0.0
 20
0.0
 30
0.0
1001
AVE_RENDER
1002
{
1070
     0
1000
Full Opt
1070
     0
1070
     1
1070
     1
1070
     1
1070
     0
1070
     0
1070
     0
1070
     1
1070
     1
1040
0.0001
1040
0.0001
1002
}
  0
INSERT
  5
96
330
1F
100
AcDbEntity
  8
ASHADE
 62
     4
100
AcDbBlockReference
  2
AVE_RENDER
 10
0.0
 20
0.0
 30
0.0
1001
AVE_RENDER
1002
{
1070
     0
1000
Quick Opt
1070
     0
1070
     1
1070
     1
1070
     1
1070
     0
1070
     0
1070
     1
1002
}
  0
INSERT
  5
97
330
1F
100
AcDbEntity
  8
ASHADE
 62
     5
100
AcDbBlockReference
  2
AVE_RENDER
 10
0.0
 20
0.0
 30
0.0
1001
AVE_RENDER
1002
{
1070
     1
1000
Scanl Opt
1070
     2
1070
     0
1070
     2
1040
2.0
1040
4.0
1070
     0
1070
     1
1070
     0
1040
0.03
1002
}
  0
INSERT
  5
98
330
1F
100
AcDbEntity
  8
ASHADE
 62
     6
100
AcDbBlockReference
  2
AVE_RENDER
 10
0.0
 20
0.0
 30
0.0
1001
AVE_RENDER
1002
{
1070
     2
1000
Raytr Opt
1070
     2
1070
     0
1070
     2
1040
2.0
1040
4.0
1070
     0
1070
     1
1070
     1
1040
0.03
1070
     3
1040
0.03
1002
}
  0
INSERT
  5
99
330
1F
100
AcDbEntity
  8
ASHADE
 62
     7
100
AcDbBlockReference
  2
AVE_RENDER
 10
0.0
 20
0.0
 30
0.0
1001
AVE_RENDER
1002
{
1070
     0
1000
RFile Opt
1070
     1
1070
   640
1070
   480
1070
 10000
1070
     1
1070
     8
1070
     8
1070
     0
1070
     0
1070
     0
1070
     0
1070
     0
1070
     0
1070
     0
1002
}
  0
INSERT
  5
9A
330
1F
100
AcDbEntity
  8
ASHADE
 62
     8
100
AcDbBlockReference
  2
AVE_RENDER
 10
0.0
 20
0.0
 30
0.0
1001
AVE_RENDER
1002
{
1070
     0
1000
Fog Opt
1070
     0
1070
     0
1040
0.0
1040
1.0
1040
0.0
1040
1.0
1010
0.5
1020
0.5
1030
0.5
1002
}
  0
INSERT
  5
9B
330
1F
100
AcDbEntity
  8
ASHADE
 62
     9
100
AcDbBlockReference
  2
AVE_RENDER
 10
0.0
 20
0.0
 30
0.0
1001
AVE_RENDER
1002
{
1070
     0
1000
BG Opt
1070
     0
1070
     1
1010
0.0
1020
0.0
1030
0.0
1010
1.0
1020
0.0
1030
0.0
1010
0.0
1020
1.0
1030
0.0
1010
0.0
1020
0.0
1030
1.0
1040
0.5
1040
0.33
1040
0.0
1000

1070
     1
1000

1070
     1
1070
     1
1040
1.0
1040
1.0
1040
0.0
1040
0.0
1070
     0
1002
}
  0
INSERT
  5
A2
330
1F
100
AcDbEntity
  8
ASHADE
 62
     1
100
AcDbBlockReference
  2
AVE_GLOBAL
 10
0.0
 20
0.0
 30
0.0
1001
AVE_MATERIAL
1002
{
1000
*GLOBAL*
1000
2
1000
Global finish.
1002
{
1002
}
1002
{
1070
    63
1002
{
1002
{
1010
-1.0
1020
-1.0
1030
-1.0
1002
}
1040
0.1000000014901161
1000

1040
0.0
1002
{
1002
}
1040
0.0
1002
{
1002
}
1040
0.0
1002
}
1002
{
1002
{
1010
-1.0
1020
-1.0
1030
-1.0
1002
}
1040
0.6999999880790711
1000

1040
0.0
1002
{
1002
}
1040
0.0
1002
{
1002
}
1040
0.0
1002
}
1002
{
1002
{
1010
-1.0
1020
-1.0
1030
-1.0
1002
}
1040
0.2000000029802322
1000

1040
0.0
1002
{
1002
}
1040
0.0
1002
{
1002
}
1040
0.0
1002
}
1002
{
1070
     0
1002
{
1070
     1
1002
{
1040
1.0
1040
1.0
1000

1040
0.0
1002
{
1002
}
1040
0.0
1002
{
1002
}
1040
0.0
1002
}
1002
}
1040
1.0
1040
0.0
1040
0.0
1002
}
1002
{
1040
1.0
1040
1.0
1000

1040
0.0
1002
{
1002
}
1040
0.0
1002
{
1002
}
1040
0.0
1002
}
1002
{
1040
0.5
1040
1.0
1000

1040
0.0
1002
{
1002
}
1040
0.0
1002
{
1002
}
1040
0.0
1002
}
1002
{
1070
     0
1040
0.0
1002
{
1002
}
1040
1.0
1002
{
1002
}
1040
0.0
1002
}
1002
{
1040
0.0
1002
{
1002
{
1010
0.0
1020
0.0
1030
0.0
1002
}
1040
1.0
1000

1040
0.0
1002
{
1002
}
1040
0.0
1002
{
1002
}
1040
0.0
1002
}
1002
}
1002
{
1002
{
1070
     1
1002
{
1040
0.0
1040
1.0
1000

1040
0.0
1002
{
1002
}
1040
0.0
1002
{
1002
}
1040
0.0
1002
}
1002
}
1040
0.0
1002
{
1002
}
1010
1.0
1020
0.0
1030
0.0
1010
0.0
1020
1.0
1030
0.0
1010
0.0
1020
0.0
1030
1.0
1070
     0
1002
}
1002
{
1002
{
1040
1.0
1040
1.0
1002
{
1070
     1
1002
{
1040
1.0
1040
1.0
1000

1040
0.0
1002
{
1002
}
1040
0.0
1002
{
1002
}
1040
0.0
1002
}
1002
}
1002
}
1070
     0
1040
0.0
1002
{
1002
}
1002
}
1002
{
1002
}
1002
}
1002
{
1071
        3
1070
     3
1070
     0
1002
{
1070
     2
1070
     0
1070
     0
1040
0.0
1002
}
1070
     0
1070
     2
1002
{
1002
}
1002
}
1002
{
1040
8030.0
1040
190.3000030517578
1040
0.3050000071525574
1040
228.0
1040
545.0
1040
14.0
1040
17.39999961853027
1040
0.4560000002384186
1002
}
1002
}
  0
MESH
  5
F9
330
1F
100
AcDbEntity
  8
OracDecor_cornice_mouldings
 62
   231
420
 14981560
160
             35000
310
B8880000CC0300000C00000013000000020000003C0000000600000002000000000000E0FF3F8F40000000409B994AC0000000A0020018C0000000E0FF3F8F400000000028514FC0000000801100E0BF0C000000130000000A0000003C0000000600000002000000000000E0FF3F8F40000000409B994AC0000000A0020018
310
C0000000E0FF3F8F40000000C07E3349C0000000001500E0BF0C00000013000000120000003C0000000600000002000000000000E0FF3F8F400000000028514FC0000000801100E0BF000000E0FF3F8F40000000C07E3349C0000000001500E0BF0C000000130000001A0000003C0000000600000002000000000000E0FF3F
310
8F4000000000000008BF000000000000DABE000000E0FF3F8F4000000000000006BF000000A09A9927C00C00000013000000220000003C0000000600000002000000000000E0FF3F8F4000000000000008BF000000000000DABE000000E0FF3F8F4000000000326E0FC0000000000000D9BE0C000000130000002A0000003C
310
0000000600000002000000000000E0FF3F8F4000000000326E0FC0000000000000D9BE000000E0FF3F8F4000000000000006BF000000A09A9927C00C00000013000000320000003C0000000600000002000000000000E0FF3F8F400000000000799BBF00000020CACC27C0000000E0FF3F8F4000000000000006BF000000A0
310
9A9927C00C000000130000003A0000003C0000000600000002000000000000E0FF3F8F4000000000326E0FC0000000000000D9BE000000E0FF3F8F4000000000FB7110C00000000050ABA1BF0C00000013000000420000003C0000000600000002000000000000E0FF3F8F400000000000799BBF00000020CACC27C0000000
310
E0FF3F8F4000000000FB7110C00000000050ABA1BF0C000000130000004A0000003C0000000600000002000000000000E0FF3F8F4000000000409EB9BF000000E049F227C0000000E0FF3F8F400000000000799BBF00000020CACC27C00C00000013000000520000003C0000000600000002000000000000E0FF3F8F400000
310
0000FB7110C00000000050ABA1BF000000E0FF3F8F4000000000151311C000000000940EC1BF0C000000130000005A0000003C0000000600000002000000000000E0FF3F8F4000000000409EB9BF000000E049F227C0000000E0FF3F8F4000000000151311C000000000940EC1BF0C00000013000000620000003C00000006
310
00000002000000000000E0FF3F8F4000000000E09AC9BF00000020010028C0000000E0FF3F8F4000000000409EB9BF000000E049F227C00C000000130000006A0000003C0000000600000002000000000000E0FF3F8F4000000000151311C000000000940EC1BF000000E0FF3F8F4000000000298411C0000000006A16D2BF
310
0C00000013000000720000003C0000000600000002000000000000E0FF3F8F4000000000E09AC9BF00000020010028C0000000E0FF3F8F4000000000298411C0000000006A16D2BF0C000000130000007A0000003C0000000600000002000000000000E0FF3F8F4000000000BB4812C0000000002D06E3BF000000E0FF3F8F
310
4000000000298411C0000000006A16D2BF0C00000013000000820000003C0000000600000002000000000000E0FF3F8F4000000000E09AC9BF00000020010028C0000000E0FF3F8F4000000000BB4812C0000000002D06E3BF0C000000130000008A0000003C0000000600000002000000000000E0FF3F8F4000000000CF49
310
13C000000000BD8DEBBF000000E0FF3F8F4000000000BB4812C0000000002D06E3BF0C00000013000000920000003C0000000600000002000000000000E0FF3F8F4000000000E09AC9BF00000020010028C0000000E0FF3F8F4000000000CF4913C000000000BD8DEBBF0C000000130000009A0000003C0000000600000002
310
000000000000E0FF3F8F4000000000CF4913C000000000BD8DEBBF000000E0FF3F8F4000000000F77C14C0000000803624F1BF0C00000013000000A20000003C0000000600000002000000000000E0FF3F8F4000000000E09AC9BF00000020010028C0000000E0FF3F8F4000000000F77C14C0000000803624F1BF0C000000
310
13000000AA0000003C0000000600000002000000000000E0FF3F8F4000000000F77C14C0000000803624F1BF000000E0FF3F8F400000000029D515C000000080CE76F3BF0C00000013000000B20000003C0000000600000002000000000000E0FF3F8F4000000000E09AC9BF00000020010028C0000000E0FF3F8F40000000
310
0029D515C000000080CE76F3BF0C00000013000000BA0000003C0000000600000002000000000000E0FF3F8F400000000029D515C000000080CE76F3BF000000E0FF3F8F4000000000914417C00000008092A6F4BF0C00000013000000C20000003C0000000600000002000000000000E0FF3F8F4000000000E09AC9BF0000
310
0020010028C0000000E0FF3F8F4000000000914417C00000008092A6F4BF0C00000013000000CA0000003C0000000600000002000000000000E0FF3F8F4000000000E09AC9BF00000020010028C0000000E0FF3F8F4000000080050028C0000000A0010014C00C00000013000000D20000003C000000060000000200000000
310
0000E0FF3F8F4000000080050028C0000000A0010014C0000000E0FF3F8F40000000807A1128C0000000A0150915C00C00000013000000DA0000003C0000000600000002000000000000E0FF3F8F4000000000E09AC9BF00000020010028C0000000E0FF3F8F40000000807A1128C0000000A0150915C00C00000013000000
310
E20000003C0000000600000002000000000000E0FF3F8F4000000000914417C00000008092A6F4BF000000E0FF3F8F40000000007DBB18C00000008092A6F4BF0C00000013000000EA0000003C0000000600000002000000000000E0FF3F8F40000000007DBB18C00000008092A6F4BF000000E0FF3F8F4000000080050028
310
C0000000A0010014C00C00000013000000F20000003C0000000600000002000000000000E0FF3F8F40000000009C4428C0000000A0F5FF15C0000000E0FF3F8F40000000807A1128C0000000A0150915C00C00000013000000FA0000003C0000000600000002000000000000E0FF3F8F4000000000E09AC9BF000000200100
310
28C0000000E0FF3F8F40000000009C4428C0000000A0F5FF15C00C00000013000000020100003C0000000600000002000000000000E0FF3F8F4000000080FB9528C0000000A015D416C0000000E0FF3F8F40000000009C4428C0000000A0F5FF15C00C000000130000000A0100003C0000000600000002000000000000E0FF
310
3F8F4000000000E09AC9BF00000020010028C0000000E0FF3F8F4000000080FB9528C0000000A015D416C00C00000013000000120100003C0000000600000002000000000000E0FF3F8F40000000800B0029C0000000A0D57617C0000000E0FF3F8F4000000080FB9528C0000000A015D416C00C000000130000001A010000
310
3C0000000600000002000000000000E0FF3F8F4000000000E09AC9BF00000020010028C0000000E0FF3F8F40000000800B0029C0000000A0D57617C00C00000013000000220100003C0000000600000002000000000000E0FF3F8F40000000007C7B29C0000000A017DD17C0000000E0FF3F8F40000000800B0029C0000000
310
A0D57617C00C000000130000002A0100003C0000000600000002000000000000E0FF3F8F40000000007C7B29C0000000A017DD17C0000000E0FF3F8F4000000000E09AC9BF00000020010028C00C00000013000000320100003C0000000600000002000000000000E0FF3F8F40000000007C7B29C0000000A017DD17C00000
310
00E0FF3F8F400000008005002AC0000000A0010018C00C000000130000003A0100003C0000000600000002000000000000E0FF3F8F4000000000E09AC9BF00000020010028C0000000E0FF3F8F400000008005002AC0000000A0010018C00C00000013000000420100003C0000000600000002000000000000E0FF3F8F4000
310
000000178E1FC00000000048ABA1BF000000E0FF3F8F40000000007E2420C0000000000000D9BE0C000000130000004A0100003C0000000600000002000000000000E0FF3F8F40000000007E2420C0000000000000D9BE000000E0FF3F8F4000000080050027C0000000000000DABE0C00000013000000520100003C000000
310
0600000002000000000000E0FF3F8F4000000080050027C0000000000000DABE000000E0FF3F8F4000000080264F27C000000000A01599BF0C000000130000005A0100003C0000000600000002000000000000E0FF3F8F4000000000178E1FC00000000048ABA1BF000000E0FF3F8F4000000080264F27C000000000A01599
310
BF0C00000013000000620100003C0000000600000002000000000000E0FF3F8F4000000000FCEC1EC000000000920EC1BF000000E0FF3F8F4000000000178E1FC00000000048ABA1BF0C000000130000006A0100003C0000000600000002000000000000E0FF3F8F4000000080264F27C000000000A01599BF000000E0FF3F
310
8F4000000000809627C000000000E873B8BF0C00000013000000720100003C0000000600000002000000000000E0FF3F8F4000000000FCEC1EC000000000920EC1BF000000E0FF3F8F4000000000809627C000000000E873B8BF0C000000130000007A0100003C0000000600000002000000000000E0FF3F8F4000000000E9
310
7B1EC0000000006916D2BF000000E0FF3F8F4000000000FCEC1EC000000000920EC1BF0C00000013000000820100003C0000000600000002000000000000E0FF3F8F4000000000809627C000000000E873B8BF000000E0FF3F8F40000000801ECF27C0000000009461CABF0C000000130000008A0100003C00000006000000
310
02000000000000E0FF3F8F4000000000E97B1EC0000000006916D2BF000000E0FF3F8F40000000801ECF27C0000000009461CABF0C00000013000000920100003C0000000600000002000000000000E0FF3F8F400000000056B71DC0000000802C06E3BF000000E0FF3F8F4000000000E97B1EC0000000006916D2BF0C0000
310
00130000009A0100003C0000000600000002000000000000E0FF3F8F40000000801ECF27C0000000009461CABF000000E0FF3F8F40000000807BF327C0000000000A1CD6BF0C00000013000000A20100003C0000000600000002000000000000E0FF3F8F400000000056B71DC0000000802C06E3BF000000E0FF3F8F400000
310
00807BF327C0000000000A1CD6BF0C00000013000000AA0100003C0000000600000002000000000000E0FF3F8F40000000807BF327C0000000000A1CD6BF000000E0FF3F8F4000000080050028C0000000000D00E0BF0C00000013000000B20100003C0000000600000002000000000000E0FF3F8F400000000056B71DC000
310
0000802C06E3BF000000E0FF3F8F4000000080050028C0000000000D00E0BF0C00000013000000BA0100003C0000000600000002000000000000E0FF3F8F40000000001A831BC0000000003524F1BF000000E0FF3F8F400000000042B61CC000000080BC8DEBBF0C00000013000000C20100003C0000000600000002000000
310
000000E0FF3F8F400000000042B61CC000000080BC8DEBBF000000E0FF3F8F4000000080050028C0000000A0010014C00C00000013000000CA0100003C0000000600000002000000000000E0FF3F8F40000000001A831BC0000000003524F1BF000000E0FF3F8F4000000080050028C0000000A0010014C00C000000130000
310
00D20100003C0000000600000002000000000000E0FF3F8F400000000042B61CC000000080BC8DEBBF000000E0FF3F8F400000000056B71DC0000000802C06E3BF0C00000013000000DA0100003C0000000600000002000000000000E0FF3F8F4000000080050028C0000000A0010014C0000000E0FF3F8F40000000800500
310
28C0000000000D00E0BF0C00000013000000E20100003C0000000600000002000000000000E0FF3F8F4000000000E52A1AC000000060CE76F3BF000000E0FF3F8F40000000001A831BC0000000003524F1BF0C00000013000000EA0100003C0000000600000002000000000000E0FF3F8F4000000000E52A1AC000000060CE
310
76F3BF000000E0FF3F8F4000000080050028C0000000A0010014C00C00000013000000F20100003C0000000600000002000000000000E0FF3F8F40000000007DBB18C00000008092A6F4BF000000E0FF3F8F4000000000E52A1AC000000060CE76F3BF0C00000013000000FA0100003C0000000600000002000000000000E0
310
FF3F8F400000000068664AC000000000030028C0000000E0FF3F8F4000000000E09AC9BF00000020010028C00C00000013000000020200003C0000000600000002000000000000E0FF3F8F400000008005002AC0000000A0010018C0000000E0FF3F8F4000000040010042C0000000A0020018C00C000000130000000A0200
310
003C0000000600000002000000000000E0FF3F8F400000000068664AC000000000030028C0000000E0FF3F8F4000000040010042C0000000A0020018C00C00000013000000120200003C0000000600000002000000000000E0FF3F8F4000000040010042C0000000A0020018C0000000E0FF3F8F4000000040018044C00000
310
0080010018C00C000000130000001A0200003C0000000600000002000000000000E0FF3F8F400000000068664AC000000000030028C0000000E0FF3F8F4000000040018044C000000080010018C00C00000013000000220200003C0000000600000002000000000000E0FF3F8F4000000040010042C0000000A0020018C000
310
0000E0FF3F8F40000000A0232142C0000000C017DD17C00C000000130000002A0200003C0000000600000002000000000000E0FF3F8F40000000A0232142C0000000C017DD17C0000000E0FF3F8F40000000E0DE5E44C00000008017DD17C00C00000013000000320200003C0000000600000002000000000000E0FF3F8F40
310
000000E0DE5E44C00000008017DD17C0000000E0FF3F8F4000000040018044C000000080010018C00C000000130000003A0200003C0000000600000002000000000000E0FF3F8F40000000A0232142C0000000C017DD17C0000000E0FF3F8F40000000C0FF3F42C0000000C0D57617C00C00000013000000420200003C0000
310
000600000002000000000000E0FF3F8F40000000C0FF3F42C0000000C0D57617C0000000E0FF3F8F40000000C0024044C000000080D57617C00C000000130000004A0200003C0000000600000002000000000000E0FF3F8F40000000C0024044C000000080D57617C0000000E0FF3F8F40000000E0DE5E44C00000008017DD
310
17C00C00000013000000520200003C0000000600000002000000000000E0FF3F8F40000000C0FF3F42C0000000C0D57617C0000000E0FF3F8F40000000C0835A42C0000000C015D416C00C000000130000005A0200003C0000000600000002000000000000E0FF3F8F40000000C0835A42C0000000C015D416C0000000E0FF
310
3F8F40000000C07E2544C00000008015D416C00C00000013000000620200003C0000000600000002000000000000E0FF3F8F40000000C0024044C000000080D57617C0000000E0FF3F8F40000000C07E2544C00000008015D416C00C000000130000006A0200003C0000000600000002000000000000E0FF3F8F40000000C0
310
835A42C0000000C015D416C0000000E0FF3F8F40000000A0DB6E42C0000000C0F5FF15C00C00000013000000720200003C0000000600000002000000000000E0FF3F8F40000000A0DB6E42C0000000C0F5FF15C0000000E0FF3F8F40000000E0261144C000000080F5FF15C00C000000130000007A0200003C000000060000
310
0002000000000000E0FF3F8F40000000E0261144C000000080F5FF15C0000000E0FF3F8F40000000C07E2544C00000008015D416C00C00000013000000820200003C0000000600000002000000000000E0FF3F8F40000000A0DB6E42C0000000C0F5FF15C0000000E0FF3F8F4000000000A47B42C0000000C0150915C00C00
310
0000130000008A0200003C0000000600000002000000000000E0FF3F8F4000000000A47B42C0000000C0150915C0000000E0FF3F8F40000000805E0444C000000080150915C00C00000013000000920200003C0000000600000002000000000000E0FF3F8F40000000E0261144C000000080F5FF15C0000000E0FF3F8F4000
310
0000805E0444C000000080150915C00C000000130000009A0200003C0000000600000002000000000000E0FF3F8F4000000000A47B42C0000000C0150915C0000000E0FF3F8F4000000040018042C0000000C0010014C00C00000013000000A20200003C0000000600000002000000000000E0FF3F8F4000000040018042C0
310
000000C0010014C0000000E0FF3F8F4000000040010044C000000080010014C00C00000013000000AA0200003C0000000600000002000000000000E0FF3F8F4000000040010044C000000080010014C0000000E0FF3F8F40000000805E0444C000000080150915C00C00000013000000B20200003C00000006000000020000
310
00000000E0FF3F8F4000000040018042C0000000C0010014C0000000E0FF3F8F40000000C0018042C0000000400900F0BF0C00000013000000BA0200003C0000000600000002000000000000E0FF3F8F40000000C0018042C0000000400900F0BF000000E0FF3F8F40000000C0010044C0000000000500F0BF0C0000001300
310
0000C20200003C0000000600000002000000000000E0FF3F8F4000000040010044C000000080010014C0000000E0FF3F8F40000000C0010044C0000000000500F0BF0C00000013000000CA0200003C0000000600000002000000000000E0FF3F8F40000000C0018042C0000000400900F0BF000000E0FF3F8F400000004024
310
8342C000000000050EEBBF0C00000013000000D20200003C0000000600000002000000000000E0FF3F8F4000000040248342C000000000050EEBBF000000E0FF3F8F4000000040DFFC43C000000080040EEBBF0C00000013000000DA0200003C0000000600000002000000000000E0FF3F8F4000000040DFFC43C000000080
310
040EEBBF000000E0FF3F8F40000000C0010044C0000000000500F0BF0C00000013000000E20200003C0000000600000002000000000000E0FF3F8F4000000040248342C000000000050EEBBF000000E0FF3F8F40000000803B8C42C0000000006598E6BF0C00000013000000EA0200003C0000000600000002000000000000
310
E0FF3F8F40000000803B8C42C0000000006598E6BF000000E0FF3F8F4000000000C8F343C0000000806498E6BF0C00000013000000F20200003C0000000600000002000000000000E0FF3F8F4000000000C8F343C0000000806498E6BF000000E0FF3F8F4000000040DFFC43C000000080040EEBBF0C00000013000000FA02
310
00003C0000000600000002000000000000E0FF3F8F40000000803B8C42C0000000006598E6BF000000E0FF3F8F4000000040639A42C0000000007D0EE3BF0C00000013000000020300003C0000000600000002000000000000E0FF3F8F4000000040639A42C0000000007D0EE3BF000000E0FF3F8F4000000000A0E543C000
310
0000807C0EE3BF0C000000130000000A0300003C0000000600000002000000000000E0FF3F8F4000000000A0E543C0000000807C0EE3BF000000E0FF3F8F4000000000C8F343C0000000806498E6BF0C00000013000000120300003C0000000600000002000000000000E0FF3F8F4000000040639A42C0000000007D0EE3BF
310
000000E0FF3F8F400000008039AC42C000000000ADC8E0BF0C000000130000001A0300003C0000000600000002000000000000E0FF3F8F400000008039AC42C000000000ADC8E0BF000000E0FF3F8F40000000A0C9D343C000000080ACC8E0BF0C00000013000000220300003C0000000600000002000000000000E0FF3F8F
310
40000000A0C9D343C000000080ACC8E0BF000000E0FF3F8F4000000000A0E543C0000000807C0EE3BF0C000000130000002A0300003C0000000600000002000000000000E0FF3F8F400000008039AC42C000000000ADC8E0BF000000E0FF3F8F40000000C001C042C0000000001500E0BF0C00000013000000320300003C00
310
00000600000002000000000000E0FF3F8F40000000C001C042C0000000001500E0BF000000E0FF3F8F400000006001C043C0000000000D00E0BF0C000000130000003A0300003C0000000600000002000000000000E0FF3F8F400000006001C043C0000000000D00E0BF000000E0FF3F8F40000000A0C9D343C000000080AC
310
C8E0BF0C00000013000000420300003C0000000600000002000000000000E0FF3F8F400000000034734AC0000000804BF227C0000000E0FF3F8F400000000068664AC000000000030028C00C000000130000004A0300003C0000000600000002000000000000E0FF3F8F4000000040018044C000000080010018C0000000E0
310
FF3F8F4000000040612647C0000000A0010018C00C00000013000000520300003C0000000600000002000000000000E0FF3F8F400000000034734AC0000000804BF227C0000000E0FF3F8F4000000040612647C0000000A0010018C00C000000130000005A0300003C0000000600000002000000000000E0FF3F8F40000000
310
40612647C0000000A0010018C0000000E0FF3F8F4000000080594547C0000000A092E117C00C00000013000000620300003C0000000600000002000000000000E0FF3F8F400000000034734AC0000000804BF227C0000000E0FF3F8F4000000080594547C0000000A092E117C00C000000130000006A0300003C0000000600
310
000002000000000000E0FF3F8F40000000C0937C4AC000000000CCCC27C0000000E0FF3F8F400000000034734AC0000000804BF227C00C00000013000000720300003C0000000600000002000000000000E0FF3F8F4000000080594547C0000000A092E117C0000000E0FF3F8F4000000040776247C0000000A02B8817C00C
310
000000130000007A0300003C0000000600000002000000000000E0FF3F8F40000000C0937C4AC000000000CCCC27C0000000E0FF3F8F4000000040776247C0000000A02B8817C00C00000013000000820300003C0000000600000002000000000000E0FF3F8F4000000040776247C0000000A02B8817C0000000E0FF3F8F40
310
000000C0087C47C0000000A0F3F816C00C000000130000008A0300003C0000000600000002000000000000E0FF3F8F40000000C0937C4AC000000000CCCC27C0000000E0FF3F8F40000000C0087C47C0000000A0F3F816C00C00000013000000920300003C0000000600000002000000000000E0FF3F8F40000000C001804A
310
C0000000809C9927C0000000E0FF3F8F40000000C0937C4AC000000000CCCC27C00C000000130000009A0300003C0000000600000002000000000000E0FF3F8F40000000C0087C47C0000000A0F3F816C0000000E0FF3F8F40000000407E9047C0000000C0A43C16C00C00000013000000A20300003C000000060000000200
310
0000000000E0FF3F8F40000000C001804AC0000000809C9927C0000000E0FF3F8F40000000407E9047C0000000C0A43C16C00C00000013000000AA0300003C0000000600000002000000000000E0FF3F8F40000000407E9047C0000000C0A43C16C0000000E0FF3F8F4000000040A99E47C0000000C03D5E15C00C00000013
310
000000B20300003C0000000600000002000000000000E0FF3F8F40000000C001804AC0000000809C9927C0000000E0FF3F8F4000000040A99E47C0000000C03D5E15C00C00000013000000BA0300003C0000000600000002000000000000E0FF3F8F40000000C001804AC0000000A0CFCC18C0000000E0FF3F8F40000000C0
310
01804AC0000000809C9927C00C00000013000000C20300003C0000000600000002000000000000E0FF3F8F4000000040A99E47C0000000C03D5E15C0000000E0FF3F8F4000000000EF4248C000000060360EFDBF0C00000013000000CA0300003C0000000600000002000000000000E0FF3F8F40000000C001804AC0000000
310
A0CFCC18C0000000E0FF3F8F4000000000EF4248C000000060360EFDBF0C00000013000000D20300003C0000000600000002000000000000E0FF3F8F4000000000EF4248C000000060360EFDBF000000E0FF3F8F4000000000CB5548C0000000602200F8BF0C00000013000000DA0300003C00000006000000020000000000
310
00E0FF3F8F40000000C001804AC0000000A0CFCC18C0000000E0FF3F8F4000000000CB5548C0000000602200F8BF0C00000013000000E20300003C0000000600000002000000000000E0FF3F8F40000000806F834AC0000000A0706618C0000000E0FF3F8F40000000C001804AC0000000A0CFCC18C00C00000013000000EA
310
0300003C0000000600000002000000000000E0FF3F8F4000000000CB5548C0000000602200F8BF000000E0FF3F8F4000000080646F48C0000000602A6EF3BF0C00000013000000F20300003C0000000600000002000000000000E0FF3F8F40000000806F834AC0000000A0706618C0000000E0FF3F8F4000000080646F48C0
310
000000602A6EF3BF0C00000013000000FA0300003C0000000600000002000000000000E0FF3F8F4000000080646F48C0000000602A6EF3BF000000E0FF3F8F40000000C0EF8E48C0000000008DF9EEBF0C00000013000000020400003C0000000600000002000000000000E0FF3F8F40000000806F834AC0000000A0706618
310
C0000000E0FF3F8F40000000C0EF8E48C0000000008DF9EEBF0C000000130000000A0400003C0000000600000002000000000000E0FF3F8F4000000080CF8C4AC0000000A0711B18C0000000E0FF3F8F40000000806F834AC0000000A0706618C00C00000013000000120400003C0000000600000002000000000000E0FF3F
310
8F40000000C0EF8E48C0000000008DF9EEBF000000E0FF3F8F400000008080B348C000000000FD92E8BF0C000000130000001A0400003C0000000600000002000000000000E0FF3F8F4000000080CF8C4AC0000000A0711B18C0000000E0FF3F8F400000008080B348C000000000FD92E8BF0C00000013000000220400003C
310
0000000600000002000000000000E0FF3F8F400000008080B348C000000000FD92E8BF000000E0FF3F8F4000000080EEDB48C00000000055DCE3BF0C000000130000002A0400003C0000000600000002000000000000E0FF3F8F4000000080CF8C4AC0000000A0711B18C0000000E0FF3F8F4000000080EEDB48C000000000
310
55DCE3BF0C00000013000000320400003C0000000600000002000000000000E0FF3F8F40000000409B994AC0000000A0020018C0000000E0FF3F8F4000000080CF8C4AC0000000A0711B18C00C000000130000003A0400003C0000000600000002000000000000E0FF3F8F40000000400B0749C0000000000DF9E0BF000000
310
E0FF3F8F4000000080EEDB48C00000000055DCE3BF0C00000013000000420400003C0000000600000002000000000000E0FF3F8F40000000409B994AC0000000A0020018C0000000E0FF3F8F40000000400B0749C0000000000DF9E0BF0C000000130000004A0400003C0000000600000002000000000000E0FF3F8F400000
310
00C07E3349C0000000001500E0BF000000E0FF3F8F40000000400B0749C0000000000DF9E0BF0C00000013000000520400003C0000000600000002000000000000E0FF3F8F40000000401EAA4FC000000000F0E29EBF000000E0FF3F8F40000000C001C04FC0000000000080E4BE0C000000130000005A0400003C00000006
310
00000002000000000000E0FF3F8F40000000C001C04FC0000000000080E4BE000000E0FF3F8F400000006071BB50C0000000000000E5BE0C00000013000000620400003C0000000600000002000000000000E0FF3F8F400000006071BB50C0000000000000E5BE000000E0FF3F8F40000000C01FC750C000000000D0ABA1BF
310
0C000000130000006A0400003C0000000600000002000000000000E0FF3F8F40000000401EAA4FC000000000F0E29EBF000000E0FF3F8F40000000C01FC750C000000000D0ABA1BF0C00000013000000720400003C0000000600000002000000000000E0FF3F8F4000000080DE964FC000000000BCF2BDBF000000E0FF3F8F
310
40000000401EAA4FC000000000F0E29EBF0C000000130000007A0400003C0000000600000002000000000000E0FF3F8F40000000C01FC750C000000000D0ABA1BF000000E0FF3F8F400000008031D150C000000000B40EC1BF0C00000013000000820400003C0000000600000002000000000000E0FF3F8F4000000080DE96
310
4FC000000000BCF2BDBF000000E0FF3F8F400000008031D150C000000000B40EC1BF0C000000130000008A0400003C0000000600000002000000000000E0FF3F8F400000000095884FC0000000002F00D0BF000000E0FF3F8F4000000080DE964FC000000000BCF2BDBF0C00000013000000920400003C0000000600000002
310
000000000000E0FF3F8F400000008031D150C000000000B40EC1BF000000E0FF3F8F40000000C042D850C0000000007A16D2BF0C000000130000009A0400003C0000000600000002000000000000E0FF3F8F400000000095884FC0000000002F00D0BF000000E0FF3F8F40000000C042D850C0000000007A16D2BF0C000000
310
13000000A20400003C0000000600000002000000000000E0FF3F8F40000000804B7A4FC0000000009383D8BF000000E0FF3F8F400000000095884FC0000000002F00D0BF0C00000013000000AA0400003C0000000600000002000000000000E0FF3F8F40000000008CE450C0000000003206E3BF000000E0FF3F8F40000000
310
C042D850C0000000007A16D2BF0C00000013000000B20400003C0000000600000002000000000000E0FF3F8F40000000804B7A4FC0000000009383D8BF000000E0FF3F8F40000000008CE450C0000000003206E3BF0C00000013000000BA0400003C0000000600000002000000000000E0FF3F8F40000000C00B674FC00000
310
00002312DEBF000000E0FF3F8F40000000804B7A4FC0000000009383D8BF0C00000013000000C20400003C0000000600000002000000000000E0FF3F8F40000000409DF450C000000000C28DEBBF000000E0FF3F8F40000000008CE450C0000000003206E3BF0C00000013000000CA0400003C000000060000000200000000
310
0000E0FF3F8F40000000C00B674FC0000000002312DEBF000000E0FF3F8F40000000409DF450C000000000C28DEBBF0C00000013000000D20400003C0000000600000002000000000000E0FF3F8F400000000028514FC0000000801100E0BF000000E0FF3F8F40000000C00B674FC0000000002312DEBF0C00000013000000
310
DA0400003C0000000600000002000000000000E0FF3F8F40000000409DF450C000000000C28DEBBF000000E0FF3F8F4000000080CF0751C0000000803A24F1BF0C00000013000000E20400003C0000000600000002000000000000E0FF3F8F400000000028514FC0000000801100E0BF000000E0FF3F8F4000000080CF0751
310
C0000000803A24F1BF0C00000013000000EA0400003C0000000600000002000000000000E0FF3F8F40000000409B994AC0000000A0020018C0000000E0FF3F8F4000000080CF0751C0000000803A24F1BF0C00000013000000F20400003C0000000600000002000000000000E0FF3F8F4000000080CF0751C0000000803A24
310
F1BF000000E0FF3F8F40000000C0521D51C000000080D276F3BF0C00000013000000FA0400003C0000000600000002000000000000E0FF3F8F40000000409B994AC0000000A0020018C0000000E0FF3F8F40000000C0521D51C000000080D276F3BF0C00000013000000020500003C0000000600000002000000000000E0FF
310
3F8F40000000C0521D51C000000080D276F3BF000000E0FF3F8F4000000040493451C00000008096A6F4BF0C000000130000000A0500003C0000000600000002000000000000E0FF3F8F40000000409B994AC0000000A0020018C0000000E0FF3F8F4000000040493451C00000008096A6F4BF0C0000001300000012050000
310
3C0000000600000002000000000000E0FF3F8F4000000040493451C00000008096A6F4BF000000E0FF3F8F4000000000B84B51C00000006096A6F4BF0C000000130000001A0500003C0000000600000002000000000000E0FF3F8F400000008033B352C0000000A0020018C0000000E0FF3F8F4000000000B84B51C0000000
310
6096A6F4BF0C00000013000000220500003C0000000600000002000000000000E0FF3F8F40000000409B994AC0000000A0020018C0000000E0FF3F8F400000008033B352C0000000A0020018C00C000000130000002A0500003C0000000600000002000000000000E0FF3F8F4000000000B84B51C00000006096A6F4BF0000
310
00E0FF3F8F4000000080AE6251C000000020D276F3BF0C00000013000000320500003C0000000600000002000000000000E0FF3F8F400000008033B352C0000000A0020018C0000000E0FF3F8F4000000080AE6251C000000020D276F3BF0C000000130000003A0500003C0000000600000002000000000000E0FF3F8F4000
310
000080AE6251C000000020D276F3BF000000E0FF3F8F4000000080317851C0000000403924F1BF0C00000013000000420500003C0000000600000002000000000000E0FF3F8F4000000080317851C0000000403924F1BF000000E0FF3F8F400000008099B952C0000000A094E417C00C000000130000004A0500003C000000
310
0600000002000000000000E0FF3F8F400000008033B352C0000000A0020018C0000000E0FF3F8F400000008099B952C0000000A094E417C00C00000013000000520500003C0000000600000002000000000000E0FF3F8F4000000000648B51C000000000C58DEBBF000000E0FF3F8F4000000040759B51C0000000003506E3
310
BF0C000000130000005A0500003C0000000600000002000000000000E0FF3F8F4000000040759B51C0000000003506E3BF000000E0FF3F8F400000008049BE52C0000000A0949917C00C00000013000000620500003C0000000600000002000000000000E0FF3F8F400000008049BE52C0000000A0949917C0000000E0FF3F
310
8F400000008099B952C0000000A094E417C00C000000130000006A0500003C0000000600000002000000000000E0FF3F8F4000000000648B51C000000000C58DEBBF000000E0FF3F8F400000008099B952C0000000A094E417C00C00000013000000720500003C0000000600000002000000000000E0FF3F8F400000008031
310
7851C0000000403924F1BF000000E0FF3F8F4000000000648B51C000000000C58DEBBF0C000000130000007A0500003C0000000600000002000000000000E0FF3F8F4000000040759B51C0000000003506E3BF000000E0FF3F8F4000000080BEA751C0000000007A16D2BF0C00000013000000820500003C00000006000000
310
02000000000000E0FF3F8F4000000080BEA751C0000000007A16D2BF000000E0FF3F8F400000008049BE52C0000000A0949917C00C000000130000008A0500003C0000000600000002000000000000E0FF3F8F4000000080BEA751C0000000007A16D2BF000000E0FF3F8F40000000C0CFAE51C000000000B40EC1BF0C0000
310
0013000000920500003C0000000600000002000000000000E0FF3F8F40000000C0CFAE51C000000000B40EC1BF000000E0FF3F8F400000004000C052C0000000A0363317C00C000000130000009A0500003C0000000600000002000000000000E0FF3F8F400000004000C052C0000000A0363317C0000000E0FF3F8F400000
310
008049BE52C0000000A0949917C00C00000013000000A20500003C0000000600000002000000000000E0FF3F8F4000000000E1B851C000000000D0ABA1BF000000E0FF3F8F40000000808FC451C0000000000000E5BE0C00000013000000AA0500003C0000000600000002000000000000E0FF3F8F40000000808FC451C000
310
0000000000E5BE000000E0FF3F8F400000004000C052C0000000A0363317C00C00000013000000B20500003C0000000600000002000000000000E0FF3F8F4000000000E1B851C000000000D0ABA1BF000000E0FF3F8F400000004000C052C0000000A0363317C00C00000013000000BA0500003C0000000600000002000000
310
000000E0FF3F8F40000000808FC451C0000000000000E5BE000000E0FF3F8F400000004000C052C0000000000000E5BE0C00000013000000C20500003C0000000600000002000000000000E0FF3F8F400000004000C052C0000000A0363317C0000000E0FF3F8F400000004000C052C0000000000000E5BE0C000000130000
310
00CA0500003C0000000600000002000000000000E0FF3F8F40000000C0CFAE51C000000000B40EC1BF000000E0FF3F8F4000000000E1B851C000000000D0ABA1BF0C00000013000000D20500003C0000000600000002000000000000E0FF3F8F400000000000799BBF00000020CACC27C00000000000408FC000000000006E
310
9BBF000000E0D2CC27C00C00000013000000DA0500003C00000006000000020000000000000000408FC0000000000000D03E000000E0A39927C00000000000408FC000000000006E9BBF000000E0D2CC27C00C00000013000000E20500003C0000000600000002000000000000E0FF3F8F4000000000000006BF000000A09A
310
9927C00000000000408FC0000000000000D03E000000E0A39927C00C00000013000000EA0500003C0000000600000002000000000000E0FF3F8F4000000000409EB9BF000000E049F227C00000000000408FC000000000409BB9BF0000002053F227C00C00000013000000F20500003C000000060000000200000000000000
310
00408FC000000000006E9BBF000000E0D2CC27C00000000000408FC000000000409BB9BF0000002053F227C00C00000013000000FA0500003C0000000600000002000000000000E0FF3F8F4000000000E09AC9BF00000020010028C00000000000408FC0000000008099C9BF000000E0090028C00C00000013000000020600
310
003C00000006000000020000000000000000408FC000000000409BB9BF0000002053F227C00000000000408FC0000000008099C9BF000000E0090028C00C000000130000000A0600003C0000000600000002000000000000E0FF3F8F400000000068664AC000000000030028C00000000000408FC00000008064664AC00000
310
00000C0028C00C00000013000000120600003C00000006000000020000000000000000408FC0000000008099C9BF000000E0090028C00000000000408FC00000008064664AC0000000000C0028C00C000000130000001A0600003C0000000600000002000000000000E0FF3F8F400000000034734AC0000000804BF227C000
310
00000000408FC00000008030734AC00000000055F227C00C00000013000000220600003C00000006000000020000000000000000408FC00000008064664AC0000000000C0028C00000000000408FC00000008030734AC00000000055F227C00C000000130000002A0600003C0000000600000002000000000000E0FF3F8F40
310
000000C0937C4AC000000000CCCC27C00000000000408FC000000040907C4AC000000000D5CC27C00C00000013000000320600003C00000006000000020000000000000000408FC000000040907C4AC000000000D5CC27C00000000000408FC00000008030734AC00000000055F227C00C000000130000003A0600003C0000
310
000600000002000000000000E0FF3F8F40000000C001804AC0000000809C9927C00000000000408FC000000040FE7F4AC000000080A59927C00C00000013000000420600003C00000006000000020000000000000000408FC000000040907C4AC000000000D5CC27C00000000000408FC000000040FE7F4AC000000080A599
310
27C00C000000130000004A0600003C0000000600000002000000000000E0FF3F8F40000000C001804AC0000000A0CFCC18C00000000000408FC000000040FE7F4AC0000000A0E2CC18C00C00000013000000520600003C00000006000000020000000000000000408FC000000040FE7F4AC000000080A59927C00000000000
310
408FC000000040FE7F4AC0000000A0E2CC18C00C000000130000005A0600003C0000000600000002000000000000E0FF3F8F40000000806F834AC0000000A0706618C00000000000408FC0000000006C834AC0000000A0836618C00C00000013000000620600003C00000006000000020000000000000000408FC000000040
310
FE7F4AC0000000A0E2CC18C00000000000408FC0000000006C834AC0000000A0836618C00C000000130000006A0600003C0000000600000002000000000000E0FF3F8F4000000080CF8C4AC0000000A0711B18C00000000000408FC000000000CC8C4AC0000000A0841B18C00C00000013000000720600003C000000060000
310
00020000000000000000408FC0000000006C834AC0000000A0836618C00000000000408FC000000000CC8C4AC0000000A0841B18C00C000000130000007A0600003C0000000600000002000000000000E0FF3F8F40000000409B994AC0000000A0020018C00000000000408FC0000000C097994AC0000000A0150018C00C00
310
000013000000820600003C00000006000000020000000000000000408FC0000000C097994AC0000000A0150018C00000000000408FC000000000CC8C4AC0000000A0841B18C00C000000130000008A0600003C0000000600000002000000000000E0FF3F8F400000008033B352C0000000A0020018C00000000000408FC000
310
00000033B352C0000000A0150018C00C00000013000000920600003C00000006000000020000000000000000408FC0000000C097994AC0000000A0150018C00000000000408FC00000000033B352C0000000A0150018C00C000000130000009A0600003C0000000600000002000000000000E0FF3F8F400000008099B952C0
310
000000A094E417C00000000000408FC00000000099B952C0000000A0A6E417C00C00000013000000A20600003C00000006000000020000000000000000408FC00000000033B352C0000000A0150018C00000000000408FC00000000099B952C0000000A0A6E417C00C00000013000000AA0600003C00000006000000020000
310
00000000E0FF3F8F400000008049BE52C0000000A0949917C00000000000408FC00000000049BE52C0000000A0A79917C00C00000013000000B20600003C00000006000000020000000000000000408FC00000000049BE52C0000000A0A79917C00000000000408FC00000000099B952C0000000A0A6E417C00C0000001300
310
0000BA0600003C0000000600000002000000000000E0FF3F8F400000004000C052C0000000A0363317C00000000000408FC0000000C0FFBF52C0000000A0483317C00C00000013000000C20600003C00000006000000020000000000000000408FC00000000049BE52C0000000A0A79917C00000000000408FC0000000C0FF
310
BF52C0000000A0483317C00C00000013000000CA0600003C0000000600000002000000000000E0FF3F8F400000004000C052C0000000000000E5BE0000000000408FC0000000C0FFBF52C00000000000A015BF0C00000013000000D20600003C00000006000000020000000000000000408FC0000000C0FFBF52C000000000
310
00A015BF0000000000408FC0000000C0FFBF52C0000000A0483317C00C00000013000000DA0600003C0000000600000002000000000000E0FF3F8F40000000808FC451C0000000000000E5BE0000000000408FC0000000008FC451C00000000000A015BF0C00000013000000E20600003C0000000600000002000000000000
310
0000408FC0000000C0FFBF52C00000000000A015BF0000000000408FC0000000008FC451C00000000000A015BF0C00000013000000EA0600003C0000000600000002000000000000E0FF3F8F4000000000E1B851C000000000D0ABA1BF0000000000408FC000000080E0B851C000000000D0B4A1BF0C00000013000000F206
310
00003C00000006000000020000000000000000408FC000000080E0B851C000000000D0B4A1BF0000000000408FC0000000008FC451C00000000000A015BF0C00000013000000FA0600003C0000000600000002000000000000E0FF3F8F40000000C0CFAE51C000000000B40EC1BF0000000000408FC0000000C0CEAE51C000
310
000000F410C1BF0C00000013000000020700003C00000006000000020000000000000000408FC000000080E0B851C000000000D0B4A1BF0000000000408FC0000000C0CEAE51C000000000F410C1BF0C000000130000000A0700003C0000000600000002000000000000E0FF3F8F4000000080BEA751C0000000007A16D2BF
310
0000000000408FC000000080BDA751C0000000009A17D2BF0C00000013000000120700003C00000006000000020000000000000000408FC000000080BDA751C0000000009A17D2BF0000000000408FC0000000C0CEAE51C000000000F410C1BF0C000000130000001A0700003C0000000600000002000000000000E0FF3F8F
310
4000000040759B51C0000000003506E3BF0000000000408FC000000040749B51C000000000CD06E3BF0C00000013000000220700003C00000006000000020000000000000000408FC000000040749B51C000000000CD06E3BF0000000000408FC000000080BDA751C0000000009A17D2BF0C000000130000002A0700003C00
310
00000600000002000000000000E0FF3F8F4000000000648B51C000000000C58DEBBF0000000000408FC000000000638B51C0000000005D8EEBBF0C00000013000000320700003C00000006000000020000000000000000408FC000000000638B51C0000000005D8EEBBF0000000000408FC000000040749B51C000000000CD
310
06E3BF0C000000130000003A0700003C0000000600000002000000000000E0FF3F8F4000000080317851C0000000403924F1BF0000000000408FC000000080307851C0000000408524F1BF0C00000013000000420700003C00000006000000020000000000000000408FC000000000638B51C0000000005D8EEBBF00000000
310
00408FC000000080307851C0000000408524F1BF0C000000130000004A0700003C0000000600000002000000000000E0FF3F8F4000000080AE6251C000000020D276F3BF0000000000408FC000000080AD6251C0000000201E77F3BF0C00000013000000520700003C00000006000000020000000000000000408FC0000000
310
80AD6251C0000000201E77F3BF0000000000408FC000000080307851C0000000408524F1BF0C000000130000005A0700003C0000000600000002000000000000E0FF3F8F4000000000B84B51C00000006096A6F4BF0000000000408FC000000000B74B51C000000060DEA6F4BF0C00000013000000620700003C0000000600
310
0000020000000000000000408FC000000000B74B51C000000060DEA6F4BF0000000000408FC000000080AD6251C0000000201E77F3BF0C000000130000006A0700003C0000000600000002000000000000E0FF3F8F4000000040493451C00000008096A6F4BF0000000000408FC000000040483451C000000080DEA6F4BF0C
310
00000013000000720700003C00000006000000020000000000000000408FC000000000B74B51C000000060DEA6F4BF0000000000408FC000000040483451C000000080DEA6F4BF0C000000130000007A0700003C0000000600000002000000000000E0FF3F8F40000000C0521D51C000000080D276F3BF0000000000408FC0
310
000000C0511D51C0000000801E77F3BF0C00000013000000820700003C00000006000000020000000000000000408FC0000000C0511D51C0000000801E77F3BF0000000000408FC000000040483451C000000080DEA6F4BF0C000000130000008A0700003C0000000600000002000000000000E0FF3F8F4000000080CF0751
310
C0000000803A24F1BF0000000000408FC000000080CE0751C0000000808624F1BF0C00000013000000920700003C00000006000000020000000000000000408FC000000080CE0751C0000000808624F1BF0000000000408FC0000000C0511D51C0000000801E77F3BF0C000000130000009A0700003C000000060000000200
310
0000000000E0FF3F8F40000000409DF450C000000000C28DEBBF0000000000408FC0000000409CF450C0000000005A8EEBBF0C00000013000000A20700003C00000006000000020000000000000000408FC0000000409CF450C0000000005A8EEBBF0000000000408FC000000080CE0751C0000000808624F1BF0C00000013
310
000000AA0700003C0000000600000002000000000000E0FF3F8F40000000008CE450C0000000003206E3BF0000000000408FC0000000008BE450C000000000CA06E3BF0C00000013000000B20700003C00000006000000020000000000000000408FC0000000008BE450C000000000CA06E3BF0000000000408FC000000040
310
9CF450C0000000005A8EEBBF0C00000013000000BA0700003C0000000600000002000000000000E0FF3F8F40000000C042D850C0000000007A16D2BF0000000000408FC0000000C041D850C0000000009A17D2BF0C00000013000000C20700003C00000006000000020000000000000000408FC0000000008BE450C0000000
310
00CA06E3BF0000000000408FC0000000C041D850C0000000009A17D2BF0C00000013000000CA0700003C0000000600000002000000000000E0FF3F8F400000008031D150C000000000B40EC1BF0000000000408FC00000008030D150C000000000F410C1BF0C00000013000000D20700003C00000006000000020000000000
310
000000408FC00000008030D150C000000000F410C1BF0000000000408FC0000000C041D850C0000000009A17D2BF0C00000013000000DA0700003C0000000600000002000000000000E0FF3F8F40000000C01FC750C000000000D0ABA1BF0000000000408FC0000000E01EC750C000000000D0B4A1BF0C00000013000000E2
310
0700003C00000006000000020000000000000000408FC0000000E01EC750C000000000D0B4A1BF0000000000408FC00000008030D150C000000000F410C1BF0C00000013000000EA0700003C0000000600000002000000000000E0FF3F8F400000006071BB50C0000000000000E5BE0000000000408FC00000008070BB50C0
310
0000000000A015BF0C00000013000000F20700003C00000006000000020000000000000000408FC00000008070BB50C00000000000A015BF0000000000408FC0000000E01EC750C000000000D0B4A1BF0C00000013000000FA0700003C0000000600000002000000000000E0FF3F8F40000000C001C04FC0000000000080E4
310
BE0000000000408FC000000080FEBF4FC000000000009015BF0C00000013000000020800003C00000006000000020000000000000000408FC00000008070BB50C00000000000A015BF0000000000408FC000000080FEBF4FC000000000009015BF0C000000130000000A0800003C0000000600000002000000000000E0FF3F
310
8F40000000401EAA4FC000000000F0E29EBF0000000000408FC0000000801AAA4FC000000000F0F59EBF0C00000013000000120800003C00000006000000020000000000000000408FC0000000801AAA4FC000000000F0F59EBF0000000000408FC000000080FEBF4FC000000000009015BF0C000000130000001A0800003C
310
0000000600000002000000000000E0FF3F8F4000000080DE964FC000000000BCF2BDBF0000000000408FC0000000C0DA964FC0000000007CF7BDBF0C00000013000000220800003C00000006000000020000000000000000408FC0000000801AAA4FC000000000F0F59EBF0000000000408FC0000000C0DA964FC000000000
310
7CF7BDBF0C000000130000002A0800003C0000000600000002000000000000E0FF3F8F400000000095884FC0000000002F00D0BF0000000000408FC00000004091884FC0000000004F01D0BF0C00000013000000320800003C00000006000000020000000000000000408FC0000000C0DA964FC0000000007CF7BDBF000000
310
0000408FC00000004091884FC0000000004F01D0BF0C000000130000003A0800003C0000000600000002000000000000E0FF3F8F40000000804B7A4FC0000000009383D8BF0000000000408FC0000000C0477A4FC000000000C384D8BF0C00000013000000420800003C00000006000000020000000000000000408FC00000
310
004091884FC0000000004F01D0BF0000000000408FC0000000C0477A4FC000000000C384D8BF0C000000130000004A0800003C0000000600000002000000000000E0FF3F8F40000000C00B674FC0000000002312DEBF0000000000408FC00000000008674FC0000000004313DEBF0C00000013000000520800003C00000006
310
000000020000000000000000408FC0000000C0477A4FC000000000C384D8BF0000000000408FC00000000008674FC0000000004313DEBF0C000000130000005A0800003C0000000600000002000000000000E0FF3F8F400000000028514FC0000000801100E0BF0000000000408FC00000004024514FC000000080A900E0BF
310
0C00000013000000620800003C00000006000000020000000000000000408FC00000004024514FC000000080A900E0BF0000000000408FC00000000008674FC0000000004313DEBF0C000000130000006A0800003C0000000600000002000000000000E0FF3F8F40000000C07E3349C0000000001500E0BF0000000000408F
310
C0000000407B3349C000000000AD00E0BF0C00000013000000720800003C00000006000000020000000000000000408FC00000004024514FC000000080A900E0BF0000000000408FC0000000407B3349C000000000AD00E0BF0C000000130000007A0800003C0000000600000002000000000000E0FF3F8F40000000400B07
310
49C0000000000DF9E0BF0000000000408FC0000000C0070749C000000000A5F9E0BF0C00000013000000820800003C00000006000000020000000000000000408FC0000000407B3349C000000000AD00E0BF0000000000408FC0000000C0070749C000000000A5F9E0BF0C000000130000008A0800003C0000000600000002
310
000000000000E0FF3F8F4000000080EEDB48C00000000055DCE3BF0000000000408FC000000000EBDB48C000000000EDDCE3BF0C00000013000000920800003C00000006000000020000000000000000408FC000000000EBDB48C000000000EDDCE3BF0000000000408FC0000000C0070749C000000000A5F9E0BF0C000000
310
130000009A0800003C0000000600000002000000000000E0FF3F8F400000008080B348C000000000FD92E8BF0000000000408FC0000000C07CB348C0000000008D93E8BF0C00000013000000A20800003C00000006000000020000000000000000408FC0000000C07CB348C0000000008D93E8BF0000000000408FC0000000
310
00EBDB48C000000000EDDCE3BF0C00000013000000AA0800003C0000000600000002000000000000E0FF3F8F40000000C0EF8E48C0000000008DF9EEBF0000000000408FC000000040EC8E48C0000000001DFAEEBF0C00000013000000B20800003C00000006000000020000000000000000408FC000000040EC8E48C00000
310
00001DFAEEBF0000000000408FC0000000C07CB348C0000000008D93E8BF0C00000013000000BA0800003C0000000600000002000000000000E0FF3F8F4000000080646F48C0000000602A6EF3BF0000000000408FC0000000C0606F48C000000060766EF3BF0C00000013000000C20800003C000000060000000200000000
310
00000000408FC0000000C0606F48C000000060766EF3BF0000000000408FC000000040EC8E48C0000000001DFAEEBF0C00000013000000CA0800003C0000000600000002000000000000E0FF3F8F4000000000CB5548C0000000602200F8BF0000000000408FC000000040C75548C0000000606E00F8BF0C00000013000000
310
D20800003C00000006000000020000000000000000408FC000000040C75548C0000000606E00F8BF0000000000408FC0000000C0606F48C000000060766EF3BF0C00000013000000DA0800003C0000000600000002000000000000E0FF3F8F4000000000EF4248C000000060360EFDBF0000000000408FC000000080EB4248
310
C000000060820EFDBF0C00000013000000E20800003C00000006000000020000000000000000408FC000000080EB4248C000000060820EFDBF0000000000408FC000000040C75548C0000000606E00F8BF0C00000013000000EA0800003C0000000600000002000000000000E0FF3F8F4000000040A99E47C0000000C03D5E
310
15C00000000000408FC000000080A59E47C0000000C04F5E15C00C00000013000000F20800003C00000006000000020000000000000000408FC000000080A59E47C0000000C04F5E15C00000000000408FC000000080EB4248C000000060820EFDBF0C00000013000000FA0800003C0000000600000002000000000000E0FF
310
3F8F40000000407E9047C0000000C0A43C16C00000000000408FC0000000C07A9047C0000000C0B73C16C00C00000013000000020900003C00000006000000020000000000000000408FC000000080A59E47C0000000C04F5E15C00000000000408FC0000000C07A9047C0000000C0B73C16C00C000000130000000A090000
310
3C0000000600000002000000000000E0FF3F8F40000000C0087C47C0000000A0F3F816C00000000000408FC000000000057C47C0000000A005F916C00C00000013000000120900003C00000006000000020000000000000000408FC000000000057C47C0000000A005F916C00000000000408FC0000000C07A9047C0000000
310
C0B73C16C00C000000130000001A0900003C0000000600000002000000000000E0FF3F8F4000000040776247C0000000A02B8817C00000000000408FC000000080736247C0000000A03D8817C00C00000013000000220900003C00000006000000020000000000000000408FC000000080736247C0000000A03D8817C00000
310
000000408FC000000000057C47C0000000A005F916C00C000000130000002A0900003C0000000600000002000000000000E0FF3F8F4000000080594547C0000000A092E117C00000000000408FC0000000C0554547C0000000A0A4E117C00C00000013000000320900003C00000006000000020000000000000000408FC000
310
0000C0554547C0000000A0A4E117C00000000000408FC000000080736247C0000000A03D8817C00C000000130000003A0900003C0000000600000002000000000000E0FF3F8F4000000040612647C0000000A0010018C00000000000408FC0000000C05D2647C0000000A0140018C00C00000013000000420900003C000000
310
06000000020000000000000000408FC0000000C05D2647C0000000A0140018C00000000000408FC0000000C0554547C0000000A0A4E117C00C000000130000004A0900003C0000000600000002000000000000E0FF3F8F4000000040018044C000000080010018C00000000000408FC000000040FE7F44C000000080140018
310
C00C00000013000000520900003C00000006000000020000000000000000408FC000000040FE7F44C000000080140018C00000000000408FC0000000C05D2647C0000000A0140018C00C000000130000005A0900003C0000000600000002000000000000E0FF3F8F40000000E0DE5E44C00000008017DD17C0000000000040
310
8FC0000000C0DB5E44C0000000802ADD17C00C00000013000000620900003C00000006000000020000000000000000408FC000000040FE7F44C000000080140018C00000000000408FC0000000C0DB5E44C0000000802ADD17C00C000000130000006A0900003C0000000600000002000000000000E0FF3F8F40000000C002
310
4044C000000080D57617C00000000000408FC0000000C0FF3F44C000000080E77617C00C00000013000000720900003C00000006000000020000000000000000408FC0000000C0FF3F44C000000080E77617C00000000000408FC0000000C0DB5E44C0000000802ADD17C00C000000130000007A0900003C00000006000000
310
02000000000000E0FF3F8F40000000C07E2544C00000008015D416C00000000000408FC0000000807B2544C00000008028D416C00C00000013000000820900003C00000006000000020000000000000000408FC0000000C0FF3F44C000000080E77617C00000000000408FC0000000807B2544C00000008028D416C00C0000
310
00130000008A0900003C0000000600000002000000000000E0FF3F8F40000000E0261144C000000080F5FF15C00000000000408FC0000000C0231144C000000080080016C00C00000013000000920900003C00000006000000020000000000000000408FC0000000C0231144C000000080080016C00000000000408FC00000
310
00807B2544C00000008028D416C00C000000130000009A0900003C0000000600000002000000000000E0FF3F8F40000000805E0444C000000080150915C00000000000408FC0000000405B0444C000000080270915C00C00000013000000A20900003C00000006000000020000000000000000408FC0000000C0231144C000
310
000080080016C00000000000408FC0000000405B0444C000000080270915C00C00000013000000AA0900003C0000000600000002000000000000E0FF3F8F4000000040010044C000000080010014C00000000000408FC000000000FEFF43C000000080140014C00C00000013000000B20900003C0000000600000002000000
310
0000000000408FC0000000405B0444C000000080270915C00000000000408FC000000000FEFF43C000000080140014C00C00000013000000BA0900003C0000000600000002000000000000E0FF3F8F40000000C0010044C0000000000500F0BF0000000000408FC0000000A0FEFF43C0000000005100F0BF0C000000130000
310
00C20900003C00000006000000020000000000000000408FC0000000A0FEFF43C0000000005100F0BF0000000000408FC000000000FEFF43C000000080140014C00C00000013000000CA0900003C0000000600000002000000000000E0FF3F8F4000000040DFFC43C000000080040EEBBF0000000000408FC000000040DCFC
310
43C000000080940EEBBF0C00000013000000D20900003C00000006000000020000000000000000408FC0000000A0FEFF43C0000000005100F0BF0000000000408FC000000040DCFC43C000000080940EEBBF0C00000013000000DA0900003C0000000600000002000000000000E0FF3F8F4000000000C8F343C00000008064
310
98E6BF0000000000408FC0000000E0C4F343C000000080FC98E6BF0C00000013000000E20900003C00000006000000020000000000000000408FC0000000E0C4F343C000000080FC98E6BF0000000000408FC000000040DCFC43C000000080940EEBBF0C00000013000000EA0900003C0000000600000002000000000000E0
310
FF3F8F4000000000A0E543C0000000807C0EE3BF0000000000408FC0000000409DE543C000000080140FE3BF0C00000013000000F20900003C00000006000000020000000000000000408FC0000000E0C4F343C000000080FC98E6BF0000000000408FC0000000409DE543C000000080140FE3BF0C00000013000000FA0900
310
003C0000000600000002000000000000E0FF3F8F40000000A0C9D343C000000080ACC8E0BF0000000000408FC000000000C7D343C00000008044C9E0BF0C00000013000000020A00003C00000006000000020000000000000000408FC0000000409DE543C000000080140FE3BF0000000000408FC000000000C7D343C00000
310
008044C9E0BF0C000000130000000A0A00003C0000000600000002000000000000E0FF3F8F400000006001C043C0000000000D00E0BF0000000000408FC0000000A0FEBF43C000000000A500E0BF0C00000013000000120A00003C00000006000000020000000000000000408FC0000000A0FEBF43C000000000A500E0BF00
310
00000000408FC000000000C7D343C00000008044C9E0BF0C000000130000001A0A00003C0000000600000002000000000000E0FF3F8F40000000C001C042C0000000001500E0BF0000000000408FC0000000A0FEBF42C000000000A500E0BF0C00000013000000220A00003C00000006000000020000000000000000408FC0
310
000000A0FEBF42C000000000A500E0BF0000000000408FC0000000A0FEBF43C000000000A500E0BF0C000000130000002A0A00003C0000000600000002000000000000E0FF3F8F400000008039AC42C000000000ADC8E0BF0000000000408FC00000006036AC42C00000000045C9E0BF0C00000013000000320A00003C0000
310
0006000000020000000000000000408FC00000006036AC42C00000000045C9E0BF0000000000408FC0000000A0FEBF42C000000000A500E0BF0C000000130000003A0A00003C0000000600000002000000000000E0FF3F8F4000000040639A42C0000000007D0EE3BF0000000000408FC000000000609A42C000000000150F
310
E3BF0C00000013000000420A00003C00000006000000020000000000000000408FC00000006036AC42C00000000045C9E0BF0000000000408FC000000000609A42C000000000150FE3BF0C000000130000004A0A00003C0000000600000002000000000000E0FF3F8F40000000803B8C42C0000000006598E6BF0000000000
310
408FC000000060388C42C000000000FD98E6BF0C00000013000000520A00003C00000006000000020000000000000000408FC000000060388C42C000000000FD98E6BF0000000000408FC000000000609A42C000000000150FE3BF0C000000130000005A0A00003C0000000600000002000000000000E0FF3F8F4000000040
310
248342C000000000050EEBBF0000000000408FC000000020218342C000000000950EEBBF0C00000013000000620A00003C00000006000000020000000000000000408FC000000060388C42C000000000FD98E6BF0000000000408FC000000020218342C000000000950EEBBF0C000000130000006A0A00003C000000060000
310
0002000000000000E0FF3F8F40000000C0018042C0000000400900F0BF0000000000408FC0000000A0FE7F42C0000000405100F0BF0C00000013000000720A00003C00000006000000020000000000000000408FC0000000A0FE7F42C0000000405100F0BF0000000000408FC000000020218342C000000000950EEBBF0C00
310
0000130000007A0A00003C0000000600000002000000000000E0FF3F8F4000000040018042C0000000C0010014C00000000000408FC000000000FE7F42C0000000C0140014C00C00000013000000820A00003C00000006000000020000000000000000408FC000000000FE7F42C0000000C0140014C00000000000408FC000
310
0000A0FE7F42C0000000405100F0BF0C000000130000008A0A00003C0000000600000002000000000000E0FF3F8F4000000000A47B42C0000000C0150915C00000000000408FC0000000C0A07B42C0000000C0270915C00C00000013000000920A00003C00000006000000020000000000000000408FC000000000FE7F42C0
310
000000C0140014C00000000000408FC0000000C0A07B42C0000000C0270915C00C000000130000009A0A00003C0000000600000002000000000000E0FF3F8F40000000A0DB6E42C0000000C0F5FF15C00000000000408FC000000080D86E42C0000000C0080016C00C00000013000000A20A00003C00000006000000020000
310
000000000000408FC000000080D86E42C0000000C0080016C00000000000408FC0000000C0A07B42C0000000C0270915C00C00000013000000AA0A00003C0000000600000002000000000000E0FF3F8F40000000C0835A42C0000000C015D416C00000000000408FC000000080805A42C0000000C028D416C00C0000001300
310
0000B20A00003C00000006000000020000000000000000408FC000000080805A42C0000000C028D416C00000000000408FC000000080D86E42C0000000C0080016C00C00000013000000BA0A00003C0000000600000002000000000000E0FF3F8F40000000C0FF3F42C0000000C0D57617C00000000000408FC000000080FC
310
3F42C0000000C0E77617C00C00000013000000C20A00003C00000006000000020000000000000000408FC000000080FC3F42C0000000C0E77617C00000000000408FC000000080805A42C0000000C028D416C00C00000013000000CA0A00003C0000000600000002000000000000E0FF3F8F40000000A0232142C0000000C0
310
17DD17C00000000000408FC000000080202142C0000000C02ADD17C00C00000013000000D20A00003C00000006000000020000000000000000408FC000000080202142C0000000C02ADD17C00000000000408FC000000080FC3F42C0000000C0E77617C00C00000013000000DA0A00003C0000000600000002000000000000
310
E0FF3F8F4000000040010042C0000000A0020018C00000000000408FC000000000FEFF41C0000000A0140018C00C00000013000000E20A00003C00000006000000020000000000000000408FC000000080202142C0000000C02ADD17C00000000000408FC000000000FEFF41C0000000A0140018C00C00000013000000EA0A
310
00003C0000000600000002000000000000E0FF3F8F400000008005002AC0000000A0010018C00000000000408FC000000000FAFF29C0000000A0140018C00C00000013000000F20A00003C00000006000000020000000000000000408FC000000000FAFF29C0000000A0140018C00000000000408FC000000000FEFF41C000
310
0000A0140018C00C00000013000000FA0A00003C0000000600000002000000000000E0FF3F8F40000000007C7B29C0000000A017DD17C00000000000408FC000000080707B29C0000000A02ADD17C00C00000013000000020B00003C00000006000000020000000000000000408FC000000000FAFF29C0000000A0140018C0
310
0000000000408FC000000080707B29C0000000A02ADD17C00C000000130000000A0B00003C0000000600000002000000000000E0FF3F8F40000000800B0029C0000000A0D57617C00000000000408FC000000000000029C0000000A0E77617C00C00000013000000120B00003C00000006000000020000000000000000408F
310
C000000000000029C0000000A0E77617C00000000000408FC000000080707B29C0000000A02ADD17C00C000000130000001A0B00003C0000000600000002000000000000E0FF3F8F4000000080FB9528C0000000A015D416C00000000000408FC000000000F09528C0000000A028D416C00C00000013000000220B00003C00
310
000006000000020000000000000000408FC000000000F09528C0000000A028D416C00000000000408FC000000000000029C0000000A0E77617C00C000000130000002A0B00003C0000000600000002000000000000E0FF3F8F40000000009C4428C0000000A0F5FF15C00000000000408FC000000080904428C0000000A008
310
0016C00C00000013000000320B00003C00000006000000020000000000000000408FC000000080904428C0000000A0080016C00000000000408FC000000000F09528C0000000A028D416C00C000000130000003A0B00003C0000000600000002000000000000E0FF3F8F40000000807A1128C0000000A0150915C000000000
310
00408FC0000000006F1128C0000000A0270915C00C00000013000000420B00003C00000006000000020000000000000000408FC0000000006F1128C0000000A0270915C00000000000408FC000000080904428C0000000A0080016C00C000000130000004A0B00003C0000000600000002000000000000E0FF3F8F40000000
310
80050028C0000000A0010014C00000000000408FC000000000FAFF27C0000000A0140014C00C00000013000000520B00003C00000006000000020000000000000000408FC0000000006F1128C0000000A0270915C00000000000408FC000000000FAFF27C0000000A0140014C00C000000130000005A0B00003C0000000600
310
000002000000000000E0FF3F8F4000000080050028C0000000000D00E0BF0000000000408FC000000000FAFF27C000000000A500E0BF0C00000013000000620B00003C00000006000000020000000000000000408FC000000000FAFF27C0000000A0140014C00000000000408FC000000000FAFF27C000000000A500E0BF0C
310
000000130000006A0B00003C0000000600000002000000000000E0FF3F8F40000000807BF327C0000000000A1CD6BF0000000000408FC00000000070F327C0000000002A1DD6BF0C00000013000000720B00003C00000006000000020000000000000000408FC00000000070F327C0000000002A1DD6BF0000000000408FC0
310
00000000FAFF27C000000000A500E0BF0C000000130000007A0B00003C0000000600000002000000000000E0FF3F8F40000000801ECF27C0000000009461CABF0000000000408FC00000000013CF27C000000000F463CABF0C00000013000000820B00003C00000006000000020000000000000000408FC00000000070F327
310
C0000000002A1DD6BF0000000000408FC00000000013CF27C000000000F463CABF0C000000130000008A0B00003C0000000600000002000000000000E0FF3F8F4000000000809627C000000000E873B8BF0000000000408FC000000080749627C000000000A878B8BF0C00000013000000920B00003C000000060000000200
310
00000000000000408FC000000080749627C000000000A878B8BF0000000000408FC00000000013CF27C000000000F463CABF0C000000130000009A0B00003C0000000600000002000000000000E0FF3F8F4000000080264F27C000000000A01599BF0000000000408FC0000000001B4F27C000000000A02899BF0C00000013
310
000000A20B00003C00000006000000020000000000000000408FC0000000001B4F27C000000000A02899BF0000000000408FC000000080749627C000000000A878B8BF0C00000013000000AA0B00003C0000000600000002000000000000E0FF3F8F4000000080050027C0000000000000DABE0000000000408FC000000000
310
FAFF26C00000000000A014BF0C00000013000000B20B00003C00000006000000020000000000000000408FC000000000FAFF26C00000000000A014BF0000000000408FC0000000001B4F27C000000000A02899BF0C00000013000000BA0B00003C0000000600000002000000000000E0FF3F8F40000000007E2420C0000000
310
000000D9BE0000000000408FC000000080722420C000000000009014BF0C00000013000000C20B00003C00000006000000020000000000000000408FC000000080722420C000000000009014BF0000000000408FC000000000FAFF26C00000000000A014BF0C00000013000000CA0B00003C00000006000000020000000000
310
00E0FF3F8F4000000000178E1FC00000000048ABA1BF0000000000408FC000000000008E1FC00000000048B4A1BF0C00000013000000D20B00003C00000006000000020000000000000000408FC000000080722420C000000000009014BF0000000000408FC000000000008E1FC00000000048B4A1BF0C00000013000000DA
310
0B00003C0000000600000002000000000000E0FF3F8F4000000000FCEC1EC000000000920EC1BF0000000000408FC000000000E5EC1EC000000000D210C1BF0C00000013000000E20B00003C00000006000000020000000000000000408FC000000000008E1FC00000000048B4A1BF0000000000408FC000000000E5EC1EC0
310
00000000D210C1BF0C00000013000000EA0B00003C0000000600000002000000000000E0FF3F8F4000000000E97B1EC0000000006916D2BF0000000000408FC000000000D27B1EC0000000008917D2BF0C00000013000000F20B00003C00000006000000020000000000000000408FC000000000E5EC1EC000000000D210C1
310
BF0000000000408FC000000000D27B1EC0000000008917D2BF0C00000013000000FA0B00003C0000000600000002000000000000E0FF3F8F400000000056B71DC0000000802C06E3BF0000000000408FC0000000003FB71DC000000080C406E3BF0C00000013000000020C00003C0000000600000002000000000000000040
310
8FC0000000003FB71DC000000080C406E3BF0000000000408FC000000000D27B1EC0000000008917D2BF0C000000130000000A0C00003C0000000600000002000000000000E0FF3F8F400000000042B61CC000000080BC8DEBBF0000000000408FC0000000002CB61CC000000080548EEBBF0C00000013000000120C00003C
310
00000006000000020000000000000000408FC0000000003FB71DC000000080C406E3BF0000000000408FC0000000002CB61CC000000080548EEBBF0C000000130000001A0C00003C0000000600000002000000000000E0FF3F8F40000000001A831BC0000000003524F1BF0000000000408FC00000000006831BC000000000
310
8124F1BF0C00000013000000220C00003C00000006000000020000000000000000408FC00000000006831BC0000000008124F1BF0000000000408FC0000000002CB61CC000000080548EEBBF0C000000130000002A0C00003C0000000600000002000000000000E0FF3F8F4000000000E52A1AC000000060CE76F3BF000000
310
0000408FC000000000D72A1AC0000000601A77F3BF0C00000013000000320C00003C00000006000000020000000000000000408FC00000000006831BC0000000008124F1BF0000000000408FC000000000D72A1AC0000000601A77F3BF0C000000130000003A0C00003C0000000600000002000000000000E0FF3F8F400000
310
00007DBB18C00000008092A6F4BF0000000000408FC0000000006FBB18C000000080DAA6F4BF0C00000013000000420C00003C00000006000000020000000000000000408FC0000000006FBB18C000000080DAA6F4BF0000000000408FC000000000D72A1AC0000000601A77F3BF0C000000130000004A0C00003C00000006
310
00000002000000000000E0FF3F8F4000000000914417C00000008092A6F4BF0000000000408FC000000000834417C000000080DAA6F4BF0C00000013000000520C00003C00000006000000020000000000000000408FC000000000834417C000000080DAA6F4BF0000000000408FC0000000006FBB18C000000080DAA6F4BF
310
0C000000130000005A0C00003C0000000600000002000000000000E0FF3F8F400000000029D515C000000080CE76F3BF0000000000408FC0000000001BD515C0000000801A77F3BF0C00000013000000620C00003C00000006000000020000000000000000408FC0000000001BD515C0000000801A77F3BF0000000000408F
310
C000000000834417C000000080DAA6F4BF0C000000130000006A0C00003C0000000600000002000000000000E0FF3F8F4000000000F77C14C0000000803624F1BF0000000000408FC000000000E97C14C0000000808224F1BF0C00000013000000720C00003C00000006000000020000000000000000408FC0000000001BD5
310
15C0000000801A77F3BF0000000000408FC000000000E97C14C0000000808224F1BF0C000000130000007A0C00003C0000000600000002000000000000E0FF3F8F4000000000CF4913C000000000BD8DEBBF0000000000408FC000000000C14913C000000000558EEBBF0C00000013000000820C00003C0000000600000002
310
0000000000000000408FC000000000C14913C000000000558EEBBF0000000000408FC000000000E97C14C0000000808224F1BF0C000000130000008A0C00003C0000000600000002000000000000E0FF3F8F4000000000BB4812C0000000002D06E3BF0000000000408FC000000000AD4812C000000000C506E3BF0C000000
310
13000000920C00003C00000006000000020000000000000000408FC000000000C14913C000000000558EEBBF0000000000408FC000000000AD4812C000000000C506E3BF0C000000130000009A0C00003C0000000600000002000000000000E0FF3F8F4000000000298411C0000000006A16D2BF0000000000408FC0000000
310
001B8411C0000000008A17D2BF0C00000013000000A20C00003C00000006000000020000000000000000408FC0000000001B8411C0000000008A17D2BF0000000000408FC000000000AD4812C000000000C506E3BF0C00000013000000AA0C00003C0000000600000002000000000000E0FF3F8F4000000000151311C00000
310
0000940EC1BF0000000000408FC000000000091311C000000000D410C1BF0C00000013000000B20C00003C00000006000000020000000000000000408FC0000000001B8411C0000000008A17D2BF0000000000408FC000000000091311C000000000D410C1BF0C00000013000000BA0C00003C000000060000000200000000
310
0000E0FF3F8F4000000000FB7110C00000000050ABA1BF0000000000408FC000000000ED7110C00000000050B4A1BF0C00000013000000C20C00003C00000006000000020000000000000000408FC000000000ED7110C00000000050B4A1BF0000000000408FC000000000091311C000000000D410C1BF0C00000013000000
310
CA0C00003C0000000600000002000000000000E0FF3F8F4000000000326E0FC0000000000000D9BE0000000000408FC0000000000A6E0FC000000000009014BF0C00000013000000D20C00003C00000006000000020000000000000000408FC0000000000A6E0FC000000000009014BF0000000000408FC000000000ED7110
310
C00000000050B4A1BF0C00000013000000DA0C00003C0000000600000002000000000000E0FF3F8F4000000000000008BF000000000000DABE0000000000408FC0000000000000063F0000000000A014BF0C00000013000000E20C00003C00000006000000020000000000000000408FC0000000000000063F0000000000A0
310
14BF0000000000408FC0000000000A6E0FC000000000009014BF0C00000013000000EA0C00003C00000006000000020000000000000000408FC0000000000000D03E000000E0A39927C00000000000408FC0000000000000063F0000000000A014BF0C00000013000000F20C00003C00000006000000020000000000000000
310
408FC0000000407B3349C000000000AD00E0BF0000000000408FC0000000C097994AC0000000A0150018C00C00000013000000FA0C00003C00000006000000020000000000000000408FC00000004024514FC000000080A900E0BF0000000000408FC0000000C097994AC0000000A0150018C00C00000013000000020D0000
310
3C00000006000000020000000000000000408FC0000000000000D03E000000E0A39927C00000000000408FC0000000000A6E0FC000000000009014BF0C000000130000000A0D00003C00000006000000020000000000000000408FC000000000006E9BBF000000E0D2CC27C00000000000408FC000000000ED7110C0000000
310
0050B4A1BF0C00000013000000120D00003C00000006000000020000000000000000408FC000000000409BB9BF0000002053F227C00000000000408FC000000000091311C000000000D410C1BF0C000000130000001A0D00003C00000006000000020000000000000000408FC0000000008099C9BF000000E0090028C00000
310
000000408FC0000000001B8411C0000000008A17D2BF0C00000013000000220D00003C00000006000000020000000000000000408FC0000000008099C9BF000000E0090028C00000000000408FC000000000AD4812C000000000C506E3BF0C000000130000002A0D00003C00000006000000020000000000000000408FC000
310
0000008099C9BF000000E0090028C00000000000408FC000000000C14913C000000000558EEBBF0C00000013000000320D00003C00000006000000020000000000000000408FC0000000008099C9BF000000E0090028C00000000000408FC000000000E97C14C0000000808224F1BF0C000000130000003A0D00003C000000
310
06000000020000000000000000408FC0000000008099C9BF000000E0090028C00000000000408FC0000000001BD515C0000000801A77F3BF0C00000013000000420D00003C00000006000000020000000000000000408FC0000000008099C9BF000000E0090028C00000000000408FC000000000834417C000000080DAA6F4
310
BF0C000000130000004A0D00003C00000006000000020000000000000000408FC0000000008099C9BF000000E0090028C00000000000408FC0000000006F1128C0000000A0270915C00C00000013000000520D00003C00000006000000020000000000000000408FC0000000008099C9BF000000E0090028C0000000000040
310
8FC000000000FAFF27C0000000A0140014C00C000000130000005A0D00003C00000006000000020000000000000000408FC0000000006FBB18C000000080DAA6F4BF0000000000408FC000000000FAFF27C0000000A0140014C00C00000013000000620D00003C00000006000000020000000000000000408FC00000000080
310
99C9BF000000E0090028C00000000000408FC000000080904428C0000000A0080016C00C000000130000006A0D00003C00000006000000020000000000000000408FC0000000008099C9BF000000E0090028C00000000000408FC000000000F09528C0000000A028D416C00C00000013000000720D00003C00000006000000
310
020000000000000000408FC0000000008099C9BF000000E0090028C00000000000408FC000000000000029C0000000A0E77617C00C000000130000007A0D00003C00000006000000020000000000000000408FC0000000008099C9BF000000E0090028C00000000000408FC000000080707B29C0000000A02ADD17C00C0000
310
0013000000820D00003C00000006000000020000000000000000408FC0000000008099C9BF000000E0090028C00000000000408FC000000000FAFF29C0000000A0140018C00C000000130000008A0D00003C00000006000000020000000000000000408FC000000000008E1FC00000000048B4A1BF0000000000408FC00000
310
00001B4F27C000000000A02899BF0C00000013000000920D00003C00000006000000020000000000000000408FC000000000E5EC1EC000000000D210C1BF0000000000408FC000000080749627C000000000A878B8BF0C000000130000009A0D00003C00000006000000020000000000000000408FC000000000D27B1EC000
310
0000008917D2BF0000000000408FC00000000013CF27C000000000F463CABF0C00000013000000A20D00003C00000006000000020000000000000000408FC0000000003FB71DC000000080C406E3BF0000000000408FC00000000070F327C0000000002A1DD6BF0C00000013000000AA0D00003C0000000600000002000000
310
0000000000408FC0000000003FB71DC000000080C406E3BF0000000000408FC000000000FAFF27C000000000A500E0BF0C00000013000000B20D00003C00000006000000020000000000000000408FC00000000006831BC0000000008124F1BF0000000000408FC000000000FAFF27C0000000A0140014C00C000000130000
310
00BA0D00003C00000006000000020000000000000000408FC000000000FAFF27C0000000A0140014C00000000000408FC0000000002CB61CC000000080548EEBBF0C00000013000000C20D00003C00000006000000020000000000000000408FC000000000D72A1AC0000000601A77F3BF0000000000408FC000000000FAFF
310
27C0000000A0140014C00C00000013000000CA0D00003C00000006000000020000000000000000408FC00000008064664AC0000000000C0028C00000000000408FC000000000FEFF41C0000000A0140018C00C00000013000000D20D00003C00000006000000020000000000000000408FC000000040FE7F44C00000008014
310
0018C00000000000408FC00000008064664AC0000000000C0028C00C00000013000000DA0D00003C00000006000000020000000000000000408FC000000040FE7F44C000000080140018C00000000000408FC000000000FEFF41C0000000A0140018C00C00000013000000E20D00003C000000060000000200000000000000
310
00408FC000000080202142C0000000C02ADD17C00000000000408FC0000000C0DB5E44C0000000802ADD17C00C00000013000000EA0D00003C00000006000000020000000000000000408FC0000000C0FF3F44C000000080E77617C00000000000408FC000000080FC3F42C0000000C0E77617C00C00000013000000F20D00
310
003C00000006000000020000000000000000408FC000000080805A42C0000000C028D416C00000000000408FC0000000807B2544C00000008028D416C00C00000013000000FA0D00003C00000006000000020000000000000000408FC0000000C0231144C000000080080016C00000000000408FC000000080D86E42C00000
310
00C0080016C00C00000013000000020E00003C00000006000000020000000000000000408FC0000000405B0444C000000080270915C00000000000408FC0000000C0A07B42C0000000C0270915C00C000000130000000A0E00003C00000006000000020000000000000000408FC000000000FE7F42C0000000C0140014C000
310
00000000408FC000000000FEFF43C000000080140014C00C00000013000000120E00003C00000006000000020000000000000000408FC0000000A0FE7F42C0000000405100F0BF0000000000408FC0000000A0FEFF43C0000000005100F0BF0C000000130000001A0E00003C00000006000000020000000000000000408FC0
310
00000020218342C000000000950EEBBF0000000000408FC000000040DCFC43C000000080940EEBBF0C00000013000000220E00003C00000006000000020000000000000000408FC000000060388C42C000000000FD98E6BF0000000000408FC0000000E0C4F343C000000080FC98E6BF0C000000130000002A0E00003C0000
310
0006000000020000000000000000408FC0000000409DE543C000000080140FE3BF0000000000408FC000000000609A42C000000000150FE3BF0C00000013000000320E00003C00000006000000020000000000000000408FC00000006036AC42C00000000045C9E0BF0000000000408FC000000000C7D343C00000008044C9
310
E0BF0C000000130000003A0E00003C00000006000000020000000000000000408FC0000000C05D2647C0000000A0140018C00000000000408FC00000008030734AC00000000055F227C00C00000013000000420E00003C00000006000000020000000000000000408FC0000000C0554547C0000000A0A4E117C00000000000
310
408FC00000008030734AC00000000055F227C00C000000130000004A0E00003C00000006000000020000000000000000408FC000000040907C4AC000000000D5CC27C00000000000408FC000000080736247C0000000A03D8817C00C00000013000000520E00003C00000006000000020000000000000000408FC000000040
310
907C4AC000000000D5CC27C00000000000408FC000000000057C47C0000000A005F916C00C000000130000005A0E00003C00000006000000020000000000000000408FC000000040FE7F4AC000000080A59927C00000000000408FC0000000C07A9047C0000000C0B73C16C00C00000013000000620E00003C000000060000
310
00020000000000000000408FC000000040FE7F4AC000000080A59927C00000000000408FC000000080A59E47C0000000C04F5E15C00C000000130000006A0E00003C00000006000000020000000000000000408FC000000040FE7F4AC0000000A0E2CC18C00000000000408FC000000080EB4248C000000060820EFDBF0C00
310
000013000000720E00003C00000006000000020000000000000000408FC000000040FE7F4AC0000000A0E2CC18C00000000000408FC000000040C75548C0000000606E00F8BF0C000000130000007A0E00003C00000006000000020000000000000000408FC0000000006C834AC0000000A0836618C00000000000408FC000
310
0000C0606F48C000000060766EF3BF0C00000013000000820E00003C00000006000000020000000000000000408FC0000000006C834AC0000000A0836618C00000000000408FC000000040EC8E48C0000000001DFAEEBF0C000000130000008A0E00003C00000006000000020000000000000000408FC000000000CC8C4AC0
310
000000A0841B18C00000000000408FC0000000C07CB348C0000000008D93E8BF0C00000013000000920E00003C00000006000000020000000000000000408FC000000000CC8C4AC0000000A0841B18C00000000000408FC000000000EBDB48C000000000EDDCE3BF0C000000130000009A0E00003C00000006000000020000
310
000000000000408FC0000000C097994AC0000000A0150018C00000000000408FC0000000C0070749C000000000A5F9E0BF0C00000013000000A20E00003C00000006000000020000000000000000408FC0000000801AAA4FC000000000F0F59EBF0000000000408FC0000000E01EC750C000000000D0B4A1BF0C0000001300
310
0000AA0E00003C00000006000000020000000000000000408FC0000000C0DA964FC0000000007CF7BDBF0000000000408FC00000008030D150C000000000F410C1BF0C00000013000000B20E00003C00000006000000020000000000000000408FC00000004091884FC0000000004F01D0BF0000000000408FC0000000C041
310
D850C0000000009A17D2BF0C00000013000000BA0E00003C00000006000000020000000000000000408FC0000000008BE450C000000000CA06E3BF0000000000408FC0000000C0477A4FC000000000C384D8BF0C00000013000000C20E00003C00000006000000020000000000000000408FC0000000409CF450C000000000
310
5A8EEBBF0000000000408FC00000000008674FC0000000004313DEBF0C00000013000000CA0E00003C00000006000000020000000000000000408FC00000004024514FC000000080A900E0BF0000000000408FC000000080CE0751C0000000808624F1BF0C00000013000000D20E00003C0000000600000002000000000000
310
0000408FC000000080CE0751C0000000808624F1BF0000000000408FC0000000C097994AC0000000A0150018C00C00000013000000DA0E00003C00000006000000020000000000000000408FC0000000C097994AC0000000A0150018C00000000000408FC0000000C0511D51C0000000801E77F3BF0C00000013000000E20E
310
00003C00000006000000020000000000000000408FC0000000C097994AC0000000A0150018C00000000000408FC000000040483451C000000080DEA6F4BF0C00000013000000EA0E00003C00000006000000020000000000000000408FC000000000B74B51C000000060DEA6F4BF0000000000408FC00000000033B352C000
310
0000A0150018C00C00000013000000F20E00003C00000006000000020000000000000000408FC000000080AD6251C0000000201E77F3BF0000000000408FC00000000033B352C0000000A0150018C00C00000013000000FA0E00003C00000006000000020000000000000000408FC000000080307851C0000000408524F1BF
310
0000000000408FC00000000099B952C0000000A0A6E417C00C00000013000000020F00003C00000006000000020000000000000000408FC000000000638B51C0000000005D8EEBBF0000000000408FC00000000099B952C0000000A0A6E417C00C000000130000000A0F00003C00000006000000020000000000000000408F
310
C000000040749B51C000000000CD06E3BF0000000000408FC00000000049BE52C0000000A0A79917C00C00000013000000120F00003C00000006000000020000000000000000408FC00000000049BE52C0000000A0A79917C00000000000408FC000000080BDA751C0000000009A17D2BF0C000000130000001A0F00003C00
310
000006000000020000000000000000408FC0000000C0CEAE51C000000000F410C1BF0000000000408FC0000000C0FFBF52C0000000A0483317C00C00000013000000220F00003C00000006000000020000000000000000408FC000000080E0B851C000000000D0B4A1BF0000000000408FC0000000C0FFBF52C0000000A048
310
3317C00C000000130000002A0F00003C00000006000000020000000000000000408FC0000000C0FFBF52C0000000A0483317C00000000000408FC0000000008FC451C00000000000A015BF
100
AcDbSubDMesh
 71
     2
 72
     0
 91
        0
 92
      228
 10
999.9999389648436
 20
-53.20005035400391
 30
-6.000010013580322
 10
999.9999389648436
 20
-62.634033203125
 30
-0.5000083446502686
 10
999.9999389648436
 20
-50.40230560302735
 30
-0.5000100135803223
 10
999.9999389648436
 20
-53.10008239746093
 30
-6.026800632476806
 10
999.9999389648436
 20
-53.02684020996093
 30
-6.100039005279541
 10
999.9999389648436
 20
-53.00005340576172
 30
-6.200010776519775
 10
999.9999389648436
 20
-53.00005340576172
 30
-11.80002212524414
 10
999.9999389648436
 20
-52.97325897216797
 30
-11.89999389648437
 10
999.9999389648436
 20
-52.9000244140625
 30
-11.97323226928711
 10
999.9999389648436
 20
-52.800048828125
 30
-12.00002288818359
 10
999.9999389648436
 20
-50.0550308227539
 30
-0.5304017066955567
 10
999.9999389648436
 20
-74.80001831054687
 30
-6.000010013580322
 10
999.9999389648436
 20
-62.80504608154297
 30
-0.4698569774627686
 10
999.9999389648436
 20
-62.95542907714843
 30
-0.3830306529998779
 10
999.9999389648436
 20
-63.06704711914062
 30
-0.2500112056732178
 10
999.9999389648436
 20
-63.17866516113281
 30
-0.1169850826263428
 10
999.9999389648436
 20
-63.32904815673828
 30
-0.0301625728607178
 10
999.9999389648436
 20
-63.50005340576172
 30
-0.0000097751617432
 10
999.9999389648436
 20
-67.82209777832031
 30
-0.8610544204711914
 10
999.9999389648436
 20
-66.92879486083985
 30
-0.0000100135803223
 10
999.9999389648436
 20
-67.571044921875
 30
-0.5945062637329102
 10
999.9999389648436
 20
-67.11131286621093
 30
-0.0345139503479004
 10
999.9999389648436
 20
-67.26864624023438
 30
-0.1332612037658691
 10
999.9999389648436
 20
-67.37907409667968
 30
-0.2826218605041504
 10
999.9999389648436
 20
-68.12203979492188
 30
-1.071344852447509
 10
999.9999389648436
 20
-68.45817565917968
 30
-1.216509342193603
 10
999.9999389648436
 20
-68.81697082519531
 30
-1.290670871734619
 10
999.9999389648436
 20
-69.18310546875
 30
-1.290670752525329
 10
999.9999389648436
 20
-69.54190063476563
 30
-1.216508984565734
 10
999.9999389648436
 20
-69.87802124023438
 30
-1.071343660354614
 10
999.9999389648436
 20
-70.177978515625
 30
-0.861055850982666
 10
999.9999389648436
 20
-70.42903137207031
 30
-0.5945076942443848
 10
999.9999389648436
 20
-70.62100219726563
 30
-0.2826218605041504
 10
999.9999389648436
 20
-70.73143005371093
 30
-0.1332612037658691
 10
999.9999389648436
 20
-70.88873291015625
 30
-0.0345139503479004
 10
999.9999389648436
 20
-71.07125854492188
 30
-0.0000100135803223
 10
999.9999389648436
 20
-75.00001525878906
 30
-5.800013065338134
 10
999.9999389648436
 20
-75.00001525878906
 30
-0.0000100135803223
 10
999.9999389648436
 20
-74.97323608398438
 30
-5.899981021881103
 10
999.9999389648436
 20
-74.89999389648438
 30
-5.973223209381103
 10
999.9999389648436
 20
-12.74118041992187
 30
-5.9659104347229
 10
999.9999389648436
 20
-0.2000389099121094
 30
-12.00000858306885
 10
999.9999389648436
 20
-13.00004196166992
 30
-6.000006198883056
 10
999.9999389648436
 20
-36.00003814697266
 30
-6.000010013580322
 10
999.9999389648436
 20
-36.2588996887207
 30
-5.965910911560058
 10
999.9999389648436
 20
-36.49999237060547
 30
-5.866049766540527
 10
999.9999389648436
 20
-36.70714569091797
 30
-5.707114219665527
 10
999.9999389648436
 20
-36.86607742309571
 30
-5.499960899353027
 10
999.9999389648436
 20
-36.9659423828125
 30
-5.258872032165527
 10
999.9999389648436
 20
-37.00003814697266
 30
-5.000006675720214
 10
999.9999389648436
 20
-40.50008392333984
 30
-5.86604881286621
 10
999.9999389648436
 20
-40.7411766052246
 30
-5.965909957885742
 10
999.9999389648436
 20
-41.00003814697266
 30
-6.000005722045898
 10
999.9999389648436
 20
-46.29984283447265
 30
-6.000006198883056
 10
999.9999389648436
 20
-46.54179382324218
 30
-5.970285892486572
 10
999.9999389648436
 20
-46.7692642211914
 30
-5.882978916168212
 10
999.9999389648436
 20
-46.96901702880859
 30
-5.743116855621337
 10
999.9999389648436
 20
-47.12885284423828
 30
-5.559222221374511
 10
999.9999389648436
 20
-47.23954010009765
 30
-5.342032432556152
 10
999.9999389648436
 20
-48.52291870117188
 30
-1.815969824790954
 10
999.9999389648436
 20
-48.67025756835937
 30
-1.500032782554626
 10
999.9999389648436
 20
-48.87025451660156
 30
-1.214395880699157
 10
999.9999389648436
 20
-49.11669158935547
 30
-0.9679627418518066
 10
999.9999389648436
 20
-49.40235900878906
 30
-0.7679429054260254
 10
999.9999389648436
 20
-49.71821594238281
 30
-0.6206459999084473
 10
999.9999389648436
 20
-0.0000457763671875
 30
-0.0000061988830566
 10
999.9999389648436
 20
-0.1000709533691406
 30
-11.97321987152099
 10
999.9999389648436
 20
-3.92880630493164
 30
-0.0000059604644775
 10
999.9999389648436
 20
-4.822078704833984
 30
-0.8610520362854003
 10
999.9999389648436
 20
-5.122035980224609
 30
-1.071341037750244
 10
999.9999389648436
 20
-12.50008773803711
 30
-5.866049289703369
 10
999.9999389648436
 20
-0.0268287658691406
 30
-11.89997959136963
 10
999.9999389648436
 20
-0.0000419616699219
 30
-11.80000782012939
 10
999.9999389648436
 20
-4.571025848388671
 30
-0.5945038795471192
 10
999.9999389648436
 20
-4.111309051513671
 30
-0.0345101356506348
 10
999.9999389648436
 20
-4.268634796142578
 30
-0.1332573890686035
 10
999.9999389648436
 20
-4.37906265258789
 30
-0.2826180458068848
 10
999.9999389648436
 20
-5.45816421508789
 30
-1.216505527496337
 10
999.9999389648436
 20
-5.816959381103515
 30
-1.290667057037353
 10
999.9999389648436
 20
-6.183094024658203
 30
-1.290667057037353
 10
999.9999389648436
 20
-12.29293441772461
 30
-5.707113742828369
 10
999.9999389648436
 20
-6.541889190673828
 30
-1.216505408287048
 10
999.9999389648436
 20
-6.878028869628906
 30
-1.071339607238769
 10
999.9999389648436
 20
-7.177986145019531
 30
-0.8610517978668212
 10
999.9999389648436
 20
-7.429039001464843
 30
-0.5945036411285401
 10
999.9999389648436
 20
-7.62100601196289
 30
-0.2826178073883056
 10
999.9999389648436
 20
-7.731430053710937
 30
-0.1332571506500244
 10
999.9999389648436
 20
-7.888759613037109
 30
-0.0345098972320557
 10
999.9999389648436
 20
-12.13400268554687
 30
-5.499960422515869
 10
999.9999389648436
 20
-8.071273803710937
 30
-0.0000059604644775
 10
999.9999389648436
 20
-12.00004196166992
 30
-5.000006198883056
 10
999.9999389648436
 20
-11.50004196166992
 30
-0.0000061988830566
 10
999.9999389648436
 20
-12.03413772583008
 30
-5.258871555328369
 10
999.9999389648436
 20
-11.65459060668945
 30
-0.0244965553283692
 10
999.9999389648436
 20
-11.7939453125
 30
-0.0955185890197754
 10
999.9999389648436
 20
-11.9045295715332
 30
-0.2061028480529785
 10
999.9999389648436
 20
-11.97555160522461
 30
-0.345461368560791
 10
999.9999389648436
 20
-12.00004196166992
 30
-0.5000061988830567
 10
999.9999389648436
 20
-40.1339988708496
 30
-5.49995994567871
 10
999.9999389648436
 20
-37.00005340576172
 30
-1.000008821487426
 10
999.9999389648436
 20
-40.29293060302734
 30
-5.70711326599121
 10
999.9999389648436
 20
-37.02454376220703
 30
-0.845461368560791
 10
999.9999389648436
 20
-37.09556579589844
 30
-0.7061028480529786
 10
999.9999389648436
 20
-37.20615386962891
 30
-0.5955185890197754
 10
999.9999389648436
 20
-37.34550476074219
 30
-0.5244965553283692
 10
999.9999389648436
 20
-37.50005340576172
 30
-0.5000100135803223
 10
999.9999389648436
 20
-40.00003814697265
 30
-5.000005722045898
 10
999.9999389648436
 20
-39.50004196166992
 30
-0.5000061988830567
 10
999.9999389648436
 20
-40.03413391113281
 30
-5.25887107849121
 10
999.9999389648436
 20
-39.65459060668946
 30
-0.5244963169097901
 10
999.9999389648436
 20
-39.7939453125
 30
-0.5955183506011963
 10
999.9999389648436
 20
-39.904541015625
 30
-0.7061026096343995
 10
999.9999389648436
 20
-39.97556304931641
 30
-0.8454611301422119
 10
999.9999389648436
 20
-40.00005340576172
 30
-1.000004768371582
 10
-1000.0
 20
-62.63391876220703
 30
-0.5000808238983155
 10
-1000.0
 20
-50.40219879150391
 30
-0.5000824928283692
 10
-1000.0
 20
0.0000038146972656
 30
-11.80007839202881
 10
-1000.0
 20
0.0000419616699219
 30
-0.0000786781311035
 10
-1000.0
 20
-3.928730010986328
 30
-0.0000784397125244
 10
-1000.0
 20
-0.0267868041992188
 30
-11.90004634857178
 10
-1000.0
 20
-0.1000251770019531
 30
-11.97329044342041
 10
-1000.0
 20
-0.1999969482421875
 30
-12.00007534027099
 10
-1000.0
 20
-4.379009246826171
 30
-0.282686710357666
 10
-1000.0
 20
-4.822025299072265
 30
-0.8611245155334472
 10
-1000.0
 20
-5.458110809326171
 30
-1.216578006744384
 10
-1000.0
 20
-5.816905975341796
 30
-1.290735721588134
 10
-1000.0
 20
-12.03404998779297
 30
-5.25894021987915
 10
-1000.0
 20
-6.183040618896484
 30
-1.290735721588134
 10
-1000.0
 20
-12.13391494750976
 30
-5.500032901763916
 10
-1000.0
 20
-12.2928466796875
 30
-5.707186222076416
 10
-1000.0
 20
-12.5
 30
-5.86611795425415
 10
-1000.0
 20
-12.99995422363281
 30
-6.000078678131103
 10
-1000.0
 20
-8.071186065673828
 30
-0.0000784397125244
 10
-1000.0
 20
-11.49995422363281
 30
-0.0000786781311035
 10
-1000.0
 20
-7.428951263427734
 30
-0.594576120376587
 10
-1000.0
 20
-11.9754638671875
 30
-0.3455300331115723
 10
-1000.0
 20
-6.877952575683593
 30
-1.071412086486816
 10
-1000.0
 20
-6.541835784912109
 30
-1.216577887535095
 10
-1000.0
 20
-40.99994659423828
 30
-6.000078201293945
 10
-1000.0
 20
-36.25880432128906
 30
-5.965983390808105
 10
-1000.0
 20
-40.49999237060546
 30
-5.866117477416992
 10
-1000.0
 20
-40.13390350341796
 30
-5.500032424926757
 10
-1000.0
 20
-40.0340347290039
 30
-5.258939743041992
 10
-1000.0
 20
-36.99993896484375
 30
-5.000079154968261
 10
-1000.0
 20
-36.99995803833008
 30
-1.000077486038208
 10
-1000.0
 20
-39.99995803833008
 30
-1.000077247619628
 10
-1000.0
 20
-37.0954704284668
 30
-0.7061753273010254
 10
-1000.0
 20
-39.90444564819336
 30
-0.7061750888824463
 10
-1000.0
 20
-39.79386138916016
 30
-0.5955908298492432
 10
-1000.0
 20
-37.34540939331055
 30
-0.5245690345764161
 10
-1000.0
 20
-37.49995803833008
 30
-0.5000786781311036
 10
-1000.0
 20
-39.49995803833008
 30
-0.5000786781311036
 10
-1000.0
 20
-46.29973602294922
 30
-6.000078678131103
 10
-1000.0
 20
-46.54167938232421
 30
-5.970354557037353
 10
-1000.0
 20
-52.97315216064453
 30
-11.90006256103515
 10
-1000.0
 20
-46.76914978027343
 30
-5.883047580718994
 10
-1000.0
 20
-46.96890258789062
 30
-5.743185520172119
 10
-1000.0
 20
-52.99994659423828
 30
-11.80009078979492
 10
-1000.0
 20
-47.23942565917968
 30
-5.342101097106933
 10
-1000.0
 20
-52.99994659423828
 30
-6.200083255767822
 10
-1000.0
 20
-53.0267333984375
 30
-6.100111484527587
 10
-1000.0
 20
-63.32893371582031
 30
-0.0302350521087647
 10
-1000.0
 20
-66.92874145507812
 30
-0.0000824928283691
 10
-1000.0
 20
-67.11125946044922
 30
-0.0345826148986817
 10
-1000.0
 20
-63.17855072021484
 30
-0.1170575618743896
 10
-1000.0
 20
-67.26858520507812
 30
-0.1333298683166504
 10
-1000.0
 20
-63.06693267822265
 30
-0.250079870223999
 10
-1000.0
 20
-67.57098388671875
 30
-0.5945787429809571
 10
-1000.0
 20
-67.82203674316406
 30
-0.8611268997192382
 10
-1000.0
 20
-68.12197875976562
 30
-1.071417331695556
 10
-1000.0
 20
-69.18304443359375
 30
-1.29073941707611
 10
-1000.0
 20
-69.54183959960937
 30
-1.216581463813781
 10
-1000.0
 20
-70.17791748046875
 30
-0.8611283302307128
 10
-1000.0
 20
-70.42897033691406
 30
-0.5945801734924317
 10
-1000.0
 20
-74.97320556640625
 30
-5.90005350112915
 10
-1000.0
 20
-70.88870239257812
 30
-0.0345826148986817
 10
-1000.0
 20
-74.99998474121094
 30
-0.0000824928283691
 10
-1000.0
 20
-53.19994354248047
 30
-6.000082492828369
 10
-1000.0
 20
-4.111255645751953
 30
-0.034578800201416
 10
-1000.0
 20
-4.26858901977539
 30
-0.1333260536193848
 10
-1000.0
 20
-4.570972442626953
 30
-0.5945763587951661
 10
-1000.0
 20
-5.12198257446289
 30
-1.071413516998291
 10
-1000.0
 20
-11.99995422363281
 30
-5.000078678131103
 10
-1000.0
 20
-12.74109268188476
 30
-5.965982913970947
 10
-1000.0
 20
-7.888671875
 30
-0.0345785617828369
 10
-1000.0
 20
-11.65450286865234
 30
-0.024569034576416
 10
-1000.0
 20
-7.731342315673828
 30
-0.1333258152008057
 10
-1000.0
 20
-11.79385757446289
 30
-0.0955910682678223
 10
-1000.0
 20
-7.620918273925781
 30
-0.2826864719390869
 10
-1000.0
 20
-11.90444183349609
 30
-0.2061753273010254
 10
-1000.0
 20
-11.99995422363281
 30
-0.5000786781311036
 10
-1000.0
 20
-7.177902221679687
 30
-0.8611242771148681
 10
-1000.0
 20
-52.79994201660156
 30
-12.00009155273437
 10
-1000.0
 20
-35.99993896484375
 30
-6.000078678131103
 10
-1000.0
 20
-40.74108123779296
 30
-5.965982437133789
 10
-1000.0
 20
-36.49989318847656
 30
-5.866118431091308
 10
-1000.0
 20
-36.70704650878906
 30
-5.707186698913574
 10
-1000.0
 20
-40.29283142089844
 30
-5.707185745239257
 10
-1000.0
 20
-36.86598205566407
 30
-5.500033378601074
 10
-1000.0
 20
-36.96584320068359
 30
-5.258940696716308
 10
-1000.0
 20
-39.99993896484375
 30
-5.000078201293945
 10
-1000.0
 20
-37.02444839477539
 30
-0.8455300331115722
 10
-1000.0
 20
-39.97547149658203
 30
-0.8455297946929931
 10
-1000.0
 20
-37.2060546875
 30
-0.5955910682678223
 10
-1000.0
 20
-39.65451049804688
 30
-0.524568796157837
 10
-1000.0
 20
-52.89991760253906
 30
-11.97330474853515
 10
-1000.0
 20
-47.12874603271484
 30
-5.559294700622558
 10
-1000.0
 20
-48.52281188964844
 30
-1.816042304039001
 10
-1000.0
 20
-48.6701431274414
 30
-1.500105261802673
 10
-1000.0
 20
-48.87014007568359
 30
-1.214468359947204
 10
-1000.0
 20
-49.11658477783203
 30
-0.9680314064025878
 10
-1000.0
 20
-53.0999755859375
 30
-6.026873111724853
 10
-1000.0
 20
-49.4022445678711
 30
-0.7680115699768067
 10
-1000.0
 20
-49.71810913085938
 30
-0.6207184791564942
 10
-1000.0
 20
-50.05492401123047
 30
-0.5304741859436036
 10
-1000.0
 20
-63.49995422363281
 30
-0.00008225440979
 10
-1000.0
 20
-67.37901306152344
 30
-0.2826905250549316
 10
-1000.0
 20
-62.95531463623047
 30
-0.3831031322479248
 10
-1000.0
 20
-62.804931640625
 30
-0.4699256420135498
 10
-1000.0
 20
-68.45811462402344
 30
-1.21658182144165
 10
-1000.0
 20
-68.81690979003906
 30
-1.2907395362854
 10
-1000.0
 20
-74.79998779296875
 30
-6.000082492828369
 10
-1000.0
 20
-69.87796020507812
 30
-1.071416139602661
 10
-1000.0
 20
-74.89996337890625
 30
-5.973291873931884
 10
-1000.0
 20
-70.62094116210937
 30
-0.2826905250549316
 10
-1000.0
 20
-70.73136901855469
 30
-0.1333298683166504
 10
-1000.0
 20
-74.99998474121094
 30
-5.800081729888916
 10
-1000.0
 20
-71.07122802734375
 30
-0.0000824928283691
 93
     1232
 90
        3
 90
        1
 90
        0
 90
        2
 90
        3
 90
       72
 90
       65
 90
       67
 90
        4
 90
       71
 90
       72
 90
       67
 90
       74
 90
        4
 90
       66
 90
       71
 90
       74
 90
       75
 90
        4
 90
       41
 90
       66
 90
       75
 90
       76
 90
        3
 90
       41
 90
       76
 90
       73
 90
        3
 90
       41
 90
       73
 90
       68
 90
        3
 90
       41
 90
       68
 90
       69
 90
        3
 90
       41
 90
       69
 90
       77
 90
        3
 90
       41
 90
       77
 90
       78
 90
        3
 90
       41
 90
       90
 90
       92
 90
        4
 90
       41
 90
       78
 90
       79
 90
       90
 90
        3
 90
       41
 90
       92
 90
       88
 90
        3
 90
       41
 90
       88
 90
       80
 90
        3
 90
       41
 90
       80
 90
       70
 90
        3
 90
       41
 90
       70
 90
       40
 90
        3
 90
       41
 90
       40
 90
       42
 90
        4
 90
       87
 90
       89
 90
       91
 90
       93
 90
        4
 90
       86
 90
       87
 90
       93
 90
       94
 90
        4
 90
       85
 90
       86
 90
       94
 90
       95
 90
        4
 90
       84
 90
       85
 90
       95
 90
       96
 90
        3
 90
       84
 90
       96
 90
       97
 90
        3
 90
       82
 90
       83
 90
       90
 90
        4
 90
       83
 90
       84
 90
       97
 90
       90
 90
        3
 90
       81
 90
       82
 90
       90
 90
        3
 90
       90
 90
       79
 90
       81
 90
        4
 90
        9
 90
       41
 90
       42
 90
       43
 90
        3
 90
        9
 90
       43
 90
       52
 90
        4
 90
       43
 90
       44
 90
       51
 90
       52
 90
        4
 90
       44
 90
       45
 90
       50
 90
       51
 90
        4
 90
       45
 90
       46
 90
      100
 90
       50
 90
        4
 90
       46
 90
       47
 90
       98
 90
      100
 90
        4
 90
       47
 90
       48
 90
      108
 90
       98
 90
        4
 90
       48
 90
       49
 90
      106
 90
      108
 90
        4
 90
       49
 90
       99
 90
      113
 90
      106
 90
        4
 90
       99
 90
      101
 90
      112
 90
      113
 90
        4
 90
      101
 90
      102
 90
      111
 90
      112
 90
        4
 90
      102
 90
      103
 90
      110
 90
      111
 90
        4
 90
      103
 90
      104
 90
      109
 90
      110
 90
        4
 90
      104
 90
      105
 90
      107
 90
      109
 90
        4
 90
        8
 90
        9
 90
       52
 90
       53
 90
        3
 90
        8
 90
       53
 90
       54
 90
        4
 90
        7
 90
        8
 90
       54
 90
       55
 90
        3
 90
        7
 90
       55
 90
       56
 90
        4
 90
        6
 90
        7
 90
       56
 90
       57
 90
        3
 90
        6
 90
       57
 90
       58
 90
        4
 90
        5
 90
        6
 90
       58
 90
       59
 90
        3
 90
        5
 90
       59
 90
       60
 90
        4
 90
        4
 90
        5
 90
       60
 90
       61
 90
        3
 90
        4
 90
       61
 90
       62
 90
        4
 90
        3
 90
        4
 90
       62
 90
       63
 90
        3
 90
        3
 90
       63
 90
       64
 90
        4
 90
        0
 90
        3
 90
       64
 90
       10
 90
        3
 90
        0
 90
       10
 90
        2
 90
        4
 90
       16
 90
       17
 90
       19
 90
       21
 90
        4
 90
       15
 90
       16
 90
       21
 90
       22
 90
        4
 90
       14
 90
       15
 90
       22
 90
       23
 90
        4
 90
       13
 90
       14
 90
       23
 90
       20
 90
        4
 90
       12
 90
       13
 90
       20
 90
       18
 90
        4
 90
        1
 90
       12
 90
       18
 90
       24
 90
        3
 90
        1
 90
       24
 90
        0
 90
        3
 90
       24
 90
       25
 90
        0
 90
        3
 90
       25
 90
       26
 90
        0
 90
        4
 90
       26
 90
       27
 90
       11
 90
        0
 90
        3
 90
       27
 90
       28
 90
       11
 90
        4
 90
       28
 90
       29
 90
       39
 90
       11
 90
        4
 90
       30
 90
       31
 90
       38
 90
       39
 90
        3
 90
       29
 90
       30
 90
       39
 90
        3
 90
       31
 90
       32
 90
       38
 90
        4
 90
       32
 90
       33
 90
       36
 90
       38
 90
        3
 90
       34
 90
       35
 90
       36
 90
        3
 90
       35
 90
       37
 90
       36
 90
        3
 90
       33
 90
       34
 90
       36
 90
        4
 90
       72
 90
       71
 90
      119
 90
      116
 90
        4
 90
       71
 90
       66
 90
      120
 90
      119
 90
        4
 90
       66
 90
       41
 90
      121
 90
      120
 90
        4
 90
       41
 90
        9
 90
      192
 90
      121
 90
        4
 90
        9
 90
        8
 90
      205
 90
      192
 90
        4
 90
        8
 90
        7
 90
      154
 90
      205
 90
        4
 90
        7
 90
        6
 90
      157
 90
      154
 90
        4
 90
        6
 90
        5
 90
      159
 90
      157
 90
        4
 90
        5
 90
        4
 90
      160
 90
      159
 90
        4
 90
        4
 90
        3
 90
      211
 90
      160
 90
        4
 90
        3
 90
        0
 90
      177
 90
      211
 90
        4
 90
        0
 90
       11
 90
      221
 90
      177
 90
        4
 90
       11
 90
       39
 90
      223
 90
      221
 90
        4
 90
       39
 90
       38
 90
      174
 90
      223
 90
        4
 90
       38
 90
       36
 90
      226
 90
      174
 90
        4
 90
       36
 90
       37
 90
      176
 90
      226
 90
        4
 90
       37
 90
       35
 90
      227
 90
      176
 90
        4
 90
       35
 90
       34
 90
      175
 90
      227
 90
        4
 90
       34
 90
       33
 90
      225
 90
      175
 90
        4
 90
       33
 90
       32
 90
      224
 90
      225
 90
        4
 90
       32
 90
       31
 90
      173
 90
      224
 90
        4
 90
       31
 90
       30
 90
      172
 90
      173
 90
        4
 90
       30
 90
       29
 90
      222
 90
      172
 90
        4
 90
       29
 90
       28
 90
      171
 90
      222
 90
        4
 90
       28
 90
       27
 90
      170
 90
      171
 90
        4
 90
       27
 90
       26
 90
      220
 90
      170
 90
        4
 90
       26
 90
       25
 90
      219
 90
      220
 90
        4
 90
       25
 90
       24
 90
      169
 90
      219
 90
        4
 90
       24
 90
       18
 90
      168
 90
      169
 90
        4
 90
       18
 90
       20
 90
      167
 90
      168
 90
        4
 90
       20
 90
       23
 90
      216
 90
      167
 90
        4
 90
       23
 90
       22
 90
      165
 90
      216
 90
        4
 90
       22
 90
       21
 90
      163
 90
      165
 90
        4
 90
       21
 90
       19
 90
      162
 90
      163
 90
        4
 90
       19
 90
       17
 90
      215
 90
      162
 90
        4
 90
       17
 90
       16
 90
      161
 90
      215
 90
        4
 90
       16
 90
       15
 90
      164
 90
      161
 90
        4
 90
       15
 90
       14
 90
      166
 90
      164
 90
        4
 90
       14
 90
       13
 90
      217
 90
      166
 90
        4
 90
       13
 90
       12
 90
      218
 90
      217
 90
        4
 90
       12
 90
        1
 90
      114
 90
      218
 90
        4
 90
        1
 90
        2
 90
      115
 90
      114
 90
        4
 90
        2
 90
       10
 90
      214
 90
      115
 90
        4
 90
       10
 90
       64
 90
      213
 90
      214
 90
        4
 90
       64
 90
       63
 90
      212
 90
      213
 90
        4
 90
       63
 90
       62
 90
      210
 90
      212
 90
        4
 90
       62
 90
       61
 90
      209
 90
      210
 90
        4
 90
       61
 90
       60
 90
      208
 90
      209
 90
        4
 90
       60
 90
       59
 90
      207
 90
      208
 90
        4
 90
       59
 90
       58
 90
      158
 90
      207
 90
        4
 90
       58
 90
       57
 90
      206
 90
      158
 90
        4
 90
       57
 90
       56
 90
      156
 90
      206
 90
        4
 90
       56
 90
       55
 90
      155
 90
      156
 90
        4
 90
       55
 90
       54
 90
      153
 90
      155
 90
        4
 90
       54
 90
       53
 90
      152
 90
      153
 90
        4
 90
       53
 90
       52
 90
      138
 90
      152
 90
        4
 90
       52
 90
       51
 90
      194
 90
      138
 90
        4
 90
       51
 90
       50
 90
      140
 90
      194
 90
        4
 90
       50
 90
      100
 90
      197
 90
      140
 90
        4
 90
      100
 90
       98
 90
      141
 90
      197
 90
        4
 90
       98
 90
      108
 90
      142
 90
      141
 90
        4
 90
      108
 90
      106
 90
      200
 90
      142
 90
        4
 90
      106
 90
      113
 90
      145
 90
      200
 90
        4
 90
      113
 90
      112
 90
      202
 90
      145
 90
        4
 90
      112
 90
      111
 90
      147
 90
      202
 90
        4
 90
      111
 90
      110
 90
      148
 90
      147
 90
        4
 90
      110
 90
      109
 90
      204
 90
      148
 90
        4
 90
      109
 90
      107
 90
      151
 90
      204
 90
        4
 90
      107
 90
      105
 90
      150
 90
      151
 90
        4
 90
      105
 90
      104
 90
      149
 90
      150
 90
        4
 90
      104
 90
      103
 90
      203
 90
      149
 90
        4
 90
      103
 90
      102
 90
      146
 90
      203
 90
        4
 90
      102
 90
      101
 90
      201
 90
      146
 90
        4
 90
      101
 90
       99
 90
      144
 90
      201
 90
        4
 90
       99
 90
       49
 90
      143
 90
      144
 90
        4
 90
       49
 90
       48
 90
      199
 90
      143
 90
        4
 90
       48
 90
       47
 90
      198
 90
      199
 90
        4
 90
       47
 90
       46
 90
      196
 90
      198
 90
        4
 90
       46
 90
       45
 90
      195
 90
      196
 90
        4
 90
       45
 90
       44
 90
      139
 90
      195
 90
        4
 90
       44
 90
       43
 90
      193
 90
      139
 90
        4
 90
       43
 90
       42
 90
      131
 90
      193
 90
        4
 90
       42
 90
       40
 90
      183
 90
      131
 90
        4
 90
       40
 90
       70
 90
      130
 90
      183
 90
        4
 90
       70
 90
       80
 90
      129
 90
      130
 90
        4
 90
       80
 90
       88
 90
      128
 90
      129
 90
        4
 90
       88
 90
       92
 90
      126
 90
      128
 90
        4
 90
       92
 90
       90
 90
      182
 90
      126
 90
        4
 90
       90
 90
       97
 90
      190
 90
      182
 90
        4
 90
       97
 90
       96
 90
      135
 90
      190
 90
        4
 90
       96
 90
       95
 90
      189
 90
      135
 90
        4
 90
       95
 90
       94
 90
      187
 90
      189
 90
        4
 90
       94
 90
       93
 90
      185
 90
      187
 90
        4
 90
       93
 90
       91
 90
      133
 90
      185
 90
        4
 90
       91
 90
       89
 90
      132
 90
      133
 90
        4
 90
       89
 90
       87
 90
      184
 90
      132
 90
        4
 90
       87
 90
       86
 90
      186
 90
      184
 90
        4
 90
       86
 90
       85
 90
      188
 90
      186
 90
        4
 90
       85
 90
       84
 90
      134
 90
      188
 90
        4
 90
       84
 90
       83
 90
      191
 90
      134
 90
        4
 90
       83
 90
       82
 90
      136
 90
      191
 90
        4
 90
       82
 90
       81
 90
      137
 90
      136
 90
        4
 90
       81
 90
       79
 90
      127
 90
      137
 90
        4
 90
       79
 90
       78
 90
      125
 90
      127
 90
        4
 90
       78
 90
       77
 90
      124
 90
      125
 90
        4
 90
       77
 90
       69
 90
      181
 90
      124
 90
        4
 90
       69
 90
       68
 90
      123
 90
      181
 90
        4
 90
       68
 90
       73
 90
      180
 90
      123
 90
        4
 90
       73
 90
       76
 90
      122
 90
      180
 90
        4
 90
       76
 90
       75
 90
      179
 90
      122
 90
        4
 90
       75
 90
       74
 90
      178
 90
      179
 90
        4
 90
       74
 90
       67
 90
      118
 90
      178
 90
        4
 90
       67
 90
       65
 90
      117
 90
      118
 90
        4
 90
       65
 90
       72
 90
      116
 90
      117
 90
        3
 90
      114
 90
      115
 90
      177
 90
        3
 90
      116
 90
      118
 90
      117
 90
        4
 90
      119
 90
      178
 90
      118
 90
      116
 90
        4
 90
      120
 90
      179
 90
      178
 90
      119
 90
        4
 90
      121
 90
      122
 90
      179
 90
      120
 90
        3
 90
      121
 90
      180
 90
      122
 90
        3
 90
      121
 90
      123
 90
      180
 90
        3
 90
      121
 90
      181
 90
      123
 90
        3
 90
      121
 90
      124
 90
      181
 90
        3
 90
      121
 90
      125
 90
      124
 90
        3
 90
      121
 90
      126
 90
      182
 90
        4
 90
      121
 90
      182
 90
      127
 90
      125
 90
        3
 90
      121
 90
      128
 90
      126
 90
        3
 90
      121
 90
      129
 90
      128
 90
        3
 90
      121
 90
      130
 90
      129
 90
        3
 90
      121
 90
      183
 90
      130
 90
        3
 90
      121
 90
      131
 90
      183
 90
        4
 90
      184
 90
      185
 90
      133
 90
      132
 90
        4
 90
      186
 90
      187
 90
      185
 90
      184
 90
        4
 90
      188
 90
      189
 90
      187
 90
      186
 90
        4
 90
      134
 90
      135
 90
      189
 90
      188
 90
        3
 90
      134
 90
      190
 90
      135
 90
        3
 90
      136
 90
      182
 90
      191
 90
        4
 90
      191
 90
      182
 90
      190
 90
      134
 90
        3
 90
      137
 90
      182
 90
      136
 90
        3
 90
      182
 90
      137
 90
      127
 90
        4
 90
      192
 90
      193
 90
      131
 90
      121
 90
        3
 90
      192
 90
      138
 90
      193
 90
        4
 90
      193
 90
      138
 90
      194
 90
      139
 90
        4
 90
      139
 90
      194
 90
      140
 90
      195
 90
        4
 90
      195
 90
      140
 90
      197
 90
      196
 90
        4
 90
      196
 90
      197
 90
      141
 90
      198
 90
        4
 90
      198
 90
      141
 90
      142
 90
      199
 90
        4
 90
      199
 90
      142
 90
      200
 90
      143
 90
        4
 90
      143
 90
      200
 90
      145
 90
      144
 90
        4
 90
      144
 90
      145
 90
      202
 90
      201
 90
        4
 90
      201
 90
      202
 90
      147
 90
      146
 90
        4
 90
      146
 90
      147
 90
      148
 90
      203
 90
        4
 90
      203
 90
      148
 90
      204
 90
      149
 90
        4
 90
      149
 90
      204
 90
      151
 90
      150
 90
        4
 90
      205
 90
      152
 90
      138
 90
      192
 90
        3
 90
      205
 90
      153
 90
      152
 90
        4
 90
      154
 90
      155
 90
      153
 90
      205
 90
        3
 90
      154
 90
      156
 90
      155
 90
        4
 90
      157
 90
      206
 90
      156
 90
      154
 90
        3
 90
      157
 90
      158
 90
      206
 90
        4
 90
      159
 90
      207
 90
      158
 90
      157
 90
        3
 90
      159
 90
      208
 90
      207
 90
        4
 90
      160
 90
      209
 90
      208
 90
      159
 90
        3
 90
      160
 90
      210
 90
      209
 90
        4
 90
      211
 90
      212
 90
      210
 90
      160
 90
        3
 90
      211
 90
      213
 90
      212
 90
        4
 90
      177
 90
      214
 90
      213
 90
      211
 90
        3
 90
      177
 90
      115
 90
      214
 90
        4
 90
      161
 90
      163
 90
      162
 90
      215
 90
        4
 90
      164
 90
      165
 90
      163
 90
      161
 90
        4
 90
      166
 90
      216
 90
      165
 90
      164
 90
        4
 90
      217
 90
      167
 90
      216
 90
      166
 90
        4
 90
      218
 90
      168
 90
      167
 90
      217
 90
        4
 90
      114
 90
      169
 90
      168
 90
      218
 90
        3
 90
      114
 90
      177
 90
      169
 90
        3
 90
      169
 90
      177
 90
      219
 90
        3
 90
      219
 90
      177
 90
      220
 90
        4
 90
      220
 90
      177
 90
      221
 90
      170
 90
        3
 90
      170
 90
      221
 90
      171
 90
        4
 90
      171
 90
      221
 90
      223
 90
      222
 90
        4
 90
      172
 90
      223
 90
      174
 90
      173
 90
        3
 90
      222
 90
      223
 90
      172
 90
        3
 90
      173
 90
      174
 90
      224
 90
        4
 90
      224
 90
      174
 90
      226
 90
      225
 90
        3
 90
      175
 90
      226
 90
      227
 90
        3
 90
      227
 90
      226
 90
      176
 90
        3
 90
      225
 90
      226
 90
      175
 94
      486
 90
        0
 90
        1
 90
        0
 90
        2
 90
        1
 90
        2
 90
       65
 90
       72
 90
       65
 90
       67
 90
       67
 90
       72
 90
       71
 90
       72
 90
       67
 90
       74
 90
       71
 90
       74
 90
       66
 90
       71
 90
       74
 90
       75
 90
       66
 90
       75
 90
       41
 90
       66
 90
       75
 90
       76
 90
       41
 90
       76
 90
       73
 90
       76
 90
       41
 90
       73
 90
       68
 90
       73
 90
       41
 90
       68
 90
       68
 90
       69
 90
       41
 90
       69
 90
       69
 90
       77
 90
       41
 90
       77
 90
       77
 90
       78
 90
       41
 90
       78
 90
       41
 90
       90
 90
       90
 90
       92
 90
       41
 90
       92
 90
       78
 90
       79
 90
       79
 90
       90
 90
       88
 90
       92
 90
       41
 90
       88
 90
       80
 90
       88
 90
       41
 90
       80
 90
       70
 90
       80
 90
       41
 90
       70
 90
       40
 90
       70
 90
       40
 90
       41
 90
       40
 90
       42
 90
       41
 90
       42
 90
       87
 90
       89
 90
       89
 90
       91
 90
       91
 90
       93
 90
       87
 90
       93
 90
       86
 90
       87
 90
       93
 90
       94
 90
       86
 90
       94
 90
       85
 90
       86
 90
       94
 90
       95
 90
       85
 90
       95
 90
       84
 90
       85
 90
       95
 90
       96
 90
       84
 90
       96
 90
       96
 90
       97
 90
       84
 90
       97
 90
       82
 90
       83
 90
       83
 90
       90
 90
       82
 90
       90
 90
       83
 90
       84
 90
       90
 90
       97
 90
       81
 90
       82
 90
       81
 90
       90
 90
       79
 90
       81
 90
        9
 90
       41
 90
       42
 90
       43
 90
        9
 90
       43
 90
       43
 90
       52
 90
        9
 90
       52
 90
       43
 90
       44
 90
       44
 90
       51
 90
       51
 90
       52
 90
       44
 90
       45
 90
       45
 90
       50
 90
       50
 90
       51
 90
       45
 90
       46
 90
       46
 90
      100
 90
       50
 90
      100
 90
       46
 90
       47
 90
       47
 90
       98
 90
       98
 90
      100
 90
       47
 90
       48
 90
       48
 90
      108
 90
       98
 90
      108
 90
       48
 90
       49
 90
       49
 90
      106
 90
      106
 90
      108
 90
       49
 90
       99
 90
       99
 90
      113
 90
      106
 90
      113
 90
       99
 90
      101
 90
      101
 90
      112
 90
      112
 90
      113
 90
      101
 90
      102
 90
      102
 90
      111
 90
      111
 90
      112
 90
      102
 90
      103
 90
      103
 90
      110
 90
      110
 90
      111
 90
      103
 90
      104
 90
      104
 90
      109
 90
      109
 90
      110
 90
      104
 90
      105
 90
      105
 90
      107
 90
      107
 90
      109
 90
        8
 90
        9
 90
       52
 90
       53
 90
        8
 90
       53
 90
       53
 90
       54
 90
        8
 90
       54
 90
        7
 90
        8
 90
       54
 90
       55
 90
        7
 90
       55
 90
       55
 90
       56
 90
        7
 90
       56
 90
        6
 90
        7
 90
       56
 90
       57
 90
        6
 90
       57
 90
       57
 90
       58
 90
        6
 90
       58
 90
        5
 90
        6
 90
       58
 90
       59
 90
        5
 90
       59
 90
       59
 90
       60
 90
        5
 90
       60
 90
        4
 90
        5
 90
       60
 90
       61
 90
        4
 90
       61
 90
       61
 90
       62
 90
        4
 90
       62
 90
        3
 90
        4
 90
       62
 90
       63
 90
        3
 90
       63
 90
       63
 90
       64
 90
        3
 90
       64
 90
        0
 90
        3
 90
       10
 90
       64
 90
        0
 90
       10
 90
        2
 90
       10
 90
       16
 90
       17
 90
       17
 90
       19
 90
       19
 90
       21
 90
       16
 90
       21
 90
       15
 90
       16
 90
       21
 90
       22
 90
       15
 90
       22
 90
       14
 90
       15
 90
       22
 90
       23
 90
       14
 90
       23
 90
       13
 90
       14
 90
       20
 90
       23
 90
       13
 90
       20
 90
       12
 90
       13
 90
       18
 90
       20
 90
       12
 90
       18
 90
        1
 90
       12
 90
       18
 90
       24
 90
        1
 90
       24
 90
        0
 90
       24
 90
       24
 90
       25
 90
        0
 90
       25
 90
       25
 90
       26
 90
        0
 90
       26
 90
       26
 90
       27
 90
       11
 90
       27
 90
        0
 90
       11
 90
       27
 90
       28
 90
       11
 90
       28
 90
       28
 90
       29
 90
       29
 90
       39
 90
       11
 90
       39
 90
       30
 90
       31
 90
       31
 90
       38
 90
       38
 90
       39
 90
       30
 90
       39
 90
       29
 90
       30
 90
       31
 90
       32
 90
       32
 90
       38
 90
       32
 90
       33
 90
       33
 90
       36
 90
       36
 90
       38
 90
       34
 90
       35
 90
       35
 90
       36
 90
       34
 90
       36
 90
       35
 90
       37
 90
       36
 90
       37
 90
       33
 90
       34
 90
       71
 90
      119
 90
      116
 90
      119
 90
       72
 90
      116
 90
       66
 90
      120
 90
      119
 90
      120
 90
       41
 90
      121
 90
      120
 90
      121
 90
        9
 90
      192
 90
      121
 90
      192
 90
        8
 90
      205
 90
      192
 90
      205
 90
        7
 90
      154
 90
      154
 90
      205
 90
        6
 90
      157
 90
      154
 90
      157
 90
        5
 90
      159
 90
      157
 90
      159
 90
        4
 90
      160
 90
      159
 90
      160
 90
        3
 90
      211
 90
      160
 90
      211
 90
        0
 90
      177
 90
      177
 90
      211
 90
       11
 90
      221
 90
      177
 90
      221
 90
       39
 90
      223
 90
      221
 90
      223
 90
       38
 90
      174
 90
      174
 90
      223
 90
       36
 90
      226
 90
      174
 90
      226
 90
       37
 90
      176
 90
      176
 90
      226
 90
       35
 90
      227
 90
      176
 90
      227
 90
       34
 90
      175
 90
      175
 90
      227
 90
       33
 90
      225
 90
      175
 90
      225
 90
       32
 90
      224
 90
      224
 90
      225
 90
       31
 90
      173
 90
      173
 90
      224
 90
       30
 90
      172
 90
      172
 90
      173
 90
       29
 90
      222
 90
      172
 90
      222
 90
       28
 90
      171
 90
      171
 90
      222
 90
       27
 90
      170
 90
      170
 90
      171
 90
       26
 90
      220
 90
      170
 90
      220
 90
       25
 90
      219
 90
      219
 90
      220
 90
       24
 90
      169
 90
      169
 90
      219
 90
       18
 90
      168
 90
      168
 90
      169
 90
       20
 90
      167
 90
      167
 90
      168
 90
       23
 90
      216
 90
      167
 90
      216
 90
       22
 90
      165
 90
      165
 90
      216
 90
       21
 90
      163
 90
      163
 90
      165
 90
       19
 90
      162
 90
      162
 90
      163
 90
       17
 90
      215
 90
      162
 90
      215
 90
       16
 90
      161
 90
      161
 90
      215
 90
       15
 90
      164
 90
      161
 90
      164
 90
       14
 90
      166
 90
      164
 90
      166
 90
       13
 90
      217
 90
      166
 90
      217
 90
       12
 90
      218
 90
      217
 90
      218
 90
        1
 90
      114
 90
      114
 90
      218
 90
        2
 90
      115
 90
      114
 90
      115
 90
       10
 90
      214
 90
      115
 90
      214
 90
       64
 90
      213
 90
      213
 90
      214
 90
       63
 90
      212
 90
      212
 90
      213
 90
       62
 90
      210
 90
      210
 90
      212
 90
       61
 90
      209
 90
      209
 90
      210
 90
       60
 90
      208
 90
      208
 90
      209
 90
       59
 90
      207
 90
      207
 90
      208
 90
       58
 90
      158
 90
      158
 90
      207
 90
       57
 90
      206
 90
      158
 90
      206
 90
       56
 90
      156
 90
      156
 90
      206
 90
       55
 90
      155
 90
      155
 90
      156
 90
       54
 90
      153
 90
      153
 90
      155
 90
       53
 90
      152
 90
      152
 90
      153
 90
       52
 90
      138
 90
      138
 90
      152
 90
       51
 90
      194
 90
      138
 90
      194
 90
       50
 90
      140
 90
      140
 90
      194
 90
      100
 90
      197
 90
      140
 90
      197
 90
       98
 90
      141
 90
      141
 90
      197
 90
      108
 90
      142
 90
      141
 90
      142
 90
      106
 90
      200
 90
      142
 90
      200
 90
      113
 90
      145
 90
      145
 90
      200
 90
      112
 90
      202
 90
      145
 90
      202
 90
      111
 90
      147
 90
      147
 90
      202
 90
      110
 90
      148
 90
      147
 90
      148
 90
      109
 90
      204
 90
      148
 90
      204
 90
      107
 90
      151
 90
      151
 90
      204
 90
      105
 90
      150
 90
      150
 90
      151
 90
      104
 90
      149
 90
      149
 90
      150
 90
      103
 90
      203
 90
      149
 90
      203
 90
      102
 90
      146
 90
      146
 90
      203
 90
      101
 90
      201
 90
      146
 90
      201
 90
       99
 90
      144
 90
      144
 90
      201
 90
       49
 90
      143
 90
      143
 90
      144
 90
       48
 90
      199
 90
      143
 90
      199
 90
       47
 90
      198
 90
      198
 90
      199
 90
       46
 90
      196
 90
      196
 90
      198
 90
       45
 90
      195
 90
      195
 90
      196
 90
       44
 90
      139
 90
      139
 90
      195
 90
       43
 90
      193
 90
      139
 90
      193
 90
       42
 90
      131
 90
      131
 90
      193
 90
       40
 90
      183
 90
      131
 90
      183
 90
       70
 90
      130
 90
      130
 90
      183
 90
       80
 90
      129
 90
      129
 90
      130
 90
       88
 90
      128
 90
      128
 90
      129
 90
       92
 90
      126
 90
      126
 90
      128
 90
       90
 90
      182
 90
      126
 90
      182
 90
       97
 90
      190
 90
      182
 90
      190
 90
       96
 90
      135
 90
      135
 90
      190
 90
       95
 90
      189
 90
      135
 90
      189
 90
       94
 90
      187
 90
      187
 90
      189
 90
       93
 90
      185
 90
      185
 90
      187
 90
       91
 90
      133
 90
      133
 90
      185
 90
       89
 90
      132
 90
      132
 90
      133
 90
       87
 90
      184
 90
      132
 90
      184
 90
       86
 90
      186
 90
      184
 90
      186
 90
       85
 90
      188
 90
      186
 90
      188
 90
       84
 90
      134
 90
      134
 90
      188
 90
       83
 90
      191
 90
      134
 90
      191
 90
       82
 90
      136
 90
      136
 90
      191
 90
       81
 90
      137
 90
      136
 90
      137
 90
       79
 90
      127
 90
      127
 90
      137
 90
       78
 90
      125
 90
      125
 90
      127
 90
       77
 90
      124
 90
      124
 90
      125
 90
       69
 90
      181
 90
      124
 90
      181
 90
       68
 90
      123
 90
      123
 90
      181
 90
       73
 90
      180
 90
      123
 90
      180
 90
       76
 90
      122
 90
      122
 90
      180
 90
       75
 90
      179
 90
      122
 90
      179
 90
       74
 90
      178
 90
      178
 90
      179
 90
       67
 90
      118
 90
      118
 90
      178
 90
       65
 90
      117
 90
      117
 90
      118
 90
      116
 90
      117
 90
      115
 90
      177
 90
      114
 90
      177
 90
      116
 90
      118
 90
      119
 90
      178
 90
      120
 90
      179
 90
      121
 90
      122
 90
      121
 90
      180
 90
      121
 90
      123
 90
      121
 90
      181
 90
      121
 90
      124
 90
      121
 90
      125
 90
      121
 90
      126
 90
      121
 90
      182
 90
      127
 90
      182
 90
      121
 90
      128
 90
      121
 90
      129
 90
      121
 90
      130
 90
      121
 90
      183
 90
      121
 90
      131
 90
      184
 90
      185
 90
      186
 90
      187
 90
      188
 90
      189
 90
      134
 90
      135
 90
      134
 90
      190
 90
      136
 90
      182
 90
      182
 90
      191
 90
      137
 90
      182
 90
      192
 90
      193
 90
      138
 90
      192
 90
      138
 90
      193
 90
      139
 90
      194
 90
      140
 90
      195
 90
      196
 90
      197
 90
      141
 90
      198
 90
      142
 90
      199
 90
      143
 90
      200
 90
      144
 90
      145
 90
      201
 90
      202
 90
      146
 90
      147
 90
      148
 90
      203
 90
      149
 90
      204
 90
      152
 90
      205
 90
      153
 90
      205
 90
      154
 90
      155
 90
      154
 90
      156
 90
      157
 90
      206
 90
      157
 90
      158
 90
      159
 90
      207
 90
      159
 90
      208
 90
      160
 90
      209
 90
      160
 90
      210
 90
      211
 90
      212
 90
      211
 90
      213
 90
      177
 90
      214
 90
      161
 90
      163
 90
      164
 90
      165
 90
      166
 90
      216
 90
      167
 90
      217
 90
      168
 90
      218
 90
      114
 90
      169
 90
      169
 90
      177
 90
      177
 90
      219
 90
      177
 90
      220
 90
      170
 90
      221
 90
      171
 90
      221
 90
      222
 90
      223
 90
      172
 90
      223
 90
      173
 90
      174
 90
      174
 90
      224
 90
      225
 90
      226
 90
      175
 90
      226
 90
      226
 90
      227
 95
      486
140
0.0
140
0.0
140
0.0
140
0.0
140
0.0
140
0.0
140
0.0
140
0.0
140
0.0
140
0.0
140
0.0
140
0.0
140
0.0
140
0.0
140
0.0
140
0.0
140
0.0
140
0.0
140
0.0
140
0.0
140
0.0
140
0.0
140
0.0
140
0.0
140
0.0
140
0.0
140
0.0
140
0.0
140
0.0
140
0.0
140
0.0
140
0.0
140
0.0
140
0.0
140
0.0
140
0.0
140
0.0
140
0.0
140
0.0
140
0.0
140
0.0
140
0.0
140
0.0
140
0.0
140
0.0
140
0.0
140
0.0
140
0.0
140
0.0
140
0.0
140
0.0
140
0.0
140
0.0
140
0.0
140
0.0
140
0.0
140
0.0
140
0.0
140
0.0
140
0.0
140
0.0
140
0.0
140
0.0
140
0.0
140
0.0
140
0.0
140
0.0
140
0.0
140
0.0
140
0.0
140
0.0
140
0.0
140
0.0
140
0.0
140
0.0
140
0.0
140
0.0
140
0.0
140
0.0
140
0.0
140
0.0
140
0.0
140
0.0
140
0.0
140
0.0
140
0.0
140
0.0
140
0.0
140
0.0
140
0.0
140
0.0
140
0.0
140
0.0
140
0.0
140
0.0
140
0.0
140
0.0
140
0.0
140
0.0
140
0.0
140
0.0
140
0.0
140
0.0
140
0.0
140
0.0
140
0.0
140
0.0
140
0.0
140
0.0
140
0.0
140
0.0
140
0.0
140
0.0
140
0.0
140
0.0
140
0.0
140
0.0
140
0.0
140
0.0
140
0.0
140
0.0
140
0.0
140
0.0
140
0.0
140
0.0
140
0.0
140
0.0
140
0.0
140
0.0
140
0.0
140
0.0
140
0.0
140
0.0
140
0.0
140
0.0
140
0.0
140
0.0
140
0.0
140
0.0
140
0.0
140
0.0
140
0.0
140
0.0
140
0.0
140
0.0
140
0.0
140
0.0
140
0.0
140
0.0
140
0.0
140
0.0
140
0.0
140
0.0
140
0.0
140
0.0
140
0.0
140
0.0
140
0.0
140
0.0
140
0.0
140
0.0
140
0.0
140
0.0
140
0.0
140
0.0
140
0.0
140
0.0
140
0.0
140
0.0
140
0.0
140
0.0
140
0.0
140
0.0
140
0.0
140
0.0
140
0.0
140
0.0
140
0.0
140
0.0
140
0.0
140
0.0
140
0.0
140
0.0
140
0.0
140
0.0
140
0.0
140
0.0
140
0.0
140
0.0
140
0.0
140
0.0
140
0.0
140
0.0
140
0.0
140
0.0
140
0.0
140
0.0
140
0.0
140
0.0
140
0.0
140
0.0
140
0.0
140
0.0
140
0.0
140
0.0
140
0.0
140
0.0
140
0.0
140
0.0
140
0.0
140
0.0
140
0.0
140
0.0
140
0.0
140
0.0
140
0.0
140
0.0
140
0.0
140
0.0
140
0.0
140
0.0
140
0.0
140
0.0
140
0.0
140
0.0
140
0.0
140
0.0
140
0.0
140
0.0
140
0.0
140
0.0
140
0.0
140
0.0
140
0.0
140
0.0
140
0.0
140
0.0
140
0.0
140
0.0
140
0.0
140
0.0
140
0.0
140
0.0
140
0.0
140
0.0
140
0.0
140
0.0
140
0.0
140
0.0
140
0.0
140
0.0
140
0.0
140
0.0
140
0.0
140
0.0
140
0.0
140
0.0
140
0.0
140
0.0
140
0.0
140
0.0
140
0.0
140
0.0
140
0.0
140
0.0
140
0.0
140
0.0
140
0.0
140
0.0
140
0.0
140
0.0
140
0.0
140
0.0
140
0.0
140
0.0
140
0.0
140
0.0
140
0.0
140
0.0
140
0.0
140
0.0
140
0.0
140
0.0
140
0.0
140
0.0
140
0.0
140
0.0
140
0.0
140
0.0
140
0.0
140
0.0
140
0.0
140
0.0
140
0.0
140
0.0
140
0.0
140
0.0
140
0.0
140
0.0
140
0.0
140
0.0
140
0.0
140
0.0
140
0.0
140
0.0
140
0.0
140
0.0
140
0.0
140
0.0
140
0.0
140
0.0
140
0.0
140
0.0
140
0.0
140
0.0
140
0.0
140
0.0
140
0.0
140
0.0
140
0.0
140
0.0
140
0.0
140
0.0
140
0.0
140
0.0
140
0.0
140
0.0
140
0.0
140
0.0
140
0.0
140
0.0
140
0.0
140
0.0
140
0.0
140
0.0
140
0.0
140
0.0
140
0.0
140
0.0
140
0.0
140
0.0
140
0.0
140
0.0
140
0.0
140
0.0
140
0.0
140
0.0
140
0.0
140
0.0
140
0.0
140
0.0
140
0.0
140
0.0
140
0.0
140
0.0
140
0.0
140
0.0
140
0.0
140
0.0
140
0.0
140
0.0
140
0.0
140
0.0
140
0.0
140
0.0
140
0.0
140
0.0
140
0.0
140
0.0
140
0.0
140
0.0
140
0.0
140
0.0
140
0.0
140
0.0
140
0.0
140
0.0
140
0.0
140
0.0
140
0.0
140
0.0
140
0.0
140
0.0
140
0.0
140
0.0
140
0.0
140
0.0
140
0.0
140
0.0
140
0.0
140
0.0
140
0.0
140
0.0
140
0.0
140
0.0
140
0.0
140
0.0
140
0.0
140
0.0
140
0.0
140
0.0
140
0.0
140
0.0
140
0.0
140
0.0
140
0.0
140
0.0
140
0.0
140
0.0
140
0.0
140
0.0
140
0.0
140
0.0
140
0.0
140
0.0
140
0.0
140
0.0
140
0.0
140
0.0
140
0.0
140
0.0
140
0.0
140
0.0
140
0.0
140
0.0
140
0.0
140
0.0
140
0.0
140
0.0
140
0.0
140
0.0
140
0.0
140
0.0
140
0.0
140
0.0
140
0.0
140
0.0
140
0.0
140
0.0
140
0.0
140
0.0
140
0.0
140
0.0
140
0.0
140
0.0
140
0.0
140
0.0
140
0.0
140
0.0
140
0.0
140
0.0
140
0.0
140
0.0
140
0.0
140
0.0
140
0.0
140
0.0
140
0.0
140
0.0
140
0.0
140
0.0
140
0.0
140
0.0
140
0.0
140
0.0
140
0.0
140
0.0
140
0.0
140
0.0
140
0.0
140
0.0
140
0.0
140
0.0
140
0.0
140
0.0
140
0.0
140
0.0
140
0.0
140
0.0
140
0.0
140
0.0
140
0.0
140
0.0
140
0.0
140
0.0
140
0.0
 90
        0
  0
POLYLINE
  5
FA
330
1F
100
AcDbEntity
  8
OracDecor_cornice_mouldings
 62
   121
420
 10937829
100
AcDb3dPolyline
 66
     1
 10
0.0
 20
0.0
 30
0.0
 70
     9
  0
VERTEX
  5
FB
330
FA
100
AcDbEntity
  8
OracDecor_cornice_mouldings
 62
   121
420
 10937829
100
AcDbVertex
100
AcDb3dPolylineVertex
 10
0.0000006040272638
 20
50.40223693847656
 30
-0.49999338388443
 70
    32
  0
VERTEX
  5
FC
330
FA
100
AcDbEntity
  8
OracDecor_cornice_mouldings
 62
   121
420
 10937829
100
AcDbVertex
100
AcDb3dPolylineVertex
 10
-0.0000012178679754
 20
62.63396453857422
 30
-0.4999895691871643
 70
    32
  0
VERTEX
  5
FD
330
FA
100
AcDbEntity
  8
OracDecor_cornice_mouldings
 62
   121
420
 10937829
100
AcDbVertex
100
AcDb3dPolylineVertex
 10
-0.0000011913261915
 20
62.80496978759765
 30
-0.4698382019996643
 70
    32
  0
VERTEX
  5
FE
330
FA
100
AcDbEntity
  8
OracDecor_cornice_mouldings
 62
   121
420
 10937829
100
AcDbVertex
100
AcDb3dPolylineVertex
 10
-0.0000011706206351
 20
62.95535278320312
 30
-0.3830118775367737
 70
    32
  0
VERTEX
  5
FF
330
FA
100
AcDbEntity
  8
OracDecor_cornice_mouldings
 62
   121
420
 10937829
100
AcDbVertex
100
AcDb3dPolylineVertex
 10
-0.0000011582496882
 20
63.06697082519531
 30
-0.2499895691871643
 70
    32
  0
VERTEX
  5
100
330
FA
100
AcDbEntity
  8
OracDecor_cornice_mouldings
 62
   121
420
 10937829
100
AcDbVertex
100
AcDb3dPolylineVertex
 10
-0.0000011458796507
 20
63.1785888671875
 30
-0.1169710978865623
 70
    32
  0
VERTEX
  5
101
330
FA
100
AcDbEntity
  8
OracDecor_cornice_mouldings
 62
   121
420
 10937829
100
AcDbVertex
100
AcDb3dPolylineVertex
 10
-0.0000011251731848
 20
63.3289794921875
 30
-0.0301447715610266
 70
    32
  0
VERTEX
  5
102
330
FA
100
AcDbEntity
  8
OracDecor_cornice_mouldings
 62
   121
420
 10937829
100
AcDbVertex
100
AcDb3dPolylineVertex
 10
-0.000001098631401
 20
63.49998474121093
 30
0.0000104097680378
 70
    32
  0
VERTEX
  5
103
330
FA
100
AcDbEntity
  8
OracDecor_cornice_mouldings
 62
   121
420
 10937829
100
AcDbVertex
100
AcDb3dPolylineVertex
 10
-0.0000005400152077
 20
66.92874908447265
 30
0.0000104097680378
 70
    32
  0
VERTEX
  5
104
330
FA
100
AcDbEntity
  8
OracDecor_cornice_mouldings
 62
   121
420
 10937829
100
AcDbVertex
100
AcDb3dPolylineVertex
 10
-0.0000005087704267
 20
67.11126708984375
 30
-0.0344935283064842
 70
    32
  0
VERTEX
  5
105
330
FA
100
AcDbEntity
  8
OracDecor_cornice_mouldings
 62
   121
420
 10937829
100
AcDbVertex
100
AcDb3dPolylineVertex
 10
-0.0000004788225851
 20
67.26859283447265
 30
-0.1332369595766067
 70
    32
  0
VERTEX
  5
106
330
FA
100
AcDbEntity
  8
OracDecor_cornice_mouldings
 62
   121
420
 10937829
100
AcDbVertex
100
AcDb3dPolylineVertex
 10
-0.000000454302608
 20
67.37902069091797
 30
-0.2825976014137268
 70
    32
  0
VERTEX
  5
107
330
FA
100
AcDbEntity
  8
OracDecor_cornice_mouldings
 62
   121
420
 10937829
100
AcDbVertex
100
AcDb3dPolylineVertex
 10
-0.0000004093935786
 20
67.57099151611328
 30
-0.5944872498512268
 70
    32
  0
VERTEX
  5
108
330
FA
100
AcDbEntity
  8
OracDecor_cornice_mouldings
 62
   121
420
 10937829
100
AcDbVertex
100
AcDb3dPolylineVertex
 10
-0.0000003568411557
 20
67.8220443725586
 30
-0.861035406589508
 70
    32
  0
VERTEX
  5
109
330
FA
100
AcDbEntity
  8
OracDecor_cornice_mouldings
 62
   121
420
 10937829
100
AcDbVertex
100
AcDb3dPolylineVertex
 10
-0.000000298780833
 20
68.12199401855469
 30
-1.071324467658996
 70
    32
  0
VERTEX
  5
10A
330
FA
100
AcDbEntity
  8
OracDecor_cornice_mouldings
 62
   121
420
 10937829
100
AcDbVertex
100
AcDb3dPolylineVertex
 10
-0.0000002376727934
 20
68.45812225341797
 30
-1.21648895740509
 70
    32
  0
VERTEX
  5
10B
330
FA
100
AcDbEntity
  8
OracDecor_cornice_mouldings
 62
   121
420
 10937829
100
AcDbVertex
100
AcDb3dPolylineVertex
 10
-0.0000001759763109
 20
68.8169174194336
 30
-1.29064667224884
 70
    32
  0
VERTEX
  5
10C
330
FA
100
AcDbEntity
  8
OracDecor_cornice_mouldings
 62
   121
420
 10937829
100
AcDbVertex
100
AcDb3dPolylineVertex
 10
-0.0000001163252819
 20
69.18305206298828
 30
-1.29064667224884
 70
    32
  0
VERTEX
  5
10D
330
FA
100
AcDbEntity
  8
OracDecor_cornice_mouldings
 62
   121
420
 10937829
100
AcDbVertex
100
AcDb3dPolylineVertex
 10
-0.0000000611116775
 20
69.5418472290039
 30
-1.21648895740509
 70
    32
  0
VERTEX
  5
10E
330
FA
100
AcDbEntity
  8
OracDecor_cornice_mouldings
 62
   121
420
 10937829
100
AcDbVertex
100
AcDb3dPolylineVertex
 10
-0.0000000126956365
 20
69.87797546386719
 30
-1.071324467658996
 70
    32
  0
VERTEX
  5
10F
330
FA
100
AcDbEntity
  8
OracDecor_cornice_mouldings
 62
   121
420
 10937829
100
AcDbVertex
100
AcDb3dPolylineVertex
 10
0.0000000269801603
 20
70.17792510986328
 30
-0.861035406589508
 70
    32
  0
VERTEX
  5
110
330
FA
100
AcDbEntity
  8
OracDecor_cornice_mouldings
 62
   121
420
 10937829
100
AcDbVertex
100
AcDb3dPolylineVertex
 10
0.0000000562313289
 20
70.42897796630859
 30
-0.5944872498512268
 70
    32
  0
VERTEX
  5
111
330
FA
100
AcDbEntity
  8
OracDecor_cornice_mouldings
 62
   121
420
 10937829
100
AcDbVertex
100
AcDb3dPolylineVertex
 10
0.0000000738746166
 20
70.6209487915039
 30
-0.2825976014137268
 70
    32
  0
VERTEX
  5
112
330
FA
100
AcDbEntity
  8
OracDecor_cornice_mouldings
 62
   121
420
 10937829
100
AcDbVertex
100
AcDb3dPolylineVertex
 10
0.0000000853369784
 20
70.73137664794922
 30
-0.1332369595766067
 70
    32
  0
VERTEX
  5
113
330
FA
100
AcDbEntity
  8
OracDecor_cornice_mouldings
 62
   121
420
 10937829
100
AcDbVertex
100
AcDb3dPolylineVertex
 10
0.0000001066518962
 20
70.88870239257812
 30
-0.0344935283064842
 70
    32
  0
VERTEX
  5
114
330
FA
100
AcDbEntity
  8
OracDecor_cornice_mouldings
 62
   121
420
 10937829
100
AcDbVertex
100
AcDb3dPolylineVertex
 10
0.0000001348789738
 20
71.07122039794922
 30
0.0000104097680378
 70
    32
  0
VERTEX
  5
115
330
FA
100
AcDbEntity
  8
OracDecor_cornice_mouldings
 62
   121
420
 10937829
100
AcDbVertex
100
AcDb3dPolylineVertex
 10
0.000000774955879
 20
74.99998474121094
 30
0.0000104097680378
 70
    32
  0
VERTEX
  5
116
330
FA
100
AcDbEntity
  8
OracDecor_cornice_mouldings
 62
   121
420
 10937829
100
AcDbVertex
100
AcDb3dPolylineVertex
 10
0.0000010284820746
 20
74.99998474121094
 30
-5.799988746643066
 70
    32
  0
VERTEX
  5
117
330
FA
100
AcDbEntity
  8
OracDecor_cornice_mouldings
 62
   121
420
 10937829
100
AcDbVertex
100
AcDb3dPolylineVertex
 10
0.0000010284884411
 20
74.97319793701172
 30
-5.8999605178833
 70
    32
  0
VERTEX
  5
118
330
FA
100
AcDbEntity
  8
OracDecor_cornice_mouldings
 62
   121
420
 10937829
100
AcDbVertex
100
AcDb3dPolylineVertex
 10
0.0000010197572919
 20
74.89995574951172
 30
-5.973198890686035
 70
    32
  0
VERTEX
  5
119
330
FA
100
AcDbEntity
  8
OracDecor_cornice_mouldings
 62
   121
420
 10937829
100
AcDbVertex
100
AcDb3dPolylineVertex
 10
0.00000100464149
 20
74.79998779296875
 30
-5.999989509582519
 70
    32
  0
VERTEX
  5
11A
330
FA
100
AcDbEntity
  8
OracDecor_cornice_mouldings
 62
   121
420
 10937829
100
AcDbVertex
100
AcDb3dPolylineVertex
 10
0.0000051149499996
 20
53.19998931884765
 30
-5.999993324279785
 70
    32
  0
VERTEX
  5
11B
330
FA
100
AcDbEntity
  8
OracDecor_cornice_mouldings
 62
   121
420
 10937829
100
AcDbVertex
100
AcDb3dPolylineVertex
 10
0.0000050998323786
 20
53.10001373291015
 30
-6.026780128479003
 70
    32
  0
VERTEX
  5
11C
330
FA
100
AcDbEntity
  8
OracDecor_cornice_mouldings
 62
   121
420
 10937829
100
AcDbVertex
100
AcDb3dPolylineVertex
 10
0.000005091102139
 20
53.02677917480469
 30
-6.100022315979003
 70
    32
  0
VERTEX
  5
11D
330
FA
100
AcDbEntity
  8
OracDecor_cornice_mouldings
 62
   121
420
 10937829
100
AcDbVertex
100
AcDb3dPolylineVertex
 10
0.0000050911066865
 20
52.99998474121093
 30
-6.199990272521972
 70
    32
  0
VERTEX
  5
11E
330
FA
100
AcDbEntity
  8
OracDecor_cornice_mouldings
 62
   121
420
 10937829
100
AcDbVertex
100
AcDb3dPolylineVertex
 10
0.0000015211935533
 20
52.99998474121093
 30
-11.79999351501465
 70
    32
  0
VERTEX
  5
11F
330
FA
100
AcDbEntity
  8
OracDecor_cornice_mouldings
 62
   121
420
 10937829
100
AcDbVertex
100
AcDb3dPolylineVertex
 10
0.0000015211990103
 20
52.97319793701172
 30
-11.89996337890625
 70
    32
  0
VERTEX
  5
120
330
FA
100
AcDbEntity
  8
OracDecor_cornice_mouldings
 62
   121
420
 10937829
100
AcDbVertex
100
AcDb3dPolylineVertex
 10
0.0000015124678612
 20
52.89995574951172
 30
-11.97320365905762
 70
    32
  0
VERTEX
  5
121
330
FA
100
AcDbEntity
  8
OracDecor_cornice_mouldings
 62
   121
420
 10937829
100
AcDbVertex
100
AcDb3dPolylineVertex
 10
0.0000014973520592
 20
52.79998779296875
 30
-11.99999237060547
 70
    32
  0
VERTEX
  5
122
330
FA
100
AcDbEntity
  8
OracDecor_cornice_mouldings
 62
   121
420
 10937829
100
AcDbVertex
100
AcDb3dPolylineVertex
 10
-0.000003257578328
 20
0.1999893635511398
 30
-11.99999809265136
 70
    32
  0
VERTEX
  5
123
330
FA
100
AcDbEntity
  8
OracDecor_cornice_mouldings
 62
   121
420
 10937829
100
AcDbVertex
100
AcDb3dPolylineVertex
 10
-0.0000032750367609
 20
0.1000175923109055
 30
-11.97320938110351
 70
    32
  0
VERTEX
  5
124
330
FA
100
AcDbEntity
  8
OracDecor_cornice_mouldings
 62
   121
420
 10937829
100
AcDbVertex
100
AcDb3dPolylineVertex
 10
-0.000003290170298
 20
0.0267792157828808
 30
-11.89996910095215
 70
    32
  0
VERTEX
  5
125
330
FA
100
AcDbEntity
  8
OracDecor_cornice_mouldings
 62
   121
420
 10937829
100
AcDbVertex
100
AcDb3dPolylineVertex
 10
-0.0000032989048577
 20
-0.0000114029307952
 30
-11.79999732971191
 70
    32
  0
VERTEX
  5
126
330
FA
100
AcDbEntity
  8
OracDecor_cornice_mouldings
 62
   121
420
 10937829
100
AcDbVertex
100
AcDb3dPolylineVertex
 10
-0.0000038146990846
 20
-0.0000114029307952
 30
0.0000027803746434
 70
    32
  0
VERTEX
  5
127
330
FA
100
AcDbEntity
  8
OracDecor_cornice_mouldings
 62
   121
420
 10937829
100
AcDbVertex
100
AcDb3dPolylineVertex
 10
-0.0000031746217246
 20
3.928756713867187
 30
0.0000027803746434
 70
    32
  0
VERTEX
  5
128
330
FA
100
AcDbEntity
  8
OracDecor_cornice_mouldings
 62
   121
420
 10937829
100
AcDbVertex
100
AcDb3dPolylineVertex
 10
-0.0000031433783079
 20
4.111270904541015
 30
-0.0344973430037499
 70
    32
  0
VERTEX
  5
129
330
FA
100
AcDbEntity
  8
OracDecor_cornice_mouldings
 62
   121
420
 10937829
100
AcDbVertex
100
AcDb3dPolylineVertex
 10
-0.0000031134295568
 20
4.268600463867187
 30
-0.133244588971138
 70
    32
  0
VERTEX
  5
12A
330
FA
100
AcDbEntity
  8
OracDecor_cornice_mouldings
 62
   121
420
 10937829
100
AcDbVertex
100
AcDb3dPolylineVertex
 10
-0.0000030889104892
 20
4.379024505615234
 30
-0.282605230808258
 70
    32
  0
VERTEX
  5
12B
330
FA
100
AcDbEntity
  8
OracDecor_cornice_mouldings
 62
   121
420
 10937829
100
AcDbVertex
100
AcDb3dPolylineVertex
 10
-0.0000030440019145
 20
4.570991516113281
 30
-0.5944948792457581
 70
    32
  0
VERTEX
  5
12C
330
FA
100
AcDbEntity
  8
OracDecor_cornice_mouldings
 62
   121
420
 10937829
100
AcDbVertex
100
AcDb3dPolylineVertex
 10
-0.0000029914490369
 20
4.822044372558593
 30
-0.8610430359840393
 70
    32
  0
VERTEX
  5
12D
330
FA
100
AcDbEntity
  8
OracDecor_cornice_mouldings
 62
   121
420
 10937829
100
AcDbVertex
100
AcDb3dPolylineVertex
 10
-0.0000029333884868
 20
5.121997833251953
 30
-1.071332097053527
 70
    32
  0
VERTEX
  5
12E
330
FA
100
AcDbEntity
  8
OracDecor_cornice_mouldings
 62
   121
420
 10937829
100
AcDbVertex
100
AcDb3dPolylineVertex
 10
-0.000002872280902
 20
5.458126068115234
 30
-1.216496586799621
 70
    32
  0
VERTEX
  5
12F
330
FA
100
AcDbEntity
  8
OracDecor_cornice_mouldings
 62
   121
420
 10937829
100
AcDbVertex
100
AcDb3dPolylineVertex
 10
-0.000002810584192
 20
5.816921234130859
 30
-1.290654301643371
 70
    32
  0
VERTEX
  5
130
330
FA
100
AcDbEntity
  8
OracDecor_cornice_mouldings
 62
   121
420
 10937829
100
AcDbVertex
100
AcDb3dPolylineVertex
 10
-0.000002750933163
 20
6.183055877685546
 30
-1.290654301643371
 70
    32
  0
VERTEX
  5
131
330
FA
100
AcDbEntity
  8
OracDecor_cornice_mouldings
 62
   121
420
 10937829
100
AcDbVertex
100
AcDb3dPolylineVertex
 10
-0.0000026957195587
 20
6.541851043701171
 30
-1.216496586799621
 70
    32
  0
VERTEX
  5
132
330
FA
100
AcDbEntity
  8
OracDecor_cornice_mouldings
 62
   121
420
 10937829
100
AcDbVertex
100
AcDb3dPolylineVertex
 10
-0.0000026473026082
 20
6.877979278564453
 30
-1.071332097053527
 70
    32
  0
VERTEX
  5
133
330
FA
100
AcDbEntity
  8
OracDecor_cornice_mouldings
 62
   121
420
 10937829
100
AcDbVertex
100
AcDb3dPolylineVertex
 10
-0.0000026076261292
 20
7.177932739257812
 30
-0.8610430359840393
 70
    32
  0
VERTEX
  5
134
330
FA
100
AcDbEntity
  8
OracDecor_cornice_mouldings
 62
   121
420
 10937829
100
AcDbVertex
100
AcDb3dPolylineVertex
 10
-0.0000025783756428
 20
7.428985595703125
 30
-0.5944948792457581
 70
    32
  0
VERTEX
  5
135
330
FA
100
AcDbEntity
  8
OracDecor_cornice_mouldings
 62
   121
420
 10937829
100
AcDbVertex
100
AcDb3dPolylineVertex
 10
-0.0000025607332645
 20
7.620952606201171
 30
-0.282605230808258
 70
    32
  0
VERTEX
  5
136
330
FA
100
AcDbEntity
  8
OracDecor_cornice_mouldings
 62
   121
420
 10937829
100
AcDbVertex
100
AcDb3dPolylineVertex
 10
-0.0000025492718123
 20
7.731376647949218
 30
-0.133244588971138
 70
    32
  0
VERTEX
  5
137
330
FA
100
AcDbEntity
  8
OracDecor_cornice_mouldings
 62
   121
420
 10937829
100
AcDbVertex
100
AcDb3dPolylineVertex
 10
-0.000002527955985
 20
7.88870620727539
 30
-0.0344973430037499
 70
    32
  0
VERTEX
  5
138
330
FA
100
AcDbEntity
  8
OracDecor_cornice_mouldings
 62
   121
420
 10937829
100
AcDbVertex
100
AcDb3dPolylineVertex
 10
-0.00000249972868
 20
8.071220397949218
 30
0.0000027803746434
 70
    32
  0
VERTEX
  5
139
330
FA
100
AcDbEntity
  8
OracDecor_cornice_mouldings
 62
   121
420
 10937829
100
AcDbVertex
100
AcDb3dPolylineVertex
 10
-0.0000019411113499
 20
11.4999885559082
 30
0.0000027803746434
 70
    32
  0
VERTEX
  5
13A
330
FA
100
AcDbEntity
  8
OracDecor_cornice_mouldings
 62
   121
420
 10937829
100
AcDbVertex
100
AcDb3dPolylineVertex
 10
-0.0000019148619685
 20
11.65453720092773
 30
-0.0244837608188391
 70
    32
  0
VERTEX
  5
13B
330
FA
100
AcDbEntity
  8
OracDecor_cornice_mouldings
 62
   121
420
 10937829
100
AcDbVertex
100
AcDb3dPolylineVertex
 10
-0.0000018890536921
 20
11.79389190673828
 30
-0.0955057963728905
 70
    32
  0
VERTEX
  5
13C
330
FA
100
AcDbEntity
  8
OracDecor_cornice_mouldings
 62
   121
420
 10937829
100
AcDbVertex
100
AcDb3dPolylineVertex
 10
-0.0000018662033199
 20
11.90447616577148
 30
-0.206090047955513
 70
    32
  0
VERTEX
  5
13D
330
FA
100
AcDbEntity
  8
OracDecor_cornice_mouldings
 62
   121
420
 10937829
100
AcDbVertex
100
AcDb3dPolylineVertex
 10
-0.0000018485407054
 20
11.97549819946289
 30
-0.3454485535621643
 70
    32
  0
VERTEX
  5
13E
330
FA
100
AcDbEntity
  8
OracDecor_cornice_mouldings
 62
   121
420
 10937829
100
AcDbVertex
100
AcDb3dPolylineVertex
 10
-0.0000018377952529
 20
11.9999885559082
 30
-0.4999971985816956
 70
    32
  0
VERTEX
  5
13F
330
FA
100
AcDbEntity
  8
OracDecor_cornice_mouldings
 62
   121
420
 10937829
100
AcDbVertex
100
AcDb3dPolylineVertex
 10
-0.0000016410940589
 20
11.9999885559082
 30
-4.99999713897705
 70
    32
  0
VERTEX
  5
140
330
FA
100
AcDbEntity
  8
OracDecor_cornice_mouldings
 62
   121
420
 10937829
100
AcDbVertex
100
AcDb3dPolylineVertex
 10
-0.0000016242238416
 20
12.03408432006836
 30
-5.258858680725097
 70
    32
  0
VERTEX
  5
141
330
FA
100
AcDbEntity
  8
OracDecor_cornice_mouldings
 62
   121
420
 10937829
100
AcDbVertex
100
AcDb3dPolylineVertex
 10
-0.0000015974155758
 20
12.13394927978515
 30
-5.499947547912597
 70
    32
  0
VERTEX
  5
142
330
FA
100
AcDbEntity
  8
OracDecor_cornice_mouldings
 62
   121
420
 10937829
100
AcDbVertex
100
AcDb3dPolylineVertex
 10
-0.0000015624673324
 20
12.29288101196289
 30
-5.707100868225097
 70
    32
  0
VERTEX
  5
143
330
FA
100
AcDbEntity
  8
OracDecor_cornice_mouldings
 62
   121
420
 10937829
100
AcDbVertex
100
AcDb3dPolylineVertex
 10
-0.0000015217706277
 20
12.50003433227539
 30
-5.866036415100097
 70
    32
  0
VERTEX
  5
144
330
FA
100
AcDbEntity
  8
OracDecor_cornice_mouldings
 62
   121
420
 10937829
100
AcDbVertex
100
AcDb3dPolylineVertex
 10
-0.0000014781264781
 20
12.74112701416015
 30
-5.965897560119628
 70
    32
  0
VERTEX
  5
145
330
FA
100
AcDbEntity
  8
OracDecor_cornice_mouldings
 62
   121
420
 10937829
100
AcDbVertex
100
AcDb3dPolylineVertex
 10
-0.0000014344618648
 20
12.9999885559082
 30
-5.99999713897705
 70
    32
  0
VERTEX
  5
146
330
FA
100
AcDbEntity
  8
OracDecor_cornice_mouldings
 62
   121
420
 10937829
100
AcDbVertex
100
AcDb3dPolylineVertex
 10
-0.0000015019841157
 20
35.99998474121094
 30
-5.999993324279785
 70
    32
  0
VERTEX
  5
147
330
FA
100
AcDbEntity
  8
OracDecor_cornice_mouldings
 62
   121
420
 10937829
100
AcDbVertex
100
AcDb3dPolylineVertex
 10
-0.0000014613010535
 20
36.25884628295898
 30
-5.965897560119628
 70
    32
  0
VERTEX
  5
148
330
FA
100
AcDbEntity
  8
OracDecor_cornice_mouldings
 62
   121
420
 10937829
100
AcDbVertex
100
AcDb3dPolylineVertex
 10
-0.0000014263869161
 20
36.49993896484375
 30
-5.866032600402832
 70
    32
  0
VERTEX
  5
149
330
FA
100
AcDbEntity
  8
OracDecor_cornice_mouldings
 62
   121
420
 10937829
100
AcDbVertex
100
AcDb3dPolylineVertex
 10
-0.000001399584562
 20
36.70709228515625
 30
-5.707100868225097
 70
    32
  0
VERTEX
  5
14A
330
FA
100
AcDbEntity
  8
OracDecor_cornice_mouldings
 62
   121
420
 10937829
100
AcDbVertex
100
AcDb3dPolylineVertex
 10
-0.0000013827461771
 20
36.86602401733399
 30
-5.499943733215332
 70
    32
  0
VERTEX
  5
14B
330
FA
100
AcDbEntity
  8
OracDecor_cornice_mouldings
 62
   121
420
 10937829
100
AcDbVertex
100
AcDb3dPolylineVertex
 10
-0.0000013770145415
 20
36.96588897705078
 30
-5.258854866027832
 70
    32
  0
VERTEX
  5
14C
330
FA
100
AcDbEntity
  8
OracDecor_cornice_mouldings
 62
   121
420
 10937829
100
AcDbVertex
100
AcDb3dPolylineVertex
 10
-0.0000013827752809
 20
36.99998474121094
 30
-4.999993324279785
 70
    32
  0
VERTEX
  5
14D
330
FA
100
AcDbEntity
  8
OracDecor_cornice_mouldings
 62
   121
420
 10937829
100
AcDbVertex
100
AcDb3dPolylineVertex
 10
-0.0000015576206351
 20
36.99998474121094
 30
-0.9999933838844299
 70
    32
  0
VERTEX
  5
14E
330
FA
100
AcDbEntity
  8
OracDecor_cornice_mouldings
 62
   121
420
 10937829
100
AcDbVertex
100
AcDb3dPolylineVertex
 10
-0.0000015603864085
 20
37.02447509765625
 30
-0.8454447388648986
 70
    32
  0
VERTEX
  5
14F
330
FA
100
AcDbEntity
  8
OracDecor_cornice_mouldings
 62
   121
420
 10937829
100
AcDbVertex
100
AcDb3dPolylineVertex
 10
-0.0000015549067029
 20
37.09549713134766
 30
-0.7060900330543518
 70
    32
  0
VERTEX
  5
150
330
FA
100
AcDbEntity
  8
OracDecor_cornice_mouldings
 62
   121
420
 10937829
100
AcDbVertex
100
AcDb3dPolylineVertex
 10
-0.000001541724032
 20
37.20608139038086
 30
-0.5955057740211487
 70
    32
  0
VERTEX
  5
151
330
FA
100
AcDbEntity
  8
OracDecor_cornice_mouldings
 62
   121
420
 10937829
100
AcDbVertex
100
AcDb3dPolylineVertex
 10
-0.0000015221244212
 20
37.34543609619141
 30
-0.5244837403297425
 70
    32
  0
VERTEX
  5
152
330
FA
100
AcDbEntity
  8
OracDecor_cornice_mouldings
 62
   121
420
 10937829
100
AcDbVertex
100
AcDb3dPolylineVertex
 10
-0.0000014980155356
 20
37.49998474121094
 30
-0.49999338388443
 70
    32
  0
VERTEX
  5
153
330
FA
100
AcDbEntity
  8
OracDecor_cornice_mouldings
 62
   121
420
 10937829
100
AcDbVertex
100
AcDb3dPolylineVertex
 10
-0.0000011721745068
 20
39.49998474121094
 30
-0.49999338388443
 70
    32
  0
VERTEX
  5
154
330
FA
100
AcDbEntity
  8
OracDecor_cornice_mouldings
 62
   121
420
 10937829
100
AcDbVertex
100
AcDb3dPolylineVertex
 10
-0.0000011459246707
 20
39.65453338623047
 30
-0.5244837403297425
 70
    32
  0
VERTEX
  5
155
330
FA
100
AcDbEntity
  8
OracDecor_cornice_mouldings
 62
   121
420
 10937829
100
AcDbVertex
100
AcDb3dPolylineVertex
 10
-0.0000011201168491
 20
39.79388809204102
 30
-0.5955057740211487
 70
    32
  0
VERTEX
  5
156
330
FA
100
AcDbEntity
  8
OracDecor_cornice_mouldings
 62
   121
420
 10937829
100
AcDbVertex
100
AcDb3dPolylineVertex
 10
-0.0000010972662494
 20
39.90447235107422
 30
-0.7060900330543518
 70
    32
  0
VERTEX
  5
157
330
FA
100
AcDbEntity
  8
OracDecor_cornice_mouldings
 62
   121
420
 10937829
100
AcDbVertex
100
AcDb3dPolylineVertex
 10
-0.0000010796043171
 20
39.97549438476563
 30
-0.8454447388648986
 70
    32
  0
VERTEX
  5
158
330
FA
100
AcDbEntity
  8
OracDecor_cornice_mouldings
 62
   121
420
 10937829
100
AcDbVertex
100
AcDb3dPolylineVertex
 10
-0.0000010688581824
 20
39.99998474121094
 30
-0.9999933838844299
 70
    32
  0
VERTEX
  5
159
330
FA
100
AcDbEntity
  8
OracDecor_cornice_mouldings
 62
   121
420
 10937829
100
AcDbVertex
100
AcDb3dPolylineVertex
 10
-0.0000008940128282
 20
39.99998474121094
 30
-4.999993324279785
 70
    32
  0
VERTEX
  5
15A
330
FA
100
AcDbEntity
  8
OracDecor_cornice_mouldings
 62
   121
420
 10937829
100
AcDbVertex
100
AcDb3dPolylineVertex
 10
-0.000000877142611
 20
40.03408050537109
 30
-5.258854866027832
 70
    32
  0
VERTEX
  5
15B
330
FA
100
AcDbEntity
  8
OracDecor_cornice_mouldings
 62
   121
420
 10937829
100
AcDbVertex
100
AcDb3dPolylineVertex
 10
-0.0000008503334357
 20
40.13394927978516
 30
-5.499947547912597
 70
    32
  0
VERTEX
  5
15C
330
FA
100
AcDbEntity
  8
OracDecor_cornice_mouldings
 62
   121
420
 10937829
100
AcDbVertex
100
AcDb3dPolylineVertex
 10
-0.0000008153861017
 20
40.29287719726562
 30
-5.707100868225097
 70
    32
  0
VERTEX
  5
15D
330
FA
100
AcDbEntity
  8
OracDecor_cornice_mouldings
 62
   121
420
 10937829
100
AcDbVertex
100
AcDb3dPolylineVertex
 10
-0.0000007746893971
 20
40.50003051757812
 30
-5.866032600402832
 70
    32
  0
VERTEX
  5
15E
330
FA
100
AcDbEntity
  8
OracDecor_cornice_mouldings
 62
   121
420
 10937829
100
AcDbVertex
100
AcDb3dPolylineVertex
 10
-0.0000007310445653
 20
40.74112701416015
 30
-5.965897560119628
 70
    32
  0
VERTEX
  5
15F
330
FA
100
AcDbEntity
  8
OracDecor_cornice_mouldings
 62
   121
420
 10937829
100
AcDbVertex
100
AcDb3dPolylineVertex
 10
-0.0000006873806342
 20
40.99998474121093
 30
-5.999993324279785
 70
    32
  0
VERTEX
  5
160
330
FA
100
AcDbEntity
  8
OracDecor_cornice_mouldings
 62
   121
420
 10937829
100
AcDbVertex
100
AcDb3dPolylineVertex
 10
0.000003990762707
 20
46.2997817993164
 30
-5.999993324279785
 70
    32
  0
VERTEX
  5
161
330
FA
100
AcDbEntity
  8
OracDecor_cornice_mouldings
 62
   121
420
 10937829
100
AcDbVertex
100
AcDb3dPolylineVertex
 10
0.0000040288814489
 20
46.54172515869141
 30
-5.970269203186035
 70
    32
  0
VERTEX
  5
162
330
FA
100
AcDbEntity
  8
OracDecor_cornice_mouldings
 62
   121
420
 10937829
100
AcDbVertex
100
AcDb3dPolylineVertex
 10
0.0000040621243897
 20
46.76919555664063
 30
-5.882962226867675
 70
    32
  0
VERTEX
  5
163
330
FA
100
AcDbEntity
  8
OracDecor_cornice_mouldings
 62
   121
420
 10937829
100
AcDbVertex
100
AcDb3dPolylineVertex
 10
0.0000040885543058
 20
46.96894836425781
 30
-5.743096351623535
 70
    32
  0
VERTEX
  5
164
330
FA
100
AcDbEntity
  8
OracDecor_cornice_mouldings
 62
   121
420
 10937829
100
AcDbVertex
100
AcDb3dPolylineVertex
 10
0.0000041065586629
 20
47.12879180908203
 30
-5.55920124053955
 70
    32
  0
VERTEX
  5
165
330
FA
100
AcDbEntity
  8
OracDecor_cornice_mouldings
 62
   121
420
 10937829
100
AcDbVertex
100
AcDb3dPolylineVertex
 10
0.0000041150960897
 20
47.23947143554688
 30
-5.342011451721191
 70
    32
  0
VERTEX
  5
166
330
FA
100
AcDbEntity
  8
OracDecor_cornice_mouldings
 62
   121
420
 10937829
100
AcDbVertex
100
AcDb3dPolylineVertex
 10
0.0000041700568545
 20
48.52285003662109
 30
-1.815953373908996
 70
    32
  0
VERTEX
  5
167
330
FA
100
AcDbEntity
  8
OracDecor_cornice_mouldings
 62
   121
420
 10937829
100
AcDbVertex
100
AcDb3dPolylineVertex
 10
0.000000365554115
 20
48.67018890380859
 30
-1.500016331672668
 70
    32
  0
VERTEX
  5
168
330
FA
100
AcDbEntity
  8
OracDecor_cornice_mouldings
 62
   121
420
 10937829
100
AcDbVertex
100
AcDb3dPolylineVertex
 10
0.0000003856521289
 20
48.87018585205078
 30
-1.214379429817199
 70
    32
  0
VERTEX
  5
169
330
FA
100
AcDbEntity
  8
OracDecor_cornice_mouldings
 62
   121
420
 10937829
100
AcDbVertex
100
AcDb3dPolylineVertex
 10
0.0000004150288078
 20
49.11662292480468
 30
-0.9679422974586486
 70
    32
  0
VERTEX
  5
16A
330
FA
100
AcDbEntity
  8
OracDecor_cornice_mouldings
 62
   121
420
 10937829
100
AcDbVertex
100
AcDb3dPolylineVertex
 10
0.0000004528274076
 20
49.40229034423828
 30
-0.7679224610328675
 70
    32
  0
VERTEX
  5
16B
330
FA
100
AcDbEntity
  8
OracDecor_cornice_mouldings
 62
   121
420
 10937829
100
AcDbVertex
100
AcDb3dPolylineVertex
 10
0.0000004978483048
 20
49.71814727783203
 30
-0.6206255555152893
 70
    32
  0
VERTEX
  5
16C
330
FA
100
AcDbEntity
  8
OracDecor_cornice_mouldings
 62
   121
420
 10937829
100
AcDbVertex
100
AcDb3dPolylineVertex
 10
0.0000005487781891
 20
50.05496215820312
 30
-0.5303850769996643
 70
    32
  0
SEQEND
  5
16D
330
FA
100
AcDbEntity
  8
OracDecor_cornice_mouldings
 62
   121
420
 10937829
  0
ENDSEC
  0
SECTION
  2
OBJECTS
  0
DICTIONARY
  5
C
330
0
100
AcDbDictionary
281
     1
  3
ACAD_COLOR
350
DC
  3
ACAD_DETAILVIEWSTYLE
350
F5
  3
ACAD_GROUP
350
D
  3
ACAD_LAYOUT
350
1A
  3
ACAD_MATERIAL
350
AA
  3
ACAD_MLEADERSTYLE
350
F1
  3
ACAD_MLINESTYLE
350
17
  3
ACAD_PLOTSETTINGS
350
19
  3
ACAD_PLOTSTYLENAME
350
E
  3
ACAD_SCALELIST
350
DF
  3
ACAD_SECTIONVIEWSTYLE
350
F3
  3
ACAD_TABLESTYLE
350
DD
  3
ACAD_VISUALSTYLE
350
C3
  3
ACDB_RECOMPOSE_DATA
350
17A
  3
AcDbVariableDictionary
350
16E
  0
DICTIONARY
  5
DC
102
{ACAD_REACTORS
330
C
102
}
330
C
100
AcDbDictionary
281
     1
  0
DICTIONARY
  5
F5
102
{ACAD_REACTORS
330
C
102
}
330
C
100
AcDbDictionary
281
     1
  3
Imperial24
350
F6
  0
DICTIONARY
  5
D
102
{ACAD_REACTORS
330
C
102
}
330
C
100
AcDbDictionary
281
     1
  0
DICTIONARY
  5
1A
102
{ACAD_REACTORS
330
C
102
}
330
C
100
AcDbDictionary
281
     1
  3
Layout1
350
1E
  3
Layout2
350
26
  3
Model
350
22
  0
DICTIONARY
  5
AA
102
{ACAD_REACTORS
330
C
102
}
330
C
100
AcDbDictionary
281
     1
  3
ByBlock
350
B3
  3
ByLayer
350
AB
  3
Global
350
BB
  0
DICTIONARY
  5
F1
102
{ACAD_REACTORS
330
C
102
}
330
C
100
AcDbDictionary
281
     1
  3
Standard
350
F2
  0
DICTIONARY
  5
17
102
{ACAD_REACTORS
330
C
102
}
330
C
100
AcDbDictionary
281
     1
  3
Standard
350
18
  0
DICTIONARY
  5
19
102
{ACAD_REACTORS
330
C
102
}
330
C
100
AcDbDictionary
281
     1
  0
ACDBDICTIONARYWDFLT
  5
E
102
{ACAD_REACTORS
330
C
102
}
330
C
100
AcDbDictionary
281
     1
  3
ByLayer
350
2D
  3
Normal
350
F
100
AcDbDictionaryWithDefault
340
F
  0
DICTIONARY
  5
DF
102
{ACAD_REACTORS
330
C
102
}
330
C
100
AcDbDictionary
281
     1
  3
A0
350
E0
  3
A1
350
E1
  3
A2
350
E2
  3
A3
350
E3
  3
A4
350
E4
  3
A5
350
E5
  3
A6
350
E6
  3
A7
350
E7
  3
A8
350
E8
  3
A9
350
E9
  3
B0
350
EA
  3
B1
350
EB
  3
B2
350
EC
  3
B3
350
ED
  3
B4
350
EE
  3
B5
350
EF
  3
B6
350
F0
  0
DICTIONARY
  5
F3
102
{ACAD_REACTORS
330
C
102
}
330
C
100
AcDbDictionary
281
     1
  3
Imperial24
350
F4
  0
DICTIONARY
  5
DD
102
{ACAD_REACTORS
330
C
102
}
330
C
100
AcDbDictionary
281
     1
  3
Standard
350
DE
  0
DICTIONARY
  5
C3
102
{ACAD_REACTORS
330
C
102
}
330
C
100
AcDbDictionary
281
     1
  3
2dWireframe
350
C9
  3
Basic
350
C8
  3
Brighten
350
CF
  3
ColorChange
350
D3
  3
Conceptual
350
CC
  3
Dim
350
CE
  3
EdgeColorOff
350
DB
  3
Facepattern
350
D2
  3
Flat
350
C4
  3
FlatWithEdges
350
C5
  3
Gouraud
350
C6
  3
GouraudWithEdges
350
C7
  3
Hidden
350
CB
  3
JitterOff
350
D9
  3
Linepattern
350
D1
  3
OverhangOff
350
DA
  3
Realistic
350
CD
  3
Shaded
350
D8
  3
Shaded with edges
350
D7
  3
Shades of Gray
350
D4
  3
Sketchy
350
D5
  3
Thicken
350
D0
  3
Wireframe
350
CA
  3
X-Ray
350
D6
  0
XRECORD
  5
17A
102
{ACAD_REACTORS
330
C
102
}
330
C
100
AcDbXrecord
280
     1
 90
        1
330
DE
  0
DICTIONARY
  5
16E
102
{ACAD_REACTORS
330
C
102
}
330
C
100
AcDbDictionary
281
     1
  3
CANNOSCALE
350
174
  3
CMLEADERSTYLE
350
170
  3
CTABLESTYLE
350
16F
  3
CVIEWDETAILSTYLE
350
171
  3
CVIEWSECTIONSTYLE
350
172
  3
LAYEREVAL
350
176
  3
LAYERNOTIFY
350
177
  3
LIGHTINGUNITS
350
175
  3
MSLTSCALE
350
173
  0
ACDBDETAILVIEWSTYLE
  5
F6
102
{ACAD_XDICTIONARY
360
1AF
102
}
102
{ACAD_REACTORS
330
F5
102
}
330
F5
100
AcDbModelDocViewStyle
 70
     0
  3
Imperial24
290
     0
100
AcDbDetailViewStyle
 70
     0
 71
     0
 90
        3
 71
     1
340
11
 62
   256
 40
0.24
340
0
 62
   256
 40
0.24
300

 40
0.36
280
     3
 71
     2
340
16
 90
       25
 62
   256
 71
     3
340
11
 62
   256
 40
0.24
 90
        1
 40
0.75
 90
        1
300
%<\AcVar ViewType \f "%tc1">% %<\AcVar ViewDetailId>%\PSCALE %<\AcVar ViewScale \f "%sn">%
 71
     4
340
16
 90
       25
 62
   256
340
16
 90
       25
 62
   256
280
     0
  0
LAYOUT
  5
1E
102
{ACAD_REACTORS
330
1A
102
}
330
1A
100
AcDbPlotSettings
  1

  2
\\KTXNTBDC\CASF2PN1
  4

  6

 40
0.0
 41
0.0
 42
0.0
 43
0.0
 44
0.0
 45
0.0
 46
0.0
 47
0.0
 48
0.0
 49
0.0
140
0.0
141
0.0
142
1.0
143
1.0
 70
   688
 72
     0
 73
     0
 74
     5
  7

 75
    16
147
1.0
 76
     0
 77
     2
 78
   300
148
0.0
149
0.0
100
AcDbLayout
  1
Layout1
 70
     1
 71
     1
 10
0.0
 20
0.0
 11
12.0
 21
9.0
 12
0.0
 22
0.0
 32
0.0
 14
1.000000000000000E+20
 24
1.000000000000000E+20
 34
1.000000000000000E+20
 15
-1.000000000000000E+20
 25
-1.000000000000000E+20
 35
-1.000000000000000E+20
146
0.0
 13
0.0
 23
0.0
 33
0.0
 16
1.0
 26
0.0
 36
0.0
 17
0.0
 27
1.0
 37
0.0
 76
     0
330
1B
  0
LAYOUT
  5
26
102
{ACAD_REACTORS
330
1A
102
}
330
1A
100
AcDbPlotSettings
  1

  2
\\KTXNTBDC\CASF2PN1
  4

  6

 40
0.0
 41
0.0
 42
0.0
 43
0.0
 44
0.0
 45
0.0
 46
0.0
 47
0.0
 48
0.0
 49
0.0
140
0.0
141
0.0
142
1.0
143
1.0
 70
   688
 72
     0
 73
     0
 74
     5
  7

 75
    16
147
1.0
 76
     0
 77
     2
 78
   300
148
0.0
149
0.0
100
AcDbLayout
  1
Layout2
 70
     1
 71
     2
 10
0.0
 20
0.0
 11
12.0
 21
9.0
 12
0.0
 22
0.0
 32
0.0
 14
0.0
 24
0.0
 34
0.0
 15
0.0
 25
0.0
 35
0.0
146
0.0
 13
0.0
 23
0.0
 33
0.0
 16
1.0
 26
0.0
 36
0.0
 17
0.0
 27
1.0
 37
0.0
 76
     0
330
23
  0
LAYOUT
  5
22
102
{ACAD_REACTORS
330
1A
102
}
330
1A
100
AcDbPlotSettings
  1

  2
\\KTXNTBDC\CASF2PN1
  4

  6

 40
0.0
 41
0.0
 42
0.0
 43
0.0
 44
0.0
 45
0.0
 46
0.0
 47
0.0
 48
0.0
 49
0.0
140
0.0
141
0.0
142
1.0
143
1.0
 70
  1712
 72
     0
 73
     0
 74
     0
  7

 75
     0
147
1.0
 76
     0
 77
     2
 78
   300
148
0.0
149
0.0
100
AcDbLayout
  1
Model
 70
     1
 71
     0
 10
0.0
 20
0.0
 11
12.0
 21
9.0
 12
0.0
 22
0.0
 32
0.0
 14
0.0
 24
0.0
 34
0.0
 15
0.0
 25
0.0
 35
0.0
146
0.0
 13
0.0
 23
0.0
 33
0.0
 16
1.0
 26
0.0
 36
0.0
 17
0.0
 27
1.0
 37
0.0
 76
     0
330
1F
  0
MATERIAL
  5
B3
102
{ACAD_XDICTIONARY
360
B4
102
}
102
{ACAD_REACTORS
330
AA
102
}
330
AA
100
AcDbMaterial
  1
ByBlock
 72
     0
 43
0.0208333333333333
 43
0.0
 43
0.0
 43
0.0
 43
0.0
 43
0.0208333333333333
 43
0.0
 43
0.0
 43
0.0
 43
0.0
 43
1.0
 43
0.0
 43
0.0
 43
0.0
 43
0.0
 43
1.0
 77
     0
 47
0.0208333333333333
 47
0.0
 47
0.0
 47
0.0
 47
0.0
 47
0.0208333333333333
 47
0.0
 47
0.0
 47
0.0
 47
0.0
 47
1.0
 47
0.0
 47
0.0
 47
0.0
 47
0.0
 47
1.0
171
     0
 49
0.0208333333333333
 49
0.0
 49
0.0
 49
0.0
 49
0.0
 49
0.0208333333333333
 49
0.0
 49
0.0
 49
0.0
 49
0.0
 49
1.0
 49
0.0
 49
0.0
 49
0.0
 49
0.0
 49
1.0
175
     0
142
0.0208333333333333
142
0.0
142
0.0
142
0.0
142
0.0
142
0.0208333333333333
142
0.0
142
0.0
142
0.0
142
0.0
142
1.0
142
0.0
142
0.0
142
0.0
142
0.0
142
1.0
179
     0
144
0.0208333333333333
144
0.0
144
0.0
144
0.0
144
0.0
144
0.0208333333333333
144
0.0
144
0.0
144
0.0
144
0.0
144
1.0
144
0.0
144
0.0
144
0.0
144
0.0
144
1.0
147
0.0208333333333333
147
0.0
147
0.0
147
0.0
147
0.0
147
0.0208333333333333
147
0.0
147
0.0
147
0.0
147
0.0
147
1.0
147
0.0
147
0.0
147
0.0
147
0.0
147
1.0
  0
MATERIAL
  5
AB
102
{ACAD_XDICTIONARY
360
AC
102
}
102
{ACAD_REACTORS
330
AA
102
}
330
AA
100
AcDbMaterial
  1
ByLayer
 72
     0
 43
0.0208333333333333
 43
0.0
 43
0.0
 43
0.0
 43
0.0
 43
0.0208333333333333
 43
0.0
 43
0.0
 43
0.0
 43
0.0
 43
1.0
 43
0.0
 43
0.0
 43
0.0
 43
0.0
 43
1.0
 77
     0
 47
0.0208333333333333
 47
0.0
 47
0.0
 47
0.0
 47
0.0
 47
0.0208333333333333
 47
0.0
 47
0.0
 47
0.0
 47
0.0
 47
1.0
 47
0.0
 47
0.0
 47
0.0
 47
0.0
 47
1.0
171
     0
 49
0.0208333333333333
 49
0.0
 49
0.0
 49
0.0
 49
0.0
 49
0.0208333333333333
 49
0.0
 49
0.0
 49
0.0
 49
0.0
 49
1.0
 49
0.0
 49
0.0
 49
0.0
 49
0.0
 49
1.0
175
     0
142
0.0208333333333333
142
0.0
142
0.0
142
0.0
142
0.0
142
0.0208333333333333
142
0.0
142
0.0
142
0.0
142
0.0
142
1.0
142
0.0
142
0.0
142
0.0
142
0.0
142
1.0
179
     0
144
0.0208333333333333
144
0.0
144
0.0
144
0.0
144
0.0
144
0.0208333333333333
144
0.0
144
0.0
144
0.0
144
0.0
144
1.0
144
0.0
144
0.0
144
0.0
144
0.0
144
1.0
147
0.0208333333333333
147
0.0
147
0.0
147
0.0
147
0.0
147
0.0208333333333333
147
0.0
147
0.0
147
0.0
147
0.0
147
1.0
147
0.0
147
0.0
147
0.0
147
0.0
147
1.0
  0
MATERIAL
  5
BB
102
{ACAD_XDICTIONARY
360
BC
102
}
102
{ACAD_REACTORS
330
AA
102
}
330
AA
100
AcDbMaterial
  1
Global
 72
     0
 43
0.0208333333333333
 43
0.0
 43
0.0
 43
0.0
 43
0.0
 43
0.0208333333333333
 43
0.0
 43
0.0
 43
0.0
 43
0.0
 43
1.0
 43
0.0
 43
0.0
 43
0.0
 43
0.0
 43
1.0
 77
     0
 47
0.0208333333333333
 47
0.0
 47
0.0
 47
0.0
 47
0.0
 47
0.0208333333333333
 47
0.0
 47
0.0
 47
0.0
 47
0.0
 47
1.0
 47
0.0
 47
0.0
 47
0.0
 47
0.0
 47
1.0
171
     0
 49
0.0208333333333333
 49
0.0
 49
0.0
 49
0.0
 49
0.0
 49
0.0208333333333333
 49
0.0
 49
0.0
 49
0.0
 49
0.0
 49
1.0
 49
0.0
 49
0.0
 49
0.0
 49
0.0
 49
1.0
175
     0
142
0.0208333333333333
142
0.0
142
0.0
142
0.0
142
0.0
142
0.0208333333333333
142
0.0
142
0.0
142
0.0
142
0.0
142
1.0
142
0.0
142
0.0
142
0.0
142
0.0
142
1.0
179
     0
144
0.0208333333333333
144
0.0
144
0.0
144
0.0
144
0.0
144
0.0208333333333333
144
0.0
144
0.0
144
0.0
144
0.0
144
1.0
144
0.0
144
0.0
144
0.0
144
0.0
144
1.0
147
0.0208333333333333
147
0.0
147
0.0
147
0.0
147
0.0
147
0.0208333333333333
147
0.0
147
0.0
147
0.0
147
0.0
147
1.0
147
0.0
147
0.0
147
0.0
147
0.0
147
1.0
  0
MLEADERSTYLE
  5
F2
102
{ACAD_XDICTIONARY
360
1AB
102
}
102
{ACAD_REACTORS
330
F1
102
}
330
F1
100
AcDbMLeaderStyle
179
     2
170
     2
171
     1
172
     0
 90
        2
 40
0.0
 41
0.0
173
     1
 91
-1056964608
340
14
 92
       -2
290
     1
 42
0.09
291
     1
 43
0.36
  3
Standard
 44
0.18
300

342
11
174
     1
178
     6
175
     1
176
     0
 93
-1056964608
 45
0.18
292
     0
297
     0
 46
0.18
 94
-1056964608
 47
1.0
 49
1.0
140
1.0
293
     1
141
0.0
294
     1
177
     0
142
1.0
295
     0
296
     0
143
0.125
271
     0
272
     9
273
     9
  0
MLINESTYLE
  5
18
102
{ACAD_REACTORS
330
17
102
}
330
17
100
AcDbMlineStyle
  2
STANDARD
 70
     0
  3

 62
   256
 51
90.0
 52
90.0
 71
     2
 49
0.5
 62
   256
  6
BYLAYER
 49
-0.5
 62
   256
  6
BYLAYER
  0
ACDBPLACEHOLDER
  5
2D
102
{ACAD_REACTORS
330
E
102
}
330
E
  0
ACDBPLACEHOLDER
  5
F
102
{ACAD_REACTORS
330
E
102
}
330
E
  0
SCALE
  5
E0
102
{ACAD_REACTORS
330
DF
102
}
330
DF
100
AcDbScale
 70
     0
300
1:1
140
1.0
141
1.0
290
     1
  0
SCALE
  5
E1
102
{ACAD_REACTORS
330
DF
102
}
330
DF
100
AcDbScale
 70
     0
300
1/128" = 1'-0"
140
0.0078125
141
12.0
290
     0
  0
SCALE
  5
E2
102
{ACAD_REACTORS
330
DF
102
}
330
DF
100
AcDbScale
 70
     0
300
1/64" = 1'-0"
140
0.015625
141
12.0
290
     0
  0
SCALE
  5
E3
102
{ACAD_REACTORS
330
DF
102
}
330
DF
100
AcDbScale
 70
     0
300
1/32" = 1'-0"
140
0.03125
141
12.0
290
     0
  0
SCALE
  5
E4
102
{ACAD_REACTORS
330
DF
102
}
330
DF
100
AcDbScale
 70
     0
300
1/16" = 1'-0"
140
0.0625
141
12.0
290
     0
  0
SCALE
  5
E5
102
{ACAD_REACTORS
330
DF
102
}
330
DF
100
AcDbScale
 70
     0
300
3/32" = 1'-0"
140
0.09375
141
12.0
290
     0
  0
SCALE
  5
E6
102
{ACAD_REACTORS
330
DF
102
}
330
DF
100
AcDbScale
 70
     0
300
1/8" = 1'-0"
140
0.125
141
12.0
290
     0
  0
SCALE
  5
E7
102
{ACAD_REACTORS
330
DF
102
}
330
DF
100
AcDbScale
 70
     0
300
3/16" = 1'-0"
140
0.1875
141
12.0
290
     0
  0
SCALE
  5
E8
102
{ACAD_REACTORS
330
DF
102
}
330
DF
100
AcDbScale
 70
     0
300
1/4" = 1'-0"
140
0.25
141
12.0
290
     0
  0
SCALE
  5
E9
102
{ACAD_REACTORS
330
DF
102
}
330
DF
100
AcDbScale
 70
     0
300
3/8" = 1'-0"
140
0.375
141
12.0
290
     0
  0
SCALE
  5
EA
102
{ACAD_REACTORS
330
DF
102
}
330
DF
100
AcDbScale
 70
     0
300
1/2" = 1'-0"
140
0.5
141
12.0
290
     0
  0
SCALE
  5
EB
102
{ACAD_REACTORS
330
DF
102
}
330
DF
100
AcDbScale
 70
     0
300
3/4" = 1'-0"
140
0.75
141
12.0
290
     0
  0
SCALE
  5
EC
102
{ACAD_REACTORS
330
DF
102
}
330
DF
100
AcDbScale
 70
     0
300
1" = 1'-0"
140
1.0
141
12.0
290
     0
  0
SCALE
  5
ED
102
{ACAD_REACTORS
330
DF
102
}
330
DF
100
AcDbScale
 70
     0
300
1-1/2" = 1'-0"
140
1.5
141
12.0
290
     0
  0
SCALE
  5
EE
102
{ACAD_REACTORS
330
DF
102
}
330
DF
100
AcDbScale
 70
     0
300
3" = 1'-0"
140
3.0
141
12.0
290
     0
  0
SCALE
  5
EF
102
{ACAD_REACTORS
330
DF
102
}
330
DF
100
AcDbScale
 70
     0
300
6" = 1'-0"
140
6.0
141
12.0
290
     0
  0
SCALE
  5
F0
102
{ACAD_REACTORS
330
DF
102
}
330
DF
100
AcDbScale
 70
     0
300
1'-0" = 1'-0"
140
12.0
141
12.0
290
     0
  0
ACDBSECTIONVIEWSTYLE
  5
F4
102
{ACAD_XDICTIONARY
360
1AD
102
}
102
{ACAD_REACTORS
330
F3
102
}
330
F3
100
AcDbModelDocViewStyle
 70
     0
  3
Imperial24
290
     0
100
AcDbSectionViewStyle
 70
     0
 71
     0
 90
       78
 71
     1
340
11
 62
   256
 40
0.24
340
0
340
0
 62
   256
 40
0.24
300
I, O, Q, S, X, Z
 40
0.48
 90
        3
 40
0.18
 90
        1
 71
     2
340
16
 90
       25
 62
   256
340
16
 90
       50
 62
   256
 40
0.24
 40
0.0
 40
0.24
 71
     3
340
11
 62
   256
 40
0.24
 90
        1
 40
0.75
 90
        1
300
%<\AcVar ViewType \f "%tc1">% %<\AcVar ViewSectionStartId>%-%<\AcVar ViewSectionEndId>%\PSCALE %<\AcVar ViewScale \f "%sn">%
 71
     4
 62
   256
 62
   257
300
ANSI31
 40
1.0
 90
        0
290
     0
290
     0
 90
        6
 40
0.0
 40
1.570796326794896
 40
0.2617993877991494
 40
1.308996938995747
 40
-0.2617993877991494
 40
1.832595714594046
  0
TABLESTYLE
  5
DE
102
{ACAD_XDICTIONARY
360
178
102
}
102
{ACAD_REACTORS
330
DD
102
}
330
DD
100
AcDbTableStyle
280
     0
  3
Standard
 70
     0
 71
     0
 40
0.06
 41
0.06
280
     0
281
     0
  7
Standard
140
0.18
170
     2
 62
     0
 63
     7
283
     0
 90
      512
 91
        0
  1

274
    -2
284
     1
 64
     0
275
    -2
285
     1
 65
     0
276
    -2
286
     1
 66
     0
277
    -2
287
     1
 67
     0
278
    -2
288
     1
 68
     0
279
    -2
289
     1
 69
     0
  7
Standard
140
0.25
170
     5
 62
     0
 63
     7
283
     0
 90
      512
 91
        0
  1

274
    -2
284
     1
 64
     0
275
    -2
285
     1
 65
     0
276
    -2
286
     1
 66
     0
277
    -2
287
     1
 67
     0
278
    -2
288
     1
 68
     0
279
    -2
289
     1
 69
     0
  7
Standard
140
0.18
170
     5
 62
     0
 63
     7
283
     0
 90
      512
 91
        0
  1

274
    -2
284
     1
 64
     0
275
    -2
285
     1
 65
     0
276
    -2
286
     1
 66
     0
277
    -2
287
     1
 67
     0
278
    -2
288
     1
 68
     0
279
    -2
289
     1
 69
     0
  0
VISUALSTYLE
  5
C9
102
{ACAD_XDICTIONARY
360
185
102
}
102
{ACAD_REACTORS
330
C3
102
}
330
C3
100
AcDbVisualStyle
  2
2dWireframe
 70
     4
177
     2
291
     0
 71
     0
176
     1
 72
     2
176
     1
 73
     0
176
     1
 90
        0
176
     1
 40
0.6
176
     1
 41
30.0
176
     1
 63
     7
421
 16777215
176
     1
 74
     1
176
     1
 91
        4
176
     1
 64
     7
176
     1
 65
   257
176
     1
 75
     1
176
     1
175
     1
176
     1
 42
1.0
176
     1
 92
        0
176
     1
 66
   257
176
     1
 43
1.0
176
     1
 76
     1
176
     1
 77
     6
176
     1
 78
     2
176
     1
 67
     7
176
     1
 79
     5
176
     1
170
     0
176
     1
171
     0
176
     1
290
     0
176
     1
 93
        1
176
     1
 44
0.0
176
     1
173
     0
176
     1
1001
ACAD
1000
AcDbSavedByObjectVersion
1070
     0
  0
VISUALSTYLE
  5
C8
102
{ACAD_XDICTIONARY
360
183
102
}
102
{ACAD_REACTORS
330
C3
102
}
330
C3
100
AcDbVisualStyle
  2
Basic
 70
     7
177
     2
291
     1
 71
     1
176
     1
 72
     0
176
     1
 73
     1
176
     1
 90
        0
176
     1
 40
0.6
176
     1
 41
30.0
176
     1
 63
     7
421
 16777215
176
     1
 74
     0
176
     1
 91
        4
176
     1
 64
     7
176
     1
 65
   257
176
     1
 75
     1
176
     1
175
     1
176
     1
 42
1.0
176
     1
 92
        8
176
     1
 66
     7
176
     1
 43
1.0
176
     1
 76
     1
176
     1
 77
     6
176
     1
 78
     2
176
     1
 67
     7
176
     1
 79
     5
176
     1
170
     0
176
     1
171
     0
176
     1
290
     0
176
     1
 93
        1
176
     1
 44
0.0
176
     1
173
     0
176
     1
1001
ACAD
1000
AcDbSavedByObjectVersion
1070
     0
  0
VISUALSTYLE
  5
CF
102
{ACAD_XDICTIONARY
360
191
102
}
102
{ACAD_REACTORS
330
C3
102
}
330
C3
100
AcDbVisualStyle
  2
Brighten
 70
    12
177
     2
291
     1
 71
     2
176
     1
 72
     2
176
     1
 73
     0
176
     1
 90
        0
176
     1
 40
0.6
176
     1
 41
30.0
176
     1
 63
     7
421
 16777215
176
     1
 74
     1
176
     1
 91
        4
176
     1
 64
     7
176
     1
 65
   257
176
     1
 75
     1
176
     1
175
     1
176
     1
 42
1.0
176
     1
 92
        8
176
     1
 66
     7
176
     1
 43
1.0
176
     1
 76
     1
176
     1
 77
     6
176
     1
 78
     2
176
     1
 67
     7
176
     1
 79
     5
176
     1
170
     0
176
     1
171
     0
176
     1
290
     0
176
     1
 93
        1
176
     1
 44
50.0
176
     1
173
     0
176
     1
1001
ACAD
1000
AcDbSavedByObjectVersion
1070
     0
  0
VISUALSTYLE
  5
D3
102
{ACAD_XDICTIONARY
360
199
102
}
102
{ACAD_REACTORS
330
C3
102
}
330
C3
100
AcDbVisualStyle
  2
ColorChange
 70
    16
177
     2
291
     1
 71
     2
176
     1
 72
     2
176
     1
 73
     3
176
     1
 90
        0
176
     1
 40
0.6
176
     1
 41
30.0
176
     1
 63
     8
421
  8421504
176
     1
 74
     1
176
     1
 91
        4
176
     1
 64
     7
176
     1
 65
   257
176
     1
 75
     1
176
     1
175
     1
176
     1
 42
1.0
176
     1
 92
        8
176
     1
 66
     8
424
  8421504
176
     1
 43
1.0
176
     1
 76
     1
176
     1
 77
     6
176
     1
 78
     2
176
     1
 67
     7
176
     1
 79
     5
176
     1
170
     0
176
     1
171
     0
176
     1
290
     0
176
     1
 93
        1
176
     1
 44
0.0
176
     1
173
     0
176
     1
1001
ACAD
1000
AcDbSavedByObjectVersion
1070
     0
  0
VISUALSTYLE
  5
CC
102
{ACAD_XDICTIONARY
360
18B
102
}
102
{ACAD_REACTORS
330
C3
102
}
330
C3
100
AcDbVisualStyle
  2
Conceptual
 70
     9
177
     2
291
     0
 71
     3
176
     1
 72
     2
176
     1
 73
     0
176
     1
 90
        0
176
     1
 40
0.6
176
     1
 41
30.0
176
     1
 63
     7
421
 16777215
176
     1
 74
     2
176
     1
 91
        2
176
     1
 64
     7
176
     1
 65
   257
176
     1
 75
     1
176
     1
175
     1
176
     1
 42
179.0
176
     1
 92
        8
176
     1
 66
     7
176
     1
 43
1.0
176
     1
 76
     1
176
     1
 77
     6
176
     1
 78
     2
176
     1
 67
     7
176
     1
 79
     3
176
     1
170
     0
176
     1
171
     0
176
     1
290
     0
176
     1
 93
        1
176
     1
 44
0.0
176
     1
173
     0
176
     1
1001
ACAD
1000
AcDbSavedByObjectVersion
1070
     0
  0
VISUALSTYLE
  5
CE
102
{ACAD_XDICTIONARY
360
18F
102
}
102
{ACAD_REACTORS
330
C3
102
}
330
C3
100
AcDbVisualStyle
  2
Dim
 70
    11
177
     2
291
     1
 71
     2
176
     1
 72
     2
176
     1
 73
     0
176
     1
 90
        0
176
     1
 40
0.6
176
     1
 41
30.0
176
     1
 63
     7
421
 16777215
176
     1
 74
     1
176
     1
 91
        4
176
     1
 64
     7
176
     1
 65
   257
176
     1
 75
     1
176
     1
175
     1
176
     1
 42
1.0
176
     1
 92
        8
176
     1
 66
     7
176
     1
 43
1.0
176
     1
 76
     1
176
     1
 77
     6
176
     1
 78
     2
176
     1
 67
     7
176
     1
 79
     5
176
     1
170
     0
176
     1
171
     0
176
     1
290
     0
176
     1
 93
        1
176
     1
 44
-50.0
176
     1
173
     0
176
     1
1001
ACAD
1000
AcDbSavedByObjectVersion
1070
     0
  0
VISUALSTYLE
  5
DB
102
{ACAD_XDICTIONARY
360
1A9
102
}
102
{ACAD_REACTORS
330
C3
102
}
330
C3
100
AcDbVisualStyle
  2
EdgeColorOff
 70
    22
177
     2
291
     1
 71
     2
176
     0
 72
     2
176
     0
 73
     0
176
     0
 90
        0
176
     0
 40
0.6
176
     0
 41
30.0
176
     0
 63
     7
421
 16777215
176
     0
 74
     1
176
     0
 91
        4
176
     0
 64
     7
176
     0
 65
   257
176
     0
 75
     1
176
     0
175
     1
176
     0
 42
1.0
176
     0
 92
        8
176
     2
 66
     7
176
     0
 43
1.0
176
     0
 76
     1
176
     0
 77
     6
176
     0
 78
     2
176
     0
 67
     7
176
     0
 79
     5
176
     0
170
     0
176
     0
171
     0
176
     0
290
     0
176
     0
 93
        1
176
     0
 44
0.0
176
     0
173
     0
176
     0
1001
ACAD
1000
AcDbSavedByObjectVersion
1070
     0
  0
VISUALSTYLE
  5
D2
102
{ACAD_XDICTIONARY
360
197
102
}
102
{ACAD_REACTORS
330
C3
102
}
330
C3
100
AcDbVisualStyle
  2
Facepattern
 70
    15
177
     2
291
     1
 71
     2
176
     1
 72
     2
176
     1
 73
     0
176
     1
 90
        0
176
     1
 40
0.6
176
     1
 41
30.0
176
     1
 63
     7
421
 16777215
176
     1
 74
     1
176
     1
 91
        4
176
     1
 64
     7
176
     1
 65
   257
176
     1
 75
     1
176
     1
175
     1
176
     1
 42
1.0
176
     1
 92
        8
176
     1
 66
     7
176
     1
 43
1.0
176
     1
 76
     1
176
     1
 77
     6
176
     1
 78
     2
176
     1
 67
     7
176
     1
 79
     5
176
     1
170
     0
176
     1
171
     0
176
     1
290
     0
176
     1
 93
        1
176
     1
 44
0.0
176
     1
173
     0
176
     1
1001
ACAD
1000
AcDbSavedByObjectVersion
1070
     0
  0
VISUALSTYLE
  5
C4
102
{ACAD_XDICTIONARY
360
17B
102
}
102
{ACAD_REACTORS
330
C3
102
}
330
C3
100
AcDbVisualStyle
  2
Flat
 70
     0
177
     2
291
     1
 71
     2
176
     1
 72
     1
176
     1
 73
     1
176
     1
 90
        2
176
     1
 40
0.6
176
     1
 41
30.0
176
     1
 63
     7
421
 16777215
176
     1
 74
     0
176
     1
 91
        0
176
     1
 64
     7
176
     1
 65
   257
176
     1
 75
     1
176
     1
175
     1
176
     1
 42
1.0
176
     1
 92
        8
176
     1
 66
     7
176
     1
 43
1.0
176
     1
 76
     1
176
     1
 77
     6
176
     1
 78
     2
176
     1
 67
     7
176
     1
 79
     5
176
     1
170
     0
176
     1
171
     0
176
     1
290
     0
176
     1
 93
       13
176
     1
 44
0.0
176
     1
173
     0
176
     1
1001
ACAD
1000
AcDbSavedByObjectVersion
1070
     0
  0
VISUALSTYLE
  5
C5
102
{ACAD_XDICTIONARY
360
17D
102
}
102
{ACAD_REACTORS
330
C3
102
}
330
C3
100
AcDbVisualStyle
  2
FlatWithEdges
 70
     1
177
     2
291
     1
 71
     2
176
     1
 72
     1
176
     1
 73
     1
176
     1
 90
        2
176
     1
 40
0.6
176
     1
 41
30.0
176
     1
 63
     7
421
 16777215
176
     1
 74
     1
176
     1
 91
        0
176
     1
 64
     7
176
     1
 65
   257
176
     1
 75
     1
176
     1
175
     1
176
     1
 42
1.0
176
     1
 92
        0
176
     1
 66
   257
176
     1
 43
1.0
176
     1
 76
     1
176
     1
 77
     6
176
     1
 78
     2
176
     1
 67
     7
176
     1
 79
     5
176
     1
170
     0
176
     1
171
     0
176
     1
290
     0
176
     1
 93
       13
176
     1
 44
0.0
176
     1
173
     0
176
     1
1001
ACAD
1000
AcDbSavedByObjectVersion
1070
     0
  0
VISUALSTYLE
  5
C6
102
{ACAD_XDICTIONARY
360
17F
102
}
102
{ACAD_REACTORS
330
C3
102
}
330
C3
100
AcDbVisualStyle
  2
Gouraud
 70
     2
177
     2
291
     1
 71
     2
176
     1
 72
     2
176
     1
 73
     1
176
     1
 90
        2
176
     1
 40
0.6
176
     1
 41
30.0
176
     1
 63
     7
421
 16777215
176
     1
 74
     0
176
     1
 91
        0
176
     1
 64
     7
176
     1
 65
   257
176
     1
 75
     1
176
     1
175
     1
176
     1
 42
1.0
176
     1
 92
        0
176
     1
 66
     7
176
     1
 43
1.0
176
     1
 76
     1
176
     1
 77
     6
176
     1
 78
     2
176
     1
 67
     7
176
     1
 79
     5
176
     1
170
     0
176
     1
171
     0
176
     1
290
     0
176
     1
 93
       13
176
     1
 44
0.0
176
     1
173
     0
176
     1
1001
ACAD
1000
AcDbSavedByObjectVersion
1070
     0
  0
VISUALSTYLE
  5
C7
102
{ACAD_XDICTIONARY
360
181
102
}
102
{ACAD_REACTORS
330
C3
102
}
330
C3
100
AcDbVisualStyle
  2
GouraudWithEdges
 70
     3
177
     2
291
     1
 71
     2
176
     1
 72
     2
176
     1
 73
     1
176
     1
 90
        2
176
     1
 40
0.6
176
     1
 41
30.0
176
     1
 63
     7
421
 16777215
176
     1
 74
     1
176
     1
 91
        0
176
     1
 64
     7
176
     1
 65
   257
176
     1
 75
     1
176
     1
175
     1
176
     1
 42
1.0
176
     1
 92
        0
176
     1
 66
   257
176
     1
 43
1.0
176
     1
 76
     1
176
     1
 77
     6
176
     1
 78
     2
176
     1
 67
     7
176
     1
 79
     5
176
     1
170
     0
176
     1
171
     0
176
     1
290
     0
176
     1
 93
       13
176
     1
 44
0.0
176
     1
173
     0
176
     1
1001
ACAD
1000
AcDbSavedByObjectVersion
1070
     0
  0
VISUALSTYLE
  5
CB
102
{ACAD_XDICTIONARY
360
189
102
}
102
{ACAD_REACTORS
330
C3
102
}
330
C3
100
AcDbVisualStyle
  2
Hidden
 70
     6
177
     2
291
     0
 71
     1
176
     1
 72
     2
176
     1
 73
     2
176
     1
 90
        0
176
     1
 40
0.6
176
     1
 41
30.0
176
     1
 63
     7
421
 16777215
176
     1
 74
     2
176
     1
 91
        2
176
     1
 64
     7
176
     1
 65
   257
176
     1
 75
     2
176
     1
175
     1
176
     1
 42
40.0
176
     1
 92
        0
176
     1
 66
   257
176
     1
 43
1.0
176
     1
 76
     1
176
     1
 77
     6
176
     1
 78
     2
176
     1
 67
     7
176
     1
 79
     3
176
     1
170
     0
176
     1
171
     0
176
     1
290
     0
176
     1
 93
        1
176
     1
 44
0.0
176
     1
173
     0
176
     1
1001
ACAD
1000
AcDbSavedByObjectVersion
1070
     0
  0
VISUALSTYLE
  5
D9
102
{ACAD_XDICTIONARY
360
1A5
102
}
102
{ACAD_REACTORS
330
C3
102
}
330
C3
100
AcDbVisualStyle
  2
JitterOff
 70
    20
177
     2
291
     1
 71
     2
176
     0
 72
     2
176
     0
 73
     0
176
     0
 90
        0
176
     0
 40
0.6
176
     0
 41
30.0
176
     0
 63
     7
421
 16777215
176
     0
 74
     1
176
     0
 91
        4
176
     0
 64
     7
176
     0
 65
   257
176
     0
 75
     1
176
     0
175
     1
176
     0
 42
1.0
176
     0
 92
       10
176
     2
 66
     7
176
     0
 43
1.0
176
     0
 76
     1
176
     0
 77
     6
176
     0
 78
     2
176
     0
 67
     7
176
     0
 79
     5
176
     0
170
     0
176
     0
171
     0
176
     0
290
     0
176
     0
 93
        1
176
     0
 44
0.0
176
     0
173
     0
176
     0
1001
ACAD
1000
AcDbSavedByObjectVersion
1070
     0
  0
VISUALSTYLE
  5
D1
102
{ACAD_XDICTIONARY
360
195
102
}
102
{ACAD_REACTORS
330
C3
102
}
330
C3
100
AcDbVisualStyle
  2
Linepattern
 70
    14
177
     2
291
     1
 71
     2
176
     1
 72
     2
176
     1
 73
     0
176
     1
 90
        0
176
     1
 40
0.6
176
     1
 41
30.0
176
     1
 63
     7
421
 16777215
176
     1
 74
     1
176
     1
 91
        4
176
     1
 64
     7
176
     1
 65
   257
176
     1
 75
     7
176
     1
175
     7
176
     1
 42
1.0
176
     1
 92
        8
176
     1
 66
     7
176
     1
 43
1.0
176
     1
 76
     1
176
     1
 77
     6
176
     1
 78
     2
176
     1
 67
     7
176
     1
 79
     5
176
     1
170
     0
176
     1
171
     0
176
     1
290
     0
176
     1
 93
        1
176
     1
 44
0.0
176
     1
173
     0
176
     1
1001
ACAD
1000
AcDbSavedByObjectVersion
1070
     0
  0
VISUALSTYLE
  5
DA
102
{ACAD_XDICTIONARY
360
1A7
102
}
102
{ACAD_REACTORS
330
C3
102
}
330
C3
100
AcDbVisualStyle
  2
OverhangOff
 70
    21
177
     2
291
     1
 71
     2
176
     0
 72
     2
176
     0
 73
     0
176
     0
 90
        0
176
     0
 40
0.6
176
     0
 41
30.0
176
     0
 63
     7
421
 16777215
176
     0
 74
     1
176
     0
 91
        4
176
     0
 64
     7
176
     0
 65
   257
176
     0
 75
     1
176
     0
175
     1
176
     0
 42
1.0
176
     0
 92
        9
176
     2
 66
     7
176
     0
 43
1.0
176
     0
 76
     1
176
     0
 77
     6
176
     0
 78
     2
176
     0
 67
     7
176
     0
 79
     5
176
     0
170
     0
176
     0
171
     0
176
     0
290
     0
176
     0
 93
        1
176
     0
 44
0.0
176
     0
173
     0
176
     0
1001
ACAD
1000
AcDbSavedByObjectVersion
1070
     0
  0
VISUALSTYLE
  5
CD
102
{ACAD_XDICTIONARY
360
18D
102
}
102
{ACAD_REACTORS
330
C3
102
}
330
C3
100
AcDbVisualStyle
  2
Realistic
 70
     8
177
     2
291
     0
 71
     2
176
     1
 72
     3
176
     1
 73
     0
176
     1
 90
        2
176
     1
 40
0.6
176
     1
 41
30.0
176
     1
 63
     7
421
 16777215
176
     1
 74
     0
176
     1
 91
        0
176
     1
 64
     7
176
     1
 65
   257
176
     1
 75
     1
176
     1
175
     1
176
     1
 42
1.0
176
     1
 92
        8
176
     1
 66
   257
176
     1
 43
1.0
176
     1
 76
     1
176
     1
 77
     6
176
     1
 78
     2
176
     1
 67
     7
176
     1
 79
     3
176
     1
170
     0
176
     1
171
     0
176
     1
290
     0
176
     1
 93
       13
176
     1
 44
0.0
176
     1
173
     0
176
     1
1001
ACAD
1000
AcDbSavedByObjectVersion
1070
     0
  0
VISUALSTYLE
  5
D8
102
{ACAD_XDICTIONARY
360
1A3
102
}
102
{ACAD_REACTORS
330
C3
102
}
330
C3
100
AcDbVisualStyle
  2
Shaded
 70
    27
177
     2
291
     0
 71
     2
176
     1
 72
     2
176
     1
 73
     1
176
     1
 90
        2
176
     1
 40
0.6
176
     1
 41
30.0
176
     1
 63
     7
421
 16777215
176
     1
 74
     0
176
     1
 91
        4
176
     1
 64
     7
176
     1
 65
   257
176
     1
 75
     1
176
     1
175
     1
176
     1
 42
1.0
176
     1
 92
        8
176
     1
 66
   257
176
     1
 43
1.0
176
     1
 76
     1
176
     1
 77
     6
176
     1
 78
     2
176
     1
 67
     8
425
  7895160
176
     1
 79
     3
176
     1
170
     0
176
     1
171
     0
176
     1
290
     0
176
     1
 93
        5
176
     1
 44
0.0
176
     1
173
     0
176
     1
1001
ACAD
1000
AcDbSavedByObjectVersion
1070
     0
  0
VISUALSTYLE
  5
D7
102
{ACAD_XDICTIONARY
360
1A1
102
}
102
{ACAD_REACTORS
330
C3
102
}
330
C3
100
AcDbVisualStyle
  2
Shaded with edges
 70
    26
177
     2
291
     0
 71
     2
176
     1
 72
     2
176
     1
 73
     1
176
     1
 90
        2
176
     1
 40
0.6
176
     1
 41
30.0
176
     1
 63
     7
421
 16777215
176
     1
 74
     1
176
     1
 91
       10
176
     1
 64
     7
176
     1
 65
   257
176
     1
 75
     2
176
     1
175
     1
176
     1
 42
1.0
176
     1
 92
        8
176
     1
 66
   257
176
     1
 43
1.0
176
     1
 76
     1
176
     1
 77
     6
176
     1
 78
     2
176
     1
 67
     7
176
     1
 79
     3
176
     1
170
     0
176
     1
171
     0
176
     1
290
     0
176
     1
 93
        5
176
     1
 44
0.0
176
     1
173
     0
176
     1
1001
ACAD
1000
AcDbSavedByObjectVersion
1070
     0
  0
VISUALSTYLE
  5
D4
102
{ACAD_XDICTIONARY
360
19B
102
}
102
{ACAD_REACTORS
330
C3
102
}
330
C3
100
AcDbVisualStyle
  2
Shades of Gray
 70
    23
177
     2
291
     0
 71
     2
176
     1
 72
     2
176
     1
 73
     3
176
     1
 90
        0
176
     1
 40
0.6
176
     1
 41
30.0
176
     1
 63
     7
421
 16777215
176
     1
 74
     2
176
     1
 91
        2
176
     1
 64
     7
176
     1
 65
     7
176
     1
 75
     1
176
     1
175
     1
176
     1
 42
40.0
176
     1
 92
        8
176
     1
 66
     7
176
     1
 43
1.0
176
     1
 76
     1
176
     1
 77
     6
176
     1
 78
     2
176
     1
 67
     7
176
     1
 79
     3
176
     1
170
     0
176
     1
171
     0
176
     1
290
     0
176
     1
 93
        1
176
     1
 44
0.0
176
     1
173
     0
176
     1
1001
ACAD
1000
AcDbSavedByObjectVersion
1070
     0
  0
VISUALSTYLE
  5
D5
102
{ACAD_XDICTIONARY
360
19D
102
}
102
{ACAD_REACTORS
330
C3
102
}
330
C3
100
AcDbVisualStyle
  2
Sketchy
 70
    24
177
     2
291
     0
 71
     1
176
     1
 72
     2
176
     1
 73
     2
176
     1
 90
        0
176
     1
 40
0.6
176
     1
 41
30.0
176
     1
 63
     7
421
 16777215
176
     1
 74
     2
176
     1
 91
        2
176
     1
 64
     7
176
     1
 65
     7
176
     1
 75
     1
176
     1
175
     1
176
     1
 42
40.0
176
     1
 92
       11
176
     1
 66
     7
176
     1
 43
1.0
176
     1
 76
     1
176
     1
 77
     6
176
     1
 78
     2
176
     1
 67
     7
176
     1
 79
     6
176
     1
170
     0
176
     1
171
     0
176
     1
290
     0
176
     1
 93
        1
176
     1
 44
0.0
176
     1
173
     0
176
     1
1001
ACAD
1000
AcDbSavedByObjectVersion
1070
     0
  0
VISUALSTYLE
  5
D0
102
{ACAD_XDICTIONARY
360
193
102
}
102
{ACAD_REACTORS
330
C3
102
}
330
C3
100
AcDbVisualStyle
  2
Thicken
 70
    13
177
     2
291
     1
 71
     2
176
     1
 72
     2
176
     1
 73
     0
176
     1
 90
        0
176
     1
 40
0.6
176
     1
 41
30.0
176
     1
 63
     7
421
 16777215
176
     1
 74
     1
176
     1
 91
        4
176
     1
 64
     7
176
     1
 65
   257
176
     1
 75
     1
176
     1
175
     1
176
     1
 42
1.0
176
     1
 92
       12
176
     1
 66
     7
176
     1
 43
1.0
176
     1
 76
     1
176
     1
 77
     6
176
     1
 78
     2
176
     1
 67
     7
176
     1
 79
     5
176
     1
170
     0
176
     1
171
     0
176
     1
290
     0
176
     1
 93
        1
176
     1
 44
0.0
176
     1
173
     0
176
     1
1001
ACAD
1000
AcDbSavedByObjectVersion
1070
     0
  0
VISUALSTYLE
  5
CA
102
{ACAD_XDICTIONARY
360
187
102
}
102
{ACAD_REACTORS
330
C3
102
}
330
C3
100
AcDbVisualStyle
  2
Wireframe
 70
     5
177
     2
291
     0
 71
     0
176
     1
 72
     2
176
     1
 73
     0
176
     1
 90
        0
176
     1
 40
0.6
176
     1
 41
30.0
176
     1
 63
     7
421
 16777215
176
     1
 74
     1
176
     1
 91
        4
176
     1
 64
     7
176
     1
 65
   257
176
     1
 75
     1
176
     1
175
     1
176
     1
 42
1.0
176
     1
 92
        0
176
     1
 66
   257
176
     1
 43
1.0
176
     1
 76
     1
176
     1
 77
     6
176
     1
 78
     2
176
     1
 67
     7
176
     1
 79
     3
176
     1
170
     0
176
     1
171
     0
176
     1
290
     0
176
     1
 93
        1
176
     1
 44
0.0
176
     1
173
     0
176
     1
1001
ACAD
1000
AcDbSavedByObjectVersion
1070
     0
  0
VISUALSTYLE
  5
D6
102
{ACAD_XDICTIONARY
360
19F
102
}
102
{ACAD_REACTORS
330
C3
102
}
330
C3
100
AcDbVisualStyle
  2
X-Ray
 70
    25
177
     2
291
     0
 71
     2
176
     1
 72
     2
176
     1
 73
     1
176
     1
 90
        1
176
     1
 40
0.5
176
     1
 41
30.0
176
     1
 63
     7
421
 16777215
176
     1
 74
     1
176
     1
 91
        0
176
     1
 64
     7
176
     1
 65
   257
176
     1
 75
     1
176
     1
175
     1
176
     1
 42
1.0
176
     1
 92
        8
176
     1
 66
     7
176
     1
 43
1.0
176
     1
 76
     1
176
     1
 77
     6
176
     1
 78
     2
176
     1
 67
     7
176
     1
 79
     3
176
     1
170
     0
176
     1
171
     0
176
     1
290
     0
176
     1
 93
       13
176
     1
 44
0.0
176
     1
173
     0
176
     1
1001
ACAD
1000
AcDbSavedByObjectVersion
1070
     0
  0
DICTIONARYVAR
  5
174
102
{ACAD_REACTORS
330
16E
102
}
330
16E
100
DictionaryVariables
280
     0
  1
1:1
  0
DICTIONARYVAR
  5
170
102
{ACAD_REACTORS
330
16E
102
}
330
16E
100
DictionaryVariables
280
     0
  1
STANDARD
  0
DICTIONARYVAR
  5
16F
102
{ACAD_REACTORS
330
16E
102
}
330
16E
100
DictionaryVariables
280
     0
  1
STANDARD
  0
DICTIONARYVAR
  5
171
102
{ACAD_REACTORS
330
16E
102
}
330
16E
100
DictionaryVariables
280
     0
  1
Imperial24
  0
DICTIONARYVAR
  5
172
102
{ACAD_REACTORS
330
16E
102
}
330
16E
100
DictionaryVariables
280
     0
  1
Imperial24
  0
DICTIONARYVAR
  5
176
102
{ACAD_REACTORS
330
16E
102
}
330
16E
100
DictionaryVariables
280
     0
  1
1
  0
DICTIONARYVAR
  5
177
102
{ACAD_REACTORS
330
16E
102
}
330
16E
100
DictionaryVariables
280
     0
  1
15
  0
DICTIONARYVAR
  5
175
102
{ACAD_REACTORS
330
16E
102
}
330
16E
100
DictionaryVariables
280
     0
  1
0
  0
DICTIONARYVAR
  5
173
102
{ACAD_REACTORS
330
16E
102
}
330
16E
100
DictionaryVariables
280
     0
  1
0
  0
DICTIONARY
  5
1AF
330
F6
100
AcDbDictionary
280
     1
281
     1
  3
ACAD_XREC_ROUNDTRIP
360
1B0
  0
DICTIONARY
  5
B4
330
B3
100
AcDbDictionary
280
     1
281
     1
  3
BUMPTILE
360
B6
  3
DIFFUSETILE
360
B5
  3
OPACITYTILE
360
B9
  3
REFLECTIONTILE
360
B8
  3
REFRACTIONTILE
360
BA
  3
SPECULARTILE
360
B7
  0
DICTIONARY
  5
AC
330
AB
100
AcDbDictionary
280
     1
281
     1
  3
BUMPTILE
360
AE
  3
DIFFUSETILE
360
AD
  3
OPACITYTILE
360
B1
  3
REFLECTIONTILE
360
B0
  3
REFRACTIONTILE
360
B2
  3
SPECULARTILE
360
AF
  0
DICTIONARY
  5
BC
330
BB
100
AcDbDictionary
280
     1
281
     1
  3
BUMPTILE
360
BE
  3
DIFFUSETILE
360
BD
  3
OPACITYTILE
360
C1
  3
REFLECTIONTILE
360
C0
  3
REFRACTIONTILE
360
C2
  3
SPECULARTILE
360
BF
  0
DICTIONARY
  5
1AB
330
F2
100
AcDbDictionary
280
     1
281
     1
  3
ACAD_XREC_ROUNDTRIP
360
1AC
  0
DICTIONARY
  5
1AD
330
F4
100
AcDbDictionary
280
     1
281
     1
  3
ACAD_XREC_ROUNDTRIP
360
1AE
  0
DICTIONARY
  5
178
330
DE
100
AcDbDictionary
280
     1
281
     1
  3
ACAD_ROUNDTRIP_2008_TABLESTYLE_CELLSTYLEMAP
360
179
  0
DICTIONARY
  5
185
330
C9
100
AcDbDictionary
280
     1
281
     1
  3
ACAD_XREC_ROUNDTRIP
360
186
  0
DICTIONARY
  5
183
330
C8
100
AcDbDictionary
280
     1
281
     1
  3
ACAD_XREC_ROUNDTRIP
360
184
  0
DICTIONARY
  5
191
330
CF
100
AcDbDictionary
280
     1
281
     1
  3
ACAD_XREC_ROUNDTRIP
360
192
  0
DICTIONARY
  5
199
330
D3
100
AcDbDictionary
280
     1
281
     1
  3
ACAD_XREC_ROUNDTRIP
360
19A
  0
DICTIONARY
  5
18B
330
CC
100
AcDbDictionary
280
     1
281
     1
  3
ACAD_XREC_ROUNDTRIP
360
18C
  0
DICTIONARY
  5
18F
330
CE
100
AcDbDictionary
280
     1
281
     1
  3
ACAD_XREC_ROUNDTRIP
360
190
  0
DICTIONARY
  5
1A9
330
DB
100
AcDbDictionary
280
     1
281
     1
  3
ACAD_XREC_ROUNDTRIP
360
1AA
  0
DICTIONARY
  5
197
330
D2
100
AcDbDictionary
280
     1
281
     1
  3
ACAD_XREC_ROUNDTRIP
360
198
  0
DICTIONARY
  5
17B
330
C4
100
AcDbDictionary
280
     1
281
     1
  3
ACAD_XREC_ROUNDTRIP
360
17C
  0
DICTIONARY
  5
17D
330
C5
100
AcDbDictionary
280
     1
281
     1
  3
ACAD_XREC_ROUNDTRIP
360
17E
  0
DICTIONARY
  5
17F
330
C6
100
AcDbDictionary
280
     1
281
     1
  3
ACAD_XREC_ROUNDTRIP
360
180
  0
DICTIONARY
  5
181
330
C7
100
AcDbDictionary
280
     1
281
     1
  3
ACAD_XREC_ROUNDTRIP
360
182
  0
DICTIONARY
  5
189
330
CB
100
AcDbDictionary
280
     1
281
     1
  3
ACAD_XREC_ROUNDTRIP
360
18A
  0
DICTIONARY
  5
1A5
330
D9
100
AcDbDictionary
280
     1
281
     1
  3
ACAD_XREC_ROUNDTRIP
360
1A6
  0
DICTIONARY
  5
195
330
D1
100
AcDbDictionary
280
     1
281
     1
  3
ACAD_XREC_ROUNDTRIP
360
196
  0
DICTIONARY
  5
1A7
330
DA
100
AcDbDictionary
280
     1
281
     1
  3
ACAD_XREC_ROUNDTRIP
360
1A8
  0
DICTIONARY
  5
18D
330
CD
100
AcDbDictionary
280
     1
281
     1
  3
ACAD_XREC_ROUNDTRIP
360
18E
  0
DICTIONARY
  5
1A3
330
D8
100
AcDbDictionary
280
     1
281
     1
  3
ACAD_XREC_ROUNDTRIP
360
1A4
  0
DICTIONARY
  5
1A1
330
D7
100
AcDbDictionary
280
     1
281
     1
  3
ACAD_XREC_ROUNDTRIP
360
1A2
  0
DICTIONARY
  5
19B
330
D4
100
AcDbDictionary
280
     1
281
     1
  3
ACAD_XREC_ROUNDTRIP
360
19C
  0
DICTIONARY
  5
19D
330
D5
100
AcDbDictionary
280
     1
281
     1
  3
ACAD_XREC_ROUNDTRIP
360
19E
  0
DICTIONARY
  5
193
330
D0
100
AcDbDictionary
280
     1
281
     1
  3
ACAD_XREC_ROUNDTRIP
360
194
  0
DICTIONARY
  5
187
330
CA
100
AcDbDictionary
280
     1
281
     1
  3
ACAD_XREC_ROUNDTRIP
360
188
  0
DICTIONARY
  5
19F
330
D6
100
AcDbDictionary
280
     1
281
     1
  3
ACAD_XREC_ROUNDTRIP
360
1A0
  0
XRECORD
  5
1B0
102
{ACAD_REACTORS
330
1AF
102
}
330
1AF
100
AcDbXrecord
280
     1
102
DISPLAYNAME
  1
Imperial24
102
FLAGS
 90
        0
  0
XRECORD
  5
B6
102
{ACAD_REACTORS
330
B4
102
}
330
B4
100
AcDbXrecord
280
     1
270
     1
271
     1
  0
XRECORD
  5
B5
102
{ACAD_REACTORS
330
B4
102
}
330
B4
100
AcDbXrecord
280
     1
270
     1
271
     1
  0
XRECORD
  5
B9
102
{ACAD_REACTORS
330
B4
102
}
330
B4
100
AcDbXrecord
280
     1
270
     1
271
     1
  0
XRECORD
  5
B8
102
{ACAD_REACTORS
330
B4
102
}
330
B4
100
AcDbXrecord
280
     1
270
     1
271
     1
  0
XRECORD
  5
BA
102
{ACAD_REACTORS
330
B4
102
}
330
B4
100
AcDbXrecord
280
     1
270
     1
271
     1
  0
XRECORD
  5
B7
102
{ACAD_REACTORS
330
B4
102
}
330
B4
100
AcDbXrecord
280
     1
270
     1
271
     1
  0
XRECORD
  5
AE
102
{ACAD_REACTORS
330
AC
102
}
330
AC
100
AcDbXrecord
280
     1
270
     1
271
     1
  0
XRECORD
  5
AD
102
{ACAD_REACTORS
330
AC
102
}
330
AC
100
AcDbXrecord
280
     1
270
     1
271
     1
  0
XRECORD
  5
B1
102
{ACAD_REACTORS
330
AC
102
}
330
AC
100
AcDbXrecord
280
     1
270
     1
271
     1
  0
XRECORD
  5
B0
102
{ACAD_REACTORS
330
AC
102
}
330
AC
100
AcDbXrecord
280
     1
270
     1
271
     1
  0
XRECORD
  5
B2
102
{ACAD_REACTORS
330
AC
102
}
330
AC
100
AcDbXrecord
280
     1
270
     1
271
     1
  0
XRECORD
  5
AF
102
{ACAD_REACTORS
330
AC
102
}
330
AC
100
AcDbXrecord
280
     1
270
     1
271
     1
  0
XRECORD
  5
BE
102
{ACAD_REACTORS
330
BC
102
}
330
BC
100
AcDbXrecord
280
     1
270
     1
271
     1
  0
XRECORD
  5
BD
102
{ACAD_REACTORS
330
BC
102
}
330
BC
100
AcDbXrecord
280
     1
270
     1
271
     1
  0
XRECORD
  5
C1
102
{ACAD_REACTORS
330
BC
102
}
330
BC
100
AcDbXrecord
280
     1
270
     1
271
     1
  0
XRECORD
  5
C0
102
{ACAD_REACTORS
330
BC
102
}
330
BC
100
AcDbXrecord
280
     1
270
     1
271
     1
  0
XRECORD
  5
C2
102
{ACAD_REACTORS
330
BC
102
}
330
BC
100
AcDbXrecord
280
     1
270
     1
271
     1
  0
XRECORD
  5
BF
102
{ACAD_REACTORS
330
BC
102
}
330
BC
100
AcDbXrecord
280
     1
270
     1
271
     1
  0
XRECORD
  5
1AC
102
{ACAD_REACTORS
330
1AB
102
}
330
1AB
100
AcDbXrecord
280
     1
102
ACAD_ROUNDTRIP_2012_MLEADER_STYLE
298
     1
  0
XRECORD
  5
1AE
102
{ACAD_REACTORS
330
1AD
102
}
330
1AD
100
AcDbXrecord
280
     1
102
DISPLAYNAME
  1
Imperial24
102
FLAGS
 90
        0
  0
CELLSTYLEMAP
  5
179
102
{ACAD_REACTORS
330
178
102
}
330
178
100
AcDbCellStyleMap
 90
        3
300
CELLSTYLE
  1
TABLEFORMAT_BEGIN
 90
        5
170
     1
 91
        0
 92
    32768
 62
   257
 93
        1
300
CONTENTFORMAT
  1
CONTENTFORMAT_BEGIN
 90
        0
 91
        0
 92
      512
 93
        0
300

 40
0.0
140
1.0
 94
        5
 62
     0
340
11
144
0.25
309
CONTENTFORMAT_END
171
     0
 94
        0
309
TABLEFORMAT_END
  1
CELLSTYLE_BEGIN
 90
        1
 91
        1
300
_TITLE
309
CELLSTYLE_END
300
CELLSTYLE
  1
TABLEFORMAT_BEGIN
 90
        5
170
     1
 91
        0
 92
        0
 62
   257
 93
        1
300
CONTENTFORMAT
  1
CONTENTFORMAT_BEGIN
 90
        0
 91
        0
 92
      512
 93
        0
300

 40
0.0
140
1.0
 94
        5
 62
     0
340
11
144
0.18
309
CONTENTFORMAT_END
171
     0
 94
        0
309
TABLEFORMAT_END
  1
CELLSTYLE_BEGIN
 90
        2
 91
        1
300
_HEADER
309
CELLSTYLE_END
300
CELLSTYLE
  1
TABLEFORMAT_BEGIN
 90
        5
170
     1
 91
        0
 92
        0
 62
   257
 93
        1
300
CONTENTFORMAT
  1
CONTENTFORMAT_BEGIN
 90
        0
 91
        0
 92
      512
 93
        0
300

 40
0.0
140
1.0
 94
        2
 62
     0
340
11
144
0.18
309
CONTENTFORMAT_END
171
     0
 94
        0
309
TABLEFORMAT_END
  1
CELLSTYLE_BEGIN
 90
        3
 91
        2
300
_DATA
309
CELLSTYLE_END
  0
XRECORD
  5
186
102
{ACAD_REACTORS
330
185
102
}
330
185
100
AcDbXrecord
280
     1
102
RTVSPost2010Prop28
280
     1
102
RTVSPost2010PropOp28
 70
     1
102
RTVSPost2010Prop29
280
     1
102
RTVSPost2010PropOp29
 70
     1
102
RTVSPost2010Prop30
280
     0
102
RTVSPost2010PropOp30
 70
     1
102
RTVSPost2010Prop31
280
     0
102
RTVSPost2010PropOp31
 70
     1
102
RTVSPost2010Prop32
280
     0
102
RTVSPost2010PropOp32
 70
     1
102
RTVSPost2010Prop33
280
     0
102
RTVSPost2010PropOp33
 70
     1
102
RTVSPost2010Prop34
280
     0
102
RTVSPost2010PropOp34
 70
     1
102
RTVSPost2010Prop35
280
     0
102
RTVSPost2010PropOp35
 70
     1
102
RTVSPost2010Prop36
280
     0
102
RTVSPost2010PropOp36
 70
     1
102
RTVSPost2010Prop37
 90
       50
102
RTVSPost2010PropOp37
 70
     1
102
RTVSPost2010Prop38
140
0.0
102
RTVSPost2010PropOp38
 70
     1
102
RTVSPost2010Prop39
140
1.0
102
RTVSPost2010PropOp39
 70
     1
102
RTVSPost2010Prop40
 90
        0
102
RTVSPost2010PropOp40
 70
     1
102
RTVSPost2010Prop41ColorIndex
 90
       18
102
RTVSPost2010Prop41ColorRGB
 90
        0
102
RTVSPost2010PropOp41
 70
     1
102
RTVSPost2010Prop42
 90
       50
102
RTVSPost2010PropOp42
 70
     1
102
RTVSPost2010Prop43
 90
        3
102
RTVSPost2010PropOp43
 70
     1
102
RTVSPost2010Prop44ColorIndex
 90
        5
102
RTVSPost2010Prop44ColorRGB
 90
      255
102
RTVSPost2010PropOp44
 70
     1
102
RTVSPost2010Prop45
280
     0
102
RTVSPost2010PropOp45
 70
     1
102
RTVSPost2010Prop46
 90
       50
102
RTVSPost2010PropOp46
 70
     1
102
RTVSPost2010Prop47
 90
       50
102
RTVSPost2010PropOp47
 70
     1
102
RTVSPost2010Prop48
 90
       50
102
RTVSPost2010PropOp48
 70
     1
102
RTVSPost2010Prop49
280
     0
102
RTVSPost2010PropOp49
 70
     1
102
RTVSPost2010Prop50
 90
       50
102
RTVSPost2010PropOp50
 70
     1
102
RTVSPost2010Prop51ColorIndex
 90
      256
102
RTVSPost2010Prop51ColorRGB
 90
-16777216
102
RTVSPost2010PropOp51
 70
     0
102
RTVSPost2010Prop52
140
1.0
102
RTVSPost2010PropOp52
 70
     0
102
RTVSPost2010Prop53
 90
        2
102
RTVSPost2010PropOp53
 70
     1
102
RTVSPost2010Prop54
  1
strokes_ogs.tif
102
RTVSPost2010PropOp54
 70
     1
102
RTVSPost2010Prop55
280
     0
102
RTVSPost2010PropOp55
 70
     1
102
RTVSPost2010Prop56
140
1.0
102
RTVSPost2010PropOp56
 70
     1
102
RTVSPost2010Prop57
140
1.0
102
RTVSPost2010PropOp57
 70
     1
  0
XRECORD
  5
184
102
{ACAD_REACTORS
330
183
102
}
330
183
100
AcDbXrecord
280
     1
102
RTVSPost2010Prop28
280
     0
102
RTVSPost2010PropOp28
 70
     1
102
RTVSPost2010Prop29
280
     1
102
RTVSPost2010PropOp29
 70
     1
102
RTVSPost2010Prop30
280
     1
102
RTVSPost2010PropOp30
 70
     1
102
RTVSPost2010Prop31
280
     0
102
RTVSPost2010PropOp31
 70
     1
102
RTVSPost2010Prop32
280
     0
102
RTVSPost2010PropOp32
 70
     1
102
RTVSPost2010Prop33
280
     0
102
RTVSPost2010PropOp33
 70
     1
102
RTVSPost2010Prop34
280
     0
102
RTVSPost2010PropOp34
 70
     1
102
RTVSPost2010Prop35
280
     0
102
RTVSPost2010PropOp35
 70
     1
102
RTVSPost2010Prop36
280
     0
102
RTVSPost2010PropOp36
 70
     1
102
RTVSPost2010Prop37
 90
       50
102
RTVSPost2010PropOp37
 70
     1
102
RTVSPost2010Prop38
140
0.0
102
RTVSPost2010PropOp38
 70
     1
102
RTVSPost2010Prop39
140
1.0
102
RTVSPost2010PropOp39
 70
     1
102
RTVSPost2010Prop40
 90
        0
102
RTVSPost2010PropOp40
 70
     1
102
RTVSPost2010Prop41ColorIndex
 90
       18
102
RTVSPost2010Prop41ColorRGB
 90
        0
102
RTVSPost2010PropOp41
 70
     1
102
RTVSPost2010Prop42
 90
       50
102
RTVSPost2010PropOp42
 70
     1
102
RTVSPost2010Prop43
 90
        3
102
RTVSPost2010PropOp43
 70
     1
102
RTVSPost2010Prop44ColorIndex
 90
        5
102
RTVSPost2010Prop44ColorRGB
 90
      255
102
RTVSPost2010PropOp44
 70
     1
102
RTVSPost2010Prop45
280
     0
102
RTVSPost2010PropOp45
 70
     1
102
RTVSPost2010Prop46
 90
       50
102
RTVSPost2010PropOp46
 70
     1
102
RTVSPost2010Prop47
 90
       50
102
RTVSPost2010PropOp47
 70
     1
102
RTVSPost2010Prop48
 90
       50
102
RTVSPost2010PropOp48
 70
     1
102
RTVSPost2010Prop49
280
     0
102
RTVSPost2010PropOp49
 70
     1
102
RTVSPost2010Prop50
 90
       50
102
RTVSPost2010PropOp50
 70
     1
102
RTVSPost2010Prop51ColorIndex
 90
      256
102
RTVSPost2010Prop51ColorRGB
 90
-16777216
102
RTVSPost2010PropOp51
 70
     0
102
RTVSPost2010Prop52
140
1.0
102
RTVSPost2010PropOp52
 70
     0
102
RTVSPost2010Prop53
 90
        2
102
RTVSPost2010PropOp53
 70
     1
102
RTVSPost2010Prop54
  1
strokes_ogs.tif
102
RTVSPost2010PropOp54
 70
     1
102
RTVSPost2010Prop55
280
     0
102
RTVSPost2010PropOp55
 70
     1
102
RTVSPost2010Prop56
140
1.0
102
RTVSPost2010PropOp56
 70
     1
102
RTVSPost2010Prop57
140
1.0
102
RTVSPost2010PropOp57
 70
     1
  0
XRECORD
  5
192
102
{ACAD_REACTORS
330
191
102
}
330
191
100
AcDbXrecord
280
     1
102
RTVSPost2010Prop28
280
     0
102
RTVSPost2010PropOp28
 70
     1
102
RTVSPost2010Prop29
280
     1
102
RTVSPost2010PropOp29
 70
     1
102
RTVSPost2010Prop30
280
     1
102
RTVSPost2010PropOp30
 70
     1
102
RTVSPost2010Prop31
280
     0
102
RTVSPost2010PropOp31
 70
     1
102
RTVSPost2010Prop32
280
     0
102
RTVSPost2010PropOp32
 70
     1
102
RTVSPost2010Prop33
280
     0
102
RTVSPost2010PropOp33
 70
     1
102
RTVSPost2010Prop34
280
     0
102
RTVSPost2010PropOp34
 70
     1
102
RTVSPost2010Prop35
280
     0
102
RTVSPost2010PropOp35
 70
     1
102
RTVSPost2010Prop36
280
     0
102
RTVSPost2010PropOp36
 70
     1
102
RTVSPost2010Prop37
 90
       50
102
RTVSPost2010PropOp37
 70
     1
102
RTVSPost2010Prop38
140
0.0
102
RTVSPost2010PropOp38
 70
     1
102
RTVSPost2010Prop39
140
1.0
102
RTVSPost2010PropOp39
 70
     1
102
RTVSPost2010Prop40
 90
        0
102
RTVSPost2010PropOp40
 70
     1
102
RTVSPost2010Prop41ColorIndex
 90
       18
102
RTVSPost2010Prop41ColorRGB
 90
        0
102
RTVSPost2010PropOp41
 70
     1
102
RTVSPost2010Prop42
 90
       50
102
RTVSPost2010PropOp42
 70
     1
102
RTVSPost2010Prop43
 90
        3
102
RTVSPost2010PropOp43
 70
     1
102
RTVSPost2010Prop44ColorIndex
 90
        5
102
RTVSPost2010Prop44ColorRGB
 90
      255
102
RTVSPost2010PropOp44
 70
     1
102
RTVSPost2010Prop45
280
     0
102
RTVSPost2010PropOp45
 70
     1
102
RTVSPost2010Prop46
 90
       50
102
RTVSPost2010PropOp46
 70
     1
102
RTVSPost2010Prop47
 90
       50
102
RTVSPost2010PropOp47
 70
     1
102
RTVSPost2010Prop48
 90
       50
102
RTVSPost2010PropOp48
 70
     1
102
RTVSPost2010Prop49
280
     0
102
RTVSPost2010PropOp49
 70
     1
102
RTVSPost2010Prop50
 90
       50
102
RTVSPost2010PropOp50
 70
     1
102
RTVSPost2010Prop51ColorIndex
 90
      256
102
RTVSPost2010Prop51ColorRGB
 90
-16777216
102
RTVSPost2010PropOp51
 70
     0
102
RTVSPost2010Prop52
140
1.0
102
RTVSPost2010PropOp52
 70
     0
102
RTVSPost2010Prop53
 90
        2
102
RTVSPost2010PropOp53
 70
     1
102
RTVSPost2010Prop54
  1
strokes_ogs.tif
102
RTVSPost2010PropOp54
 70
     1
102
RTVSPost2010Prop55
280
     0
102
RTVSPost2010PropOp55
 70
     1
102
RTVSPost2010Prop56
140
1.0
102
RTVSPost2010PropOp56
 70
     1
102
RTVSPost2010Prop57
140
1.0
102
RTVSPost2010PropOp57
 70
     1
  0
XRECORD
  5
19A
102
{ACAD_REACTORS
330
199
102
}
330
199
100
AcDbXrecord
280
     1
102
RTVSPost2010Prop28
280
     0
102
RTVSPost2010PropOp28
 70
     1
102
RTVSPost2010Prop29
280
     1
102
RTVSPost2010PropOp29
 70
     1
102
RTVSPost2010Prop30
280
     1
102
RTVSPost2010PropOp30
 70
     1
102
RTVSPost2010Prop31
280
     0
102
RTVSPost2010PropOp31
 70
     1
102
RTVSPost2010Prop32
280
     0
102
RTVSPost2010PropOp32
 70
     1
102
RTVSPost2010Prop33
280
     0
102
RTVSPost2010PropOp33
 70
     1
102
RTVSPost2010Prop34
280
     0
102
RTVSPost2010PropOp34
 70
     1
102
RTVSPost2010Prop35
280
     0
102
RTVSPost2010PropOp35
 70
     1
102
RTVSPost2010Prop36
280
     0
102
RTVSPost2010PropOp36
 70
     1
102
RTVSPost2010Prop37
 90
       50
102
RTVSPost2010PropOp37
 70
     1
102
RTVSPost2010Prop38
140
0.0
102
RTVSPost2010PropOp38
 70
     1
102
RTVSPost2010Prop39
140
1.0
102
RTVSPost2010PropOp39
 70
     1
102
RTVSPost2010Prop40
 90
        0
102
RTVSPost2010PropOp40
 70
     1
102
RTVSPost2010Prop41ColorIndex
 90
       18
102
RTVSPost2010Prop41ColorRGB
 90
        0
102
RTVSPost2010PropOp41
 70
     1
102
RTVSPost2010Prop42
 90
       50
102
RTVSPost2010PropOp42
 70
     1
102
RTVSPost2010Prop43
 90
        3
102
RTVSPost2010PropOp43
 70
     1
102
RTVSPost2010Prop44ColorIndex
 90
        5
102
RTVSPost2010Prop44ColorRGB
 90
      255
102
RTVSPost2010PropOp44
 70
     1
102
RTVSPost2010Prop45
280
     0
102
RTVSPost2010PropOp45
 70
     1
102
RTVSPost2010Prop46
 90
       50
102
RTVSPost2010PropOp46
 70
     1
102
RTVSPost2010Prop47
 90
       50
102
RTVSPost2010PropOp47
 70
     1
102
RTVSPost2010Prop48
 90
       50
102
RTVSPost2010PropOp48
 70
     1
102
RTVSPost2010Prop49
280
     0
102
RTVSPost2010PropOp49
 70
     1
102
RTVSPost2010Prop50
 90
       50
102
RTVSPost2010PropOp50
 70
     1
102
RTVSPost2010Prop51ColorIndex
 90
      256
102
RTVSPost2010Prop51ColorRGB
 90
-16777216
102
RTVSPost2010PropOp51
 70
     0
102
RTVSPost2010Prop52
140
1.0
102
RTVSPost2010PropOp52
 70
     0
102
RTVSPost2010Prop53
 90
        2
102
RTVSPost2010PropOp53
 70
     1
102
RTVSPost2010Prop54
  1
strokes_ogs.tif
102
RTVSPost2010PropOp54
 70
     1
102
RTVSPost2010Prop55
280
     0
102
RTVSPost2010PropOp55
 70
     1
102
RTVSPost2010Prop56
140
1.0
102
RTVSPost2010PropOp56
 70
     1
102
RTVSPost2010Prop57
140
1.0
102
RTVSPost2010PropOp57
 70
     1
  0
XRECORD
  5
18C
102
{ACAD_REACTORS
330
18B
102
}
330
18B
100
AcDbXrecord
280
     1
102
RTVSPost2010Prop28
280
     0
102
RTVSPost2010PropOp28
 70
     1
102
RTVSPost2010Prop29
280
     1
102
RTVSPost2010PropOp29
 70
     1
102
RTVSPost2010Prop30
280
     1
102
RTVSPost2010PropOp30
 70
     1
102
RTVSPost2010Prop31
280
     0
102
RTVSPost2010PropOp31
 70
     1
102
RTVSPost2010Prop32
280
     0
102
RTVSPost2010PropOp32
 70
     1
102
RTVSPost2010Prop33
280
     0
102
RTVSPost2010PropOp33
 70
     1
102
RTVSPost2010Prop34
280
     0
102
RTVSPost2010PropOp34
 70
     1
102
RTVSPost2010Prop35
280
     0
102
RTVSPost2010PropOp35
 70
     1
102
RTVSPost2010Prop36
280
     0
102
RTVSPost2010PropOp36
 70
     1
102
RTVSPost2010Prop37
 90
       50
102
RTVSPost2010PropOp37
 70
     1
102
RTVSPost2010Prop38
140
0.0
102
RTVSPost2010PropOp38
 70
     1
102
RTVSPost2010Prop39
140
1.0
102
RTVSPost2010PropOp39
 70
     1
102
RTVSPost2010Prop40
 90
        0
102
RTVSPost2010PropOp40
 70
     1
102
RTVSPost2010Prop41ColorIndex
 90
       18
102
RTVSPost2010Prop41ColorRGB
 90
        0
102
RTVSPost2010PropOp41
 70
     1
102
RTVSPost2010Prop42
 90
       50
102
RTVSPost2010PropOp42
 70
     1
102
RTVSPost2010Prop43
 90
        3
102
RTVSPost2010PropOp43
 70
     1
102
RTVSPost2010Prop44ColorIndex
 90
        5
102
RTVSPost2010Prop44ColorRGB
 90
      255
102
RTVSPost2010PropOp44
 70
     1
102
RTVSPost2010Prop45
280
     0
102
RTVSPost2010PropOp45
 70
     1
102
RTVSPost2010Prop46
 90
       50
102
RTVSPost2010PropOp46
 70
     1
102
RTVSPost2010Prop47
 90
       50
102
RTVSPost2010PropOp47
 70
     1
102
RTVSPost2010Prop48
 90
       50
102
RTVSPost2010PropOp48
 70
     1
102
RTVSPost2010Prop49
280
     0
102
RTVSPost2010PropOp49
 70
     1
102
RTVSPost2010Prop50
 90
       50
102
RTVSPost2010PropOp50
 70
     1
102
RTVSPost2010Prop51ColorIndex
 90
      256
102
RTVSPost2010Prop51ColorRGB
 90
-16777216
102
RTVSPost2010PropOp51
 70
     0
102
RTVSPost2010Prop52
140
1.0
102
RTVSPost2010PropOp52
 70
     0
102
RTVSPost2010Prop53
 90
        2
102
RTVSPost2010PropOp53
 70
     1
102
RTVSPost2010Prop54
  1
strokes_ogs.tif
102
RTVSPost2010PropOp54
 70
     1
102
RTVSPost2010Prop55
280
     0
102
RTVSPost2010PropOp55
 70
     1
102
RTVSPost2010Prop56
140
1.0
102
RTVSPost2010PropOp56
 70
     1
102
RTVSPost2010Prop57
140
1.0
102
RTVSPost2010PropOp57
 70
     1
  0
XRECORD
  5
190
102
{ACAD_REACTORS
330
18F
102
}
330
18F
100
AcDbXrecord
280
     1
102
RTVSPost2010Prop28
280
     0
102
RTVSPost2010PropOp28
 70
     1
102
RTVSPost2010Prop29
280
     1
102
RTVSPost2010PropOp29
 70
     1
102
RTVSPost2010Prop30
280
     1
102
RTVSPost2010PropOp30
 70
     1
102
RTVSPost2010Prop31
280
     0
102
RTVSPost2010PropOp31
 70
     1
102
RTVSPost2010Prop32
280
     0
102
RTVSPost2010PropOp32
 70
     1
102
RTVSPost2010Prop33
280
     0
102
RTVSPost2010PropOp33
 70
     1
102
RTVSPost2010Prop34
280
     0
102
RTVSPost2010PropOp34
 70
     1
102
RTVSPost2010Prop35
280
     0
102
RTVSPost2010PropOp35
 70
     1
102
RTVSPost2010Prop36
280
     0
102
RTVSPost2010PropOp36
 70
     1
102
RTVSPost2010Prop37
 90
       50
102
RTVSPost2010PropOp37
 70
     1
102
RTVSPost2010Prop38
140
0.0
102
RTVSPost2010PropOp38
 70
     1
102
RTVSPost2010Prop39
140
1.0
102
RTVSPost2010PropOp39
 70
     1
102
RTVSPost2010Prop40
 90
        0
102
RTVSPost2010PropOp40
 70
     1
102
RTVSPost2010Prop41ColorIndex
 90
       18
102
RTVSPost2010Prop41ColorRGB
 90
        0
102
RTVSPost2010PropOp41
 70
     1
102
RTVSPost2010Prop42
 90
       50
102
RTVSPost2010PropOp42
 70
     1
102
RTVSPost2010Prop43
 90
        3
102
RTVSPost2010PropOp43
 70
     1
102
RTVSPost2010Prop44ColorIndex
 90
        5
102
RTVSPost2010Prop44ColorRGB
 90
      255
102
RTVSPost2010PropOp44
 70
     1
102
RTVSPost2010Prop45
280
     0
102
RTVSPost2010PropOp45
 70
     1
102
RTVSPost2010Prop46
 90
       50
102
RTVSPost2010PropOp46
 70
     1
102
RTVSPost2010Prop47
 90
       50
102
RTVSPost2010PropOp47
 70
     1
102
RTVSPost2010Prop48
 90
       50
102
RTVSPost2010PropOp48
 70
     1
102
RTVSPost2010Prop49
280
     0
102
RTVSPost2010PropOp49
 70
     1
102
RTVSPost2010Prop50
 90
       50
102
RTVSPost2010PropOp50
 70
     1
102
RTVSPost2010Prop51ColorIndex
 90
      256
102
RTVSPost2010Prop51ColorRGB
 90
-16777216
102
RTVSPost2010PropOp51
 70
     0
102
RTVSPost2010Prop52
140
1.0
102
RTVSPost2010PropOp52
 70
     0
102
RTVSPost2010Prop53
 90
        2
102
RTVSPost2010PropOp53
 70
     1
102
RTVSPost2010Prop54
  1
strokes_ogs.tif
102
RTVSPost2010PropOp54
 70
     1
102
RTVSPost2010Prop55
280
     0
102
RTVSPost2010PropOp55
 70
     1
102
RTVSPost2010Prop56
140
1.0
102
RTVSPost2010PropOp56
 70
     1
102
RTVSPost2010Prop57
140
1.0
102
RTVSPost2010PropOp57
 70
     1
  0
XRECORD
  5
1AA
102
{ACAD_REACTORS
330
1A9
102
}
330
1A9
100
AcDbXrecord
280
     1
102
RTVSPost2010Prop28
280
     0
102
RTVSPost2010PropOp28
 70
     0
102
RTVSPost2010Prop29
280
     1
102
RTVSPost2010PropOp29
 70
     0
102
RTVSPost2010Prop30
280
     1
102
RTVSPost2010PropOp30
 70
     0
102
RTVSPost2010Prop31
280
     0
102
RTVSPost2010PropOp31
 70
     0
102
RTVSPost2010Prop32
280
     0
102
RTVSPost2010PropOp32
 70
     0
102
RTVSPost2010Prop33
280
     0
102
RTVSPost2010PropOp33
 70
     0
102
RTVSPost2010Prop34
280
     0
102
RTVSPost2010PropOp34
 70
     0
102
RTVSPost2010Prop35
280
     0
102
RTVSPost2010PropOp35
 70
     0
102
RTVSPost2010Prop36
280
     0
102
RTVSPost2010PropOp36
 70
     0
102
RTVSPost2010Prop37
 90
       50
102
RTVSPost2010PropOp37
 70
     0
102
RTVSPost2010Prop38
140
0.0
102
RTVSPost2010PropOp38
 70
     0
102
RTVSPost2010Prop39
140
1.0
102
RTVSPost2010PropOp39
 70
     0
102
RTVSPost2010Prop40
 90
        0
102
RTVSPost2010PropOp40
 70
     0
102
RTVSPost2010Prop41ColorIndex
 90
       18
102
RTVSPost2010Prop41ColorRGB
 90
        0
102
RTVSPost2010PropOp41
 70
     0
102
RTVSPost2010Prop42
 90
       50
102
RTVSPost2010PropOp42
 70
     0
102
RTVSPost2010Prop43
 90
        3
102
RTVSPost2010PropOp43
 70
     0
102
RTVSPost2010Prop44ColorIndex
 90
        5
102
RTVSPost2010Prop44ColorRGB
 90
      255
102
RTVSPost2010PropOp44
 70
     0
102
RTVSPost2010Prop45
280
     0
102
RTVSPost2010PropOp45
 70
     0
102
RTVSPost2010Prop46
 90
       50
102
RTVSPost2010PropOp46
 70
     0
102
RTVSPost2010Prop47
 90
       50
102
RTVSPost2010PropOp47
 70
     0
102
RTVSPost2010Prop48
 90
       50
102
RTVSPost2010PropOp48
 70
     0
102
RTVSPost2010Prop49
280
     0
102
RTVSPost2010PropOp49
 70
     0
102
RTVSPost2010Prop50
 90
       50
102
RTVSPost2010PropOp50
 70
     0
102
RTVSPost2010Prop51ColorIndex
 90
      256
102
RTVSPost2010Prop51ColorRGB
 90
-16777216
102
RTVSPost2010PropOp51
 70
     0
102
RTVSPost2010Prop52
140
1.0
102
RTVSPost2010PropOp52
 70
     0
102
RTVSPost2010Prop53
 90
        2
102
RTVSPost2010PropOp53
 70
     0
102
RTVSPost2010Prop54
  1
strokes_ogs.tif
102
RTVSPost2010PropOp54
 70
     0
102
RTVSPost2010Prop55
280
     0
102
RTVSPost2010PropOp55
 70
     0
102
RTVSPost2010Prop56
140
1.0
102
RTVSPost2010PropOp56
 70
     0
102
RTVSPost2010Prop57
140
1.0
102
RTVSPost2010PropOp57
 70
     0
  0
XRECORD
  5
198
102
{ACAD_REACTORS
330
197
102
}
330
197
100
AcDbXrecord
280
     1
102
RTVSPost2010Prop28
280
     0
102
RTVSPost2010PropOp28
 70
     1
102
RTVSPost2010Prop29
280
     1
102
RTVSPost2010PropOp29
 70
     1
102
RTVSPost2010Prop30
280
     1
102
RTVSPost2010PropOp30
 70
     1
102
RTVSPost2010Prop31
280
     0
102
RTVSPost2010PropOp31
 70
     1
102
RTVSPost2010Prop32
280
     0
102
RTVSPost2010PropOp32
 70
     1
102
RTVSPost2010Prop33
280
     0
102
RTVSPost2010PropOp33
 70
     1
102
RTVSPost2010Prop34
280
     0
102
RTVSPost2010PropOp34
 70
     1
102
RTVSPost2010Prop35
280
     0
102
RTVSPost2010PropOp35
 70
     1
102
RTVSPost2010Prop36
280
     0
102
RTVSPost2010PropOp36
 70
     1
102
RTVSPost2010Prop37
 90
       50
102
RTVSPost2010PropOp37
 70
     1
102
RTVSPost2010Prop38
140
0.0
102
RTVSPost2010PropOp38
 70
     1
102
RTVSPost2010Prop39
140
1.0
102
RTVSPost2010PropOp39
 70
     1
102
RTVSPost2010Prop40
 90
        0
102
RTVSPost2010PropOp40
 70
     1
102
RTVSPost2010Prop41ColorIndex
 90
       18
102
RTVSPost2010Prop41ColorRGB
 90
        0
102
RTVSPost2010PropOp41
 70
     1
102
RTVSPost2010Prop42
 90
       50
102
RTVSPost2010PropOp42
 70
     1
102
RTVSPost2010Prop43
 90
        3
102
RTVSPost2010PropOp43
 70
     1
102
RTVSPost2010Prop44ColorIndex
 90
        5
102
RTVSPost2010Prop44ColorRGB
 90
      255
102
RTVSPost2010PropOp44
 70
     1
102
RTVSPost2010Prop45
280
     0
102
RTVSPost2010PropOp45
 70
     1
102
RTVSPost2010Prop46
 90
       50
102
RTVSPost2010PropOp46
 70
     1
102
RTVSPost2010Prop47
 90
       50
102
RTVSPost2010PropOp47
 70
     1
102
RTVSPost2010Prop48
 90
       50
102
RTVSPost2010PropOp48
 70
     1
102
RTVSPost2010Prop49
280
     0
102
RTVSPost2010PropOp49
 70
     1
102
RTVSPost2010Prop50
 90
       50
102
RTVSPost2010PropOp50
 70
     1
102
RTVSPost2010Prop51ColorIndex
 90
      256
102
RTVSPost2010Prop51ColorRGB
 90
-16777216
102
RTVSPost2010PropOp51
 70
     0
102
RTVSPost2010Prop52
140
1.0
102
RTVSPost2010PropOp52
 70
     0
102
RTVSPost2010Prop53
 90
        2
102
RTVSPost2010PropOp53
 70
     1
102
RTVSPost2010Prop54
  1
strokes_ogs.tif
102
RTVSPost2010PropOp54
 70
     1
102
RTVSPost2010Prop55
280
     0
102
RTVSPost2010PropOp55
 70
     1
102
RTVSPost2010Prop56
140
1.0
102
RTVSPost2010PropOp56
 70
     1
102
RTVSPost2010Prop57
140
1.0
102
RTVSPost2010PropOp57
 70
     1
  0
XRECORD
  5
17C
102
{ACAD_REACTORS
330
17B
102
}
330
17B
100
AcDbXrecord
280
     1
102
RTVSPost2010Prop28
280
     0
102
RTVSPost2010PropOp28
 70
     1
102
RTVSPost2010Prop29
280
     1
102
RTVSPost2010PropOp29
 70
     1
102
RTVSPost2010Prop30
280
     1
102
RTVSPost2010PropOp30
 70
     1
102
RTVSPost2010Prop31
280
     0
102
RTVSPost2010PropOp31
 70
     1
102
RTVSPost2010Prop32
280
     0
102
RTVSPost2010PropOp32
 70
     1
102
RTVSPost2010Prop33
280
     0
102
RTVSPost2010PropOp33
 70
     1
102
RTVSPost2010Prop34
280
     0
102
RTVSPost2010PropOp34
 70
     1
102
RTVSPost2010Prop35
280
     0
102
RTVSPost2010PropOp35
 70
     1
102
RTVSPost2010Prop36
280
     0
102
RTVSPost2010PropOp36
 70
     1
102
RTVSPost2010Prop37
 90
       50
102
RTVSPost2010PropOp37
 70
     1
102
RTVSPost2010Prop38
140
0.0
102
RTVSPost2010PropOp38
 70
     1
102
RTVSPost2010Prop39
140
1.0
102
RTVSPost2010PropOp39
 70
     1
102
RTVSPost2010Prop40
 90
        0
102
RTVSPost2010PropOp40
 70
     1
102
RTVSPost2010Prop41ColorIndex
 90
       18
102
RTVSPost2010Prop41ColorRGB
 90
        0
102
RTVSPost2010PropOp41
 70
     1
102
RTVSPost2010Prop42
 90
       50
102
RTVSPost2010PropOp42
 70
     1
102
RTVSPost2010Prop43
 90
        3
102
RTVSPost2010PropOp43
 70
     1
102
RTVSPost2010Prop44ColorIndex
 90
        5
102
RTVSPost2010Prop44ColorRGB
 90
      255
102
RTVSPost2010PropOp44
 70
     1
102
RTVSPost2010Prop45
280
     0
102
RTVSPost2010PropOp45
 70
     1
102
RTVSPost2010Prop46
 90
       50
102
RTVSPost2010PropOp46
 70
     1
102
RTVSPost2010Prop47
 90
       50
102
RTVSPost2010PropOp47
 70
     1
102
RTVSPost2010Prop48
 90
       50
102
RTVSPost2010PropOp48
 70
     1
102
RTVSPost2010Prop49
280
     0
102
RTVSPost2010PropOp49
 70
     1
102
RTVSPost2010Prop50
 90
       50
102
RTVSPost2010PropOp50
 70
     1
102
RTVSPost2010Prop51ColorIndex
 90
      256
102
RTVSPost2010Prop51ColorRGB
 90
-16777216
102
RTVSPost2010PropOp51
 70
     0
102
RTVSPost2010Prop52
140
1.0
102
RTVSPost2010PropOp52
 70
     0
102
RTVSPost2010Prop53
 90
        2
102
RTVSPost2010PropOp53
 70
     1
102
RTVSPost2010Prop54
  1
strokes_ogs.tif
102
RTVSPost2010PropOp54
 70
     1
102
RTVSPost2010Prop55
280
     0
102
RTVSPost2010PropOp55
 70
     1
102
RTVSPost2010Prop56
140
1.0
102
RTVSPost2010PropOp56
 70
     1
102
RTVSPost2010Prop57
140
1.0
102
RTVSPost2010PropOp57
 70
     1
  0
XRECORD
  5
17E
102
{ACAD_REACTORS
330
17D
102
}
330
17D
100
AcDbXrecord
280
     1
102
RTVSPost2010Prop28
280
     0
102
RTVSPost2010PropOp28
 70
     1
102
RTVSPost2010Prop29
280
     1
102
RTVSPost2010PropOp29
 70
     1
102
RTVSPost2010Prop30
280
     1
102
RTVSPost2010PropOp30
 70
     1
102
RTVSPost2010Prop31
280
     0
102
RTVSPost2010PropOp31
 70
     1
102
RTVSPost2010Prop32
280
     0
102
RTVSPost2010PropOp32
 70
     1
102
RTVSPost2010Prop33
280
     0
102
RTVSPost2010PropOp33
 70
     1
102
RTVSPost2010Prop34
280
     0
102
RTVSPost2010PropOp34
 70
     1
102
RTVSPost2010Prop35
280
     0
102
RTVSPost2010PropOp35
 70
     1
102
RTVSPost2010Prop36
280
     0
102
RTVSPost2010PropOp36
 70
     1
102
RTVSPost2010Prop37
 90
       50
102
RTVSPost2010PropOp37
 70
     1
102
RTVSPost2010Prop38
140
0.0
102
RTVSPost2010PropOp38
 70
     1
102
RTVSPost2010Prop39
140
1.0
102
RTVSPost2010PropOp39
 70
     1
102
RTVSPost2010Prop40
 90
        0
102
RTVSPost2010PropOp40
 70
     1
102
RTVSPost2010Prop41ColorIndex
 90
       18
102
RTVSPost2010Prop41ColorRGB
 90
        0
102
RTVSPost2010PropOp41
 70
     1
102
RTVSPost2010Prop42
 90
       50
102
RTVSPost2010PropOp42
 70
     1
102
RTVSPost2010Prop43
 90
        3
102
RTVSPost2010PropOp43
 70
     1
102
RTVSPost2010Prop44ColorIndex
 90
        5
102
RTVSPost2010Prop44ColorRGB
 90
      255
102
RTVSPost2010PropOp44
 70
     1
102
RTVSPost2010Prop45
280
     0
102
RTVSPost2010PropOp45
 70
     1
102
RTVSPost2010Prop46
 90
       50
102
RTVSPost2010PropOp46
 70
     1
102
RTVSPost2010Prop47
 90
       50
102
RTVSPost2010PropOp47
 70
     1
102
RTVSPost2010Prop48
 90
       50
102
RTVSPost2010PropOp48
 70
     1
102
RTVSPost2010Prop49
280
     0
102
RTVSPost2010PropOp49
 70
     1
102
RTVSPost2010Prop50
 90
       50
102
RTVSPost2010PropOp50
 70
     1
102
RTVSPost2010Prop51ColorIndex
 90
      256
102
RTVSPost2010Prop51ColorRGB
 90
-16777216
102
RTVSPost2010PropOp51
 70
     0
102
RTVSPost2010Prop52
140
1.0
102
RTVSPost2010PropOp52
 70
     0
102
RTVSPost2010Prop53
 90
        2
102
RTVSPost2010PropOp53
 70
     1
102
RTVSPost2010Prop54
  1
strokes_ogs.tif
102
RTVSPost2010PropOp54
 70
     1
102
RTVSPost2010Prop55
280
     0
102
RTVSPost2010PropOp55
 70
     1
102
RTVSPost2010Prop56
140
1.0
102
RTVSPost2010PropOp56
 70
     1
102
RTVSPost2010Prop57
140
1.0
102
RTVSPost2010PropOp57
 70
     1
  0
XRECORD
  5
180
102
{ACAD_REACTORS
330
17F
102
}
330
17F
100
AcDbXrecord
280
     1
102
RTVSPost2010Prop28
280
     0
102
RTVSPost2010PropOp28
 70
     1
102
RTVSPost2010Prop29
280
     1
102
RTVSPost2010PropOp29
 70
     1
102
RTVSPost2010Prop30
280
     1
102
RTVSPost2010PropOp30
 70
     1
102
RTVSPost2010Prop31
280
     0
102
RTVSPost2010PropOp31
 70
     1
102
RTVSPost2010Prop32
280
     0
102
RTVSPost2010PropOp32
 70
     1
102
RTVSPost2010Prop33
280
     0
102
RTVSPost2010PropOp33
 70
     1
102
RTVSPost2010Prop34
280
     0
102
RTVSPost2010PropOp34
 70
     1
102
RTVSPost2010Prop35
280
     0
102
RTVSPost2010PropOp35
 70
     1
102
RTVSPost2010Prop36
280
     0
102
RTVSPost2010PropOp36
 70
     1
102
RTVSPost2010Prop37
 90
       50
102
RTVSPost2010PropOp37
 70
     1
102
RTVSPost2010Prop38
140
0.0
102
RTVSPost2010PropOp38
 70
     1
102
RTVSPost2010Prop39
140
1.0
102
RTVSPost2010PropOp39
 70
     1
102
RTVSPost2010Prop40
 90
        0
102
RTVSPost2010PropOp40
 70
     1
102
RTVSPost2010Prop41ColorIndex
 90
       18
102
RTVSPost2010Prop41ColorRGB
 90
        0
102
RTVSPost2010PropOp41
 70
     1
102
RTVSPost2010Prop42
 90
       50
102
RTVSPost2010PropOp42
 70
     1
102
RTVSPost2010Prop43
 90
        3
102
RTVSPost2010PropOp43
 70
     1
102
RTVSPost2010Prop44ColorIndex
 90
        5
102
RTVSPost2010Prop44ColorRGB
 90
      255
102
RTVSPost2010PropOp44
 70
     1
102
RTVSPost2010Prop45
280
     0
102
RTVSPost2010PropOp45
 70
     1
102
RTVSPost2010Prop46
 90
       50
102
RTVSPost2010PropOp46
 70
     1
102
RTVSPost2010Prop47
 90
       50
102
RTVSPost2010PropOp47
 70
     1
102
RTVSPost2010Prop48
 90
       50
102
RTVSPost2010PropOp48
 70
     1
102
RTVSPost2010Prop49
280
     0
102
RTVSPost2010PropOp49
 70
     1
102
RTVSPost2010Prop50
 90
       50
102
RTVSPost2010PropOp50
 70
     1
102
RTVSPost2010Prop51ColorIndex
 90
      256
102
RTVSPost2010Prop51ColorRGB
 90
-16777216
102
RTVSPost2010PropOp51
 70
     0
102
RTVSPost2010Prop52
140
1.0
102
RTVSPost2010PropOp52
 70
     0
102
RTVSPost2010Prop53
 90
        2
102
RTVSPost2010PropOp53
 70
     1
102
RTVSPost2010Prop54
  1
strokes_ogs.tif
102
RTVSPost2010PropOp54
 70
     1
102
RTVSPost2010Prop55
280
     0
102
RTVSPost2010PropOp55
 70
     1
102
RTVSPost2010Prop56
140
1.0
102
RTVSPost2010PropOp56
 70
     1
102
RTVSPost2010Prop57
140
1.0
102
RTVSPost2010PropOp57
 70
     1
  0
XRECORD
  5
182
102
{ACAD_REACTORS
330
181
102
}
330
181
100
AcDbXrecord
280
     1
102
RTVSPost2010Prop28
280
     0
102
RTVSPost2010PropOp28
 70
     1
102
RTVSPost2010Prop29
280
     1
102
RTVSPost2010PropOp29
 70
     1
102
RTVSPost2010Prop30
280
     1
102
RTVSPost2010PropOp30
 70
     1
102
RTVSPost2010Prop31
280
     0
102
RTVSPost2010PropOp31
 70
     1
102
RTVSPost2010Prop32
280
     0
102
RTVSPost2010PropOp32
 70
     1
102
RTVSPost2010Prop33
280
     0
102
RTVSPost2010PropOp33
 70
     1
102
RTVSPost2010Prop34
280
     0
102
RTVSPost2010PropOp34
 70
     1
102
RTVSPost2010Prop35
280
     0
102
RTVSPost2010PropOp35
 70
     1
102
RTVSPost2010Prop36
280
     0
102
RTVSPost2010PropOp36
 70
     1
102
RTVSPost2010Prop37
 90
       50
102
RTVSPost2010PropOp37
 70
     1
102
RTVSPost2010Prop38
140
0.0
102
RTVSPost2010PropOp38
 70
     1
102
RTVSPost2010Prop39
140
1.0
102
RTVSPost2010PropOp39
 70
     1
102
RTVSPost2010Prop40
 90
        0
102
RTVSPost2010PropOp40
 70
     1
102
RTVSPost2010Prop41ColorIndex
 90
       18
102
RTVSPost2010Prop41ColorRGB
 90
        0
102
RTVSPost2010PropOp41
 70
     1
102
RTVSPost2010Prop42
 90
       50
102
RTVSPost2010PropOp42
 70
     1
102
RTVSPost2010Prop43
 90
        3
102
RTVSPost2010PropOp43
 70
     1
102
RTVSPost2010Prop44ColorIndex
 90
        5
102
RTVSPost2010Prop44ColorRGB
 90
      255
102
RTVSPost2010PropOp44
 70
     1
102
RTVSPost2010Prop45
280
     0
102
RTVSPost2010PropOp45
 70
     1
102
RTVSPost2010Prop46
 90
       50
102
RTVSPost2010PropOp46
 70
     1
102
RTVSPost2010Prop47
 90
       50
102
RTVSPost2010PropOp47
 70
     1
102
RTVSPost2010Prop48
 90
       50
102
RTVSPost2010PropOp48
 70
     1
102
RTVSPost2010Prop49
280
     0
102
RTVSPost2010PropOp49
 70
     1
102
RTVSPost2010Prop50
 90
       50
102
RTVSPost2010PropOp50
 70
     1
102
RTVSPost2010Prop51ColorIndex
 90
      256
102
RTVSPost2010Prop51ColorRGB
 90
-16777216
102
RTVSPost2010PropOp51
 70
     0
102
RTVSPost2010Prop52
140
1.0
102
RTVSPost2010PropOp52
 70
     0
102
RTVSPost2010Prop53
 90
        2
102
RTVSPost2010PropOp53
 70
     1
102
RTVSPost2010Prop54
  1
strokes_ogs.tif
102
RTVSPost2010PropOp54
 70
     1
102
RTVSPost2010Prop55
280
     0
102
RTVSPost2010PropOp55
 70
     1
102
RTVSPost2010Prop56
140
1.0
102
RTVSPost2010PropOp56
 70
     1
102
RTVSPost2010Prop57
140
1.0
102
RTVSPost2010PropOp57
 70
     1
  0
XRECORD
  5
18A
102
{ACAD_REACTORS
330
189
102
}
330
189
100
AcDbXrecord
280
     1
102
RTVSPost2010Prop28
280
     0
102
RTVSPost2010PropOp28
 70
     1
102
RTVSPost2010Prop29
280
     1
102
RTVSPost2010PropOp29
 70
     1
102
RTVSPost2010Prop30
280
     1
102
RTVSPost2010PropOp30
 70
     1
102
RTVSPost2010Prop31
280
     0
102
RTVSPost2010PropOp31
 70
     1
102
RTVSPost2010Prop32
280
     0
102
RTVSPost2010PropOp32
 70
     1
102
RTVSPost2010Prop33
280
     0
102
RTVSPost2010PropOp33
 70
     1
102
RTVSPost2010Prop34
280
     0
102
RTVSPost2010PropOp34
 70
     1
102
RTVSPost2010Prop35
280
     0
102
RTVSPost2010PropOp35
 70
     1
102
RTVSPost2010Prop36
280
     0
102
RTVSPost2010PropOp36
 70
     1
102
RTVSPost2010Prop37
 90
       50
102
RTVSPost2010PropOp37
 70
     1
102
RTVSPost2010Prop38
140
0.0
102
RTVSPost2010PropOp38
 70
     1
102
RTVSPost2010Prop39
140
1.0
102
RTVSPost2010PropOp39
 70
     1
102
RTVSPost2010Prop40
 90
        0
102
RTVSPost2010PropOp40
 70
     1
102
RTVSPost2010Prop41ColorIndex
 90
       18
102
RTVSPost2010Prop41ColorRGB
 90
        0
102
RTVSPost2010PropOp41
 70
     1
102
RTVSPost2010Prop42
 90
       50
102
RTVSPost2010PropOp42
 70
     1
102
RTVSPost2010Prop43
 90
        3
102
RTVSPost2010PropOp43
 70
     1
102
RTVSPost2010Prop44ColorIndex
 90
        5
102
RTVSPost2010Prop44ColorRGB
 90
      255
102
RTVSPost2010PropOp44
 70
     1
102
RTVSPost2010Prop45
280
     0
102
RTVSPost2010PropOp45
 70
     1
102
RTVSPost2010Prop46
 90
       50
102
RTVSPost2010PropOp46
 70
     1
102
RTVSPost2010Prop47
 90
       50
102
RTVSPost2010PropOp47
 70
     1
102
RTVSPost2010Prop48
 90
       50
102
RTVSPost2010PropOp48
 70
     1
102
RTVSPost2010Prop49
280
     0
102
RTVSPost2010PropOp49
 70
     1
102
RTVSPost2010Prop50
 90
       50
102
RTVSPost2010PropOp50
 70
     1
102
RTVSPost2010Prop51ColorIndex
 90
      256
102
RTVSPost2010Prop51ColorRGB
 90
-16777216
102
RTVSPost2010PropOp51
 70
     0
102
RTVSPost2010Prop52
140
1.0
102
RTVSPost2010PropOp52
 70
     0
102
RTVSPost2010Prop53
 90
        2
102
RTVSPost2010PropOp53
 70
     1
102
RTVSPost2010Prop54
  1
strokes_ogs.tif
102
RTVSPost2010PropOp54
 70
     1
102
RTVSPost2010Prop55
280
     0
102
RTVSPost2010PropOp55
 70
     1
102
RTVSPost2010Prop56
140
1.0
102
RTVSPost2010PropOp56
 70
     1
102
RTVSPost2010Prop57
140
1.0
102
RTVSPost2010PropOp57
 70
     1
  0
XRECORD
  5
1A6
102
{ACAD_REACTORS
330
1A5
102
}
330
1A5
100
AcDbXrecord
280
     1
102
RTVSPost2010Prop28
280
     0
102
RTVSPost2010PropOp28
 70
     0
102
RTVSPost2010Prop29
280
     1
102
RTVSPost2010PropOp29
 70
     0
102
RTVSPost2010Prop30
280
     1
102
RTVSPost2010PropOp30
 70
     0
102
RTVSPost2010Prop31
280
     0
102
RTVSPost2010PropOp31
 70
     0
102
RTVSPost2010Prop32
280
     0
102
RTVSPost2010PropOp32
 70
     0
102
RTVSPost2010Prop33
280
     0
102
RTVSPost2010PropOp33
 70
     0
102
RTVSPost2010Prop34
280
     0
102
RTVSPost2010PropOp34
 70
     0
102
RTVSPost2010Prop35
280
     0
102
RTVSPost2010PropOp35
 70
     0
102
RTVSPost2010Prop36
280
     0
102
RTVSPost2010PropOp36
 70
     0
102
RTVSPost2010Prop37
 90
       50
102
RTVSPost2010PropOp37
 70
     0
102
RTVSPost2010Prop38
140
0.0
102
RTVSPost2010PropOp38
 70
     0
102
RTVSPost2010Prop39
140
1.0
102
RTVSPost2010PropOp39
 70
     0
102
RTVSPost2010Prop40
 90
        0
102
RTVSPost2010PropOp40
 70
     0
102
RTVSPost2010Prop41ColorIndex
 90
       18
102
RTVSPost2010Prop41ColorRGB
 90
        0
102
RTVSPost2010PropOp41
 70
     0
102
RTVSPost2010Prop42
 90
       50
102
RTVSPost2010PropOp42
 70
     0
102
RTVSPost2010Prop43
 90
        3
102
RTVSPost2010PropOp43
 70
     0
102
RTVSPost2010Prop44ColorIndex
 90
        5
102
RTVSPost2010Prop44ColorRGB
 90
      255
102
RTVSPost2010PropOp44
 70
     0
102
RTVSPost2010Prop45
280
     0
102
RTVSPost2010PropOp45
 70
     0
102
RTVSPost2010Prop46
 90
       50
102
RTVSPost2010PropOp46
 70
     0
102
RTVSPost2010Prop47
 90
       50
102
RTVSPost2010PropOp47
 70
     0
102
RTVSPost2010Prop48
 90
       50
102
RTVSPost2010PropOp48
 70
     0
102
RTVSPost2010Prop49
280
     0
102
RTVSPost2010PropOp49
 70
     0
102
RTVSPost2010Prop50
 90
       50
102
RTVSPost2010PropOp50
 70
     0
102
RTVSPost2010Prop51ColorIndex
 90
      256
102
RTVSPost2010Prop51ColorRGB
 90
-16777216
102
RTVSPost2010PropOp51
 70
     0
102
RTVSPost2010Prop52
140
1.0
102
RTVSPost2010PropOp52
 70
     0
102
RTVSPost2010Prop53
 90
        2
102
RTVSPost2010PropOp53
 70
     0
102
RTVSPost2010Prop54
  1
strokes_ogs.tif
102
RTVSPost2010PropOp54
 70
     0
102
RTVSPost2010Prop55
280
     0
102
RTVSPost2010PropOp55
 70
     0
102
RTVSPost2010Prop56
140
1.0
102
RTVSPost2010PropOp56
 70
     0
102
RTVSPost2010Prop57
140
1.0
102
RTVSPost2010PropOp57
 70
     0
  0
XRECORD
  5
196
102
{ACAD_REACTORS
330
195
102
}
330
195
100
AcDbXrecord
280
     1
102
RTVSPost2010Prop28
280
     0
102
RTVSPost2010PropOp28
 70
     1
102
RTVSPost2010Prop29
280
     1
102
RTVSPost2010PropOp29
 70
     1
102
RTVSPost2010Prop30
280
     1
102
RTVSPost2010PropOp30
 70
     1
102
RTVSPost2010Prop31
280
     0
102
RTVSPost2010PropOp31
 70
     1
102
RTVSPost2010Prop32
280
     0
102
RTVSPost2010PropOp32
 70
     1
102
RTVSPost2010Prop33
280
     0
102
RTVSPost2010PropOp33
 70
     1
102
RTVSPost2010Prop34
280
     0
102
RTVSPost2010PropOp34
 70
     1
102
RTVSPost2010Prop35
280
     0
102
RTVSPost2010PropOp35
 70
     1
102
RTVSPost2010Prop36
280
     0
102
RTVSPost2010PropOp36
 70
     1
102
RTVSPost2010Prop37
 90
       50
102
RTVSPost2010PropOp37
 70
     1
102
RTVSPost2010Prop38
140
0.0
102
RTVSPost2010PropOp38
 70
     1
102
RTVSPost2010Prop39
140
1.0
102
RTVSPost2010PropOp39
 70
     1
102
RTVSPost2010Prop40
 90
        0
102
RTVSPost2010PropOp40
 70
     1
102
RTVSPost2010Prop41ColorIndex
 90
       18
102
RTVSPost2010Prop41ColorRGB
 90
        0
102
RTVSPost2010PropOp41
 70
     1
102
RTVSPost2010Prop42
 90
       50
102
RTVSPost2010PropOp42
 70
     1
102
RTVSPost2010Prop43
 90
        3
102
RTVSPost2010PropOp43
 70
     1
102
RTVSPost2010Prop44ColorIndex
 90
        5
102
RTVSPost2010Prop44ColorRGB
 90
      255
102
RTVSPost2010PropOp44
 70
     1
102
RTVSPost2010Prop45
280
     0
102
RTVSPost2010PropOp45
 70
     1
102
RTVSPost2010Prop46
 90
       50
102
RTVSPost2010PropOp46
 70
     1
102
RTVSPost2010Prop47
 90
       50
102
RTVSPost2010PropOp47
 70
     1
102
RTVSPost2010Prop48
 90
       50
102
RTVSPost2010PropOp48
 70
     1
102
RTVSPost2010Prop49
280
     0
102
RTVSPost2010PropOp49
 70
     1
102
RTVSPost2010Prop50
 90
       50
102
RTVSPost2010PropOp50
 70
     1
102
RTVSPost2010Prop51ColorIndex
 90
      256
102
RTVSPost2010Prop51ColorRGB
 90
-16777216
102
RTVSPost2010PropOp51
 70
     0
102
RTVSPost2010Prop52
140
1.0
102
RTVSPost2010PropOp52
 70
     0
102
RTVSPost2010Prop53
 90
        2
102
RTVSPost2010PropOp53
 70
     1
102
RTVSPost2010Prop54
  1
strokes_ogs.tif
102
RTVSPost2010PropOp54
 70
     1
102
RTVSPost2010Prop55
280
     0
102
RTVSPost2010PropOp55
 70
     1
102
RTVSPost2010Prop56
140
1.0
102
RTVSPost2010PropOp56
 70
     1
102
RTVSPost2010Prop57
140
1.0
102
RTVSPost2010PropOp57
 70
     1
  0
XRECORD
  5
1A8
102
{ACAD_REACTORS
330
1A7
102
}
330
1A7
100
AcDbXrecord
280
     1
102
RTVSPost2010Prop28
280
     0
102
RTVSPost2010PropOp28
 70
     0
102
RTVSPost2010Prop29
280
     1
102
RTVSPost2010PropOp29
 70
     0
102
RTVSPost2010Prop30
280
     1
102
RTVSPost2010PropOp30
 70
     0
102
RTVSPost2010Prop31
280
     0
102
RTVSPost2010PropOp31
 70
     0
102
RTVSPost2010Prop32
280
     0
102
RTVSPost2010PropOp32
 70
     0
102
RTVSPost2010Prop33
280
     0
102
RTVSPost2010PropOp33
 70
     0
102
RTVSPost2010Prop34
280
     0
102
RTVSPost2010PropOp34
 70
     0
102
RTVSPost2010Prop35
280
     0
102
RTVSPost2010PropOp35
 70
     0
102
RTVSPost2010Prop36
280
     0
102
RTVSPost2010PropOp36
 70
     0
102
RTVSPost2010Prop37
 90
       50
102
RTVSPost2010PropOp37
 70
     0
102
RTVSPost2010Prop38
140
0.0
102
RTVSPost2010PropOp38
 70
     0
102
RTVSPost2010Prop39
140
1.0
102
RTVSPost2010PropOp39
 70
     0
102
RTVSPost2010Prop40
 90
        0
102
RTVSPost2010PropOp40
 70
     0
102
RTVSPost2010Prop41ColorIndex
 90
       18
102
RTVSPost2010Prop41ColorRGB
 90
        0
102
RTVSPost2010PropOp41
 70
     0
102
RTVSPost2010Prop42
 90
       50
102
RTVSPost2010PropOp42
 70
     0
102
RTVSPost2010Prop43
 90
        3
102
RTVSPost2010PropOp43
 70
     0
102
RTVSPost2010Prop44ColorIndex
 90
        5
102
RTVSPost2010Prop44ColorRGB
 90
      255
102
RTVSPost2010PropOp44
 70
     0
102
RTVSPost2010Prop45
280
     0
102
RTVSPost2010PropOp45
 70
     0
102
RTVSPost2010Prop46
 90
       50
102
RTVSPost2010PropOp46
 70
     0
102
RTVSPost2010Prop47
 90
       50
102
RTVSPost2010PropOp47
 70
     0
102
RTVSPost2010Prop48
 90
       50
102
RTVSPost2010PropOp48
 70
     0
102
RTVSPost2010Prop49
280
     0
102
RTVSPost2010PropOp49
 70
     0
102
RTVSPost2010Prop50
 90
       50
102
RTVSPost2010PropOp50
 70
     0
102
RTVSPost2010Prop51ColorIndex
 90
      256
102
RTVSPost2010Prop51ColorRGB
 90
-16777216
102
RTVSPost2010PropOp51
 70
     0
102
RTVSPost2010Prop52
140
1.0
102
RTVSPost2010PropOp52
 70
     0
102
RTVSPost2010Prop53
 90
        2
102
RTVSPost2010PropOp53
 70
     0
102
RTVSPost2010Prop54
  1
strokes_ogs.tif
102
RTVSPost2010PropOp54
 70
     0
102
RTVSPost2010Prop55
280
     0
102
RTVSPost2010PropOp55
 70
     0
102
RTVSPost2010Prop56
140
1.0
102
RTVSPost2010PropOp56
 70
     0
102
RTVSPost2010Prop57
140
1.0
102
RTVSPost2010PropOp57
 70
     0
  0
XRECORD
  5
18E
102
{ACAD_REACTORS
330
18D
102
}
330
18D
100
AcDbXrecord
280
     1
102
RTVSPost2010Prop28
280
     0
102
RTVSPost2010PropOp28
 70
     1
102
RTVSPost2010Prop29
280
     1
102
RTVSPost2010PropOp29
 70
     1
102
RTVSPost2010Prop30
280
     1
102
RTVSPost2010PropOp30
 70
     1
102
RTVSPost2010Prop31
280
     0
102
RTVSPost2010PropOp31
 70
     1
102
RTVSPost2010Prop32
280
     0
102
RTVSPost2010PropOp32
 70
     1
102
RTVSPost2010Prop33
280
     0
102
RTVSPost2010PropOp33
 70
     1
102
RTVSPost2010Prop34
280
     0
102
RTVSPost2010PropOp34
 70
     1
102
RTVSPost2010Prop35
280
     0
102
RTVSPost2010PropOp35
 70
     1
102
RTVSPost2010Prop36
280
     0
102
RTVSPost2010PropOp36
 70
     1
102
RTVSPost2010Prop37
 90
       50
102
RTVSPost2010PropOp37
 70
     1
102
RTVSPost2010Prop38
140
0.0
102
RTVSPost2010PropOp38
 70
     1
102
RTVSPost2010Prop39
140
1.0
102
RTVSPost2010PropOp39
 70
     1
102
RTVSPost2010Prop40
 90
        0
102
RTVSPost2010PropOp40
 70
     1
102
RTVSPost2010Prop41ColorIndex
 90
       18
102
RTVSPost2010Prop41ColorRGB
 90
        0
102
RTVSPost2010PropOp41
 70
     1
102
RTVSPost2010Prop42
 90
       50
102
RTVSPost2010PropOp42
 70
     1
102
RTVSPost2010Prop43
 90
        3
102
RTVSPost2010PropOp43
 70
     1
102
RTVSPost2010Prop44ColorIndex
 90
        5
102
RTVSPost2010Prop44ColorRGB
 90
      255
102
RTVSPost2010PropOp44
 70
     1
102
RTVSPost2010Prop45
280
     0
102
RTVSPost2010PropOp45
 70
     1
102
RTVSPost2010Prop46
 90
       50
102
RTVSPost2010PropOp46
 70
     1
102
RTVSPost2010Prop47
 90
       50
102
RTVSPost2010PropOp47
 70
     1
102
RTVSPost2010Prop48
 90
       50
102
RTVSPost2010PropOp48
 70
     1
102
RTVSPost2010Prop49
280
     0
102
RTVSPost2010PropOp49
 70
     1
102
RTVSPost2010Prop50
 90
       50
102
RTVSPost2010PropOp50
 70
     1
102
RTVSPost2010Prop51ColorIndex
 90
      256
102
RTVSPost2010Prop51ColorRGB
 90
-16777216
102
RTVSPost2010PropOp51
 70
     0
102
RTVSPost2010Prop52
140
1.0
102
RTVSPost2010PropOp52
 70
     0
102
RTVSPost2010Prop53
 90
        2
102
RTVSPost2010PropOp53
 70
     1
102
RTVSPost2010Prop54
  1
strokes_ogs.tif
102
RTVSPost2010PropOp54
 70
     1
102
RTVSPost2010Prop55
280
     0
102
RTVSPost2010PropOp55
 70
     1
102
RTVSPost2010Prop56
140
1.0
102
RTVSPost2010PropOp56
 70
     1
102
RTVSPost2010Prop57
140
1.0
102
RTVSPost2010PropOp57
 70
     1
  0
XRECORD
  5
1A4
102
{ACAD_REACTORS
330
1A3
102
}
330
1A3
100
AcDbXrecord
280
     1
102
RTVSPost2010Prop28
280
     0
102
RTVSPost2010PropOp28
 70
     1
102
RTVSPost2010Prop29
280
     1
102
RTVSPost2010PropOp29
 70
     1
102
RTVSPost2010Prop30
280
     1
102
RTVSPost2010PropOp30
 70
     1
102
RTVSPost2010Prop31
280
     0
102
RTVSPost2010PropOp31
 70
     1
102
RTVSPost2010Prop32
280
     0
102
RTVSPost2010PropOp32
 70
     1
102
RTVSPost2010Prop33
280
     0
102
RTVSPost2010PropOp33
 70
     1
102
RTVSPost2010Prop34
280
     0
102
RTVSPost2010PropOp34
 70
     1
102
RTVSPost2010Prop35
280
     0
102
RTVSPost2010PropOp35
 70
     1
102
RTVSPost2010Prop36
280
     0
102
RTVSPost2010PropOp36
 70
     1
102
RTVSPost2010Prop37
 90
       50
102
RTVSPost2010PropOp37
 70
     1
102
RTVSPost2010Prop38
140
0.0
102
RTVSPost2010PropOp38
 70
     1
102
RTVSPost2010Prop39
140
1.0
102
RTVSPost2010PropOp39
 70
     1
102
RTVSPost2010Prop40
 90
        0
102
RTVSPost2010PropOp40
 70
     1
102
RTVSPost2010Prop41ColorIndex
 90
       18
102
RTVSPost2010Prop41ColorRGB
 90
        0
102
RTVSPost2010PropOp41
 70
     1
102
RTVSPost2010Prop42
 90
       50
102
RTVSPost2010PropOp42
 70
     1
102
RTVSPost2010Prop43
 90
        3
102
RTVSPost2010PropOp43
 70
     1
102
RTVSPost2010Prop44ColorIndex
 90
        5
102
RTVSPost2010Prop44ColorRGB
 90
      255
102
RTVSPost2010PropOp44
 70
     1
102
RTVSPost2010Prop45
280
     0
102
RTVSPost2010PropOp45
 70
     1
102
RTVSPost2010Prop46
 90
       50
102
RTVSPost2010PropOp46
 70
     1
102
RTVSPost2010Prop47
 90
       50
102
RTVSPost2010PropOp47
 70
     1
102
RTVSPost2010Prop48
 90
       50
102
RTVSPost2010PropOp48
 70
     1
102
RTVSPost2010Prop49
280
     0
102
RTVSPost2010PropOp49
 70
     1
102
RTVSPost2010Prop50
 90
       50
102
RTVSPost2010PropOp50
 70
     1
102
RTVSPost2010Prop51ColorIndex
 90
      256
102
RTVSPost2010Prop51ColorRGB
 90
-16777216
102
RTVSPost2010PropOp51
 70
     0
102
RTVSPost2010Prop52
140
1.0
102
RTVSPost2010PropOp52
 70
     0
102
RTVSPost2010Prop53
 90
        2
102
RTVSPost2010PropOp53
 70
     1
102
RTVSPost2010Prop54
  1
strokes_ogs.tif
102
RTVSPost2010PropOp54
 70
     1
102
RTVSPost2010Prop55
280
     0
102
RTVSPost2010PropOp55
 70
     1
102
RTVSPost2010Prop56
140
1.0
102
RTVSPost2010PropOp56
 70
     1
102
RTVSPost2010Prop57
140
1.0
102
RTVSPost2010PropOp57
 70
     1
  0
XRECORD
  5
1A2
102
{ACAD_REACTORS
330
1A1
102
}
330
1A1
100
AcDbXrecord
280
     1
102
RTVSPost2010Prop28
280
     0
102
RTVSPost2010PropOp28
 70
     1
102
RTVSPost2010Prop29
280
     1
102
RTVSPost2010PropOp29
 70
     1
102
RTVSPost2010Prop30
280
     1
102
RTVSPost2010PropOp30
 70
     1
102
RTVSPost2010Prop31
280
     0
102
RTVSPost2010PropOp31
 70
     1
102
RTVSPost2010Prop32
280
     0
102
RTVSPost2010PropOp32
 70
     1
102
RTVSPost2010Prop33
280
     0
102
RTVSPost2010PropOp33
 70
     1
102
RTVSPost2010Prop34
280
     0
102
RTVSPost2010PropOp34
 70
     1
102
RTVSPost2010Prop35
280
     0
102
RTVSPost2010PropOp35
 70
     1
102
RTVSPost2010Prop36
280
     0
102
RTVSPost2010PropOp36
 70
     1
102
RTVSPost2010Prop37
 90
       50
102
RTVSPost2010PropOp37
 70
     1
102
RTVSPost2010Prop38
140
0.0
102
RTVSPost2010PropOp38
 70
     1
102
RTVSPost2010Prop39
140
1.0
102
RTVSPost2010PropOp39
 70
     1
102
RTVSPost2010Prop40
 90
        0
102
RTVSPost2010PropOp40
 70
     1
102
RTVSPost2010Prop41ColorIndex
 90
       18
102
RTVSPost2010Prop41ColorRGB
 90
        0
102
RTVSPost2010PropOp41
 70
     1
102
RTVSPost2010Prop42
 90
       50
102
RTVSPost2010PropOp42
 70
     1
102
RTVSPost2010Prop43
 90
        3
102
RTVSPost2010PropOp43
 70
     1
102
RTVSPost2010Prop44ColorIndex
 90
        5
102
RTVSPost2010Prop44ColorRGB
 90
      255
102
RTVSPost2010PropOp44
 70
     1
102
RTVSPost2010Prop45
280
     0
102
RTVSPost2010PropOp45
 70
     1
102
RTVSPost2010Prop46
 90
       50
102
RTVSPost2010PropOp46
 70
     1
102
RTVSPost2010Prop47
 90
       50
102
RTVSPost2010PropOp47
 70
     1
102
RTVSPost2010Prop48
 90
       50
102
RTVSPost2010PropOp48
 70
     1
102
RTVSPost2010Prop49
280
     0
102
RTVSPost2010PropOp49
 70
     1
102
RTVSPost2010Prop50
 90
       50
102
RTVSPost2010PropOp50
 70
     1
102
RTVSPost2010Prop51ColorIndex
 90
      256
102
RTVSPost2010Prop51ColorRGB
 90
-16777216
102
RTVSPost2010PropOp51
 70
     0
102
RTVSPost2010Prop52
140
1.0
102
RTVSPost2010PropOp52
 70
     0
102
RTVSPost2010Prop53
 90
        2
102
RTVSPost2010PropOp53
 70
     1
102
RTVSPost2010Prop54
  1
strokes_ogs.tif
102
RTVSPost2010PropOp54
 70
     1
102
RTVSPost2010Prop55
280
     0
102
RTVSPost2010PropOp55
 70
     1
102
RTVSPost2010Prop56
140
1.0
102
RTVSPost2010PropOp56
 70
     1
102
RTVSPost2010Prop57
140
1.0
102
RTVSPost2010PropOp57
 70
     1
  0
XRECORD
  5
19C
102
{ACAD_REACTORS
330
19B
102
}
330
19B
100
AcDbXrecord
280
     1
102
RTVSPost2010Prop28
280
     0
102
RTVSPost2010PropOp28
 70
     1
102
RTVSPost2010Prop29
280
     1
102
RTVSPost2010PropOp29
 70
     1
102
RTVSPost2010Prop30
280
     1
102
RTVSPost2010PropOp30
 70
     1
102
RTVSPost2010Prop31
280
     0
102
RTVSPost2010PropOp31
 70
     1
102
RTVSPost2010Prop32
280
     0
102
RTVSPost2010PropOp32
 70
     1
102
RTVSPost2010Prop33
280
     0
102
RTVSPost2010PropOp33
 70
     1
102
RTVSPost2010Prop34
280
     0
102
RTVSPost2010PropOp34
 70
     1
102
RTVSPost2010Prop35
280
     0
102
RTVSPost2010PropOp35
 70
     1
102
RTVSPost2010Prop36
280
     0
102
RTVSPost2010PropOp36
 70
     1
102
RTVSPost2010Prop37
 90
       50
102
RTVSPost2010PropOp37
 70
     1
102
RTVSPost2010Prop38
140
0.0
102
RTVSPost2010PropOp38
 70
     1
102
RTVSPost2010Prop39
140
1.0
102
RTVSPost2010PropOp39
 70
     1
102
RTVSPost2010Prop40
 90
        0
102
RTVSPost2010PropOp40
 70
     1
102
RTVSPost2010Prop41ColorIndex
 90
       18
102
RTVSPost2010Prop41ColorRGB
 90
        0
102
RTVSPost2010PropOp41
 70
     1
102
RTVSPost2010Prop42
 90
       50
102
RTVSPost2010PropOp42
 70
     1
102
RTVSPost2010Prop43
 90
        3
102
RTVSPost2010PropOp43
 70
     1
102
RTVSPost2010Prop44ColorIndex
 90
        5
102
RTVSPost2010Prop44ColorRGB
 90
      255
102
RTVSPost2010PropOp44
 70
     1
102
RTVSPost2010Prop45
280
     0
102
RTVSPost2010PropOp45
 70
     1
102
RTVSPost2010Prop46
 90
       50
102
RTVSPost2010PropOp46
 70
     1
102
RTVSPost2010Prop47
 90
       50
102
RTVSPost2010PropOp47
 70
     1
102
RTVSPost2010Prop48
 90
       50
102
RTVSPost2010PropOp48
 70
     1
102
RTVSPost2010Prop49
280
     0
102
RTVSPost2010PropOp49
 70
     1
102
RTVSPost2010Prop50
 90
       50
102
RTVSPost2010PropOp50
 70
     1
102
RTVSPost2010Prop51ColorIndex
 90
      256
102
RTVSPost2010Prop51ColorRGB
 90
-16777216
102
RTVSPost2010PropOp51
 70
     0
102
RTVSPost2010Prop52
140
1.0
102
RTVSPost2010PropOp52
 70
     0
102
RTVSPost2010Prop53
 90
        2
102
RTVSPost2010PropOp53
 70
     1
102
RTVSPost2010Prop54
  1
strokes_ogs.tif
102
RTVSPost2010PropOp54
 70
     1
102
RTVSPost2010Prop55
280
     0
102
RTVSPost2010PropOp55
 70
     1
102
RTVSPost2010Prop56
140
1.0
102
RTVSPost2010PropOp56
 70
     1
102
RTVSPost2010Prop57
140
1.0
102
RTVSPost2010PropOp57
 70
     1
  0
XRECORD
  5
19E
102
{ACAD_REACTORS
330
19D
102
}
330
19D
100
AcDbXrecord
280
     1
102
RTVSPost2010Prop28
280
     0
102
RTVSPost2010PropOp28
 70
     1
102
RTVSPost2010Prop29
280
     1
102
RTVSPost2010PropOp29
 70
     1
102
RTVSPost2010Prop30
280
     1
102
RTVSPost2010PropOp30
 70
     1
102
RTVSPost2010Prop31
280
     0
102
RTVSPost2010PropOp31
 70
     1
102
RTVSPost2010Prop32
280
     0
102
RTVSPost2010PropOp32
 70
     1
102
RTVSPost2010Prop33
280
     0
102
RTVSPost2010PropOp33
 70
     1
102
RTVSPost2010Prop34
280
     0
102
RTVSPost2010PropOp34
 70
     1
102
RTVSPost2010Prop35
280
     0
102
RTVSPost2010PropOp35
 70
     1
102
RTVSPost2010Prop36
280
     0
102
RTVSPost2010PropOp36
 70
     1
102
RTVSPost2010Prop37
 90
       50
102
RTVSPost2010PropOp37
 70
     1
102
RTVSPost2010Prop38
140
0.0
102
RTVSPost2010PropOp38
 70
     1
102
RTVSPost2010Prop39
140
1.0
102
RTVSPost2010PropOp39
 70
     1
102
RTVSPost2010Prop40
 90
        0
102
RTVSPost2010PropOp40
 70
     1
102
RTVSPost2010Prop41ColorIndex
 90
       18
102
RTVSPost2010Prop41ColorRGB
 90
        0
102
RTVSPost2010PropOp41
 70
     1
102
RTVSPost2010Prop42
 90
       50
102
RTVSPost2010PropOp42
 70
     1
102
RTVSPost2010Prop43
 90
        3
102
RTVSPost2010PropOp43
 70
     1
102
RTVSPost2010Prop44ColorIndex
 90
        5
102
RTVSPost2010Prop44ColorRGB
 90
      255
102
RTVSPost2010PropOp44
 70
     1
102
RTVSPost2010Prop45
280
     0
102
RTVSPost2010PropOp45
 70
     1
102
RTVSPost2010Prop46
 90
       50
102
RTVSPost2010PropOp46
 70
     1
102
RTVSPost2010Prop47
 90
       50
102
RTVSPost2010PropOp47
 70
     1
102
RTVSPost2010Prop48
 90
       50
102
RTVSPost2010PropOp48
 70
     1
102
RTVSPost2010Prop49
280
     0
102
RTVSPost2010PropOp49
 70
     1
102
RTVSPost2010Prop50
 90
       50
102
RTVSPost2010PropOp50
 70
     1
102
RTVSPost2010Prop51ColorIndex
 90
      256
102
RTVSPost2010Prop51ColorRGB
 90
-16777216
102
RTVSPost2010PropOp51
 70
     0
102
RTVSPost2010Prop52
140
1.0
102
RTVSPost2010PropOp52
 70
     0
102
RTVSPost2010Prop53
 90
        2
102
RTVSPost2010PropOp53
 70
     1
102
RTVSPost2010Prop54
  1
strokes_ogs.tif
102
RTVSPost2010PropOp54
 70
     1
102
RTVSPost2010Prop55
280
     0
102
RTVSPost2010PropOp55
 70
     1
102
RTVSPost2010Prop56
140
1.0
102
RTVSPost2010PropOp56
 70
     1
102
RTVSPost2010Prop57
140
1.0
102
RTVSPost2010PropOp57
 70
     1
  0
XRECORD
  5
194
102
{ACAD_REACTORS
330
193
102
}
330
193
100
AcDbXrecord
280
     1
102
RTVSPost2010Prop28
280
     0
102
RTVSPost2010PropOp28
 70
     1
102
RTVSPost2010Prop29
280
     1
102
RTVSPost2010PropOp29
 70
     1
102
RTVSPost2010Prop30
280
     1
102
RTVSPost2010PropOp30
 70
     1
102
RTVSPost2010Prop31
280
     0
102
RTVSPost2010PropOp31
 70
     1
102
RTVSPost2010Prop32
280
     0
102
RTVSPost2010PropOp32
 70
     1
102
RTVSPost2010Prop33
280
     0
102
RTVSPost2010PropOp33
 70
     1
102
RTVSPost2010Prop34
280
     0
102
RTVSPost2010PropOp34
 70
     1
102
RTVSPost2010Prop35
280
     0
102
RTVSPost2010PropOp35
 70
     1
102
RTVSPost2010Prop36
280
     0
102
RTVSPost2010PropOp36
 70
     1
102
RTVSPost2010Prop37
 90
       50
102
RTVSPost2010PropOp37
 70
     1
102
RTVSPost2010Prop38
140
0.0
102
RTVSPost2010PropOp38
 70
     1
102
RTVSPost2010Prop39
140
1.0
102
RTVSPost2010PropOp39
 70
     1
102
RTVSPost2010Prop40
 90
        0
102
RTVSPost2010PropOp40
 70
     1
102
RTVSPost2010Prop41ColorIndex
 90
       18
102
RTVSPost2010Prop41ColorRGB
 90
        0
102
RTVSPost2010PropOp41
 70
     1
102
RTVSPost2010Prop42
 90
       50
102
RTVSPost2010PropOp42
 70
     1
102
RTVSPost2010Prop43
 90
        3
102
RTVSPost2010PropOp43
 70
     1
102
RTVSPost2010Prop44ColorIndex
 90
        5
102
RTVSPost2010Prop44ColorRGB
 90
      255
102
RTVSPost2010PropOp44
 70
     1
102
RTVSPost2010Prop45
280
     0
102
RTVSPost2010PropOp45
 70
     1
102
RTVSPost2010Prop46
 90
       50
102
RTVSPost2010PropOp46
 70
     1
102
RTVSPost2010Prop47
 90
       50
102
RTVSPost2010PropOp47
 70
     1
102
RTVSPost2010Prop48
 90
       50
102
RTVSPost2010PropOp48
 70
     1
102
RTVSPost2010Prop49
280
     0
102
RTVSPost2010PropOp49
 70
     1
102
RTVSPost2010Prop50
 90
       50
102
RTVSPost2010PropOp50
 70
     1
102
RTVSPost2010Prop51ColorIndex
 90
      256
102
RTVSPost2010Prop51ColorRGB
 90
-16777216
102
RTVSPost2010PropOp51
 70
     0
102
RTVSPost2010Prop52
140
1.0
102
RTVSPost2010PropOp52
 70
     0
102
RTVSPost2010Prop53
 90
        2
102
RTVSPost2010PropOp53
 70
     1
102
RTVSPost2010Prop54
  1
strokes_ogs.tif
102
RTVSPost2010PropOp54
 70
     1
102
RTVSPost2010Prop55
280
     0
102
RTVSPost2010PropOp55
 70
     1
102
RTVSPost2010Prop56
140
1.0
102
RTVSPost2010PropOp56
 70
     1
102
RTVSPost2010Prop57
140
1.0
102
RTVSPost2010PropOp57
 70
     1
  0
XRECORD
  5
188
102
{ACAD_REACTORS
330
187
102
}
330
187
100
AcDbXrecord
280
     1
102
RTVSPost2010Prop28
280
     0
102
RTVSPost2010PropOp28
 70
     1
102
RTVSPost2010Prop29
280
     1
102
RTVSPost2010PropOp29
 70
     1
102
RTVSPost2010Prop30
280
     1
102
RTVSPost2010PropOp30
 70
     1
102
RTVSPost2010Prop31
280
     0
102
RTVSPost2010PropOp31
 70
     1
102
RTVSPost2010Prop32
280
     0
102
RTVSPost2010PropOp32
 70
     1
102
RTVSPost2010Prop33
280
     0
102
RTVSPost2010PropOp33
 70
     1
102
RTVSPost2010Prop34
280
     0
102
RTVSPost2010PropOp34
 70
     1
102
RTVSPost2010Prop35
280
     0
102
RTVSPost2010PropOp35
 70
     1
102
RTVSPost2010Prop36
280
     0
102
RTVSPost2010PropOp36
 70
     1
102
RTVSPost2010Prop37
 90
       50
102
RTVSPost2010PropOp37
 70
     1
102
RTVSPost2010Prop38
140
0.0
102
RTVSPost2010PropOp38
 70
     1
102
RTVSPost2010Prop39
140
1.0
102
RTVSPost2010PropOp39
 70
     1
102
RTVSPost2010Prop40
 90
        0
102
RTVSPost2010PropOp40
 70
     1
102
RTVSPost2010Prop41ColorIndex
 90
       18
102
RTVSPost2010Prop41ColorRGB
 90
        0
102
RTVSPost2010PropOp41
 70
     1
102
RTVSPost2010Prop42
 90
       50
102
RTVSPost2010PropOp42
 70
     1
102
RTVSPost2010Prop43
 90
        3
102
RTVSPost2010PropOp43
 70
     1
102
RTVSPost2010Prop44ColorIndex
 90
        5
102
RTVSPost2010Prop44ColorRGB
 90
      255
102
RTVSPost2010PropOp44
 70
     1
102
RTVSPost2010Prop45
280
     0
102
RTVSPost2010PropOp45
 70
     1
102
RTVSPost2010Prop46
 90
       50
102
RTVSPost2010PropOp46
 70
     1
102
RTVSPost2010Prop47
 90
       50
102
RTVSPost2010PropOp47
 70
     1
102
RTVSPost2010Prop48
 90
       50
102
RTVSPost2010PropOp48
 70
     1
102
RTVSPost2010Prop49
280
     0
102
RTVSPost2010PropOp49
 70
     1
102
RTVSPost2010Prop50
 90
       50
102
RTVSPost2010PropOp50
 70
     1
102
RTVSPost2010Prop51ColorIndex
 90
      256
102
RTVSPost2010Prop51ColorRGB
 90
-16777216
102
RTVSPost2010PropOp51
 70
     0
102
RTVSPost2010Prop52
140
1.0
102
RTVSPost2010PropOp52
 70
     0
102
RTVSPost2010Prop53
 90
        2
102
RTVSPost2010PropOp53
 70
     1
102
RTVSPost2010Prop54
  1
strokes_ogs.tif
102
RTVSPost2010PropOp54
 70
     1
102
RTVSPost2010Prop55
280
     0
102
RTVSPost2010PropOp55
 70
     1
102
RTVSPost2010Prop56
140
1.0
102
RTVSPost2010PropOp56
 70
     1
102
RTVSPost2010Prop57
140
1.0
102
RTVSPost2010PropOp57
 70
     1
  0
XRECORD
  5
1A0
102
{ACAD_REACTORS
330
19F
102
}
330
19F
100
AcDbXrecord
280
     1
102
RTVSPost2010Prop28
280
     0
102
RTVSPost2010PropOp28
 70
     1
102
RTVSPost2010Prop29
280
     1
102
RTVSPost2010PropOp29
 70
     1
102
RTVSPost2010Prop30
280
     1
102
RTVSPost2010PropOp30
 70
     1
102
RTVSPost2010Prop31
280
     0
102
RTVSPost2010PropOp31
 70
     1
102
RTVSPost2010Prop32
280
     0
102
RTVSPost2010PropOp32
 70
     1
102
RTVSPost2010Prop33
280
     0
102
RTVSPost2010PropOp33
 70
     1
102
RTVSPost2010Prop34
280
     0
102
RTVSPost2010PropOp34
 70
     1
102
RTVSPost2010Prop35
280
     0
102
RTVSPost2010PropOp35
 70
     1
102
RTVSPost2010Prop36
280
     0
102
RTVSPost2010PropOp36
 70
     1
102
RTVSPost2010Prop37
 90
       50
102
RTVSPost2010PropOp37
 70
     1
102
RTVSPost2010Prop38
140
0.0
102
RTVSPost2010PropOp38
 70
     1
102
RTVSPost2010Prop39
140
1.0
102
RTVSPost2010PropOp39
 70
     1
102
RTVSPost2010Prop40
 90
        0
102
RTVSPost2010PropOp40
 70
     1
102
RTVSPost2010Prop41ColorIndex
 90
       18
102
RTVSPost2010Prop41ColorRGB
 90
        0
102
RTVSPost2010PropOp41
 70
     1
102
RTVSPost2010Prop42
 90
       50
102
RTVSPost2010PropOp42
 70
     1
102
RTVSPost2010Prop43
 90
        3
102
RTVSPost2010PropOp43
 70
     1
102
RTVSPost2010Prop44ColorIndex
 90
        5
102
RTVSPost2010Prop44ColorRGB
 90
      255
102
RTVSPost2010PropOp44
 70
     1
102
RTVSPost2010Prop45
280
     0
102
RTVSPost2010PropOp45
 70
     1
102
RTVSPost2010Prop46
 90
       50
102
RTVSPost2010PropOp46
 70
     1
102
RTVSPost2010Prop47
 90
       50
102
RTVSPost2010PropOp47
 70
     1
102
RTVSPost2010Prop48
 90
       50
102
RTVSPost2010PropOp48
 70
     1
102
RTVSPost2010Prop49
280
     0
102
RTVSPost2010PropOp49
 70
     1
102
RTVSPost2010Prop50
 90
       50
102
RTVSPost2010PropOp50
 70
     1
102
RTVSPost2010Prop51ColorIndex
 90
      256
102
RTVSPost2010Prop51ColorRGB
 90
-16777216
102
RTVSPost2010PropOp51
 70
     0
102
RTVSPost2010Prop52
140
1.0
102
RTVSPost2010PropOp52
 70
     0
102
RTVSPost2010Prop53
 90
        2
102
RTVSPost2010PropOp53
 70
     1
102
RTVSPost2010Prop54
  1
strokes_ogs.tif
102
RTVSPost2010PropOp54
 70
     1
102
RTVSPost2010Prop55
280
     0
102
RTVSPost2010PropOp55
 70
     1
102
RTVSPost2010Prop56
140
1.0
102
RTVSPost2010PropOp56
 70
     1
102
RTVSPost2010Prop57
140
1.0
102
RTVSPost2010PropOp57
 70
     1
  0
ENDSEC
  0
EOF
