  0
SECTION
  2
HEADER
  9
$ACADVER
  1
AC1024
  9
$ACADMAINTVER
 70
   205
  9
$DWGCODEPAGE
  3
ANSI_1251
  9
$INSBASE
 10
0.0
 20
0.0
 30
0.0
  9
$EXTMIN
 10
1.000000000000000E+20
 20
1.000000000000000E+20
 30
1.000000000000000E+20
  9
$EXTMAX
 10
-1.000000000000000E+20
 20
-1.000000000000000E+20
 30
-1.000000000000000E+20
  9
$LIMMIN
 10
0.0
 20
0.0
  9
$LIMMAX
 10
12.0
 20
9.0
  9
$ORTHOMODE
 70
     0
  9
$REGENMODE
 70
     1
  9
$FILLMODE
 70
     1
  9
$QTEXTMODE
 70
     0
  9
$MIRRTEXT
 70
     1
  9
$LTSCALE
 40
1.0
  9
$ATTMODE
 70
     1
  9
$TEXTSIZE
 40
0.2
  9
$TRACEWID
 40
0.05
  9
$TEXTSTYLE
  7
Standard
  9
$CLAYER
  8
OracDecor_cornice_mouldings
  9
$CELTYPE
  6
ByLayer
  9
$CECOLOR
 62
   256
  9
$CELTSCALE
 40
1.0
  9
$DISPSILH
 70
     0
  9
$DIMSCALE
 40
1.0
  9
$DIMASZ
 40
0.18
  9
$DIMEXO
 40
0.0625
  9
$DIMDLI
 40
0.38
  9
$DIMRND
 40
0.0
  9
$DIMDLE
 40
0.0
  9
$DIMEXE
 40
0.18
  9
$DIMTP
 40
0.0
  9
$DIMTM
 40
0.0
  9
$DIMTXT
 40
0.18
  9
$DIMCEN
 40
0.09
  9
$DIMTSZ
 40
0.0
  9
$DIMTOL
 70
     0
  9
$DIMLIM
 70
     0
  9
$DIMTIH
 70
     1
  9
$DIMTOH
 70
     1
  9
$DIMSE1
 70
     0
  9
$DIMSE2
 70
     0
  9
$DIMTAD
 70
     0
  9
$DIMZIN
 70
     0
  9
$DIMBLK
  1

  9
$DIMASO
 70
     1
  9
$DIMSHO
 70
     1
  9
$DIMPOST
  1

  9
$DIMAPOST
  1

  9
$DIMALT
 70
     0
  9
$DIMALTD
 70
     2
  9
$DIMALTF
 40
25.4
  9
$DIMLFAC
 40
1.0
  9
$DIMTOFL
 70
     0
  9
$DIMTVP
 40
0.0
  9
$DIMTIX
 70
     0
  9
$DIMSOXD
 70
     0
  9
$DIMSAH
 70
     0
  9
$DIMBLK1
  1

  9
$DIMBLK2
  1

  9
$DIMSTYLE
  2
Standard
  9
$DIMCLRD
 70
     0
  9
$DIMCLRE
 70
     0
  9
$DIMCLRT
 70
     0
  9
$DIMTFAC
 40
1.0
  9
$DIMGAP
 40
0.09
  9
$DIMJUST
 70
     0
  9
$DIMSD1
 70
     0
  9
$DIMSD2
 70
     0
  9
$DIMTOLJ
 70
     1
  9
$DIMTZIN
 70
     0
  9
$DIMALTZ
 70
     0
  9
$DIMALTTZ
 70
     0
  9
$DIMUPT
 70
     0
  9
$DIMDEC
 70
     4
  9
$DIMTDEC
 70
     4
  9
$DIMALTU
 70
     2
  9
$DIMALTTD
 70
     2
  9
$DIMTXSTY
  7
Standard
  9
$DIMAUNIT
 70
     0
  9
$DIMADEC
 70
     0
  9
$DIMALTRND
 40
0.0
  9
$DIMAZIN
 70
     0
  9
$DIMDSEP
 70
    46
  9
$DIMATFIT
 70
     3
  9
$DIMFRAC
 70
     0
  9
$DIMLDRBLK
  1

  9
$DIMLUNIT
 70
     2
  9
$DIMLWD
 70
    -2
  9
$DIMLWE
 70
    -2
  9
$DIMTMOVE
 70
     0
  9
$DIMFXL
 40
1.0
  9
$DIMFXLON
 70
     0
  9
$DIMJOGANG
 40
0.7853981633974483
  9
$DIMTFILL
 70
     0
  9
$DIMTFILLCLR
 70
     0
  9
$DIMARCSYM
 70
     0
  9
$DIMLTYPE
  6

  9
$DIMLTEX1
  6

  9
$DIMLTEX2
  6

  9
$DIMTXTDIRECTION
 70
     0
  9
$LUNITS
 70
     2
  9
$LUPREC
 70
     4
  9
$SKETCHINC
 40
0.1
  9
$FILLETRAD
 40
0.5
  9
$AUNITS
 70
     0
  9
$AUPREC
 70
     0
  9
$MENU
  1
.
  9
$ELEVATION
 40
0.0
  9
$PELEVATION
 40
0.0
  9
$THICKNESS
 40
0.0
  9
$LIMCHECK
 70
     0
  9
$CHAMFERA
 40
0.5
  9
$CHAMFERB
 40
0.5
  9
$CHAMFERC
 40
1.0
  9
$CHAMFERD
 40
0.0
  9
$SKPOLY
 70
     0
  9
$TDCREATE
 40
2451380.930432396
  9
$TDUCREATE
 40
2451380.805432396
  9
$TDUPDATE
 40
2451380.966180555
  9
$TDUUPDATE
 40
2451380.841180556
  9
$TDINDWG
 40
0.0075631250
  9
$TDUSRTIMER
 40
0.0075540856
  9
$USRTIMER
 70
     1
  9
$ANGBASE
 50
0.0
  9
$ANGDIR
 70
     0
  9
$PDMODE
 70
     0
  9
$PDSIZE
 40
0.0
  9
$PLINEWID
 40
0.0
  9
$SPLFRAME
 70
     0
  9
$SPLINETYPE
 70
     6
  9
$SPLINESEGS
 70
     8
  9
$HANDSEED
  5
1AA
  9
$SURFTAB1
 70
     6
  9
$SURFTAB2
 70
     6
  9
$SURFTYPE
 70
     6
  9
$SURFU
 70
     6
  9
$SURFV
 70
     6
  9
$UCSBASE
  2

  9
$UCSNAME
  2

  9
$UCSORG
 10
0.0
 20
0.0
 30
0.0
  9
$UCSXDIR
 10
1.0
 20
0.0
 30
0.0
  9
$UCSYDIR
 10
0.0
 20
1.0
 30
0.0
  9
$UCSORTHOREF
  2

  9
$UCSORTHOVIEW
 70
     0
  9
$UCSORGTOP
 10
0.0
 20
0.0
 30
0.0
  9
$UCSORGBOTTOM
 10
0.0
 20
0.0
 30
0.0
  9
$UCSORGLEFT
 10
0.0
 20
0.0
 30
0.0
  9
$UCSORGRIGHT
 10
0.0
 20
0.0
 30
0.0
  9
$UCSORGFRONT
 10
0.0
 20
0.0
 30
0.0
  9
$UCSORGBACK
 10
0.0
 20
0.0
 30
0.0
  9
$PUCSBASE
  2

  9
$PUCSNAME
  2

  9
$PUCSORG
 10
0.0
 20
0.0
 30
0.0
  9
$PUCSXDIR
 10
1.0
 20
0.0
 30
0.0
  9
$PUCSYDIR
 10
0.0
 20
1.0
 30
0.0
  9
$PUCSORTHOREF
  2

  9
$PUCSORTHOVIEW
 70
     0
  9
$PUCSORGTOP
 10
0.0
 20
0.0
 30
0.0
  9
$PUCSORGBOTTOM
 10
0.0
 20
0.0
 30
0.0
  9
$PUCSORGLEFT
 10
0.0
 20
0.0
 30
0.0
  9
$PUCSORGRIGHT
 10
0.0
 20
0.0
 30
0.0
  9
$PUCSORGFRONT
 10
0.0
 20
0.0
 30
0.0
  9
$PUCSORGBACK
 10
0.0
 20
0.0
 30
0.0
  9
$USERI1
 70
     0
  9
$USERI2
 70
     0
  9
$USERI3
 70
     0
  9
$USERI4
 70
     0
  9
$USERI5
 70
     0
  9
$USERR1
 40
0.0
  9
$USERR2
 40
0.0
  9
$USERR3
 40
0.0
  9
$USERR4
 40
0.0
  9
$USERR5
 40
0.0
  9
$WORLDVIEW
 70
     1
  9
$SHADEDGE
 70
     3
  9
$SHADEDIF
 70
    70
  9
$TILEMODE
 70
     1
  9
$MAXACTVP
 70
    64
  9
$PINSBASE
 10
0.0
 20
0.0
 30
0.0
  9
$PLIMCHECK
 70
     0
  9
$PEXTMIN
 10
1.000000000000000E+20
 20
1.000000000000000E+20
 30
1.000000000000000E+20
  9
$PEXTMAX
 10
-1.000000000000000E+20
 20
-1.000000000000000E+20
 30
-1.000000000000000E+20
  9
$PLIMMIN
 10
0.0
 20
0.0
  9
$PLIMMAX
 10
12.0
 20
9.0
  9
$UNITMODE
 70
     0
  9
$VISRETAIN
 70
     1
  9
$PLINEGEN
 70
     0
  9
$PSLTSCALE
 70
     1
  9
$TREEDEPTH
 70
  3020
  9
$CMLSTYLE
  2
Standard
  9
$CMLJUST
 70
     0
  9
$CMLSCALE
 40
1.0
  9
$PROXYGRAPHICS
 70
     1
  9
$MEASUREMENT
 70
     1
  9
$CELWEIGHT
370
    -1
  9
$ENDCAPS
280
     0
  9
$JOINSTYLE
280
     0
  9
$LWDISPLAY
290
     0
  9
$INSUNITS
 70
     4
  9
$HYPERLINKBASE
  1

  9
$STYLESHEET
  1

  9
$XEDIT
290
     1
  9
$CEPSNTYPE
380
     0
  9
$PSTYLEMODE
290
     1
  9
$FINGERPRINTGUID
  2
{12F50282-3ED8-11D3-A8B7-0060B0F84BC6}
  9
$VERSIONGUID
  2
{12F50293-3ED8-11D3-A8B7-0060B0F84BC6}
  9
$EXTNAMES
290
     1
  9
$PSVPSCALE
 40
0.0
  9
$OLESTARTUP
290
     0
  9
$SORTENTS
280
   127
  9
$INDEXCTL
280
     0
  9
$HIDETEXT
280
     0
  9
$XCLIPFRAME
280
     2
  9
$HALOGAP
280
     0
  9
$OBSCOLOR
 70
   257
  9
$OBSLTYPE
280
     0
  9
$INTERSECTIONDISPLAY
280
     0
  9
$INTERSECTIONCOLOR
 70
   257
  9
$DIMASSOC
280
     1
  9
$PROJECTNAME
  1

  9
$CAMERADISPLAY
290
     0
  9
$LENSLENGTH
 40
50.0
  9
$CAMERAHEIGHT
 40
0.0
  9
$STEPSPERSEC
 40
2.0
  9
$STEPSIZE
 40
6.0
  9
$3DDWFPREC
 40
2.0
  9
$PSOLWIDTH
 40
0.25
  9
$PSOLHEIGHT
 40
4.0
  9
$LOFTANG1
 40
1.570796326794896
  9
$LOFTANG2
 40
1.570796326794896
  9
$LOFTMAG1
 40
0.0
  9
$LOFTMAG2
 40
0.0
  9
$LOFTPARAM
 70
     7
  9
$LOFTNORMALS
280
     1
  9
$LATITUDE
 40
37.795
  9
$LONGITUDE
 40
-122.394
  9
$NORTHDIRECTION
 40
0.0
  9
$TIMEZONE
 70
 -8000
  9
$LIGHTGLYPHDISPLAY
280
     1
  9
$TILEMODELIGHTSYNCH
280
     1
  9
$CMATERIAL
347
AB
  9
$SOLIDHIST
280
     0
  9
$SHOWHIST
280
     1
  9
$DWFFRAME
280
     2
  9
$DGNFRAME
280
     0
  9
$REALWORLDSCALE
290
     1
  9
$INTERFERECOLOR
 62
     1
  9
$INTERFEREOBJVS
345
CD
  9
$INTERFEREVPVS
346
CA
  9
$CSHADOW
280
     0
  9
$SHADOWPLANELOCATION
 40
0.0
  0
ENDSEC
  0
SECTION
  2
CLASSES
  0
CLASS
  1
ACDBDICTIONARYWDFLT
  2
AcDbDictionaryWithDefault
  3
ObjectDBX Classes
 90
        0
 91
        1
280
     0
281
     0
  0
CLASS
  1
ACDBPLACEHOLDER
  2
AcDbPlaceHolder
  3
ObjectDBX Classes
 90
        0
 91
        2
280
     0
281
     0
  0
CLASS
  1
LAYOUT
  2
AcDbLayout
  3
ObjectDBX Classes
 90
        0
 91
        3
280
     0
281
     0
  0
CLASS
  1
MATERIAL
  2
AcDbMaterial
  3
ObjectDBX Classes
 90
     1153
 91
        3
280
     0
281
     0
  0
CLASS
  1
VISUALSTYLE
  2
AcDbVisualStyle
  3
ObjectDBX Classes
 90
     4095
 91
       24
280
     0
281
     0
  0
CLASS
  1
TABLESTYLE
  2
AcDbTableStyle
  3
ObjectDBX Classes
 90
     4095
 91
        1
280
     0
281
     0
  0
CLASS
  1
SCALE
  2
AcDbScale
  3
ObjectDBX Classes
 90
     1153
 91
       17
280
     0
281
     0
  0
CLASS
  1
MLEADERSTYLE
  2
AcDbMLeaderStyle
  3
ACDB_MLEADERSTYLE_CLASS
 90
     4095
 91
        1
280
     0
281
     0
  0
CLASS
  1
ACDBSECTIONVIEWSTYLE
  2
AcDbSectionViewStyle
  3
ObjectDBX Classes
 90
     1025
 91
        1
280
     0
281
     0
  0
CLASS
  1
ACDBDETAILVIEWSTYLE
  2
AcDbDetailViewStyle
  3
ObjectDBX Classes
 90
     1025
 91
        1
280
     0
281
     0
  0
CLASS
  1
MESH
  2
AcDbSubDMesh
  3
ObjectDBX Classes
 90
        0
 91
        1
280
     0
281
     1
  0
CLASS
  1
DICTIONARYVAR
  2
AcDbDictionaryVar
  3
ObjectDBX Classes
 90
        0
 91
        9
280
     0
281
     0
  0
CLASS
  1
CELLSTYLEMAP
  2
AcDbCellStyleMap
  3
ObjectDBX Classes
 90
     1152
 91
        1
280
     0
281
     0
  0
ENDSEC
  0
SECTION
  2
TABLES
  0
TABLE
  2
VPORT
  5
8
330
0
100
AcDbSymbolTable
 70
     1
  0
VPORT
  5
A8
330
8
100
AcDbSymbolTableRecord
100
AcDbViewportTableRecord
  2
*Active
 70
     0
 10
0.0
 20
0.0
 11
1.0
 21
1.0
 12
-0.0000107895939436
 22
-61.21596908569336
 13
0.0
 23
0.0
 14
0.5
 24
0.5
 15
0.5
 25
0.5
 16
-1.0
 26
-1.0
 36
1.0
 17
0.0
 27
0.0
 37
0.0
 40
1345.99279782056
 41
1.539085672562635
 42
50.0
 43
0.0
 44
0.0
 50
0.0
 51
0.0
 71
     0
 72
   100
 73
     1
 74
     3
 75
     0
 76
     0
 77
     0
 78
     0
281
     0
 65
     1
110
0.0
120
0.0
130
0.0
111
1.0
121
0.0
131
0.0
112
0.0
122
1.0
132
0.0
 79
     0
146
0.0
348
C9
 60
     3
 61
     5
292
     1
282
     1
141
0.0
142
0.0
 63
   250
421
  3355443
  0
ENDTAB
  0
TABLE
  2
LTYPE
  5
5
330
0
100
AcDbSymbolTable
 70
     1
  0
LTYPE
  5
14
330
5
100
AcDbSymbolTableRecord
100
AcDbLinetypeTableRecord
  2
ByBlock
 70
     0
  3

 72
    65
 73
     0
 40
0.0
  0
LTYPE
  5
15
330
5
100
AcDbSymbolTableRecord
100
AcDbLinetypeTableRecord
  2
ByLayer
 70
     0
  3

 72
    65
 73
     0
 40
0.0
  0
LTYPE
  5
16
330
5
100
AcDbSymbolTableRecord
100
AcDbLinetypeTableRecord
  2
Continuous
 70
     0
  3
Solid line
 72
    65
 73
     0
 40
0.0
  0
ENDTAB
  0
TABLE
  2
LAYER
  5
2
330
0
100
AcDbSymbolTable
 70
     3
  0
LAYER
  5
10
330
2
100
AcDbSymbolTableRecord
100
AcDbLayerTableRecord
  2
0
 70
     0
 62
     7
  6
Continuous
370
    -3
390
F
347
BB
  0
LAYER
  5
2B
330
2
100
AcDbSymbolTableRecord
100
AcDbLayerTableRecord
  2
ASHADE
 70
     4
 62
     7
  6
Continuous
370
    -3
390
2D
347
BB
  0
LAYER
  5
F8
330
2
100
AcDbSymbolTableRecord
100
AcDbLayerTableRecord
  2
OracDecor_cornice_mouldings
 70
     0
 62
   176
420
   526472
  6
Continuous
370
    -3
390
F
347
BB
  0
ENDTAB
  0
TABLE
  2
STYLE
  5
3
330
0
100
AcDbSymbolTable
 70
     2
  0
STYLE
  5
11
330
3
100
AcDbSymbolTableRecord
100
AcDbTextStyleTableRecord
  2
Standard
 70
     0
 40
0.0
 41
1.0
 50
0.0
 71
     0
 42
0.2
  3
txt
  4

  0
STYLE
  5
2C
330
3
100
AcDbSymbolTableRecord
100
AcDbTextStyleTableRecord
  2
ASHADE
 70
     0
 40
0.2
 41
1.0
 50
0.0
 71
     0
 42
0.2
  3
simplex
  4

  0
ENDTAB
  0
TABLE
  2
VIEW
  5
6
330
0
100
AcDbSymbolTable
 70
     0
  0
ENDTAB
  0
TABLE
  2
UCS
  5
7
330
0
100
AcDbSymbolTable
 70
     0
  0
ENDTAB
  0
TABLE
  2
APPID
  5
9
330
0
100
AcDbSymbolTable
 70
     6
  0
APPID
  5
12
330
9
100
AcDbSymbolTableRecord
100
AcDbRegAppTableRecord
  2
ACAD
 70
     0
  0
APPID
  5
8F
330
9
100
AcDbSymbolTableRecord
100
AcDbRegAppTableRecord
  2
AVE_RENDER
 70
     0
  0
APPID
  5
90
330
9
100
AcDbSymbolTableRecord
100
AcDbRegAppTableRecord
  2
AVE_ENTITY_MATERIAL
 70
     0
  0
APPID
  5
9C
330
9
100
AcDbSymbolTableRecord
100
AcDbRegAppTableRecord
  2
AVE_FINISH
 70
     0
  0
APPID
  5
9D
330
9
100
AcDbSymbolTableRecord
100
AcDbRegAppTableRecord
  2
AVE_MATERIAL
 70
     0
  0
APPID
  5
9E
330
9
100
AcDbSymbolTableRecord
100
AcDbRegAppTableRecord
  2
AVE_GLOBAL
 70
     0
  0
ENDTAB
  0
TABLE
  2
DIMSTYLE
  5
A
330
0
100
AcDbSymbolTable
 70
     1
100
AcDbDimStyleTable
 71
     0
  0
DIMSTYLE
105
27
330
A
100
AcDbSymbolTableRecord
100
AcDbDimStyleTableRecord
  2
Standard
 70
     0
340
11
  0
ENDTAB
  0
TABLE
  2
BLOCK_RECORD
  5
1
330
0
100
AcDbSymbolTable
 70
     6
  0
BLOCK_RECORD
  5
1F
330
1
100
AcDbSymbolTableRecord
100
AcDbBlockTableRecord
  2
*Model_Space
340
22
 70
     0
280
     1
281
     0
  0
BLOCK_RECORD
  5
1B
330
1
100
AcDbSymbolTableRecord
100
AcDbBlockTableRecord
  2
*Paper_Space
340
1E
 70
     0
280
     1
281
     0
  0
BLOCK_RECORD
  5
23
330
1
100
AcDbSymbolTableRecord
100
AcDbBlockTableRecord
  2
*Paper_Space0
340
26
 70
     0
280
     1
281
     0
  0
BLOCK_RECORD
  5
2E
330
1
100
AcDbSymbolTableRecord
100
AcDbBlockTableRecord
  2
direct
340
0
 70
     0
280
     1
281
     0
  0
BLOCK_RECORD
  5
42
330
1
100
AcDbSymbolTableRecord
100
AcDbBlockTableRecord
  2
overhead
340
0
 70
     0
280
     1
281
     0
  0
BLOCK_RECORD
  5
5F
330
1
100
AcDbSymbolTableRecord
100
AcDbBlockTableRecord
  2
sh_spot
340
0
 70
     0
280
     1
281
     0
  0
BLOCK_RECORD
  5
91
330
1
100
AcDbSymbolTableRecord
100
AcDbBlockTableRecord
  2
AVE_RENDER
340
0
102
{BLKREFS
331
94
331
95
331
96
331
97
331
98
331
99
331
9A
331
9B
102
}
 70
     0
280
     1
281
     0
  0
BLOCK_RECORD
  5
9F
330
1
100
AcDbSymbolTableRecord
100
AcDbBlockTableRecord
  2
AVE_GLOBAL
340
0
102
{BLKREFS
331
A2
102
}
 70
     0
280
     1
281
     0
  0
ENDTAB
  0
ENDSEC
  0
SECTION
  2
BLOCKS
  0
BLOCK
  5
20
330
1F
100
AcDbEntity
  8
0
100
AcDbBlockBegin
  2
*Model_Space
 70
     0
 10
0.0
 20
0.0
 30
0.0
  3
*Model_Space
  1

  0
ENDBLK
  5
21
330
1F
100
AcDbEntity
  8
0
100
AcDbBlockEnd
  0
BLOCK
  5
1C
330
1B
100
AcDbEntity
 67
     1
  8
0
100
AcDbBlockBegin
  2
*Paper_Space
 70
     0
 10
0.0
 20
0.0
 30
0.0
  3
*Paper_Space
  1

  0
ENDBLK
  5
1D
330
1B
100
AcDbEntity
 67
     1
  8
0
100
AcDbBlockEnd
  0
BLOCK
  5
24
330
23
100
AcDbEntity
 67
     1
  8
0
100
AcDbBlockBegin
  2
*Paper_Space0
 70
     0
 10
0.0
 20
0.0
 30
0.0
  3
*Paper_Space0
  1

  0
ENDBLK
  5
25
330
23
100
AcDbEntity
 67
     1
  8
0
100
AcDbBlockEnd
  0
BLOCK
  5
40
330
2E
100
AcDbEntity
  8
0
100
AcDbBlockBegin
  2
direct
 70
     2
 10
0.0
 20
0.0
 30
0.0
  3
direct
  1

  0
ATTDEF
  5
2F
330
2E
100
AcDbEntity
  8
ASHADE
  6
Continuous
 62
     1
100
AcDbText
 10
0.0
 20
-0.1
 30
0.0
 40
0.2
  1

  7
ASHADE
 72
     1
 11
0.0
 21
-0.1
 31
0.0
100
AcDbAttributeDefinition
280
     0
  3
Light Name
  2
SNAME
 70
     0
280
     0
  0
ARC
  5
30
330
2E
100
AcDbEntity
  8
ASHADE
  6
Continuous
 62
     7
100
AcDbCircle
 10
0.0
 20
0.0
 30
0.0
 40
0.3
100
AcDbArc
 50
205.6792886194569
 51
334.3207113805431
  0
ARC
  5
31
330
2E
100
AcDbEntity
  8
ASHADE
  6
Continuous
 62
     7
100
AcDbCircle
 10
0.0
 20
0.0
 30
0.0
 40
0.3
100
AcDbArc
 50
25.67928861945685
 51
154.3207113805431
  0
LINE
  5
32
330
2E
100
AcDbEntity
  8
ASHADE
  6
Continuous
 62
     7
100
AcDbLine
 10
-0.21
 20
0.2142428528562855
 30
0.0
 11
-0.21
 21
0.5
 31
0.0
  0
LINE
  5
33
330
2E
100
AcDbEntity
  8
ASHADE
  6
Continuous
 62
     7
100
AcDbLine
 10
-0.11
 20
0.2791057147390572
 30
0.0
 11
-0.11
 21
0.5
 31
0.0
  0
LINE
  5
34
330
2E
100
AcDbEntity
  8
ASHADE
  6
Continuous
 62
     7
100
AcDbLine
 10
0.21
 20
0.2142428528562855
 30
0.0
 11
0.21
 21
0.5
 31
0.0
  0
ATTDEF
  5
35
330
2E
100
AcDbEntity
  8
ASHADE
  6
Continuous
 62
     7
100
AcDbText
 10
0.0
 20
0.25
 30
0.0
 40
0.01
  1

100
AcDbAttributeDefinition
280
     0
  3
Look-at Y
  2
LAY
 70
     1
280
     0
  0
ATTDEF
  5
36
330
2E
100
AcDbEntity
  8
ASHADE
  6
Continuous
 62
     7
100
AcDbText
 10
0.0
 20
0.22
 30
0.0
 40
0.01
  1
1
100
AcDbAttributeDefinition
280
     0
  3
Light Intensity
  2
INTENSITY
 70
     1
280
     0
  0
ATTDEF
  5
37
330
2E
100
AcDbEntity
  8
ASHADE
  6
Continuous
 62
     7
100
AcDbText
 10
0.0
 20
0.16
 30
0.0
 40
0.01
  1
-1
100
AcDbAttributeDefinition
280
     0
  3
*not used*
  2
BEAMD
 70
     1
280
     0
  0
ATTDEF
  5
38
330
2E
100
AcDbEntity
  8
ASHADE
  6
Continuous
 62
     7
100
AcDbText
 10
0.0
 20
0.175
 30
0.0
 40
0.01
  1
-1
100
AcDbAttributeDefinition
280
     0
  3
*not used*
  2
CONED
 70
     1
280
     0
  0
ATTDEF
  5
39
330
2E
100
AcDbEntity
  8
ASHADE
  6
Continuous
 62
     7
100
AcDbText
 10
0.0
 20
0.19
 30
0.0
 40
0.01
  1
0
100
AcDbAttributeDefinition
280
     0
  3
Depth Map Size
  2
CONEA
 70
     1
280
     0
  0
ATTDEF
  5
3A
330
2E
100
AcDbEntity
  8
ASHADE
  6
Continuous
 62
     7
100
AcDbText
 10
0.0
 20
0.2050000000000001
 30
0.0
 40
0.01
  1
1,1,1
100
AcDbAttributeDefinition
280
     0
  3
Light Color (RGB)
  2
COLOR
 70
     1
280
     0
  0
ATTDEF
  5
3B
330
2E
100
AcDbEntity
  8
ASHADE
  6
Continuous
 62
     7
100
AcDbText
 10
0.0
 20
0.235
 30
0.0
 40
0.01
  1

100
AcDbAttributeDefinition
280
     0
  3
Look-at Z
  2
LAZ
 70
     1
280
     0
  0
LINE
  5
3C
330
2E
100
AcDbEntity
  8
ASHADE
  6
Continuous
 62
     7
100
AcDbLine
 10
0.0
 20
0.3
 30
0.0
 11
0.0
 21
0.5
 31
0.0
  0
LINE
  5
3D
330
2E
100
AcDbEntity
  8
ASHADE
  6
Continuous
 62
     7
100
AcDbLine
 10
0.11
 20
0.2791057147390572
 30
0.0
 11
0.11
 21
0.5
 31
0.0
  0
ATTDEF
  5
3E
330
2E
100
AcDbEntity
  8
ASHADE
  6
Continuous
 62
     7
100
AcDbText
 10
0.0
 20
0.265
 30
0.0
 40
0.01
  1

100
AcDbAttributeDefinition
280
     0
  3
Look-at X
  2
LAX
 70
     1
280
     0
  0
ATTDEF
  5
3F
330
2E
100
AcDbEntity
  8
ASHADE
  6
Continuous
 62
     7
100
AcDbText
 10
0.0
 20
0.28
 30
0.0
 40
0.01
  1

100
AcDbAttributeDefinition
280
     0
  3

  2
GNAME
 70
     1
280
     0
  0
ENDBLK
  5
41
330
2E
100
AcDbEntity
  8
0
100
AcDbBlockEnd
  0
BLOCK
  5
5D
330
42
100
AcDbEntity
  8
0
100
AcDbBlockBegin
  2
overhead
 70
     2
 10
0.0
 20
0.0
 30
0.0
  3
overhead
  1

  0
ATTDEF
  5
43
330
42
100
AcDbEntity
  8
ASHADE
  6
Continuous
 62
     1
100
AcDbText
 10
0.0
 20
-0.1
 30
0.0
 40
0.2
  1

  7
ASHADE
 72
     1
 11
0.0
 21
-0.1
 31
0.0
100
AcDbAttributeDefinition
280
     0
  3
Light Name
  2
SNAME
 70
     0
280
     0
  0
ARC
  5
44
330
42
100
AcDbEntity
  8
ASHADE
  6
Continuous
 62
     7
100
AcDbCircle
 10
0.0
 20
0.0
 30
0.0
 40
0.3
100
AcDbArc
 50
205.6792886194569
 51
334.3207113805431
  0
LINE
  5
45
330
42
100
AcDbEntity
  8
ASHADE
  6
Continuous
 62
     7
100
AcDbLine
 10
-0.2041413561583015
 20
-0.2198324514393848
 30
0.0
 11
-0.2721884748777353
 21
-0.2931099352525131
 31
0.0
  0
LINE
  5
46
330
42
100
AcDbEntity
  8
ASHADE
  6
Continuous
 62
     7
100
AcDbLine
 10
-0.1096591641591904
 20
-0.2792398032442862
 30
0.0
 11
-0.1279356915190555
 21
-0.3257797704516673
 31
0.0
  0
LINE
  5
47
330
42
100
AcDbEntity
  8
ASHADE
  6
Continuous
 62
     7
100
AcDbLine
 10
0.0
 20
-0.2999999999999999
 30
0.0
 11
0.0
 21
-0.4
 31
0.0
  0
LINE
  5
48
330
42
100
AcDbEntity
  8
ASHADE
  6
Continuous
 62
     7
100
AcDbLine
 10
0.1096591641591904
 20
-0.2792398032442862
 30
0.0
 11
0.1279356915190555
 21
-0.3257797704516673
 31
0.0
  0
LINE
  5
49
330
42
100
AcDbEntity
  8
ASHADE
  6
Continuous
 62
     7
100
AcDbLine
 10
0.2041413561583015
 20
-0.2198324514393848
 30
0.0
 11
0.2721884748777353
 21
-0.2931099352525131
 31
0.0
  0
ARC
  5
4A
330
42
100
AcDbEntity
  8
ASHADE
  6
Continuous
 62
     7
100
AcDbCircle
 10
0.0
 20
0.0
 30
0.0
 40
0.3
100
AcDbArc
 50
25.67928861945685
 51
154.3207113805431
  0
LINE
  5
4B
330
42
100
AcDbEntity
  8
ASHADE
  6
Continuous
 62
     7
100
AcDbLine
 10
-0.2703701166919155
 20
0.13
 30
0.0
 11
-0.3154318028072347
 21
0.1516666666666666
 31
0.0
  0
LINE
  5
4C
330
42
100
AcDbEntity
  8
ASHADE
  6
Continuous
 62
     7
100
AcDbLine
 10
-0.2703701166919155
 20
-0.13
 30
0.0
 11
-0.3154318028072347
 21
-0.1516666666666666
 31
0.0
  0
LINE
  5
4D
330
42
100
AcDbEntity
  8
ASHADE
  6
Continuous
 62
     7
100
AcDbLine
 10
-0.2041413561583015
 20
0.2198324514393849
 30
0.0
 11
-0.2721884748777353
 21
0.2931099352525131
 31
0.0
  0
LINE
  5
4E
330
42
100
AcDbEntity
  8
ASHADE
  6
Continuous
 62
     7
100
AcDbLine
 10
-0.1096591641591904
 20
0.2792398032442862
 30
0.0
 11
-0.1279356915190555
 21
0.3257797704516674
 31
0.0
  0
LINE
  5
4F
330
42
100
AcDbEntity
  8
ASHADE
  6
Continuous
 62
     7
100
AcDbLine
 10
0.2703701166919155
 20
-0.13
 30
0.0
 11
0.3154318028072347
 21
-0.1516666666666666
 31
0.0
  0
LINE
  5
50
330
42
100
AcDbEntity
  8
ASHADE
  6
Continuous
 62
     7
100
AcDbLine
 10
0.2703701166919155
 20
0.13
 30
0.0
 11
0.3154318028072347
 21
0.1516666666666666
 31
0.0
  0
LINE
  5
51
330
42
100
AcDbEntity
  8
ASHADE
  6
Continuous
 62
     7
100
AcDbLine
 10
0.0
 20
0.3
 30
0.0
 11
0.0
 21
0.4
 31
0.0
  0
ATTDEF
  5
52
330
42
100
AcDbEntity
  8
ASHADE
  6
Continuous
 62
     7
100
AcDbText
 10
0.0
 20
0.22
 30
0.0
 40
0.01
  1
1
100
AcDbAttributeDefinition
280
     0
  3
Light Intensity
  2
INTENSITY
 70
     1
280
     0
  0
ATTDEF
  5
53
330
42
100
AcDbEntity
  8
ASHADE
  6
Continuous
 62
     7
100
AcDbText
 10
0.0
 20
0.16
 30
0.0
 40
0.01
  1
-1
100
AcDbAttributeDefinition
280
     0
  3
*not used*
  2
BEAMD
 70
     1
280
     0
  0
ATTDEF
  5
54
330
42
100
AcDbEntity
  8
ASHADE
  6
Continuous
 62
     7
100
AcDbText
 10
0.0
 20
0.175
 30
0.0
 40
0.01
  1
-1
100
AcDbAttributeDefinition
280
     0
  3
*not used*
  2
CONED
 70
     1
280
     0
  0
ATTDEF
  5
55
330
42
100
AcDbEntity
  8
ASHADE
  6
Continuous
 62
     7
100
AcDbText
 10
0.0
 20
0.19
 30
0.0
 40
0.01
  1
0
100
AcDbAttributeDefinition
280
     0
  3
Depth Map Size
  2
CONEA
 70
     1
280
     0
  0
ATTDEF
  5
56
330
42
100
AcDbEntity
  8
ASHADE
  6
Continuous
 62
     7
100
AcDbText
 10
0.0
 20
0.2050000000000001
 30
0.0
 40
0.01
  1
1,1,1
100
AcDbAttributeDefinition
280
     0
  3
Light Color (RGB)
  2
COLOR
 70
     1
280
     0
  0
ATTDEF
  5
57
330
42
100
AcDbEntity
  8
ASHADE
  6
Continuous
 62
     7
100
AcDbText
 10
0.0
 20
0.235
 30
0.0
 40
0.01
  1

100
AcDbAttributeDefinition
280
     0
  3
Look-at Z
  2
LAZ
 70
     1
280
     0
  0
ATTDEF
  5
58
330
42
100
AcDbEntity
  8
ASHADE
  6
Continuous
 62
     7
100
AcDbText
 10
0.0
 20
0.25
 30
0.0
 40
0.01
  1

100
AcDbAttributeDefinition
280
     0
  3
Look-at Y
  2
LAY
 70
     1
280
     0
  0
ATTDEF
  5
59
330
42
100
AcDbEntity
  8
ASHADE
  6
Continuous
 62
     7
100
AcDbText
 10
0.0
 20
0.265
 30
0.0
 40
0.01
  1

100
AcDbAttributeDefinition
280
     0
  3
Look-at X
  2
LAX
 70
     1
280
     0
  0
ATTDEF
  5
5A
330
42
100
AcDbEntity
  8
ASHADE
  6
Continuous
 62
     7
100
AcDbText
 10
0.0
 20
0.28
 30
0.0
 40
0.01
  1

100
AcDbAttributeDefinition
280
     0
  3

  2
GNAME
 70
     1
280
     0
  0
LINE
  5
5B
330
42
100
AcDbEntity
  8
ASHADE
  6
Continuous
 62
     7
100
AcDbLine
 10
0.1096591641591904
 20
0.2792398032442862
 30
0.0
 11
0.1279356915190555
 21
0.3257797704516674
 31
0.0
  0
LINE
  5
5C
330
42
100
AcDbEntity
  8
ASHADE
  6
Continuous
 62
     7
100
AcDbLine
 10
0.2041413561583015
 20
0.2198324514393849
 30
0.0
 11
0.2721884748777353
 21
0.2931099352525131
 31
0.0
  0
ENDBLK
  5
5E
330
42
100
AcDbEntity
  8
0
100
AcDbBlockEnd
  0
BLOCK
  5
85
330
5F
100
AcDbEntity
  8
0
100
AcDbBlockBegin
  2
sh_spot
 70
     2
 10
0.0
 20
0.0
 30
0.0
  3
sh_spot
  1

  0
LINE
  5
60
330
5F
100
AcDbEntity
  8
ASHADE
  6
Continuous
 62
     7
100
AcDbLine
 10
0.25
 20
0.26
 30
0.0
 11
-0.25
 21
0.26
 31
0.0
  0
LINE
  5
61
330
5F
100
AcDbEntity
  8
ASHADE
  6
Continuous
 62
     7
100
AcDbLine
 10
-0.25
 20
-0.3399999999999999
 30
0.0
 11
0.25
 21
-0.3399999999999999
 31
0.0
  0
ATTDEF
  5
62
330
5F
100
AcDbEntity
  8
ASHADE
  6
Continuous
 62
     1
100
AcDbText
 10
0.0
 20
-0.1
 30
0.0
 40
0.2
  1

  7
ASHADE
 72
     1
 11
0.0
 21
-0.1
 31
0.0
100
AcDbAttributeDefinition
280
     0
  3
Light Name
  2
SNAME
 70
     0
280
     0
  0
LINE
  5
63
330
5F
100
AcDbEntity
  8
ASHADE
  6
Continuous
 62
     7
100
AcDbLine
 10
-0.25
 20
-0.13
 30
0.0
 11
-0.25
 21
-0.3399999999999999
 31
0.0
  0
LINE
  5
64
330
5F
100
AcDbEntity
  8
ASHADE
  6
Continuous
 62
     7
100
AcDbLine
 10
-0.25
 20
-0.18
 30
0.0
 11
-0.29
 21
-0.18
 31
0.0
  0
LINE
  5
65
330
5F
100
AcDbEntity
  8
ASHADE
  6
Continuous
 62
     7
100
AcDbLine
 10
-0.29
 20
-0.22
 30
0.0
 11
-0.25
 21
-0.22
 31
0.0
  0
LINE
  5
66
330
5F
100
AcDbEntity
  8
ASHADE
  6
Continuous
 62
     7
100
AcDbLine
 10
-0.29
 20
-0.18
 30
0.0
 11
-0.29
 21
-0.22
 31
0.0
  0
LINE
  5
67
330
5F
100
AcDbEntity
  8
ASHADE
  6
Continuous
 62
     7
100
AcDbLine
 10
-0.1045454545454545
 20
0.26
 30
0.0
 11
-0.15
 21
0.46
 31
0.0
  0
LINE
  5
68
330
5F
100
AcDbEntity
  8
ASHADE
  6
Continuous
 62
     7
100
AcDbLine
 10
-0.21
 20
0.26
 30
0.0
 11
-0.301304347826087
 21
0.46
 31
0.0
  0
LINE
  5
69
330
5F
100
AcDbEntity
  8
ASHADE
  6
Continuous
 62
     7
100
AcDbLine
 10
-0.25
 20
0.26
 30
0.0
 11
-0.25
 21
0.13
 31
0.0
  0
LINE
  5
6A
330
5F
100
AcDbEntity
  8
ASHADE
  6
Continuous
 62
     7
100
AcDbLine
 10
-0.25
 20
0.22
 30
0.0
 11
-0.29
 21
0.22
 31
0.0
  0
LINE
  5
6B
330
5F
100
AcDbEntity
  8
ASHADE
  6
Continuous
 62
     7
100
AcDbLine
 10
-0.29
 20
0.1799999999999999
 30
0.0
 11
-0.25
 21
0.1799999999999999
 31
0.0
  0
LINE
  5
6C
330
5F
100
AcDbEntity
  8
ASHADE
  6
Continuous
 62
     7
100
AcDbLine
 10
-0.29
 20
0.22
 30
0.0
 11
-0.29
 21
0.1799999999999999
 31
0.0
  0
ATTDEF
  5
6D
330
5F
100
AcDbEntity
  8
ASHADE
  6
Continuous
 62
     7
100
AcDbText
 10
0.0
 20
-0.24
 30
0.0
 40
0.01
  1
0
100
AcDbAttributeDefinition
280
     0
  3
Depth Map Size
  2
ZSIZE
 70
     1
280
     0
  0
ATTDEF
  5
6E
330
5F
100
AcDbEntity
  8
ASHADE
  6
Continuous
 62
     7
100
AcDbText
 10
0.0
 20
-0.3300000000000001
 30
0.0
 40
0.01
  1
0,0,0
100
AcDbAttributeDefinition
280
     0
  3
Look-from XYZ
  2
LFXYZ
 70
     1
280
     0
  0
ATTDEF
  5
6F
330
5F
100
AcDbEntity
  8
ASHADE
  6
Continuous
 62
     7
100
AcDbText
 10
0.0
 20
-0.315
 30
0.0
 40
0.01
  1
0.0
100
AcDbAttributeDefinition
280
     0
  3
Beam Distribution
  2
BEAMDI
 70
     1
280
     0
  0
ATTDEF
  5
70
330
5F
100
AcDbEntity
  8
ASHADE
  6
Continuous
 62
     7
100
AcDbText
 10
0.0
 20
-0.3
 30
0.0
 40
0.01
  1
0.0
100
AcDbAttributeDefinition
280
     0
  3
Cone Delta
  2
CONEDE
 70
     1
280
     0
  0
ATTDEF
  5
71
330
5F
100
AcDbEntity
  8
ASHADE
  6
Continuous
 62
     7
100
AcDbText
 10
0.0
 20
-0.2850000000000001
 30
0.0
 40
0.01
  1
10.0
100
AcDbAttributeDefinition
280
     0
  3
Cone Angle
  2
CONEAN
 70
     1
280
     0
  0
ATTDEF
  5
72
330
5F
100
AcDbEntity
  8
ASHADE
  6
Continuous
 62
     7
100
AcDbText
 10
0.0
 20
-0.27
 30
0.0
 40
0.01
  1
-1
100
AcDbAttributeDefinition
280
     0
  3
*not used*
  2
BIASMAX
 70
     1
280
     0
  0
ATTDEF
  5
73
330
5F
100
AcDbEntity
  8
ASHADE
  6
Continuous
 62
     7
100
AcDbText
 10
0.0
 20
-0.255
 30
0.0
 40
0.01
  1
-1
100
AcDbAttributeDefinition
280
     0
  3
*not used*
  2
BIASMIN
 70
     1
280
     0
  0
ATTDEF
  5
74
330
5F
100
AcDbEntity
  8
ASHADE
  6
Continuous
 62
     7
100
AcDbText
 10
0.0
 20
-0.225
 30
0.0
 40
0.01
  1
1,1,1
100
AcDbAttributeDefinition
280
     0
  3
Light Color (RGB)
  2
COLOR
 70
     1
280
     0
  0
ATTDEF
  5
75
330
5F
100
AcDbEntity
  8
ASHADE
  6
Continuous
 62
     7
100
AcDbText
 10
0.0
 20
-0.21
 30
0.0
 40
0.01
  1
1
100
AcDbAttributeDefinition
280
     0
  3
Light Intensity
  2
INTENSITY
 70
     1
280
     0
  0
ATTDEF
  5
76
330
5F
100
AcDbEntity
  8
ASHADE
  6
Continuous
 62
     7
100
AcDbText
 10
0.0
 20
-0.15
 30
0.0
 40
0.01
  1

100
AcDbAttributeDefinition
280
     0
  3

  2
GNAME
 70
     1
280
     0
  0
ATTDEF
  5
77
330
5F
100
AcDbEntity
  8
ASHADE
  6
Continuous
 62
     7
100
AcDbText
 10
0.0
 20
-0.195
 30
0.0
 40
0.01
  1

100
AcDbAttributeDefinition
280
     0
  3
Look-at Z
  2
LAZ
 70
     1
280
     0
  0
ATTDEF
  5
78
330
5F
100
AcDbEntity
  8
ASHADE
  6
Continuous
 62
     7
100
AcDbText
 10
0.0
 20
-0.18
 30
0.0
 40
0.01
  1

100
AcDbAttributeDefinition
280
     0
  3
Look-at Y
  2
LAY
 70
     1
280
     0
  0
ATTDEF
  5
79
330
5F
100
AcDbEntity
  8
ASHADE
  6
Continuous
 62
     7
100
AcDbText
 10
0.0
 20
-0.165
 30
0.0
 40
0.01
  1

100
AcDbAttributeDefinition
280
     0
  3
Look-at X
  2
LAX
 70
     1
280
     0
  0
LINE
  5
7A
330
5F
100
AcDbEntity
  8
ASHADE
  6
Continuous
 62
     7
100
AcDbLine
 10
0.25
 20
-0.3399999999999999
 30
0.0
 11
0.25
 21
-0.13
 31
0.0
  0
LINE
  5
7B
330
5F
100
AcDbEntity
  8
ASHADE
  6
Continuous
 62
     7
100
AcDbLine
 10
0.25
 20
-0.18
 30
0.0
 11
0.29
 21
-0.18
 31
0.0
  0
LINE
  5
7C
330
5F
100
AcDbEntity
  8
ASHADE
  6
Continuous
 62
     7
100
AcDbLine
 10
0.29
 20
-0.22
 30
0.0
 11
0.25
 21
-0.22
 31
0.0
  0
LINE
  5
7D
330
5F
100
AcDbEntity
  8
ASHADE
  6
Continuous
 62
     7
100
AcDbLine
 10
0.29
 20
-0.18
 30
0.0
 11
0.29
 21
-0.22
 31
0.0
  0
LINE
  5
7E
330
5F
100
AcDbEntity
  8
ASHADE
  6
Continuous
 62
     7
100
AcDbLine
 10
0.21
 20
0.26
 30
0.0
 11
0.301304347826087
 21
0.46
 31
0.0
  0
LINE
  5
7F
330
5F
100
AcDbEntity
  8
ASHADE
  6
Continuous
 62
     7
100
AcDbLine
 10
0.1045454545454545
 20
0.26
 30
0.0
 11
0.15
 21
0.46
 31
0.0
  0
LINE
  5
80
330
5F
100
AcDbEntity
  8
ASHADE
  6
Continuous
 62
     7
100
AcDbLine
 10
0.0
 20
0.26
 30
0.0
 11
0.0
 21
0.46
 31
0.0
  0
LINE
  5
81
330
5F
100
AcDbEntity
  8
ASHADE
  6
Continuous
 62
     7
100
AcDbLine
 10
0.25
 20
0.13
 30
0.0
 11
0.25
 21
0.26
 31
0.0
  0
LINE
  5
82
330
5F
100
AcDbEntity
  8
ASHADE
  6
Continuous
 62
     7
100
AcDbLine
 10
0.25
 20
0.22
 30
0.0
 11
0.29
 21
0.22
 31
0.0
  0
LINE
  5
83
330
5F
100
AcDbEntity
  8
ASHADE
  6
Continuous
 62
     7
100
AcDbLine
 10
0.29
 20
0.1799999999999999
 30
0.0
 11
0.25
 21
0.1799999999999999
 31
0.0
  0
LINE
  5
84
330
5F
100
AcDbEntity
  8
ASHADE
  6
Continuous
 62
     7
100
AcDbLine
 10
0.29
 20
0.22
 30
0.0
 11
0.29
 21
0.1799999999999999
 31
0.0
  0
ENDBLK
  5
86
330
5F
100
AcDbEntity
  8
0
100
AcDbBlockEnd
  0
BLOCK
  5
92
330
91
100
AcDbEntity
  8
ASHADE
100
AcDbBlockBegin
  2
AVE_RENDER
 70
     0
 10
0.0
 20
0.0
 30
0.0
  3
AVE_RENDER
  1
AVE_RENDER
  0
ENDBLK
  5
93
330
91
100
AcDbEntity
  8
0
100
AcDbBlockEnd
  0
BLOCK
  5
A0
330
9F
100
AcDbEntity
  8
ASHADE
100
AcDbBlockBegin
  2
AVE_GLOBAL
 70
     0
 10
0.0
 20
0.0
 30
0.0
  3
AVE_GLOBAL
  1
AVE_GLOBAL
  0
ENDBLK
  5
A1
330
9F
100
AcDbEntity
  8
0
100
AcDbBlockEnd
  0
ENDSEC
  0
SECTION
  2
ENTITIES
  0
INSERT
  5
94
330
1F
100
AcDbEntity
  8
ASHADE
 62
     1
100
AcDbBlockReference
  2
AVE_RENDER
 10
0.0
 20
0.0
 30
0.0
1001
AVE_RENDER
1002
{
1070
     7
1000
Pref
1070
    30
1070
    20
1070
     1
1070
     0
1000

1070
    10
1070
     1
1070
    10
1040
1.0
1070
     1
1040
0.3
1040
0.7
1040
0.0
1040
10.0
1010
-1.0
1020
-1.0
1030
-1.0
1040
0.3
1070
    49
1070
     0
1070
     0
1010
1.0
1020
1.0
1030
1.0
1040
45.0
1070
     1
1070
     0
1000
WCS
1040
0.0
1070
     0
1040
10.0
1002
}
  0
INSERT
  5
95
330
1F
100
AcDbEntity
  8
ASHADE
 62
     3
100
AcDbBlockReference
  2
AVE_RENDER
 10
0.0
 20
0.0
 30
0.0
1001
AVE_RENDER
1002
{
1070
     0
1000
Full Opt
1070
     0
1070
     1
1070
     1
1070
     1
1070
     0
1070
     0
1070
     0
1070
     1
1070
     1
1040
0.0001
1040
0.0001
1002
}
  0
INSERT
  5
96
330
1F
100
AcDbEntity
  8
ASHADE
 62
     4
100
AcDbBlockReference
  2
AVE_RENDER
 10
0.0
 20
0.0
 30
0.0
1001
AVE_RENDER
1002
{
1070
     0
1000
Quick Opt
1070
     0
1070
     1
1070
     1
1070
     1
1070
     0
1070
     0
1070
     1
1002
}
  0
INSERT
  5
97
330
1F
100
AcDbEntity
  8
ASHADE
 62
     5
100
AcDbBlockReference
  2
AVE_RENDER
 10
0.0
 20
0.0
 30
0.0
1001
AVE_RENDER
1002
{
1070
     1
1000
Scanl Opt
1070
     2
1070
     0
1070
     2
1040
2.0
1040
4.0
1070
     0
1070
     1
1070
     0
1040
0.03
1002
}
  0
INSERT
  5
98
330
1F
100
AcDbEntity
  8
ASHADE
 62
     6
100
AcDbBlockReference
  2
AVE_RENDER
 10
0.0
 20
0.0
 30
0.0
1001
AVE_RENDER
1002
{
1070
     2
1000
Raytr Opt
1070
     2
1070
     0
1070
     2
1040
2.0
1040
4.0
1070
     0
1070
     1
1070
     1
1040
0.03
1070
     3
1040
0.03
1002
}
  0
INSERT
  5
99
330
1F
100
AcDbEntity
  8
ASHADE
 62
     7
100
AcDbBlockReference
  2
AVE_RENDER
 10
0.0
 20
0.0
 30
0.0
1001
AVE_RENDER
1002
{
1070
     0
1000
RFile Opt
1070
     1
1070
   640
1070
   480
1070
 10000
1070
     1
1070
     8
1070
     8
1070
     0
1070
     0
1070
     0
1070
     0
1070
     0
1070
     0
1070
     0
1002
}
  0
INSERT
  5
9A
330
1F
100
AcDbEntity
  8
ASHADE
 62
     8
100
AcDbBlockReference
  2
AVE_RENDER
 10
0.0
 20
0.0
 30
0.0
1001
AVE_RENDER
1002
{
1070
     0
1000
Fog Opt
1070
     0
1070
     0
1040
0.0
1040
1.0
1040
0.0
1040
1.0
1010
0.5
1020
0.5
1030
0.5
1002
}
  0
INSERT
  5
9B
330
1F
100
AcDbEntity
  8
ASHADE
 62
     9
100
AcDbBlockReference
  2
AVE_RENDER
 10
0.0
 20
0.0
 30
0.0
1001
AVE_RENDER
1002
{
1070
     0
1000
BG Opt
1070
     0
1070
     1
1010
0.0
1020
0.0
1030
0.0
1010
1.0
1020
0.0
1030
0.0
1010
0.0
1020
1.0
1030
0.0
1010
0.0
1020
0.0
1030
1.0
1040
0.5
1040
0.33
1040
0.0
1000

1070
     1
1000

1070
     1
1070
     1
1040
1.0
1040
1.0
1040
0.0
1040
0.0
1070
     0
1002
}
  0
INSERT
  5
A2
330
1F
100
AcDbEntity
  8
ASHADE
 62
     1
100
AcDbBlockReference
  2
AVE_GLOBAL
 10
0.0
 20
0.0
 30
0.0
1001
AVE_MATERIAL
1002
{
1000
*GLOBAL*
1000
2
1000
Global finish.
1002
{
1002
}
1002
{
1070
    63
1002
{
1002
{
1010
-1.0
1020
-1.0
1030
-1.0
1002
}
1040
0.1000000014901161
1000

1040
0.0
1002
{
1002
}
1040
0.0
1002
{
1002
}
1040
0.0
1002
}
1002
{
1002
{
1010
-1.0
1020
-1.0
1030
-1.0
1002
}
1040
0.6999999880790711
1000

1040
0.0
1002
{
1002
}
1040
0.0
1002
{
1002
}
1040
0.0
1002
}
1002
{
1002
{
1010
-1.0
1020
-1.0
1030
-1.0
1002
}
1040
0.2000000029802322
1000

1040
0.0
1002
{
1002
}
1040
0.0
1002
{
1002
}
1040
0.0
1002
}
1002
{
1070
     0
1002
{
1070
     1
1002
{
1040
1.0
1040
1.0
1000

1040
0.0
1002
{
1002
}
1040
0.0
1002
{
1002
}
1040
0.0
1002
}
1002
}
1040
1.0
1040
0.0
1040
0.0
1002
}
1002
{
1040
1.0
1040
1.0
1000

1040
0.0
1002
{
1002
}
1040
0.0
1002
{
1002
}
1040
0.0
1002
}
1002
{
1040
0.5
1040
1.0
1000

1040
0.0
1002
{
1002
}
1040
0.0
1002
{
1002
}
1040
0.0
1002
}
1002
{
1070
     0
1040
0.0
1002
{
1002
}
1040
1.0
1002
{
1002
}
1040
0.0
1002
}
1002
{
1040
0.0
1002
{
1002
{
1010
0.0
1020
0.0
1030
0.0
1002
}
1040
1.0
1000

1040
0.0
1002
{
1002
}
1040
0.0
1002
{
1002
}
1040
0.0
1002
}
1002
}
1002
{
1002
{
1070
     1
1002
{
1040
0.0
1040
1.0
1000

1040
0.0
1002
{
1002
}
1040
0.0
1002
{
1002
}
1040
0.0
1002
}
1002
}
1040
0.0
1002
{
1002
}
1010
1.0
1020
0.0
1030
0.0
1010
0.0
1020
1.0
1030
0.0
1010
0.0
1020
0.0
1030
1.0
1070
     0
1002
}
1002
{
1002
{
1040
1.0
1040
1.0
1002
{
1070
     1
1002
{
1040
1.0
1040
1.0
1000

1040
0.0
1002
{
1002
}
1040
0.0
1002
{
1002
}
1040
0.0
1002
}
1002
}
1002
}
1070
     0
1040
0.0
1002
{
1002
}
1002
}
1002
{
1002
}
1002
}
1002
{
1071
        3
1070
     3
1070
     0
1002
{
1070
     2
1070
     0
1070
     0
1040
0.0
1002
}
1070
     0
1070
     2
1002
{
1002
}
1002
}
1002
{
1040
8030.0
1040
190.3000030517578
1040
0.3050000071525574
1040
228.0
1040
545.0
1040
14.0
1040
17.39999961853027
1040
0.4560000002384186
1002
}
1002
}
  0
MESH
  5
F9
330
1F
100
AcDbEntity
  8
OracDecor_cornice_mouldings
 62
   133
420
  5759430
160
             32048
310
307D00007A0300000C00000013000000020000003C0000000600000002000000000000C0FF3F8F4000000020208168C000000000C10122C0000000C0FF3F8F4000000080368168C00000000000106CBF0C000000130000000A0000003C0000000600000002000000000000C0FF3F8FC000000020368168C00000000000106C
310
BF000000C0FF3F8F4000000080368168C00000000000106CBF0C00000013000000120000003C0000000600000002000000000000C0FF3F8FC000000020368168C00000000000106CBF000000C0FF3F8FC0000000C01F8168C000000000C10122C00C000000130000001A0000003C0000000600000002000000000000C0FF3F
310
8FC0000000C01F8168C000000000C10122C0000000C0FF3F8F4000000020208168C000000000C10122C00C00000013000000220000003C0000000600000002000000000000C0FF3F8F4000000080368168C00000000000106CBF000000C0FF3F8F40000000C08B1867C0000000000000F0BE0C000000130000002A0000003C
310
0000000600000002000000000000C0FF3F8FC0000000808B1867C0000000000000F0BE000000C0FF3F8F40000000C08B1867C0000000000000F0BE0C00000013000000320000003C0000000600000002000000000000C0FF3F8FC0000000808B1867C0000000000000F0BE000000C0FF3F8FC000000020368168C000000000
310
00106CBF0C000000130000003A0000003C0000000600000002000000000000C0FF3F8F40000000C08B1867C0000000000000F0BE000000C0FF3F8F4000000020BB0C67C00000000060B9E5BF0C00000013000000420000003C0000000600000002000000000000C0FF3F8FC0000000C0BA0C67C00000000060B9E5BF000000
310
C0FF3F8F4000000020BB0C67C00000000060B9E5BF0C000000130000004A0000003C0000000600000002000000000000C0FF3F8FC0000000808B1867C0000000000000F0BE000000C0FF3F8FC0000000C0BA0C67C00000000060B9E5BF0C00000013000000520000003C0000000600000002000000000000C0FF3F8F400000
310
0020BB0C67C00000000060B9E5BF000000C0FF3F8F4000000080E5F866C000000000F03EF2BF0C000000130000005A0000003C0000000600000002000000000000C0FF3F8FC000000020E5F866C000000000E83EF2BF000000C0FF3F8F4000000080E5F866C000000000F03EF2BF0C00000013000000620000003C00000006
310
00000002000000000000C0FF3F8FC0000000C0BA0C67C00000000060B9E5BF000000C0FF3F8FC000000020E5F866C000000000E83EF2BF0C000000130000006A0000003C0000000600000002000000000000C0FF3F8F4000000080E5F866C000000000F03EF2BF000000C0FF3F8F4000000080B2E066C00000000060CAF4BF
310
0C00000013000000720000003C0000000600000002000000000000C0FF3F8FC000000020B2E066C00000000060CAF4BF000000C0FF3F8F4000000080B2E066C00000000060CAF4BF0C000000130000007A0000003C0000000600000002000000000000C0FF3F8FC000000020E5F866C000000000E83EF2BF000000C0FF3F8F
310
C000000020B2E066C00000000060CAF4BF0C00000013000000820000003C0000000600000002000000000000C0FF3F8F4000000080B2E066C00000000060CAF4BF000000C0FF3F8F400000000098C866C0000000000007F2BF0C000000130000008A0000003C0000000600000002000000000000C0FF3F8FC0000000A097C8
310
66C0000000000007F2BF000000C0FF3F8F400000000098C866C0000000000007F2BF0C00000013000000920000003C0000000600000002000000000000C0FF3F8FC000000020B2E066C00000000060CAF4BF000000C0FF3F8FC0000000A097C866C0000000000007F2BF0C000000130000009A0000003C0000000600000002
310
000000000000C0FF3F8F400000000098C866C0000000000007F2BF000000C0FF3F8F400000008007B566C00000000060EEE4BF0C00000013000000A20000003C0000000600000002000000000000C0FF3F8FC00000002007B566C00000000060EEE4BF000000C0FF3F8F400000008007B566C00000000060EEE4BF0C000000
310
13000000AA0000003C0000000600000002000000000000C0FF3F8FC00000002007B566C00000000060EEE4BF000000C0FF3F8FC0000000A097C866C0000000000007F2BF0C00000013000000B20000003C0000000600000002000000000000C0FF3F8F400000008007B566C00000000060EEE4BF000000C0FF3F8F40000000
310
807FA366C0000000000000523F0C00000013000000BA0000003C0000000600000002000000000000C0FF3F8FC0000000407FA366C00000000000E0513F000000C0FF3F8F40000000807FA366C0000000000000523F0C00000013000000C20000003C0000000600000002000000000000C0FF3F8FC00000002007B566C00000
310
000060EEE4BF000000C0FF3F8FC0000000407FA366C00000000000E0513F0C00000013000000CA0000003C0000000600000002000000000000C0FF3F8F40000000807FA366C0000000000000523F000000C0FF3F8F400000008036A165C00000000000206D3F0C00000013000000D20000003C000000060000000200000000
310
0000C0FF3F8FC00000004036A165C00000000000206D3F000000C0FF3F8F400000008036A165C00000000000206D3F0C00000013000000DA0000003C0000000600000002000000000000C0FF3F8FC00000004036A165C00000000000206D3F000000C0FF3F8FC0000000407FA366C00000000000E0513F0C00000013000000
310
E20000003C0000000600000002000000000000C0FF3F8F400000008036A165C00000000000206D3F000000C0FF3F8F4000000060D1E464C0000000009B081CC00C00000013000000EA0000003C0000000600000002000000000000C0FF3F8FC000000000D1E464C0000000009B081CC0000000C0FF3F8F4000000060D1E464
310
C0000000009B081CC00C00000013000000F20000003C0000000600000002000000000000C0FF3F8FC00000004036A165C00000000000206D3F000000C0FF3F8FC000000000D1E464C0000000009B081CC00C00000013000000FA0000003C0000000600000002000000000000C0FF3F8F4000000060D1E464C0000000009B08
310
1CC0000000C0FF3F8F40000000C0BBA864C000000000D77921C00C00000013000000020100003C0000000600000002000000000000C0FF3F8FC000000060BBA864C000000080D77921C0000000C0FF3F8F40000000C0BBA864C000000000D77921C00C000000130000000A0100003C0000000600000002000000000000C0FF
310
3F8FC000000000D1E464C0000000009B081CC0000000C0FF3F8FC000000060BBA864C000000080D77921C00C00000013000000120100003C0000000600000002000000000000C0FF3F8F40000000C0BBA864C000000000D77921C0000000C0FF3F8F40000000E0976064C0000000001DDF23C00C000000130000001A010000
310
3C0000000600000002000000000000C0FF3F8FC000000080976064C0000000001DDF23C0000000C0FF3F8F40000000E0976064C0000000001DDF23C00C00000013000000220100003C0000000600000002000000000000C0FF3F8FC000000060BBA864C000000080D77921C0000000C0FF3F8FC000000080976064C0000000
310
001DDF23C00C000000130000002A0100003C0000000600000002000000000000C0FF3F8F40000000E0976064C0000000001DDF23C0000000C0FF3F8F4000000040191164C000000000270C25C00C00000013000000320100003C0000000600000002000000000000C0FF3F8FC0000000E0181164C000000000270C25C00000
310
00C0FF3F8F4000000040191164C000000000270C25C00C000000130000003A0100003C0000000600000002000000000000C0FF3F8FC0000000E0181164C000000000270C25C0000000C0FF3F8FC000000080976064C0000000001DDF23C00C00000013000000420100003C0000000600000002000000000000C0FF3F8F4000
310
000040191164C000000000270C25C0000000C0FF3F8F4000000060340261C000000000E22C2AC00C000000130000004A0100003C0000000600000002000000000000C0FF3F8FC000000000340261C000000080E22C2AC0000000C0FF3F8F4000000060340261C000000000E22C2AC00C00000013000000520100003C000000
310
0600000002000000000000C0FF3F8FC000000000340261C000000080E22C2AC0000000C0FF3F8FC0000000E0181164C000000000270C25C00C000000130000005A0100003C0000000600000002000000000000C0FF3F8F4000000060340261C000000000E22C2AC0000000C0FF3F8F40000000C0332660C0000000001FC92C
310
C00C00000013000000620100003C0000000600000002000000000000C0FF3F8FC000000060332660C0000000001FC92CC0000000C0FF3F8F40000000C0332660C0000000001FC92CC00C000000130000006A0100003C0000000600000002000000000000C0FF3F8FC000000000340261C000000080E22C2AC0000000C0FF3F
310
8FC000000060332660C0000000001FC92CC00C00000013000000720100003C0000000600000002000000000000C0FF3F8F40000000C0332660C0000000001FC92CC0000000C0FF3F8F40000000208B885EC000000080461431C00C000000130000007A0100003C0000000600000002000000000000C0FF3F8FC0000000608A
310
885EC000000080461431C0000000C0FF3F8F40000000208B885EC000000080461431C00C00000013000000820100003C0000000600000002000000000000C0FF3F8FC000000060332660C0000000001FC92CC0000000C0FF3F8FC0000000608A885EC000000080461431C00C000000130000008A0100003C00000006000000
310
02000000000000C0FF3F8F40000000208B885EC000000080461431C0000000C0FF3F8F40000000C0AD375DC000000040721534C00C00000013000000920100003C0000000600000002000000000000C0FF3F8FC000000000AD375DC000000040721534C0000000C0FF3F8F40000000C0AD375DC000000040721534C00C0000
310
00130000009A0100003C0000000600000002000000000000C0FF3F8FC0000000608A885EC000000080461431C0000000C0FF3F8FC000000000AD375DC000000040721534C00C00000013000000A20100003C0000000600000002000000000000C0FF3F8F40000000C0AD375DC000000040721534C0000000C0FF3F8F400000
310
00007E8E5BC000000080EC3939C00C00000013000000AA0100003C0000000600000002000000000000C0FF3F8FC0000000407D8E5BC000000080EC3939C0000000C0FF3F8F40000000007E8E5BC000000080EC3939C00C00000013000000B20100003C0000000600000002000000000000C0FF3F8FC000000000AD375DC000
310
000040721534C0000000C0FF3F8FC0000000407D8E5BC000000080EC3939C00C00000013000000BA0100003C0000000600000002000000000000C0FF3F8F40000000007E8E5BC000000080EC3939C0000000C0FF3F8F400000000010185AC000000040658A3FC00C00000013000000C20100003C0000000600000002000000
310
000000C0FF3F8FC0000000400F185AC000000040658A3FC0000000C0FF3F8F400000000010185AC000000040658A3FC00C00000013000000CA0100003C0000000600000002000000000000C0FF3F8FC0000000407D8E5BC000000080EC3939C0000000C0FF3F8FC0000000400F185AC000000040658A3FC00C000000130000
310
00D20100003C0000000600000002000000000000C0FF3F8F400000000010185AC000000040658A3FC0000000C0FF3F8F40000000407ADD58C0000000004C8543C00C00000013000000DA0100003C0000000600000002000000000000C0FF3F8FC00000008079DD58C0000000204C8543C0000000C0FF3F8F40000000407ADD
310
58C0000000004C8543C00C00000013000000E20100003C0000000600000002000000000000C0FF3F8FC0000000400F185AC000000040658A3FC0000000C0FF3F8FC00000008079DD58C0000000204C8543C00C00000013000000EA0100003C0000000600000002000000000000C0FF3F8F40000000407ADD58C0000000004C
310
8543C0000000C0FF3F8F4000000080ACE157C0000000008A0A48C00C00000013000000F20100003C0000000600000002000000000000C0FF3F8FC0000000C0ABE157C0000000008A0A48C0000000C0FF3F8F4000000080ACE157C0000000008A0A48C00C00000013000000FA0100003C0000000600000002000000000000C0
310
FF3F8FC00000008079DD58C0000000204C8543C0000000C0FF3F8FC0000000C0ABE157C0000000008A0A48C00C00000013000000020200003C0000000600000002000000000000C0FF3F8F4000000080ACE157C0000000008A0A48C0000000C0FF3F8F40000000E0402157C0000000207F064DC00C000000130000000A0200
310
003C0000000600000002000000000000C0FF3F8FC000000040402157C0000000207F064DC0000000C0FF3F8F40000000E0402157C0000000207F064DC00C00000013000000120200003C0000000600000002000000000000C0FF3F8FC0000000C0ABE157C0000000008A0A48C0000000C0FF3F8FC000000040402157C00000
310
00207F064DC00C000000130000001A0200003C0000000600000002000000000000C0FF3F8F40000000E0402157C0000000207F064DC0000000C0FF3F8F4000000000636B56C0000000802AD350C00C00000013000000220200003C0000000600000002000000000000C0FF3F8FC000000060626B56C0000000802AD350C000
310
0000C0FF3F8F4000000000636B56C0000000802AD350C00C000000130000002A0200003C0000000600000002000000000000C0FF3F8FC000000040402157C0000000207F064DC0000000C0FF3F8FC000000060626B56C0000000802AD350C00C00000013000000320200003C0000000600000002000000000000C0FF3F8F40
310
00000000636B56C0000000802AD350C0000000C0FF3F8F4000000000FE8555C0000000C0CDC652C00C000000130000003A0200003C0000000600000002000000000000C0FF3F8FC000000060FD8555C0000000C0CDC652C0000000C0FF3F8F4000000000FE8555C0000000C0CDC652C00C00000013000000420200003C0000
310
000600000002000000000000C0FF3F8FC000000060626B56C0000000802AD350C0000000C0FF3F8FC000000060FD8555C0000000C0CDC652C00C000000130000004A0200003C0000000600000002000000000000C0FF3F8F4000000000FE8555C0000000C0CDC652C0000000C0FF3F8F4000000000D77354C000000040AB59
310
54C00C00000013000000520200003C0000000600000002000000000000C0FF3F8FC000000060D67354C000000040AB5954C0000000C0FF3F8F4000000000D77354C000000040AB5954C00C000000130000005A0200003C0000000600000002000000000000C0FF3F8FC000000060FD8555C0000000C0CDC652C0000000C0FF
310
3F8FC000000060D67354C000000040AB5954C00C00000013000000620200003C0000000600000002000000000000C0FF3F8F4000000000D77354C000000040AB5954C0000000C0FF3F8F4000000000134153C000000020559355C00C000000130000006A0200003C0000000600000002000000000000C0FF3F8FC000000040
310
124153C000000020559355C0000000C0FF3F8F4000000000134153C000000020559355C00C00000013000000720200003C0000000600000002000000000000C0FF3F8FC000000060D67354C000000040AB5954C0000000C0FF3F8FC000000040124153C000000020559355C00C000000130000007A0200003C000000060000
310
0002000000000000C0FF3F8F4000000000134153C000000020559355C0000000C0FF3F8F400000000005F151C000000080B17C56C00C00000013000000820200003C0000000600000002000000000000C0FF3F8FC00000004004F151C000000080B17C56C0000000C0FF3F8F400000000005F151C000000080B17C56C00C00
310
0000130000008A0200003C0000000600000002000000000000C0FF3F8FC000000040124153C000000020559355C0000000C0FF3F8FC00000004004F151C000000080B17C56C00C00000013000000920200003C0000000600000002000000000000C0FF3F8F400000000005F151C000000080B17C56C0000000C0FF3F8F4000
310
000000A38250C000000000F32257C00C000000130000009A0200003C0000000600000002000000000000C0FF3F8FC000000040A28250C000000000F32257C0000000C0FF3F8F4000000000A38250C000000000F32257C00C00000013000000A20200003C0000000600000002000000000000C0FF3F8FC00000004004F151C0
310
00000080B17C56C0000000C0FF3F8FC000000040A28250C000000000F32257C00C00000013000000AA0200003C0000000600000002000000000000C0FF3F8F4000000000A38250C000000000F32257C0000000C0FF3F8F40000000E036C44DC0000000804A8657C00C00000013000000B20200003C00000006000000020000
310
00000000C0FF3F8FC00000004035C44DC0000000804A8657C0000000C0FF3F8F40000000E036C44DC0000000804A8657C00C00000013000000BA0200003C0000000600000002000000000000C0FF3F8FC000000040A28250C000000000F32257C0000000C0FF3F8FC00000004035C44DC0000000804A8657C00C0000001300
310
0000C20200003C0000000600000002000000000000C0FF3F8F40000000E036C44DC0000000804A8657C0000000C0FF3F8F40000000E067FA4AC0000000004ABB57C00C00000013000000CA0200003C0000000600000002000000000000C0FF3F8FC00000004066FA4AC0000000004ABB57C0000000C0FF3F8F40000000E067
310
FA4AC0000000004ABB57C00C00000013000000D20200003C0000000600000002000000000000C0FF3F8FC00000004035C44DC0000000804A8657C0000000C0FF3F8FC00000004066FA4AC0000000004ABB57C00C00000013000000DA0200003C0000000600000002000000000000C0FF3F8F40000000E067FA4AC000000000
310
4ABB57C0000000C0FF3F8F400000002024EA48C000000080CCE057C00C00000013000000E20200003C0000000600000002000000000000C0FF3F8FC00000008022EA48C0000000A0CCE057C0000000C0FF3F8F400000002024EA48C000000080CCE057C00C00000013000000EA0200003C0000000600000002000000000000
310
C0FF3F8FC00000004066FA4AC0000000004ABB57C0000000C0FF3F8FC00000008022EA48C0000000A0CCE057C00C00000013000000F20200003C0000000600000002000000000000C0FF3F8F400000002024EA48C000000080CCE057C0000000C0FF3F8F4000000020CDEB47C000000040000858C00C00000013000000FA02
310
00003C0000000600000002000000000000C0FF3F8FC000000080CBEB47C000000040000858C0000000C0FF3F8F4000000020CDEB47C000000040000858C00C00000013000000020300003C0000000600000002000000000000C0FF3F8FC00000008022EA48C0000000A0CCE057C0000000C0FF3F8FC000000080CBEB47C000
310
000040000858C00C000000130000000A0300003C0000000600000002000000000000C0FF3F8F4000000020CDEB47C000000040000858C0000000C0FF3F8F40000000A02C0347C000000060A74858C00C00000013000000120300003C0000000600000002000000000000C0FF3F8FC0000000002B0347C000000060A74858C0
310
000000C0FF3F8F40000000A02C0347C000000060A74858C00C000000130000001A0300003C0000000600000002000000000000C0FF3F8FC000000080CBEB47C000000040000858C0000000C0FF3F8FC0000000002B0347C000000060A74858C00C00000013000000220300003C0000000600000002000000000000C0FF3F8F
310
40000000A02C0347C000000060A74858C0000000C0FF3F8F4000000080503A46C0000000C0F69F58C00C000000130000002A0300003C0000000600000002000000000000C0FF3F8FC0000000004F3A46C0000000C0F69F58C0000000C0FF3F8F4000000080503A46C0000000C0F69F58C00C00000013000000320300003C00
310
00000600000002000000000000C0FF3F8FC0000000004F3A46C0000000C0F69F58C0000000C0FF3F8FC0000000002B0347C000000060A74858C00C000000130000003A0300003C0000000600000002000000000000C0FF3F8F4000000080503A46C0000000C0F69F58C0000000C0FF3F8F40000000E0239941C000000000C6
310
1A5BC00C00000013000000420300003C0000000600000002000000000000C0FF3F8FC000000080229941C000000000C61A5BC0000000C0FF3F8F40000000E0239941C000000000C61A5BC00C000000130000004A0300003C0000000600000002000000000000C0FF3F8FC0000000004F3A46C0000000C0F69F58C0000000C0
310
FF3F8FC000000080229941C000000000C61A5BC00C00000013000000520300003C0000000600000002000000000000C0FF3F8F40000000E0239941C000000000C61A5BC0000000C0FF3F8F4000000080C4F940C0000000E0FF685BC00C000000130000005A0300003C0000000600000002000000000000C0FF3F8FC0000000
310
00C3F940C0000000E0FF685BC0000000C0FF3F8F4000000080C4F940C0000000E0FF685BC00C00000013000000620300003C0000000600000002000000000000C0FF3F8FC000000080229941C000000000C61A5BC0000000C0FF3F8FC000000000C3F940C0000000E0FF685BC00C000000130000006A0300003C0000000600
310
000002000000000000C0FF3F8F4000000080C4F940C0000000E0FF685BC0000000C0FF3F8F40000000E05D4D40C000000080FBAF5BC00C00000013000000720300003C0000000600000002000000000000C0FF3F8FC0000000805C4D40C000000080FBAF5BC0000000C0FF3F8F40000000E05D4D40C000000080FBAF5BC00C
310
000000130000007A0300003C0000000600000002000000000000C0FF3F8FC0000000805C4D40C000000080FBAF5BC0000000C0FF3F8FC000000000C3F940C0000000E0FF685BC00C00000013000000820300003C0000000600000002000000000000C0FF3F8F40000000E05D4D40C000000080FBAF5BC0000000C0FF3F8F40
310
00000000D4B328C0000000C0AF7F5FC00C000000130000008A0300003C0000000600000002000000000000C0FF3F8FC000000000CEB328C0000000C0AF7F5FC0000000C0FF3F8F4000000000D4B328C0000000C0AF7F5FC00C00000013000000920300003C0000000600000002000000000000C0FF3F8FC0000000805C4D40
310
C000000080FBAF5BC0000000C0FF3F8FC000000000CEB328C0000000C0AF7F5FC00C000000130000009A0300003C0000000600000002000000000000C0FF3F8F4000000000D4B328C0000000C0AF7F5FC0000000C0FF3F8F40000000006A3D27C0000000C0CF955FC00C00000013000000A20300003C000000060000000200
310
0000000000C0FF3F8FC000000000643D27C0000000C0CF955FC0000000C0FF3F8F40000000006A3D27C0000000C0CF955FC00C00000013000000AA0300003C0000000600000002000000000000C0FF3F8FC000000000CEB328C0000000C0AF7F5FC0000000C0FF3F8FC000000000643D27C0000000C0CF955FC00C00000013
310
000000B20300003C0000000600000002000000000000C0FF3F8F4000000000869F25C00000006097975FC0000000C0FF3F8F40000000006A3D27C0000000C0CF955FC00C00000013000000BA0300003C0000000600000002000000000000C0FF3F8FC000000000809F25C00000006097975FC0000000C0FF3F8F4000000000
310
869F25C00000006097975FC00C00000013000000C20300003C0000000600000002000000000000C0FF3F8FC000000000643D27C0000000C0CF955FC0000000C0FF3F8FC000000000809F25C00000006097975FC00C00000013000000CA0300003C0000000600000002000000000000C0FF3F8F4000000000869F25C0000000
310
6097975FC0000000C0FF3F8F400000000082DF23C000000040AB7F5FC00C00000013000000D20300003C0000000600000002000000000000C0FF3F8FC0000000007CDF23C000000020AB7F5FC0000000C0FF3F8F400000000082DF23C000000040AB7F5FC00C00000013000000DA0300003C00000006000000020000000000
310
00C0FF3F8FC0000000007CDF23C000000020AB7F5FC0000000C0FF3F8FC000000000809F25C00000006097975FC00C00000013000000E20300003C0000000600000002000000000000C0FF3F8F400000000082DF23C000000040AB7F5FC0000000C0FF3F8F4000000000618020C0000000006A4C5FC00C00000013000000EA
310
0300003C0000000600000002000000000000C0FF3F8FC0000000005A8020C0000000206A4C5FC0000000C0FF3F8F4000000000618020C0000000006A4C5FC00C00000013000000F20300003C0000000600000002000000000000C0FF3F8FC0000000007CDF23C000000020AB7F5FC0000000C0FF3F8FC0000000005A8020C0
310
000000206A4C5FC00C00000013000000FA0300003C0000000600000002000000000000C0FF3F8F4000000000482F1AC0000000408B3C5FC0000000C0FF3F8F4000000000618020C0000000006A4C5FC00C00000013000000020400003C0000000600000002000000000000C0FF3F8FC0000000003C2F1AC0000000408B3C5F
310
C0000000C0FF3F8F4000000000482F1AC0000000408B3C5FC00C000000130000000A0400003C0000000600000002000000000000C0FF3F8FC0000000003C2F1AC0000000408B3C5FC0000000C0FF3F8FC0000000005A8020C0000000206A4C5FC00C00000013000000120400003C0000000600000002000000000000C0FF3F
310
8F4000000000482F1AC0000000408B3C5FC0000000C0FF3F8F40000000000000F8BE000000A06A3C5FC00C000000130000001A0400003C0000000600000002000000000000C0FF3F8FC0000000000000F03E000000A06A3C5FC0000000C0FF3F8F40000000000000F8BE000000A06A3C5FC00C00000013000000220400003C
310
0000000600000002000000000000C0FF3F8FC0000000003C2F1AC0000000408B3C5FC0000000C0FF3F8FC0000000000000F03E000000A06A3C5FC00C000000130000002A0400003C0000000600000002000000000000C0FF3F8F40000000000000F8BE000000A06A3C5FC0000000C0FF3F8F40000000000070623F000000E0
310
C68E60C00C00000013000000320400003C0000000600000002000000000000C0FF3F8FC00000000000C0623F000000E0C68E60C0000000C0FF3F8F40000000000070623F000000E0C68E60C00C000000130000003A0400003C0000000600000002000000000000C0FF3F8FC0000000000000F03E000000A06A3C5FC0000000
310
C0FF3F8FC00000000000C0623F000000E0C68E60C00C00000013000000420400003C0000000600000002000000000000C0FF3F8F40000000000070623F000000E0C68E60C0000000C0FF3F8F4000000000586AF1BF0000004045C460C00C000000130000004A0400003C0000000600000002000000000000C0FF3F8FC00000
310
0000306AF1BF0000004045C460C0000000C0FF3F8F4000000000586AF1BF0000004045C460C00C00000013000000520400003C0000000600000002000000000000C0FF3F8FC00000000000C0623F000000E0C68E60C0000000C0FF3F8FC000000000306AF1BF0000004045C460C00C000000130000005A0400003C00000006
310
00000002000000000000C0FF3F8F40000000005889F4BF00000000FCDD60C0000000C0FF3F8F4000000000586AF1BF0000004045C460C00C00000013000000620400003C0000000600000002000000000000C0FF3F8FC0000000003089F4BF00000000FCDD60C0000000C0FF3F8F40000000005889F4BF00000000FCDD60C0
310
0C000000130000006A0400003C0000000600000002000000000000C0FF3F8FC000000000306AF1BF0000004045C460C0000000C0FF3F8FC0000000003089F4BF00000000FCDD60C00C00000013000000720400003C0000000600000002000000000000C0FF3F8F40000000005889F4BF00000000FCDD60C0000000C0FF3F8F
310
4000000000907BF1BF00000080EAF760C00C000000130000007A0400003C0000000600000002000000000000C0FF3F8FC000000000707BF1BF00000080EAF760C0000000C0FF3F8F4000000000907BF1BF00000080EAF760C00C00000013000000820400003C0000000600000002000000000000C0FF3F8FC0000000003089
310
F4BF00000000FCDD60C0000000C0FF3F8FC000000000707BF1BF00000080EAF760C00C000000130000008A0400003C0000000600000002000000000000C0FF3F8F4000000000907BF1BF00000080EAF760C0000000C0FF3F8F400000000080EDE1BF000000802C0C61C00C00000013000000920400003C0000000600000002
310
000000000000C0FF3F8FC00000000020EDE1BF000000802C0C61C0000000C0FF3F8F400000000080EDE1BF000000802C0C61C00C000000130000009A0400003C0000000600000002000000000000C0FF3F8FC000000000707BF1BF00000080EAF760C0000000C0FF3F8FC00000000020EDE1BF000000802C0C61C00C000000
310
13000000A20400003C0000000600000002000000000000C0FF3F8F400000000080EDE1BF000000802C0C61C0000000C0FF3F8F400000000000D06C3F000000808A1561C00C00000013000000AA0400003C0000000600000002000000000000C0FF3F8FC00000000000206D3F000000808A1561C0000000C0FF3F8F40000000
310
0000D06C3F000000808A1561C00C00000013000000B20400003C0000000600000002000000000000C0FF3F8FC00000000020EDE1BF000000802C0C61C0000000C0FF3F8FC00000000000206D3F000000808A1561C00C00000013000000BA0400003C0000000600000002000000000000C0FF3F8F400000000000D06C3F0000
310
00808A1561C0000000C0FF3F8F400000000000F07E3F0000008035BE62C00C00000013000000C20400003C0000000600000002000000000000C0FF3F8FC00000000000207F3F0000008035BE62C0000000C0FF3F8F400000000000F07E3F0000008035BE62C00C00000013000000CA0400003C000000060000000200000000
310
0000C0FF3F8FC00000000000206D3F000000808A1561C0000000C0FF3F8FC00000000000207F3F0000008035BE62C00C00000013000000D20400003C0000000600000002000000000000C0FF3F8F4000000000117E38C00000004072BE62C0000000C0FF3F8F400000000000F07E3F0000008035BE62C00C00000013000000
310
DA0400003C0000000600000002000000000000C0FF3F8FC0000000000E7E38C00000004072BE62C0000000C0FF3F8F4000000000117E38C00000004072BE62C00C00000013000000E20400003C0000000600000002000000000000C0FF3F8FC0000000000E7E38C00000004072BE62C0000000C0FF3F8FC00000000000207F
310
3F0000008035BE62C00C00000013000000EA0400003C0000000600000002000000000000C0FF3F8F40000000001D7F38C000000040720E61C0000000C0FF3F8F4000000000117E38C00000004072BE62C00C00000013000000F20400003C0000000600000002000000000000C0FF3F8FC0000000001A7F38C000000040720E
310
61C0000000C0FF3F8F40000000001D7F38C000000040720E61C00C00000013000000FA0400003C0000000600000002000000000000C0FF3F8FC0000000000E7E38C00000004072BE62C0000000C0FF3F8FC0000000001A7F38C000000040720E61C00C00000013000000020500003C0000000600000002000000000000C0FF
310
3F8F40000000001D7F38C000000040720E61C0000000C0FF3F8F40000000001DFF3DC000000000800E61C00C000000130000000A0500003C0000000600000002000000000000C0FF3F8FC0000000001AFF3DC0000000E07F0E61C0000000C0FF3F8F40000000001DFF3DC000000000800E61C00C0000001300000012050000
310
3C0000000600000002000000000000C0FF3F8FC0000000001A7F38C000000040720E61C0000000C0FF3F8FC0000000001AFF3DC0000000E07F0E61C00C000000130000001A0500003C0000000600000002000000000000C0FF3F8F40000000805B173EC000000000C2CD60C0000000C0FF3F8F40000000001DFF3DC0000000
310
00800E61C00C00000013000000220500003C0000000600000002000000000000C0FF3F8FC00000008058173EC0000000E0C1CD60C0000000C0FF3F8F40000000805B173EC000000000C2CD60C00C000000130000002A0500003C0000000600000002000000000000C0FF3F8FC0000000001AFF3DC0000000E07F0E61C00000
310
00C0FF3F8FC00000008058173EC0000000E0C1CD60C00C00000013000000320500003C0000000600000002000000000000C0FF3F8F40000000809BA63EC000000060877660C0000000C0FF3F8F40000000805B173EC000000000C2CD60C00C000000130000003A0500003C0000000600000002000000000000C0FF3F8FC000
310
00008098A63EC000000060877660C0000000C0FF3F8F40000000809BA63EC000000060877660C00C00000013000000420500003C0000000600000002000000000000C0FF3F8FC00000008058173EC0000000E0C1CD60C0000000C0FF3F8FC00000008098A63EC000000060877660C00C000000130000004A0500003C000000
310
0600000002000000000000C0FF3F8F4000000000D9C03FC0000000805C2460C0000000C0FF3F8F40000000809BA63EC000000060877660C00C00000013000000520500003C0000000600000002000000000000C0FF3F8FC000000000D6C03FC0000000805C2460C0000000C0FF3F8F4000000000D9C03FC0000000805C2460
310
C00C000000130000005A0500003C0000000600000002000000000000C0FF3F8FC00000008098A63EC000000060877660C0000000C0FF3F8FC000000000D6C03FC0000000805C2460C00C00000013000000620500003C0000000600000002000000000000C0FF3F8F400000002079B740C00000004090C55FC0000000C0FF3F
310
8F4000000000D9C03FC0000000805C2460C00C000000130000006A0500003C0000000600000002000000000000C0FF3F8FC00000008077B740C00000004090C55FC0000000C0FF3F8F400000002079B740C00000004090C55FC00C00000013000000720500003C0000000600000002000000000000C0FF3F8FC000000000D6
310
C03FC0000000805C2460C0000000C0FF3F8FC00000008077B740C00000004090C55FC00C000000130000007A0500003C0000000600000002000000000000C0FF3F8F4000000020EFD341C0000000802B715FC0000000C0FF3F8F400000002079B740C00000004090C55FC00C00000013000000820500003C00000006000000
310
02000000000000C0FF3F8FC000000080EDD341C0000000802B715FC0000000C0FF3F8F4000000020EFD341C0000000802B715FC00C000000130000008A0500003C0000000600000002000000000000C0FF3F8FC00000008077B740C00000004090C55FC0000000C0FF3F8FC000000080EDD341C0000000802B715FC00C0000
310
0013000000920500003C0000000600000002000000000000C0FF3F8F4000000020EFD341C0000000802B715FC0000000C0FF3F8F40000000A04C0A43C0000000A0EC315FC00C000000130000009A0500003C0000000600000002000000000000C0FF3F8FC0000000004B0A43C0000000A0EC315FC0000000C0FF3F8F400000
310
00A04C0A43C0000000A0EC315FC00C00000013000000A20500003C0000000600000002000000000000C0FF3F8FC000000080EDD341C0000000802B715FC0000000C0FF3F8FC0000000004B0A43C0000000A0EC315FC00C00000013000000AA0500003C0000000600000002000000000000C0FF3F8F4000000080033C44C000
310
00004091EC5EC0000000C0FF3F8F40000000A04C0A43C0000000A0EC315FC00C00000013000000B20500003C0000000600000002000000000000C0FF3F8FC000000000023C44C00000004091EC5EC0000000C0FF3F8F4000000080033C44C00000004091EC5EC00C00000013000000BA0500003C0000000600000002000000
310
000000C0FF3F8FC0000000004B0A43C0000000A0EC315FC0000000C0FF3F8FC000000000023C44C00000004091EC5EC00C00000013000000C20500003C0000000600000002000000000000C0FF3F8F40000000E0984645C000000080A68C5EC0000000C0FF3F8F4000000080033C44C00000004091EC5EC00C000000130000
310
00CA0500003C0000000600000002000000000000C0FF3F8FC000000040974645C000000080A68C5EC0000000C0FF3F8F40000000E0984645C000000080A68C5EC00C00000013000000D20500003C0000000600000002000000000000C0FF3F8FC000000000023C44C00000004091EC5EC0000000C0FF3F8FC0000000409746
310
45C000000080A68C5EC00C00000013000000DA0500003C0000000600000002000000000000C0FF3F8F4000000040B50D46C0000000A0300C5EC0000000C0FF3F8F40000000E0984645C000000080A68C5EC00C00000013000000E20500003C0000000600000002000000000000C0FF3F8FC0000000C0B30D46C0000000A030
310
0C5EC0000000C0FF3F8F4000000040B50D46C0000000A0300C5EC00C00000013000000EA0500003C0000000600000002000000000000C0FF3F8FC000000040974645C000000080A68C5EC0000000C0FF3F8FC0000000C0B30D46C0000000A0300C5EC00C00000013000000F20500003C0000000600000002000000000000C0
310
FF3F8F40000000207F8746C00000000002785DC0000000C0FF3F8F4000000040B50D46C0000000A0300C5EC00C00000013000000FA0500003C0000000600000002000000000000C0FF3F8FC0000000807D8746C00000000002785DC0000000C0FF3F8F40000000207F8746C00000000002785DC00C00000013000000020600
310
003C0000000600000002000000000000C0FF3F8FC0000000C0B30D46C0000000A0300C5EC0000000C0FF3F8FC0000000807D8746C00000000002785DC00C000000130000000A0600003C0000000600000002000000000000C0FF3F8F400000002078B746C0000000001D085DC0000000C0FF3F8F40000000207F8746C00000
310
000002785DC00C00000013000000120600003C0000000600000002000000000000C0FF3F8FC00000008076B746C0000000E01C085DC0000000C0FF3F8F400000002078B746C0000000001D085DC00C000000130000001A0600003C0000000600000002000000000000C0FF3F8FC0000000807D8746C00000000002785DC000
310
0000C0FF3F8FC00000008076B746C0000000E01C085DC00C00000013000000220600003C0000000600000002000000000000C0FF3F8F400000000064C046C0000000C04CBD5CC0000000C0FF3F8F400000002078B746C0000000001D085DC00C000000130000002A0600003C0000000600000002000000000000C0FF3F8FC0
310
0000008062C046C0000000E04CBD5CC0000000C0FF3F8F400000000064C046C0000000C04CBD5CC00C00000013000000320600003C0000000600000002000000000000C0FF3F8FC00000008076B746C0000000E01C085DC0000000C0FF3F8FC00000008062C046C0000000E04CBD5CC00C000000130000003A0600003C0000
310
000600000002000000000000C0FF3F8F400000000064C04AC00000008074BD5CC0000000C0FF3F8F400000000064C046C0000000C04CBD5CC00C00000013000000420600003C0000000600000002000000000000C0FF3F8FC00000008062C04AC00000006074BD5CC0000000C0FF3F8F400000000064C04AC00000008074BD
310
5CC00C000000130000004A0600003C0000000600000002000000000000C0FF3F8FC00000008062C046C0000000E04CBD5CC0000000C0FF3F8FC00000008062C04AC00000006074BD5CC00C00000013000000520600003C0000000600000002000000000000C0FF3F8F4000000060C2C04AC000000040745D5AC0000000C0FF
310
3F8F400000000064C04AC00000008074BD5CC00C000000130000005A0600003C0000000600000002000000000000C0FF3F8FC0000000C0C0C04AC000000040745D5AC0000000C0FF3F8F4000000060C2C04AC000000040745D5AC00C00000013000000620600003C0000000600000002000000000000C0FF3F8FC000000080
310
62C04AC00000006074BD5CC0000000C0FF3F8FC0000000C0C0C04AC000000040745D5AC00C000000130000006A0600003C0000000600000002000000000000C0FF3F8F400000004059234DC0000000A00C575AC0000000C0FF3F8F4000000060C2C04AC000000040745D5AC00C00000013000000720600003C000000060000
310
0002000000000000C0FF3F8FC0000000C057234DC0000000A00C575AC0000000C0FF3F8F400000004059234DC0000000A00C575AC00C000000130000007A0600003C0000000600000002000000000000C0FF3F8FC0000000C0C0C04AC000000040745D5AC0000000C0FF3F8FC0000000C057234DC0000000A00C575AC00C00
310
000013000000820600003C0000000600000002000000000000C0FF3F8F4000000000E32F50C000000040741A5AC0000000C0FF3F8F400000004059234DC0000000A00C575AC00C000000130000008A0600003C0000000600000002000000000000C0FF3F8FC000000060E22F50C000000040741A5AC0000000C0FF3F8F4000
310
000000E32F50C000000040741A5AC00C00000013000000920600003C0000000600000002000000000000C0FF3F8FC0000000C057234DC0000000A00C575AC0000000C0FF3F8FC000000060E22F50C000000040741A5AC00C000000130000009A0600003C0000000600000002000000000000C0FF3F8F40000000C0AAD151C0
310
00000000A29D59C0000000C0FF3F8F4000000000E32F50C000000040741A5AC00C00000013000000A20600003C0000000600000002000000000000C0FF3F8FC0000000E0A9D151C000000000A29D59C0000000C0FF3F8F40000000C0AAD151C000000000A29D59C00C00000013000000AA0600003C00000006000000020000
310
00000000C0FF3F8FC000000060E22F50C000000040741A5AC0000000C0FF3F8FC0000000E0A9D151C000000000A29D59C00C00000013000000B20600003C0000000600000002000000000000C0FF3F8F4000000060066953C000000000F6DB58C0000000C0FF3F8F40000000C0AAD151C000000000A29D59C00C0000001300
310
0000BA0600003C0000000600000002000000000000C0FF3F8FC0000000A0056953C000000000F6DB58C0000000C0FF3F8F4000000060066953C000000000F6DB58C00C00000013000000C20600003C0000000600000002000000000000C0FF3F8FC0000000E0A9D151C000000000A29D59C0000000C0FF3F8FC0000000A005
310
6953C000000000F6DB58C00C00000013000000CA0600003C0000000600000002000000000000C0FF3F8F4000000000C3E454C0000000E016D157C0000000C0FF3F8F4000000060066953C000000000F6DB58C00C00000013000000D20600003C0000000600000002000000000000C0FF3F8FC000000020C2E454C0000000E0
310
16D157C0000000C0FF3F8F4000000000C3E454C0000000E016D157C00C00000013000000DA0600003C0000000600000002000000000000C0FF3F8FC0000000A0056953C000000000F6DB58C0000000C0FF3F8FC000000020C2E454C0000000E016D157C00C00000013000000E20600003C0000000600000002000000000000
310
C0FF3F8F4000000080343756C000000040787B56C0000000C0FF3F8F4000000000C3E454C0000000E016D157C00C00000013000000EA0600003C0000000600000002000000000000C0FF3F8FC0000000E0333756C000000040787B56C0000000C0FF3F8F4000000080343756C000000040787B56C00C00000013000000F206
310
00003C0000000600000002000000000000C0FF3F8FC000000020C2E454C0000000E016D157C0000000C0FF3F8FC0000000E0333756C000000040787B56C00C00000013000000FA0600003C0000000600000002000000000000C0FF3F8F40000000404D5957C000000000C7DF54C0000000C0FF3F8F4000000080343756C000
310
000040787B56C00C00000013000000020700003C0000000600000002000000000000C0FF3F8FC0000000A04C5957C000000000C7DF54C0000000C0FF3F8F40000000404D5957C000000000C7DF54C00C000000130000000A0700003C0000000600000002000000000000C0FF3F8FC0000000E0333756C000000040787B56C0
310
000000C0FF3F8FC0000000A04C5957C000000000C7DF54C00C00000013000000120700003C0000000600000002000000000000C0FF3F8F4000000000F14658C000000040F70953C0000000C0FF3F8F40000000404D5957C000000000C7DF54C00C000000130000001A0700003C0000000600000002000000000000C0FF3F8F
310
C000000060F04658C000000040F70953C0000000C0FF3F8F4000000000F14658C000000040F70953C00C00000013000000220700003C0000000600000002000000000000C0FF3F8FC0000000A04C5957C000000000C7DF54C0000000C0FF3F8FC000000060F04658C000000040F70953C00C000000130000002A0700003C00
310
00000600000002000000000000C0FF3F8F4000000060C9FA58C0000000E0721051C0000000C0FF3F8F4000000000F14658C000000040F70953C00C00000013000000320700003C0000000600000002000000000000C0FF3F8FC0000000C0C8FA58C0000000E0721051C0000000C0FF3F8F4000000060C9FA58C0000000E072
310
1051C00C000000130000003A0700003C0000000600000002000000000000C0FF3F8FC000000060F04658C000000040F70953C0000000C0FF3F8FC0000000C0C8FA58C0000000E0721051C00C00000013000000420700003C0000000600000002000000000000C0FF3F8F40000000A05A8C59C000000040272C4EC0000000C0
310
FF3F8F4000000060C9FA58C0000000E0721051C00C000000130000004A0700003C0000000600000002000000000000C0FF3F8FC0000000005A8C59C000000020272C4EC0000000C0FF3F8F40000000A05A8C59C000000040272C4EC00C00000013000000520700003C0000000600000002000000000000C0FF3F8FC0000000
310
C0C8FA58C0000000E0721051C0000000C0FF3F8FC0000000005A8C59C000000020272C4EC00C000000130000005A0700003C0000000600000002000000000000C0FF3F8F40000000806C1F5AC00000000033784AC0000000C0FF3F8F40000000A05A8C59C000000040272C4EC00C00000013000000620700003C0000000600
310
000002000000000000C0FF3F8FC0000000C06B1F5AC00000000033784AC0000000C0FF3F8F40000000806C1F5AC00000000033784AC00C000000130000006A0700003C0000000600000002000000000000C0FF3F8FC0000000005A8C59C000000020272C4EC0000000C0FF3F8FC0000000C06B1F5AC00000000033784AC00C
310
00000013000000720700003C0000000600000002000000000000C0FF3F8F4000000000CDCF5AC0000000207A3447C0000000C0FF3F8F40000000806C1F5AC00000000033784AC00C000000130000007A0700003C0000000600000002000000000000C0FF3F8FC000000060CCCF5AC0000000207A3447C0000000C0FF3F8F40
310
00000000CDCF5AC0000000207A3447C00C00000013000000820700003C0000000600000002000000000000C0FF3F8FC0000000C06B1F5AC00000000033784AC0000000C0FF3F8FC000000060CCCF5AC0000000207A3447C00C000000130000008A0700003C0000000600000002000000000000C0FF3F8F4000000080F0A35B
310
C0000000000A7144C0000000C0FF3F8F4000000000CDCF5AC0000000207A3447C00C00000013000000920700003C0000000600000002000000000000C0FF3F8FC0000000C0EFA35BC0000000000A7144C0000000C0FF3F8F4000000080F0A35BC0000000000A7144C00C000000130000009A0700003C000000060000000200
310
0000000000C0FF3F8FC000000060CCCF5AC0000000207A3447C0000000C0FF3F8FC0000000C0EFA35BC0000000000A7144C00C00000013000000A20700003C0000000600000002000000000000C0FF3F8F40000000001A905CC0000000805B1F42C0000000C0FF3F8F4000000080F0A35BC0000000000A7144C00C00000013
310
000000AA0700003C0000000600000002000000000000C0FF3F8FC00000004019905CC0000000805B1F42C0000000C0FF3F8F40000000001A905CC0000000805B1F42C00C00000013000000B20700003C0000000600000002000000000000C0FF3F8FC0000000C0EFA35BC0000000000A7144C0000000C0FF3F8FC000000040
310
19905CC0000000805B1F42C00C00000013000000BA0700003C0000000600000002000000000000C0FF3F8F4000000000188A5DC000000040943F40C0000000C0FF3F8F40000000001A905CC0000000805B1F42C00C00000013000000C20700003C0000000600000002000000000000C0FF3F8FC000000040178A5DC0000000
310
40943F40C0000000C0FF3F8F4000000000188A5DC000000040943F40C00C00000013000000CA0700003C0000000600000002000000000000C0FF3F8FC00000004019905CC0000000805B1F42C0000000C0FF3F8FC000000040178A5DC000000040943F40C00C00000013000000D20700003C00000006000000020000000000
310
00C0FF3F8F40000000A004C95EC000000080C2173DC0000000C0FF3F8F4000000000188A5DC000000040943F40C00C00000013000000DA0700003C0000000600000002000000000000C0FF3F8FC0000000E003C95EC000000080C2173DC0000000C0FF3F8F40000000A004C95EC000000080C2173DC00C00000013000000E2
310
0700003C0000000600000002000000000000C0FF3F8FC000000040178A5DC000000040943F40C0000000C0FF3F8FC0000000E003C95EC000000080C2173DC00C00000013000000EA0700003C0000000600000002000000000000C0FF3F8F40000000C071C85FC00000008044723BC0000000C0FF3F8F40000000A004C95EC0
310
00000080C2173DC00C00000013000000F20700003C0000000600000002000000000000C0FF3F8FC00000002071C85FC00000008044723BC0000000C0FF3F8F40000000C071C85FC00000008044723BC00C00000013000000FA0700003C0000000600000002000000000000C0FF3F8FC0000000E003C95EC000000080C2173D
310
C0000000C0FF3F8FC00000002071C85FC00000008044723BC00C00000013000000020800003C0000000600000002000000000000C0FF3F8F40000000E0D56560C00000000095A33AC0000000C0FF3F8F40000000C071C85FC00000008044723BC00C000000130000000A0800003C0000000600000002000000000000C0FF3F
310
8FC000000080D56560C00000000095A33AC0000000C0FF3F8F40000000E0D56560C00000000095A33AC00C00000013000000120800003C0000000600000002000000000000C0FF3F8FC00000002071C85FC00000008044723BC0000000C0FF3F8FC000000080D56560C00000000095A33AC00C000000130000001A0800003C
310
0000000600000002000000000000C0FF3F8F40000000800AEB60C00000004098AA3AC0000000C0FF3F8F40000000E0D56560C00000000095A33AC00C00000013000000220800003C0000000600000002000000000000C0FF3F8FC0000000200AEB60C00000004098AA3AC0000000C0FF3F8F40000000800AEB60C000000040
310
98AA3AC00C000000130000002A0800003C0000000600000002000000000000C0FF3F8FC000000080D56560C00000000095A33AC0000000C0FF3F8FC0000000200AEB60C00000004098AA3AC00C00000013000000320800003C0000000600000002000000000000C0FF3F8F40000000800AEB60C00000004098AA3AC0000000
310
C0FF3F8F40000000C0E67061C0000000006F763BC00C000000130000003A0800003C0000000600000002000000000000C0FF3F8FC000000060E67061C0000000406F763BC0000000C0FF3F8F40000000C0E67061C0000000006F763BC00C00000013000000420800003C0000000600000002000000000000C0FF3F8FC00000
310
00200AEB60C00000004098AA3AC0000000C0FF3F8FC000000060E67061C0000000406F763BC00C000000130000004A0800003C0000000600000002000000000000C0FF3F8F40000000E02CF061C00000008006EF3CC0000000C0FF3F8F40000000C0E67061C0000000006F763BC00C00000013000000520800003C00000006
310
00000002000000000000C0FF3F8FC0000000802CF061C00000008006EF3CC0000000C0FF3F8F40000000E02CF061C00000008006EF3CC00C000000130000005A0800003C0000000600000002000000000000C0FF3F8FC000000060E67061C0000000406F763BC0000000C0FF3F8FC0000000802CF061C00000008006EF3CC0
310
0C00000013000000620800003C0000000600000002000000000000C0FF3F8F40000000E02CF061C00000008006EF3CC0000000C0FF3F8F4000000080E96062C00000000013FD3EC00C000000130000006A0800003C0000000600000002000000000000C0FF3F8FC000000040E96062C00000004013FD3EC0000000C0FF3F8F
310
4000000080E96062C00000000013FD3EC00C00000013000000720800003C0000000600000002000000000000C0FF3F8FC0000000802CF061C00000008006EF3CC0000000C0FF3F8FC000000040E96062C00000004013FD3EC00C000000130000007A0800003C0000000600000002000000000000C0FF3F8F4000000080E960
310
62C00000000013FD3EC0000000C0FF3F8F4000000080E97064C0000000005BFE3EC00C00000013000000820800003C0000000600000002000000000000C0FF3F8FC000000020E97064C0000000005BFE3EC0000000C0FF3F8F4000000080E97064C0000000005BFE3EC00C000000130000008A0800003C0000000600000002
310
000000000000C0FF3F8FC000000040E96062C00000004013FD3EC0000000C0FF3F8FC000000020E97064C0000000005BFE3EC00C00000013000000920800003C0000000600000002000000000000C0FF3F8F4000000060FD7064C0000000405BFE36C0000000C0FF3F8F4000000080E97064C0000000005BFE3EC00C000000
310
130000009A0800003C0000000600000002000000000000C0FF3F8FC000000000FD7064C0000000405BFE36C0000000C0FF3F8F4000000060FD7064C0000000405BFE36C00C00000013000000A20800003C0000000600000002000000000000C0FF3F8FC000000020E97064C0000000005BFE3EC0000000C0FF3F8FC0000000
310
00FD7064C0000000405BFE36C00C00000013000000AA0800003C0000000600000002000000000000C0FF3F8F4000000060FD7064C0000000405BFE36C0000000C0FF3F8F4000000080C7B664C0000000809DE736C00C00000013000000B20800003C0000000600000002000000000000C0FF3F8FC000000020C7B664C00000
310
00809DE736C0000000C0FF3F8F4000000080C7B664C0000000809DE736C00C00000013000000BA0800003C0000000600000002000000000000C0FF3F8FC000000000FD7064C0000000405BFE36C0000000C0FF3F8FC000000020C7B664C0000000809DE736C00C00000013000000C20800003C000000060000000200000000
310
0000C0FF3F8F4000000040021165C000000080DE6D36C0000000C0FF3F8F4000000080C7B664C0000000809DE736C00C00000013000000CA0800003C0000000600000002000000000000C0FF3F8FC0000000E0011165C000000080DE6D36C0000000C0FF3F8F4000000040021165C000000080DE6D36C00C00000013000000
310
D20800003C0000000600000002000000000000C0FF3F8FC000000020C7B664C0000000809DE736C0000000C0FF3F8FC0000000E0011165C000000080DE6D36C00C00000013000000DA0800003C0000000600000002000000000000C0FF3F8F4000000040021165C000000080DE6D36C0000000C0FF3F8F4000000020216765
310
C000000000B08635C00C00000013000000E20800003C0000000600000002000000000000C0FF3F8FC0000000C0206765C000000000B08635C0000000C0FF3F8F4000000020216765C000000000B08635C00C00000013000000EA0800003C0000000600000002000000000000C0FF3F8FC0000000E0011165C000000080DE6D
310
36C0000000C0FF3F8FC0000000C0206765C000000000B08635C00C00000013000000F20800003C0000000600000002000000000000C0FF3F8F40000000C093B365C000000000103034C0000000C0FF3F8F4000000020216765C000000000B08635C00C00000013000000FA0800003C0000000600000002000000000000C0FF
310
3F8FC00000006093B365C000000000103034C0000000C0FF3F8F40000000C093B365C000000000103034C00C00000013000000020900003C0000000600000002000000000000C0FF3F8FC0000000C0206765C000000000B08635C0000000C0FF3F8FC00000006093B365C000000000103034C00C000000130000000A090000
310
3C0000000600000002000000000000C0FF3F8F40000000C093B365C000000000103034C0000000C0FF3F8F4000000080CAF465C000000040228A32C00C00000013000000120900003C0000000600000002000000000000C0FF3F8FC000000040CAF465C000000040228A32C0000000C0FF3F8F4000000080CAF465C0000000
310
40228A32C00C000000130000001A0900003C0000000600000002000000000000C0FF3F8FC00000006093B365C000000000103034C0000000C0FF3F8FC000000040CAF465C000000040228A32C00C00000013000000220900003C0000000600000002000000000000C0FF3F8F4000000080663766C000000000413730C00000
310
00C0FF3F8F4000000080CAF465C000000040228A32C00C000000130000002A0900003C0000000600000002000000000000C0FF3F8FC000000020663766C000000000413730C0000000C0FF3F8F4000000080663766C000000000413730C00C00000013000000320900003C0000000600000002000000000000C0FF3F8FC000
310
000040CAF465C000000040228A32C0000000C0FF3F8FC000000020663766C000000000413730C00C000000130000003A0900003C0000000600000002000000000000C0FF3F8F4000000040436366C0000000801A842CC0000000C0FF3F8F4000000080663766C000000000413730C00C00000013000000420900003C000000
310
0600000002000000000000C0FF3F8FC0000000E0426366C0000000801A842CC0000000C0FF3F8F4000000040436366C0000000801A842CC00C000000130000004A0900003C0000000600000002000000000000C0FF3F8FC000000020663766C000000000413730C0000000C0FF3F8FC0000000E0426366C0000000801A842C
310
C00C00000013000000520900003C0000000600000002000000000000C0FF3F8F4000000060359366C000000080B80329C0000000C0FF3F8F4000000040436366C0000000801A842CC00C000000130000005A0900003C0000000600000002000000000000C0FF3F8FC000000000359366C000000000B90329C0000000C0FF3F
310
8F4000000060359366C000000080B80329C00C00000013000000620900003C0000000600000002000000000000C0FF3F8FC0000000E0426366C0000000801A842CC0000000C0FF3F8FC000000000359366C000000000B90329C00C000000130000006A0900003C0000000600000002000000000000C0FF3F8F4000000080F6
310
CC66C0000000800F3326C0000000C0FF3F8F4000000060359366C000000080B80329C00C00000013000000720900003C0000000600000002000000000000C0FF3F8FC000000040F6CC66C0000000000F3326C0000000C0FF3F8F4000000080F6CC66C0000000800F3326C00C000000130000007A0900003C00000006000000
310
02000000000000C0FF3F8FC000000000359366C000000000B90329C0000000C0FF3F8FC000000040F6CC66C0000000000F3326C00C00000013000000820900003C0000000600000002000000000000C0FF3F8F4000000040EB1467C000000080514624C0000000C0FF3F8F4000000080F6CC66C0000000800F3326C00C0000
310
00130000008A0900003C0000000600000002000000000000C0FF3F8FC000000000EB1467C000000080514624C0000000C0FF3F8F4000000040EB1467C000000080514624C00C00000013000000920900003C0000000600000002000000000000C0FF3F8FC000000040F6CC66C0000000000F3326C0000000C0FF3F8FC00000
310
0000EB1467C000000080514624C00C000000130000009A0900003C0000000600000002000000000000C0FF3F8F4000000080FE5267C000000000045123C0000000C0FF3F8F4000000040EB1467C000000080514624C00C00000013000000A20900003C0000000600000002000000000000C0FF3F8FC000000040FE5267C000
310
000000045123C0000000C0FF3F8F4000000080FE5267C000000000045123C00C00000013000000AA0900003C0000000600000002000000000000C0FF3F8FC000000000EB1467C000000080514624C0000000C0FF3F8FC000000040FE5267C000000000045123C00C00000013000000B20900003C0000000600000002000000
310
000000C0FF3F8F4000000080FE5267C000000000045123C0000000C0FF3F8F4000000080839567C000000000DAA722C00C00000013000000BA0900003C0000000600000002000000000000C0FF3F8FC000000040839567C000000080D9A722C0000000C0FF3F8F4000000080839567C000000000DAA722C00C000000130000
310
00C20900003C0000000600000002000000000000C0FF3F8FC000000040FE5267C000000000045123C0000000C0FF3F8FC000000040839567C000000080D9A722C00C00000013000000CA0900003C0000000600000002000000000000C0FF3F8F40000000C029DA67C000000000BB3922C0000000C0FF3F8F40000000808395
310
67C000000000DAA722C00C00000013000000D20900003C0000000600000002000000000000C0FF3F8FC00000008029DA67C000000000BB3922C0000000C0FF3F8F40000000C029DA67C000000000BB3922C00C00000013000000DA0900003C0000000600000002000000000000C0FF3F8FC000000040839567C000000080D9
310
A722C0000000C0FF3F8FC00000008029DA67C000000000BB3922C00C00000013000000E20900003C0000000600000002000000000000C0FF3F8F4000000020202168C0000000004A0122C0000000C0FF3F8F40000000C029DA67C000000000BB3922C00C00000013000000EA0900003C0000000600000002000000000000C0
310
FF3F8FC0000000C01F2168C0000000804A0122C0000000C0FF3F8F4000000020202168C0000000004A0122C00C00000013000000F20900003C0000000600000002000000000000C0FF3F8FC00000008029DA67C000000000BB3922C0000000C0FF3F8FC0000000C01F2168C0000000804A0122C00C00000013000000FA0900
310
003C0000000600000002000000000000C0FF3F8F4000000020208168C000000000C10122C0000000C0FF3F8F4000000020202168C0000000004A0122C00C00000013000000020A00003C0000000600000002000000000000C0FF3F8FC0000000C01F2168C0000000804A0122C0000000C0FF3F8FC0000000C01F8168C00000
310
0000C10122C00C000000130000000A0A00003C0000000600000002000000000000C0FF3F8FC0000000001A7F38C000000040720E61C0000000C0FF3F8FC0000000003089F4BF00000000FCDD60C00C00000013000000120A00003C0000000600000002000000000000C0FF3F8FC0000000000E7E38C00000004072BE62C000
310
0000C0FF3F8FC000000000707BF1BF00000080EAF760C00C000000130000001A0A00003C0000000600000002000000000000C0FF3F8FC0000000C0BA0C67C00000000060B9E5BF000000C0FF3F8FC0000000C01F8168C000000000C10122C00C00000013000000220A00003C0000000600000002000000000000C0FF3F8FC0
310
000000C01F2168C0000000804A0122C0000000C0FF3F8FC0000000C0BA0C67C00000000060B9E5BF0C000000130000002A0A00003C0000000600000002000000000000C0FF3F8FC00000008029DA67C000000000BB3922C0000000C0FF3F8FC0000000C0BA0C67C00000000060B9E5BF0C00000013000000320A00003C0000
310
000600000002000000000000C0FF3F8FC000000040839567C000000080D9A722C0000000C0FF3F8FC000000020E5F866C000000000E83EF2BF0C000000130000003A0A00003C0000000600000002000000000000C0FF3F8FC000000040FE5267C000000000045123C0000000C0FF3F8FC000000020E5F866C000000000E83E
310
F2BF0C00000013000000420A00003C0000000600000002000000000000C0FF3F8FC000000000EB1467C000000080514624C0000000C0FF3F8FC000000020B2E066C00000000060CAF4BF0C000000130000004A0A00003C0000000600000002000000000000C0FF3F8FC000000000EB1467C000000080514624C0000000C0FF
310
3F8FC0000000A097C866C0000000000007F2BF0C00000013000000520A00003C0000000600000002000000000000C0FF3F8FC000000040F6CC66C0000000000F3326C0000000C0FF3F8FC00000002007B566C00000000060EEE4BF0C000000130000005A0A00003C0000000600000002000000000000C0FF3F8FC000000040
310
F6CC66C0000000000F3326C0000000C0FF3F8FC00000004036A165C00000000000206D3F0C00000013000000620A00003C0000000600000002000000000000C0FF3F8FC000000000359366C000000000B90329C0000000C0FF3F8FC00000004036A165C00000000000206D3F0C000000130000006A0A00003C000000060000
310
0002000000000000C0FF3F8FC0000000E0426366C0000000801A842CC0000000C0FF3F8FC000000000D1E464C0000000009B081CC00C00000013000000720A00003C0000000600000002000000000000C0FF3F8FC000000020663766C000000000413730C0000000C0FF3F8FC000000000D1E464C0000000009B081CC00C00
310
0000130000007A0A00003C0000000600000002000000000000C0FF3F8FC000000040CAF465C000000040228A32C0000000C0FF3F8FC000000060BBA864C000000080D77921C00C00000013000000820A00003C0000000600000002000000000000C0FF3F8FC00000006093B365C000000000103034C0000000C0FF3F8FC000
310
000060BBA864C000000080D77921C00C000000130000008A0A00003C0000000600000002000000000000C0FF3F8FC0000000C0206765C000000000B08635C0000000C0FF3F8FC000000080976064C0000000001DDF23C00C00000013000000920A00003C0000000600000002000000000000C0FF3F8FC0000000E0011165C0
310
00000080DE6D36C0000000C0FF3F8FC000000080976064C0000000001DDF23C00C000000130000009A0A00003C0000000600000002000000000000C0FF3F8FC000000020C7B664C0000000809DE736C0000000C0FF3F8FC0000000E0181164C000000000270C25C00C00000013000000A20A00003C00000006000000020000
310
00000000C0FF3F8FC000000000FD7064C0000000405BFE36C0000000C0FF3F8FC0000000E0181164C000000000270C25C00C00000013000000AA0A00003C0000000600000002000000000000C0FF3F8FC0000000802CF061C00000008006EF3CC0000000C0FF3F8FC000000000FD7064C0000000405BFE36C00C0000001300
310
0000B20A00003C0000000600000002000000000000C0FF3F8FC000000060E67061C0000000406F763BC0000000C0FF3F8FC0000000E0181164C000000000270C25C00C00000013000000BA0A00003C0000000600000002000000000000C0FF3F8FC0000000200AEB60C00000004098AA3AC0000000C0FF3F8FC00000000034
310
0261C000000080E22C2AC00C00000013000000C20A00003C0000000600000002000000000000C0FF3F8FC000000080D56560C00000000095A33AC0000000C0FF3F8FC000000060332660C0000000001FC92CC00C00000013000000CA0A00003C0000000600000002000000000000C0FF3F8FC00000002071C85FC000000080
310
44723BC0000000C0FF3F8FC0000000608A885EC000000080461431C00C00000013000000D20A00003C0000000600000002000000000000C0FF3F8FC0000000E003C95EC000000080C2173DC0000000C0FF3F8FC000000000AD375DC000000040721534C00C00000013000000DA0A00003C0000000600000002000000000000
310
C0FF3F8FC000000040178A5DC000000040943F40C0000000C0FF3F8FC0000000407D8E5BC000000080EC3939C00C00000013000000E20A00003C0000000600000002000000000000C0FF3F8FC00000004019905CC0000000805B1F42C0000000C0FF3F8FC0000000400F185AC000000040658A3FC00C00000013000000EA0A
310
00003C0000000600000002000000000000C0FF3F8FC0000000C0EFA35BC0000000000A7144C0000000C0FF3F8FC00000008079DD58C0000000204C8543C00C00000013000000F20A00003C0000000600000002000000000000C0FF3F8FC000000060CCCF5AC0000000207A3447C0000000C0FF3F8FC0000000C0ABE157C000
310
0000008A0A48C00C00000013000000FA0A00003C0000000600000002000000000000C0FF3F8FC0000000C06B1F5AC00000000033784AC0000000C0FF3F8FC000000040402157C0000000207F064DC00C00000013000000020B00003C0000000600000002000000000000C0FF3F8FC0000000005A8C59C000000020272C4EC0
310
000000C0FF3F8FC000000040402157C0000000207F064DC00C000000130000000A0B00003C0000000600000002000000000000C0FF3F8FC0000000C0C8FA58C0000000E0721051C0000000C0FF3F8FC000000060626B56C0000000802AD350C00C00000013000000120B00003C0000000600000002000000000000C0FF3F8F
310
C000000060F04658C000000040F70953C0000000C0FF3F8FC000000060626B56C0000000802AD350C00C000000130000001A0B00003C0000000600000002000000000000C0FF3F8FC0000000A04C5957C000000000C7DF54C0000000C0FF3F8FC000000060FD8555C0000000C0CDC652C00C00000013000000220B00003C00
310
00000600000002000000000000C0FF3F8FC0000000E0333756C000000040787B56C0000000C0FF3F8FC000000060D67354C000000040AB5954C00C000000130000002A0B00003C0000000600000002000000000000C0FF3F8FC000000020C2E454C0000000E016D157C0000000C0FF3F8FC000000040124153C00000002055
310
9355C00C00000013000000320B00003C0000000600000002000000000000C0FF3F8FC0000000A0056953C000000000F6DB58C0000000C0FF3F8FC00000004004F151C000000080B17C56C00C000000130000003A0B00003C0000000600000002000000000000C0FF3F8FC0000000E0A9D151C000000000A29D59C0000000C0
310
FF3F8FC000000040A28250C000000000F32257C00C00000013000000420B00003C0000000600000002000000000000C0FF3F8FC000000060E22F50C000000040741A5AC0000000C0FF3F8FC00000004035C44DC0000000804A8657C00C000000130000004A0B00003C0000000600000002000000000000C0FF3F8FC0000000
310
C057234DC0000000A00C575AC0000000C0FF3F8FC00000004066FA4AC0000000004ABB57C00C00000013000000520B00003C0000000600000002000000000000C0FF3F8FC0000000C0C0C04AC000000040745D5AC0000000C0FF3F8FC00000008022EA48C0000000A0CCE057C00C000000130000005A0B00003C0000000600
310
000002000000000000C0FF3F8FC0000000C0C0C04AC000000040745D5AC0000000C0FF3F8FC000000080CBEB47C000000040000858C00C00000013000000620B00003C0000000600000002000000000000C0FF3F8FC00000008062C04AC00000006074BD5CC0000000C0FF3F8FC0000000002B0347C000000060A74858C00C
310
000000130000006A0B00003C0000000600000002000000000000C0FF3F8FC00000008062C046C0000000E04CBD5CC0000000C0FF3F8FC0000000004F3A46C0000000C0F69F58C00C00000013000000720B00003C0000000600000002000000000000C0FF3F8FC00000008062C046C0000000E04CBD5CC0000000C0FF3F8FC0
310
00000080229941C000000000C61A5BC00C000000130000007A0B00003C0000000600000002000000000000C0FF3F8FC00000008076B746C0000000E01C085DC0000000C0FF3F8FC000000080229941C000000000C61A5BC00C00000013000000820B00003C0000000600000002000000000000C0FF3F8FC0000000807D8746
310
C00000000002785DC0000000C0FF3F8FC000000080229941C000000000C61A5BC00C000000130000008A0B00003C0000000600000002000000000000C0FF3F8FC0000000C0B30D46C0000000A0300C5EC0000000C0FF3F8FC000000000C3F940C0000000E0FF685BC00C00000013000000920B00003C000000060000000200
310
0000000000C0FF3F8FC000000040974645C000000080A68C5EC0000000C0FF3F8FC000000000C3F940C0000000E0FF685BC00C000000130000009A0B00003C0000000600000002000000000000C0FF3F8FC000000000023C44C00000004091EC5EC0000000C0FF3F8FC000000000C3F940C0000000E0FF685BC00C00000013
310
000000A20B00003C0000000600000002000000000000C0FF3F8FC0000000004B0A43C0000000A0EC315FC0000000C0FF3F8FC0000000805C4D40C000000080FBAF5BC00C00000013000000AA0B00003C0000000600000002000000000000C0FF3F8FC000000080EDD341C0000000802B715FC0000000C0FF3F8FC000000080
310
5C4D40C000000080FBAF5BC00C00000013000000B20B00003C0000000600000002000000000000C0FF3F8FC00000008077B740C00000004090C55FC0000000C0FF3F8FC0000000805C4D40C000000080FBAF5BC00C00000013000000BA0B00003C0000000600000002000000000000C0FF3F8FC0000000003C2F1AC0000000
310
408B3C5FC0000000C0FF3F8FC000000000306AF1BF0000004045C460C00C00000013000000C20B00003C0000000600000002000000000000C0FF3F8FC0000000000E7E38C00000004072BE62C0000000C0FF3F8FC00000000020EDE1BF000000802C0C61C00C00000013000000CA0B00003C00000006000000020000000000
310
00C0FF3F8FC0000000001A7F38C000000040720E61C0000000C0FF3F8FC000000000809F25C00000006097975FC00C00000013000000D20B00003C0000000600000002000000000000C0FF3F8FC0000000007CDF23C000000020AB7F5FC0000000C0FF3F8FC000000000306AF1BF0000004045C460C00C00000013000000DA
310
0B00003C0000000600000002000000000000C0FF3F8FC0000000005A8020C0000000206A4C5FC0000000C0FF3F8FC000000000306AF1BF0000004045C460C00C00000013000000E20B00003C0000000600000002000000000000C0FF3F8FC000000000D6C03FC0000000805C2460C0000000C0FF3F8FC000000000CEB328C0
310
000000C0AF7F5FC00C00000013000000EA0B00003C0000000600000002000000000000C0FF3F8FC00000008098A63EC000000060877660C0000000C0FF3F8FC000000000643D27C0000000C0CF955FC00C00000013000000F20B00003C0000000600000002000000000000C0FF3F8FC00000008058173EC0000000E0C1CD60
310
C0000000C0FF3F8FC000000000809F25C00000006097975FC00C00000013000000FA0B00003C0000000600000002000000000000C0FF3F8F4000000000907BF1BF00000080EAF760C0000000C0FF3F8F4000000000117E38C00000004072BE62C00C00000013000000020C00003C0000000600000002000000000000C0FF3F
310
8F40000000001D7F38C000000040720E61C0000000C0FF3F8F40000000005889F4BF00000000FCDD60C00C000000130000000A0C00003C0000000600000002000000000000C0FF3F8F4000000020208168C000000000C10122C0000000C0FF3F8F4000000020BB0C67C00000000060B9E5BF0C00000013000000120C00003C
310
0000000600000002000000000000C0FF3F8F4000000020BB0C67C00000000060B9E5BF000000C0FF3F8F4000000020202168C0000000004A0122C00C000000130000001A0C00003C0000000600000002000000000000C0FF3F8F4000000020BB0C67C00000000060B9E5BF000000C0FF3F8F40000000C029DA67C000000000
310
BB3922C00C00000013000000220C00003C0000000600000002000000000000C0FF3F8F4000000080FE5267C000000000045123C0000000C0FF3F8F4000000080E5F866C000000000F03EF2BF0C000000130000002A0C00003C0000000600000002000000000000C0FF3F8F4000000080839567C000000000DAA722C0000000
310
C0FF3F8F4000000080E5F866C000000000F03EF2BF0C00000013000000320C00003C0000000600000002000000000000C0FF3F8F4000000040EB1467C000000080514624C0000000C0FF3F8F4000000080B2E066C00000000060CAF4BF0C000000130000003A0C00003C0000000600000002000000000000C0FF3F8F400000
310
0080F6CC66C0000000800F3326C0000000C0FF3F8F400000008007B566C00000000060EEE4BF0C00000013000000420C00003C0000000600000002000000000000C0FF3F8F4000000040EB1467C000000080514624C0000000C0FF3F8F400000000098C866C0000000000007F2BF0C000000130000004A0C00003C00000006
310
00000002000000000000C0FF3F8F4000000080F6CC66C0000000800F3326C0000000C0FF3F8F400000008036A165C00000000000206D3F0C00000013000000520C00003C0000000600000002000000000000C0FF3F8F400000008036A165C00000000000206D3F000000C0FF3F8F4000000060359366C000000080B80329C0
310
0C000000130000005A0C00003C0000000600000002000000000000C0FF3F8F4000000040436366C0000000801A842CC0000000C0FF3F8F4000000060D1E464C0000000009B081CC00C00000013000000620C00003C0000000600000002000000000000C0FF3F8F4000000060D1E464C0000000009B081CC0000000C0FF3F8F
310
4000000080663766C000000000413730C00C000000130000006A0C00003C0000000600000002000000000000C0FF3F8F40000000C093B365C000000000103034C0000000C0FF3F8F40000000C0BBA864C000000000D77921C00C00000013000000720C00003C0000000600000002000000000000C0FF3F8F4000000080CAF4
310
65C000000040228A32C0000000C0FF3F8F40000000C0BBA864C000000000D77921C00C000000130000007A0C00003C0000000600000002000000000000C0FF3F8F4000000040021165C000000080DE6D36C0000000C0FF3F8F40000000E0976064C0000000001DDF23C00C00000013000000820C00003C0000000600000002
310
000000000000C0FF3F8F4000000020216765C000000000B08635C0000000C0FF3F8F40000000E0976064C0000000001DDF23C00C000000130000008A0C00003C0000000600000002000000000000C0FF3F8F4000000060FD7064C0000000405BFE36C0000000C0FF3F8F4000000040191164C000000000270C25C00C000000
310
13000000920C00003C0000000600000002000000000000C0FF3F8F4000000080C7B664C0000000809DE736C0000000C0FF3F8F4000000040191164C000000000270C25C00C000000130000009A0C00003C0000000600000002000000000000C0FF3F8F4000000060FD7064C0000000405BFE36C0000000C0FF3F8F40000000
310
E02CF061C00000008006EF3CC00C00000013000000A20C00003C0000000600000002000000000000C0FF3F8F40000000800AEB60C00000004098AA3AC0000000C0FF3F8F4000000060340261C000000000E22C2AC00C00000013000000AA0C00003C0000000600000002000000000000C0FF3F8F4000000040191164C00000
310
0000270C25C0000000C0FF3F8F40000000C0E67061C0000000006F763BC00C00000013000000B20C00003C0000000600000002000000000000C0FF3F8F40000000E0D56560C00000000095A33AC0000000C0FF3F8F40000000C0332660C0000000001FC92CC00C00000013000000BA0C00003C000000060000000200000000
310
0000C0FF3F8F40000000C071C85FC00000008044723BC0000000C0FF3F8F40000000208B885EC000000080461431C00C00000013000000C20C00003C0000000600000002000000000000C0FF3F8F40000000A004C95EC000000080C2173DC0000000C0FF3F8F40000000C0AD375DC000000040721534C00C00000013000000
310
CA0C00003C0000000600000002000000000000C0FF3F8F4000000000188A5DC000000040943F40C0000000C0FF3F8F40000000007E8E5BC000000080EC3939C00C00000013000000D20C00003C0000000600000002000000000000C0FF3F8F40000000001A905CC0000000805B1F42C0000000C0FF3F8F400000000010185A
310
C000000040658A3FC00C00000013000000DA0C00003C0000000600000002000000000000C0FF3F8F4000000080F0A35BC0000000000A7144C0000000C0FF3F8F40000000407ADD58C0000000004C8543C00C00000013000000E20C00003C0000000600000002000000000000C0FF3F8F4000000000CDCF5AC0000000207A34
310
47C0000000C0FF3F8F4000000080ACE157C0000000008A0A48C00C00000013000000EA0C00003C0000000600000002000000000000C0FF3F8F40000000806C1F5AC00000000033784AC0000000C0FF3F8F40000000E0402157C0000000207F064DC00C00000013000000F20C00003C0000000600000002000000000000C0FF
310
3F8F40000000E0402157C0000000207F064DC0000000C0FF3F8F40000000A05A8C59C000000040272C4EC00C00000013000000FA0C00003C0000000600000002000000000000C0FF3F8F4000000060C9FA58C0000000E0721051C0000000C0FF3F8F4000000000636B56C0000000802AD350C00C00000013000000020D0000
310
3C0000000600000002000000000000C0FF3F8F4000000000636B56C0000000802AD350C0000000C0FF3F8F4000000000F14658C000000040F70953C00C000000130000000A0D00003C0000000600000002000000000000C0FF3F8F40000000404D5957C000000000C7DF54C0000000C0FF3F8F4000000000FE8555C0000000
310
C0CDC652C00C00000013000000120D00003C0000000600000002000000000000C0FF3F8F4000000080343756C000000040787B56C0000000C0FF3F8F4000000000D77354C000000040AB5954C00C000000130000001A0D00003C0000000600000002000000000000C0FF3F8F4000000000C3E454C0000000E016D157C00000
310
00C0FF3F8F4000000000134153C000000020559355C00C00000013000000220D00003C0000000600000002000000000000C0FF3F8F4000000060066953C000000000F6DB58C0000000C0FF3F8F400000000005F151C000000080B17C56C00C000000130000002A0D00003C0000000600000002000000000000C0FF3F8F4000
310
0000C0AAD151C000000000A29D59C0000000C0FF3F8F4000000000A38250C000000000F32257C00C00000013000000320D00003C0000000600000002000000000000C0FF3F8F4000000000E32F50C000000040741A5AC0000000C0FF3F8F40000000E036C44DC0000000804A8657C00C000000130000003A0D00003C000000
310
0600000002000000000000C0FF3F8F400000004059234DC0000000A00C575AC0000000C0FF3F8F40000000E067FA4AC0000000004ABB57C00C00000013000000420D00003C0000000600000002000000000000C0FF3F8F4000000060C2C04AC000000040745D5AC0000000C0FF3F8F400000002024EA48C000000080CCE057
310
C00C000000130000004A0D00003C0000000600000002000000000000C0FF3F8F4000000060C2C04AC000000040745D5AC0000000C0FF3F8F4000000020CDEB47C000000040000858C00C00000013000000520D00003C0000000600000002000000000000C0FF3F8F400000000064C04AC00000008074BD5CC0000000C0FF3F
310
8F40000000A02C0347C000000060A74858C00C000000130000005A0D00003C0000000600000002000000000000C0FF3F8F400000000064C046C0000000C04CBD5CC0000000C0FF3F8F4000000080503A46C0000000C0F69F58C00C00000013000000620D00003C0000000600000002000000000000C0FF3F8F400000000064
310
C046C0000000C04CBD5CC0000000C0FF3F8F40000000E0239941C000000000C61A5BC00C000000130000006A0D00003C0000000600000002000000000000C0FF3F8F40000000E0239941C000000000C61A5BC0000000C0FF3F8F400000002078B746C0000000001D085DC00C00000013000000720D00003C00000006000000
310
02000000000000C0FF3F8F40000000E0239941C000000000C61A5BC0000000C0FF3F8F40000000207F8746C00000000002785DC00C000000130000007A0D00003C0000000600000002000000000000C0FF3F8F4000000040B50D46C0000000A0300C5EC0000000C0FF3F8F4000000080C4F940C0000000E0FF685BC00C0000
310
0013000000820D00003C0000000600000002000000000000C0FF3F8F4000000080C4F940C0000000E0FF685BC0000000C0FF3F8F40000000E0984645C000000080A68C5EC00C000000130000008A0D00003C0000000600000002000000000000C0FF3F8F4000000080C4F940C0000000E0FF685BC0000000C0FF3F8F400000
310
0080033C44C00000004091EC5EC00C00000013000000920D00003C0000000600000002000000000000C0FF3F8F4000000020EFD341C0000000802B715FC0000000C0FF3F8F40000000E05D4D40C000000080FBAF5BC00C000000130000009A0D00003C0000000600000002000000000000C0FF3F8F40000000A04C0A43C000
310
0000A0EC315FC0000000C0FF3F8F40000000E05D4D40C000000080FBAF5BC00C00000013000000A20D00003C0000000600000002000000000000C0FF3F8F40000000E05D4D40C000000080FBAF5BC0000000C0FF3F8F400000002079B740C00000004090C55FC00C00000013000000AA0D00003C0000000600000002000000
310
000000C0FF3F8F4000000000482F1AC0000000408B3C5FC0000000C0FF3F8F4000000000586AF1BF0000004045C460C00C00000013000000B20D00003C0000000600000002000000000000C0FF3F8F4000000000117E38C00000004072BE62C0000000C0FF3F8F400000000080EDE1BF000000802C0C61C00C000000130000
310
00BA0D00003C0000000600000002000000000000C0FF3F8F4000000000586AF1BF0000004045C460C0000000C0FF3F8F400000000082DF23C000000040AB7F5FC00C00000013000000C20D00003C0000000600000002000000000000C0FF3F8F40000000001D7F38C000000040720E61C0000000C0FF3F8F4000000000869F
310
25C00000006097975FC00C00000013000000CA0D00003C0000000600000002000000000000C0FF3F8F4000000000586AF1BF0000004045C460C0000000C0FF3F8F4000000000618020C0000000006A4C5FC00C00000013000000D20D00003C0000000600000002000000000000C0FF3F8F4000000000D9C03FC0000000805C
310
2460C0000000C0FF3F8F4000000000D4B328C0000000C0AF7F5FC00C00000013000000DA0D00003C0000000600000002000000000000C0FF3F8F40000000809BA63EC000000060877660C0000000C0FF3F8F40000000006A3D27C0000000C0CF955FC00C00000013000000E20D00003C0000000600000002000000000000C0
310
FF3F8F4000000000869F25C00000006097975FC0000000C0FF3F8F40000000805B173EC000000000C2CD60C0
100
AcDbSubDMesh
 71
     2
 72
     0
 91
        0
 92
      214
 10
-999.9998779296875
 20
-24.49240112304688
 30
-149.9514465332031
 10
-999.9998779296875
 20
-24.49649047851563
 30
-136.4514465332031
 10
-999.9998779296875
 20
-29.99649047851562
 30
-136.4531097412109
 10
-999.9998779296875
 20
-30.09119415283203
 30
-134.4299163818359
 10
-999.9998779296875
 20
-30.65076446533203
 30
-131.7040252685547
 10
-999.9998779296875
 20
-31.75326538085938
 30
-129.1362915039062
 10
-999.9998779296875
 20
-33.43333435058594
 30
-127.086929321289
 10
-999.9998779296875
 20
-35.65568542480469
 30
-125.7682800292968
 10
-999.9998779296875
 20
-38.08041381835938
 30
-124.7800674438476
 10
-999.9998779296875
 20
-40.46881103515625
 30
-123.6963653564453
 10
-999.9998779296875
 20
-42.5514907836914
 30
-122.1976623535156
 10
-999.9998779296875
 20
-44.10704803466797
 30
-120.1904678344726
 10
-999.9998779296875
 20
-45.05851745605468
 30
-117.8751220703125
 10
-999.9998779296875
 20
-45.43330383300781
 30
-116.1267623901367
 10
-999.9998779296875
 20
-45.50300598144531
 30
-114.9578170776367
 10
-999.9998779296875
 20
-53.50300598144531
 30
-114.9602279663086
 10
-999.9998779296875
 20
-53.50588226318359
 30
-105.460220336914
 10
-999.9998779296875
 20
-58.27611541748047
 30
-105.3601455688476
 10
-999.9998779296875
 20
-64.74819183349609
 30
-104.413345336914
 10
-999.9998779296875
 20
-71.27599334716797
 30
-102.4630126953125
 10
-999.9998779296875
 20
-77.64096832275391
 30
-99.43688964843751
 10
-999.9998779296875
 20
-83.57434844970702
 30
-95.26702117919922
 10
-999.9998779296875
 20
-88.86254119873047
 30
-89.92921447753905
 10
-999.9998779296875
 20
-93.39530181884766
 30
-83.49652099609375
 10
-999.9998779296875
 20
-97.10842132568359
 30
-76.15571594238281
 10
-999.9998779296875
 20
-99.91850280761719
 30
-68.25701141357422
 10
-999.9998779296875
 20
-102.1929931640625
 30
-60.34494400024414
 10
-999.9998779296875
 20
-104.4909515380859
 30
-52.93905639648437
 10
-999.9998779296875
 20
-107.2468490600586
 30
-46.40997695922851
 10
-999.9998779296875
 20
-110.5615081787109
 30
-40.88311767578125
 10
-999.9998779296875
 20
-114.2515411376953
 30
-36.24497985839844
 10
-999.9998779296875
 20
-118.1576690673828
 30
-32.49671173095703
 10
-999.9998779296875
 20
-123.1408615112304
 30
-29.09281158447266
 10
-999.9998779296875
 20
-127.1319046020508
 30
-27.44635772705078
 10
-999.9998779296875
 20
-131.1823120117187
 30
-26.63899230957031
 10
-999.9998779296875
 20
-135.344985961914
 30
-26.66638565063477
 10
-999.9998779296875
 20
-139.5281219482422
 30
-27.4626350402832
 10
-999.9998779296875
 20
-143.5054321289062
 30
-28.93369293212891
 10
-999.9998779296875
 20
-147.0284729003906
 30
-30.98857498168945
 10
-999.9998779296875
 20
-163.5284576416015
 30
-30.99357604980469
 10
-999.9998779296875
 20
-163.5308837890625
 30
-22.99357986450195
 10
-999.9998779296875
 20
-165.7118072509765
 30
-22.90474700927735
 10
-999.9998779296875
 20
-168.5314788818359
 30
-22.42917633056641
 10
-999.9998779296875
 20
-171.2227478027344
 30
-21.526123046875
 10
-999.9998779296875
 20
-173.6117401123047
 30
-20.187744140625
 10
-999.9998779296875
 20
-175.6496887207031
 30
-18.53958511352539
 10
-999.9998779296875
 20
-177.731216430664
 30
-16.21583557128906
 10
-999.9998779296875
 20
-179.1019134521484
 30
-14.25801467895508
 10
-999.9998779296875
 20
-180.6002197265625
 30
-12.50727081298828
 10
-999.9998779296875
 20
-182.4050598144531
 30
-11.09972381591797
 10
-999.9998779296875
 20
-184.6536865234375
 30
-10.13734054565429
 10
-999.9998779296875
 20
-186.5935363769531
 30
-9.658233642578125
 10
-999.9998779296875
 20
-188.6722717285156
 30
-9.327831268310546
 10
-999.9998779296875
 20
-190.8175659179687
 30
-9.112754821777343
 10
-999.9998779296875
 20
-193.0351257324218
 30
-9.002521514892578
 10
-999.9998779296875
 20
-6.546127319335937
 30
-124.9459991455078
 10
-999.9998779296875
 20
0.0000152587890625
 30
-124.9440078735351
 10
-999.9998779296875
 20
-136.06884765625
 30
-13.08766555786133
 10
-999.9998779296875
 20
-129.1937713623047
 30
-14.39281463623047
 10
-999.9998779296875
 20
-122.1334457397461
 30
-17.0792007446289
 10
-999.9998779296875
 20
-116.8699340820312
 30
-20.08377456665039
 10
-999.9998779296875
 20
-110.2263946533203
 30
-25.22626495361328
 10
-999.9998779296875
 20
-104.3759307861328
 30
-31.54060745239258
 10
-999.9998779296875
 20
-99.46054077148438
 30
-39.04138565063476
 10
-999.9998779296875
 20
-95.52610778808594
 30
-48.08233642578125
 10
-999.9998779296875
 20
-92.51954650878905
 30
-58.05075454711914
 10
-999.9998779296875
 20
-89.6778793334961
 30
-67.29946899414063
 10
-999.9998779296875
 20
-86.09358978271485
 30
-75.10630798339843
 10
-999.9998779296875
 20
-81.80995941162109
 30
-81.4010772705078
 10
-999.9998779296875
 20
-77.01673889160156
 30
-86.30207061767578
 10
-999.9998779296875
 20
-71.76588439941406
 30
-89.94833374023437
 10
-999.9998779296875
 20
-66.04115295410156
 30
-92.54608154296875
 10
-999.9998779296875
 20
-59.53287506103515
 30
-94.09829711914062
 10
-999.9998779296875
 20
-53.95624542236328
 30
-94.92639160156249
 10
-999.9998779296875
 20
-49.82917785644531
 30
-95.51248931884765
 10
-999.9998779296875
 20
-160.5342864990234
 30
-10.52373504638672
 10
-999.9998779296875
 20
-173.0378723144531
 30
0.0035552978515625
 10
-999.9998779296875
 20
-167.1505126953125
 30
-7.008403778076171
 10
-999.9998779296875
 20
-32.60438537597656
 30
-110.7497253417969
 10
-999.9998779296875
 20
-12.35118103027344
 30
-125.9951019287109
 10
-999.9998779296875
 20
-44.45553588867187
 30
-98.49943542480469
 10
-999.9998779296875
 20
-35.19636535644532
 30
-108.4183349609375
 10
-999.9998779296875
 20
-9.936492919921875
 30
-125.9948196411132
 10
-999.9998779296875
 20
-33.95126342773437
 30
-109.6406173706054
 10
-999.9998779296875
 20
-165.2728729248047
 30
-8.737972259521484
 10
-999.9998779296875
 20
-163.0184936523437
 30
-9.935768127441406
 10
-999.9998779296875
 20
-8.250686645507812
 30
-125.193977355957
 10
-999.9998779296875
 20
-11.61990356445312
 30
-126.3408050537109
 10
-999.9998779296875
 20
-10.8115234375
 30
-126.3686141967773
 10
-999.9998779296875
 20
-47.84214782714843
 30
-96.12501525878906
 10
-999.9998779296875
 20
-46.02474975585937
 30
-97.13521575927735
 10
-999.9998779296875
 20
0.002288818359375
 30
-132.4617767333984
 10
-999.9998779296875
 20
-1.088424682617187
 30
-134.1334533691406
 10
-999.9998779296875
 20
-1.283493041992187
 30
-134.93701171875
 10
-999.9998779296875
 20
-1.092636108398437
 30
-135.7473754882812
 10
-999.9998779296875
 20
-0.5601959228515625
 30
-136.3804321289062
 10
-999.9998779296875
 20
0.0035552978515625
 30
-136.6731567382812
 10
-999.9998779296875
 20
-181.6571197509765
 30
-0.6540985107421875
 10
-999.9998779296875
 20
-181.1092834472656
 30
0.0010910034179688
 10
-999.9998779296875
 20
-184.7670288085937
 30
-0.0000152587890625
 10
-999.9998779296875
 20
-184.3977966308593
 30
-0.6788787841796875
 10
-999.9998779296875
 20
-183.7779693603515
 30
-1.140357971191406
 10
-999.9998779296875
 20
-183.021743774414
 30
-1.299407958984375
 10
-999.9998779296875
 20
-182.2685089111328
 30
-1.126708984375
 10
-999.9998779296875
 20
-196.037857055664
 30
-0.0034255981445313
 10
-999.9998779296875
 20
0.007598876953125
 30
-149.9440307617187
 10
-999.9998779296875
 20
-196.0351257324218
 30
-9.003425598144531
 10
999.9998779296875
 20
-24.49653625488281
 30
-136.4514465332031
 10
999.9998779296875
 20
-1.283531188964843
 30
-134.93701171875
 10
999.9998779296875
 20
-1.092666625976562
 30
-135.7473754882812
 10
999.9998779296875
 20
-24.49244689941406
 30
-149.9514465332031
 10
999.9998779296875
 20
-196.035171508789
 30
-9.003425598144531
 10
999.9998779296875
 20
-196.0379028320312
 30
-0.0034255981445313
 10
999.9998779296875
 20
-184.7670593261718
 30
-0.0000152587890625
 10
999.9998779296875
 20
-184.3978424072265
 30
-0.6788787841796875
 10
999.9998779296875
 20
-193.035171508789
 30
-9.002517700195312
 10
999.9998779296875
 20
-190.8175964355469
 30
-9.112754821777343
 10
999.9998779296875
 20
-186.5935668945312
 30
-9.658233642578125
 10
999.9998779296875
 20
-188.6723022460937
 30
-9.327835083007812
 10
999.9998779296875
 20
-183.7780151367187
 30
-1.140365600585937
 10
999.9998779296875
 20
-184.6537170410156
 30
-10.13734054565429
 10
999.9998779296875
 20
-183.0217895507812
 30
-1.299407958984375
 10
999.9998779296875
 20
-182.4050903320312
 30
-11.09972763061523
 10
999.9998779296875
 20
-182.2685546875
 30
-1.126708984375
 10
999.9998779296875
 20
-181.6571655273437
 30
-0.6540985107421875
 10
999.9998779296875
 20
-181.1093139648437
 30
0.0010986328125
 10
999.9998779296875
 20
-173.0379028320312
 30
0.0035552978515625
 10
999.9998779296875
 20
-180.6002655029297
 30
-12.50726699829101
 10
999.9998779296875
 20
-179.1019592285156
 30
-14.25801467895508
 10
999.9998779296875
 20
-167.1505584716797
 30
-7.008403778076171
 10
999.9998779296875
 20
-177.7312622070312
 30
-16.21583557128906
 10
999.9998779296875
 20
-173.6117858886719
 30
-20.187744140625
 10
999.9998779296875
 20
-175.6497192382812
 30
-18.53958511352539
 10
999.9998779296875
 20
-165.2729187011719
 30
-8.737968444824218
 10
999.9998779296875
 20
-168.5315246582031
 30
-22.42917633056641
 10
999.9998779296875
 20
-171.2227935791015
 30
-21.526123046875
 10
999.9998779296875
 20
-163.0185394287109
 30
-9.935768127441406
 10
999.9998779296875
 20
-163.5309295654297
 30
-22.99357986450195
 10
999.9998779296875
 20
-165.7118530273437
 30
-22.90474700927735
 10
999.9998779296875
 20
-160.5343322753906
 30
-10.52373504638672
 10
999.9998779296875
 20
-143.5054779052734
 30
-28.93369293212891
 10
999.9998779296875
 20
-147.0285034179687
 30
-30.98857116699219
 10
999.9998779296875
 20
-163.5285034179687
 30
-30.99357604980469
 10
999.9998779296875
 20
-135.3450317382812
 30
-26.66638565063477
 10
999.9998779296875
 20
-139.5281677246094
 30
-27.46263122558594
 10
999.9998779296875
 20
-136.0688934326172
 30
-13.08766174316406
 10
999.9998779296875
 20
-131.1823577880859
 30
-26.63899230957031
 10
999.9998779296875
 20
-129.1938171386719
 30
-14.39281463623047
 10
999.9998779296875
 20
-127.1319427490234
 30
-27.44635772705078
 10
999.9998779296875
 20
-122.1334915161133
 30
-17.0792007446289
 10
999.9998779296875
 20
-123.1409072875976
 30
-29.09281158447266
 10
999.9998779296875
 20
-116.8699798583984
 30
-20.08377456665039
 10
999.9998779296875
 20
-118.15771484375
 30
-32.49671173095703
 10
999.9998779296875
 20
-110.2264404296875
 30
-25.22626495361328
 10
999.9998779296875
 20
-114.2515869140625
 30
-36.24497985839844
 10
999.9998779296875
 20
-104.3759765625
 30
-31.54060745239258
 10
999.9998779296875
 20
-110.5615539550781
 30
-40.88311767578125
 10
999.9998779296875
 20
-99.46058654785156
 30
-39.0413818359375
 10
999.9998779296875
 20
-107.2468872070312
 30
-46.40997695922851
 10
999.9998779296875
 20
-95.52615356445313
 30
-48.08233642578125
 10
999.9998779296875
 20
-104.4909973144531
 30
-52.93905639648437
 10
999.9998779296875
 20
-92.51958465576171
 30
-58.05075454711914
 10
999.9998779296875
 20
-102.1930313110351
 30
-60.3449478149414
 10
999.9998779296875
 20
-99.91854095458984
 30
-68.25701141357422
 10
999.9998779296875
 20
-89.67791748046876
 30
-67.29946899414063
 10
999.9998779296875
 20
-97.10845947265625
 30
-76.15571594238281
 10
999.9998779296875
 20
-93.39533996582032
 30
-83.49652099609375
 10
999.9998779296875
 20
-86.09362792968751
 30
-75.10630798339843
 10
999.9998779296875
 20
-88.86257934570313
 30
-89.92921447753905
 10
999.9998779296875
 20
-81.80999755859375
 30
-81.4010772705078
 10
999.9998779296875
 20
-83.57440185546876
 30
-95.26702117919922
 10
999.9998779296875
 20
-77.01678466796875
 30
-86.30207061767578
 10
999.9998779296875
 20
-77.64101409912109
 30
-99.43688964843751
 10
999.9998779296875
 20
-71.76593017578125
 30
-89.94833374023437
 10
999.9998779296875
 20
-71.27604675292968
 30
-102.4630126953125
 10
999.9998779296875
 20
-66.04119873046875
 30
-92.54608154296875
 10
999.9998779296875
 20
-64.74822998046875
 30
-104.413345336914
 10
999.9998779296875
 20
-59.53292465209961
 30
-94.09829711914062
 10
999.9998779296875
 20
-58.27616119384765
 30
-105.3601455688476
 10
999.9998779296875
 20
-53.95629501342773
 30
-94.92639160156249
 10
999.9998779296875
 20
-53.50593185424805
 30
-105.460220336914
 10
999.9998779296875
 20
-49.82922744750976
 30
-95.51248168945312
 10
999.9998779296875
 20
-47.84219741821289
 30
-96.12501525878906
 10
999.9998779296875
 20
-53.5030517578125
 30
-114.9602355957031
 10
999.9998779296875
 20
-46.02479934692382
 30
-97.13521575927735
 10
999.9998779296875
 20
-45.50305175781249
 30
-114.9578094482422
 10
999.9998779296875
 20
-44.45558166503906
 30
-98.49943542480469
 10
999.9998779296875
 20
-35.19640731811524
 30
-108.4183349609375
 10
999.9998779296875
 20
-45.43335342407226
 30
-116.1267700195312
 10
999.9998779296875
 20
-45.05856704711914
 30
-117.8751220703125
 10
999.9998779296875
 20
-44.10709381103515
 30
-120.1904678344726
 10
999.9998779296875
 20
-33.95130920410156
 30
-109.6406173706054
 10
999.9998779296875
 20
-42.55154037475586
 30
-122.1976623535156
 10
999.9998779296875
 20
-40.46885681152343
 30
-123.6963653564453
 10
999.9998779296875
 20
-35.65573501586914
 30
-125.7682800292968
 10
999.9998779296875
 20
-38.08046340942383
 30
-124.7800674438476
 10
999.9998779296875
 20
-32.60442733764648
 30
-110.7497253417969
 10
999.9998779296875
 20
-33.43338394165039
 30
-127.086929321289
 10
999.9998779296875
 20
-6.546173095703125
 30
-124.9459991455078
 10
999.9998779296875
 20
-0.0000228881835938
 30
-124.9440078735351
 10
999.9998779296875
 20
0.0022506713867188
 30
-132.4617767333984
 10
999.9998779296875
 20
-1.088462829589843
 30
-134.1334533691406
 10
999.9998779296875
 20
-0.56024169921875
 30
-136.3804321289062
 10
999.9998779296875
 20
0.0035171508789063
 30
-136.6731567382812
 10
999.9998779296875
 20
0.0075531005859375
 30
-149.9440307617187
 10
999.9998779296875
 20
-10.81156921386718
 30
-126.3686141967773
 10
999.9998779296875
 20
-9.936538696289062
 30
-125.9948272705078
 10
999.9998779296875
 20
-8.250740051269531
 30
-125.1939697265625
 10
999.9998779296875
 20
-31.75331115722656
 30
-129.1362915039062
 10
999.9998779296875
 20
-12.35122680664062
 30
-125.9951019287109
 10
999.9998779296875
 20
-30.65081024169922
 30
-131.7040252685547
 10
999.9998779296875
 20
-11.61994934082031
 30
-126.3408050537109
 10
999.9998779296875
 20
-30.09123992919922
 30
-134.429931640625
 10
999.9998779296875
 20
-29.99653625488281
 30
-136.453125
 93
     1123
 90
        4
 90
      111
 90
      112
 90
      104
 90
      106
 90
        4
 90
      112
 90
      113
 90
       99
 90
      104
 90
        4
 90
      113
 90
      114
 90
      100
 90
       99
 90
        4
 90
      114
 90
      119
 90
      101
 90
      100
 90
        4
 90
      119
 90
      121
 90
      102
 90
      101
 90
        4
 90
      121
 90
      123
 90
      103
 90
      102
 90
        4
 90
      123
 90
      124
 90
       97
 90
      103
 90
        4
 90
      124
 90
      125
 90
       98
 90
       97
 90
        4
 90
      125
 90
      126
 90
       76
 90
       98
 90
        4
 90
      126
 90
      129
 90
       77
 90
       76
 90
        4
 90
      129
 90
      133
 90
       84
 90
       77
 90
        4
 90
      133
 90
      136
 90
       85
 90
       84
 90
        4
 90
      136
 90
      139
 90
       75
 90
       85
 90
        4
 90
      139
 90
      145
 90
       57
 90
       75
 90
        4
 90
      145
 90
      147
 90
       58
 90
       57
 90
        4
 90
      147
 90
      149
 90
       59
 90
       58
 90
        4
 90
      149
 90
      151
 90
       60
 90
       59
 90
        4
 90
      151
 90
      153
 90
       61
 90
       60
 90
        4
 90
      153
 90
      155
 90
       62
 90
       61
 90
        4
 90
      155
 90
      157
 90
       63
 90
       62
 90
        4
 90
      157
 90
      159
 90
       64
 90
       63
 90
        4
 90
      159
 90
      161
 90
       65
 90
       64
 90
        4
 90
      161
 90
      164
 90
       66
 90
       65
 90
        4
 90
      164
 90
      167
 90
       67
 90
       66
 90
        4
 90
      167
 90
      169
 90
       68
 90
       67
 90
        4
 90
      169
 90
      171
 90
       69
 90
       68
 90
        4
 90
      171
 90
      173
 90
       70
 90
       69
 90
        4
 90
      173
 90
      175
 90
       71
 90
       70
 90
        4
 90
      175
 90
      177
 90
       72
 90
       71
 90
        4
 90
      177
 90
      179
 90
       73
 90
       72
 90
        4
 90
      179
 90
      181
 90
       74
 90
       73
 90
        4
 90
      181
 90
      182
 90
       89
 90
       74
 90
        4
 90
      182
 90
      184
 90
       90
 90
       89
 90
        4
 90
      184
 90
      186
 90
       80
 90
       90
 90
        4
 90
      186
 90
      187
 90
       81
 90
       80
 90
        4
 90
      187
 90
      191
 90
       83
 90
       81
 90
        4
 90
      191
 90
      196
 90
       78
 90
       83
 90
        4
 90
      196
 90
      209
 90
       79
 90
       78
 90
        4
 90
      209
 90
      211
 90
       87
 90
       79
 90
        4
 90
      211
 90
      205
 90
       88
 90
       87
 90
        4
 90
      205
 90
      206
 90
       82
 90
       88
 90
        4
 90
      206
 90
      207
 90
       86
 90
       82
 90
        4
 90
      207
 90
      198
 90
       55
 90
       86
 90
        4
 90
      198
 90
      199
 90
       56
 90
       55
 90
        4
 90
      199
 90
      200
 90
       91
 90
       56
 90
        4
 90
      200
 90
      201
 90
       92
 90
       91
 90
        4
 90
      201
 90
      108
 90
       93
 90
       92
 90
        4
 90
      108
 90
      109
 90
       94
 90
       93
 90
        4
 90
      109
 90
      202
 90
       95
 90
       94
 90
        4
 90
      202
 90
      203
 90
       96
 90
       95
 90
        4
 90
      203
 90
      204
 90
      105
 90
       96
 90
        4
 90
      204
 90
      110
 90
        0
 90
      105
 90
        4
 90
      110
 90
      107
 90
        1
 90
        0
 90
        4
 90
      107
 90
      213
 90
        2
 90
        1
 90
        4
 90
      213
 90
      212
 90
        3
 90
        2
 90
        4
 90
      212
 90
      210
 90
        4
 90
        3
 90
        4
 90
      210
 90
      208
 90
        5
 90
        4
 90
        4
 90
      208
 90
      197
 90
        6
 90
        5
 90
        4
 90
      197
 90
      194
 90
        7
 90
        6
 90
        4
 90
      194
 90
      195
 90
        8
 90
        7
 90
        4
 90
      195
 90
      193
 90
        9
 90
        8
 90
        4
 90
      193
 90
      192
 90
       10
 90
        9
 90
        4
 90
      192
 90
      190
 90
       11
 90
       10
 90
        4
 90
      190
 90
      189
 90
       12
 90
       11
 90
        4
 90
      189
 90
      188
 90
       13
 90
       12
 90
        4
 90
      188
 90
      185
 90
       14
 90
       13
 90
        4
 90
      185
 90
      183
 90
       15
 90
       14
 90
        4
 90
      183
 90
      180
 90
       16
 90
       15
 90
        4
 90
      180
 90
      178
 90
       17
 90
       16
 90
        4
 90
      178
 90
      176
 90
       18
 90
       17
 90
        4
 90
      176
 90
      174
 90
       19
 90
       18
 90
        4
 90
      174
 90
      172
 90
       20
 90
       19
 90
        4
 90
      172
 90
      170
 90
       21
 90
       20
 90
        4
 90
      170
 90
      168
 90
       22
 90
       21
 90
        4
 90
      168
 90
      166
 90
       23
 90
       22
 90
        4
 90
      166
 90
      165
 90
       24
 90
       23
 90
        4
 90
      165
 90
      163
 90
       25
 90
       24
 90
        4
 90
      163
 90
      162
 90
       26
 90
       25
 90
        4
 90
      162
 90
      160
 90
       27
 90
       26
 90
        4
 90
      160
 90
      158
 90
       28
 90
       27
 90
        4
 90
      158
 90
      156
 90
       29
 90
       28
 90
        4
 90
      156
 90
      154
 90
       30
 90
       29
 90
        4
 90
      154
 90
      152
 90
       31
 90
       30
 90
        4
 90
      152
 90
      150
 90
       32
 90
       31
 90
        4
 90
      150
 90
      148
 90
       33
 90
       32
 90
        4
 90
      148
 90
      146
 90
       34
 90
       33
 90
        4
 90
      146
 90
      143
 90
       35
 90
       34
 90
        4
 90
      143
 90
      144
 90
       36
 90
       35
 90
        4
 90
      144
 90
      140
 90
       37
 90
       36
 90
        4
 90
      140
 90
      141
 90
       38
 90
       37
 90
        4
 90
      141
 90
      142
 90
       39
 90
       38
 90
        4
 90
      142
 90
      137
 90
       40
 90
       39
 90
        4
 90
      137
 90
      138
 90
       41
 90
       40
 90
        4
 90
      138
 90
      134
 90
       42
 90
       41
 90
        4
 90
      134
 90
      135
 90
       43
 90
       42
 90
        4
 90
      135
 90
      131
 90
       44
 90
       43
 90
        4
 90
      131
 90
      132
 90
       45
 90
       44
 90
        4
 90
      132
 90
      130
 90
       46
 90
       45
 90
        4
 90
      130
 90
      128
 90
       47
 90
       46
 90
        4
 90
      128
 90
      127
 90
       48
 90
       47
 90
        4
 90
      127
 90
      122
 90
       49
 90
       48
 90
        4
 90
      122
 90
      120
 90
       50
 90
       49
 90
        4
 90
      120
 90
      117
 90
       51
 90
       50
 90
        4
 90
      117
 90
      118
 90
       52
 90
       51
 90
        4
 90
      118
 90
      116
 90
       53
 90
       52
 90
        4
 90
      116
 90
      115
 90
       54
 90
       53
 90
        4
 90
      115
 90
      111
 90
      106
 90
       54
 90
        4
 90
        1
 90
       93
 90
       94
 90
        0
 90
        4
 90
      106
 90
      104
 90
       99
 90
      100
 90
        3
 90
       54
 90
      106
 90
      100
 90
        3
 90
       53
 90
       54
 90
      100
 90
        3
 90
       51
 90
       52
 90
      101
 90
        4
 90
       52
 90
       53
 90
      100
 90
      101
 90
        4
 90
       50
 90
       51
 90
      101
 90
      102
 90
        4
 90
       49
 90
       50
 90
      103
 90
       97
 90
        3
 90
       50
 90
      102
 90
      103
 90
        4
 90
       49
 90
       97
 90
       98
 90
       76
 90
        3
 90
       48
 90
       49
 90
       76
 90
        4
 90
       47
 90
       48
 90
       76
 90
       77
 90
        3
 90
       46
 90
       47
 90
       77
 90
        3
 90
       44
 90
       45
 90
       84
 90
        4
 90
       45
 90
       46
 90
       77
 90
       84
 90
        3
 90
       42
 90
       43
 90
       85
 90
        4
 90
       43
 90
       44
 90
       84
 90
       85
 90
        3
 90
       40
 90
       41
 90
       75
 90
        4
 90
       41
 90
       42
 90
       85
 90
       75
 90
        4
 90
       37
 90
       38
 90
       39
 90
       40
 90
        4
 90
       35
 90
       36
 90
       75
 90
       57
 90
        4
 90
       36
 90
       37
 90
       40
 90
       75
 90
        4
 90
       34
 90
       35
 90
       57
 90
       58
 90
        4
 90
       33
 90
       34
 90
       58
 90
       59
 90
        4
 90
       32
 90
       33
 90
       59
 90
       60
 90
        4
 90
       31
 90
       32
 90
       60
 90
       61
 90
        4
 90
       30
 90
       31
 90
       61
 90
       62
 90
        4
 90
       29
 90
       30
 90
       62
 90
       63
 90
        4
 90
       28
 90
       29
 90
       63
 90
       64
 90
        4
 90
       27
 90
       28
 90
       64
 90
       65
 90
        3
 90
       26
 90
       27
 90
       65
 90
        4
 90
       25
 90
       26
 90
       65
 90
       66
 90
        3
 90
       24
 90
       25
 90
       66
 90
        4
 90
       23
 90
       24
 90
       66
 90
       67
 90
        4
 90
       22
 90
       23
 90
       67
 90
       68
 90
        4
 90
       21
 90
       22
 90
       68
 90
       69
 90
        4
 90
       20
 90
       21
 90
       69
 90
       70
 90
        4
 90
       19
 90
       20
 90
       70
 90
       71
 90
        4
 90
       18
 90
       19
 90
       71
 90
       72
 90
        4
 90
       17
 90
       18
 90
       72
 90
       73
 90
        4
 90
       16
 90
       17
 90
       73
 90
       74
 90
        3
 90
       16
 90
       74
 90
       89
 90
        4
 90
       15
 90
       16
 90
       89
 90
       90
 90
        4
 90
       14
 90
       15
 90
       90
 90
       80
 90
        3
 90
       14
 90
       80
 90
       81
 90
        3
 90
       13
 90
       14
 90
       81
 90
        3
 90
       12
 90
       13
 90
       81
 90
        4
 90
       11
 90
       12
 90
       81
 90
       83
 90
        3
 90
       10
 90
       11
 90
       83
 90
        3
 90
        9
 90
       10
 90
       83
 90
        3
 90
        7
 90
        8
 90
       78
 90
        4
 90
        8
 90
        9
 90
       83
 90
       78
 90
        3
 90
        6
 90
        7
 90
       78
 90
        4
 90
       55
 90
       56
 90
       91
 90
       92
 90
        4
 90
       95
 90
       96
 90
      105
 90
        0
 90
        3
 90
       94
 90
       95
 90
        0
 90
        5
 90
        1
 90
       88
 90
       82
 90
       92
 90
       93
 90
        3
 90
       82
 90
       86
 90
       92
 90
        3
 90
       86
 90
       55
 90
       92
 90
        4
 90
        5
 90
        6
 90
       78
 90
       79
 90
        4
 90
        4
 90
        5
 90
       79
 90
       87
 90
        4
 90
        3
 90
        4
 90
       87
 90
       88
 90
        4
 90
        1
 90
        2
 90
        3
 90
       88
 90
        4
 90
      107
 90
      110
 90
      109
 90
      108
 90
        4
 90
      111
 90
      114
 90
      113
 90
      112
 90
        3
 90
      115
 90
      114
 90
      111
 90
        3
 90
      116
 90
      114
 90
      115
 90
        3
 90
      117
 90
      119
 90
      118
 90
        4
 90
      118
 90
      119
 90
      114
 90
      116
 90
        4
 90
      120
 90
      121
 90
      119
 90
      117
 90
        4
 90
      122
 90
      124
 90
      123
 90
      120
 90
        3
 90
      120
 90
      123
 90
      121
 90
        4
 90
      122
 90
      126
 90
      125
 90
      124
 90
        3
 90
      127
 90
      126
 90
      122
 90
        4
 90
      128
 90
      129
 90
      126
 90
      127
 90
        3
 90
      130
 90
      129
 90
      128
 90
        3
 90
      131
 90
      133
 90
      132
 90
        4
 90
      132
 90
      133
 90
      129
 90
      130
 90
        3
 90
      134
 90
      136
 90
      135
 90
        4
 90
      135
 90
      136
 90
      133
 90
      131
 90
        3
 90
      137
 90
      139
 90
      138
 90
        4
 90
      138
 90
      139
 90
      136
 90
      134
 90
        4
 90
      140
 90
      137
 90
      142
 90
      141
 90
        4
 90
      143
 90
      145
 90
      139
 90
      144
 90
        4
 90
      144
 90
      139
 90
      137
 90
      140
 90
        4
 90
      146
 90
      147
 90
      145
 90
      143
 90
        4
 90
      148
 90
      149
 90
      147
 90
      146
 90
        4
 90
      150
 90
      151
 90
      149
 90
      148
 90
        4
 90
      152
 90
      153
 90
      151
 90
      150
 90
        4
 90
      154
 90
      155
 90
      153
 90
      152
 90
        4
 90
      156
 90
      157
 90
      155
 90
      154
 90
        4
 90
      158
 90
      159
 90
      157
 90
      156
 90
        4
 90
      160
 90
      161
 90
      159
 90
      158
 90
        3
 90
      162
 90
      161
 90
      160
 90
        4
 90
      163
 90
      164
 90
      161
 90
      162
 90
        3
 90
      165
 90
      164
 90
      163
 90
        4
 90
      166
 90
      167
 90
      164
 90
      165
 90
        4
 90
      168
 90
      169
 90
      167
 90
      166
 90
        4
 90
      170
 90
      171
 90
      169
 90
      168
 90
        4
 90
      172
 90
      173
 90
      171
 90
      170
 90
        4
 90
      174
 90
      175
 90
      173
 90
      172
 90
        4
 90
      176
 90
      177
 90
      175
 90
      174
 90
        4
 90
      178
 90
      179
 90
      177
 90
      176
 90
        4
 90
      180
 90
      181
 90
      179
 90
      178
 90
        3
 90
      180
 90
      182
 90
      181
 90
        4
 90
      183
 90
      184
 90
      182
 90
      180
 90
        4
 90
      185
 90
      186
 90
      184
 90
      183
 90
        3
 90
      185
 90
      187
 90
      186
 90
        3
 90
      188
 90
      187
 90
      185
 90
        3
 90
      189
 90
      187
 90
      188
 90
        4
 90
      190
 90
      191
 90
      187
 90
      189
 90
        3
 90
      192
 90
      191
 90
      190
 90
        3
 90
      193
 90
      191
 90
      192
 90
        3
 90
      194
 90
      196
 90
      195
 90
        4
 90
      195
 90
      196
 90
      191
 90
      193
 90
        3
 90
      197
 90
      196
 90
      194
 90
        4
 90
      198
 90
      201
 90
      200
 90
      199
 90
        4
 90
      202
 90
      110
 90
      204
 90
      203
 90
        3
 90
      109
 90
      110
 90
      202
 90
        5
 90
      107
 90
      108
 90
      201
 90
      206
 90
      205
 90
        3
 90
      206
 90
      201
 90
      207
 90
        3
 90
      207
 90
      201
 90
      198
 90
        4
 90
      208
 90
      209
 90
      196
 90
      197
 90
        4
 90
      210
 90
      211
 90
      209
 90
      208
 90
        4
 90
      212
 90
      205
 90
      211
 90
      210
 90
        4
 90
      107
 90
      205
 90
      212
 90
      213
 94
      445
 90
      111
 90
      112
 90
      104
 90
      112
 90
      104
 90
      106
 90
      106
 90
      111
 90
      112
 90
      113
 90
       99
 90
      113
 90
       99
 90
      104
 90
      113
 90
      114
 90
      100
 90
      114
 90
       99
 90
      100
 90
      114
 90
      119
 90
      101
 90
      119
 90
      100
 90
      101
 90
      119
 90
      121
 90
      102
 90
      121
 90
      101
 90
      102
 90
      121
 90
      123
 90
      103
 90
      123
 90
      102
 90
      103
 90
      123
 90
      124
 90
       97
 90
      124
 90
       97
 90
      103
 90
      124
 90
      125
 90
       98
 90
      125
 90
       97
 90
       98
 90
      125
 90
      126
 90
       76
 90
      126
 90
       76
 90
       98
 90
      126
 90
      129
 90
       77
 90
      129
 90
       76
 90
       77
 90
      129
 90
      133
 90
       84
 90
      133
 90
       77
 90
       84
 90
      133
 90
      136
 90
       85
 90
      136
 90
       84
 90
       85
 90
      136
 90
      139
 90
       75
 90
      139
 90
       75
 90
       85
 90
      139
 90
      145
 90
       57
 90
      145
 90
       57
 90
       75
 90
      145
 90
      147
 90
       58
 90
      147
 90
       57
 90
       58
 90
      147
 90
      149
 90
       59
 90
      149
 90
       58
 90
       59
 90
      149
 90
      151
 90
       60
 90
      151
 90
       59
 90
       60
 90
      151
 90
      153
 90
       61
 90
      153
 90
       60
 90
       61
 90
      153
 90
      155
 90
       62
 90
      155
 90
       61
 90
       62
 90
      155
 90
      157
 90
       63
 90
      157
 90
       62
 90
       63
 90
      157
 90
      159
 90
       64
 90
      159
 90
       63
 90
       64
 90
      159
 90
      161
 90
       65
 90
      161
 90
       64
 90
       65
 90
      161
 90
      164
 90
       66
 90
      164
 90
       65
 90
       66
 90
      164
 90
      167
 90
       67
 90
      167
 90
       66
 90
       67
 90
      167
 90
      169
 90
       68
 90
      169
 90
       67
 90
       68
 90
      169
 90
      171
 90
       69
 90
      171
 90
       68
 90
       69
 90
      171
 90
      173
 90
       70
 90
      173
 90
       69
 90
       70
 90
      173
 90
      175
 90
       71
 90
      175
 90
       70
 90
       71
 90
      175
 90
      177
 90
       72
 90
      177
 90
       71
 90
       72
 90
      177
 90
      179
 90
       73
 90
      179
 90
       72
 90
       73
 90
      179
 90
      181
 90
       74
 90
      181
 90
       73
 90
       74
 90
      181
 90
      182
 90
       89
 90
      182
 90
       74
 90
       89
 90
      182
 90
      184
 90
       90
 90
      184
 90
       89
 90
       90
 90
      184
 90
      186
 90
       80
 90
      186
 90
       80
 90
       90
 90
      186
 90
      187
 90
       81
 90
      187
 90
       80
 90
       81
 90
      187
 90
      191
 90
       83
 90
      191
 90
       81
 90
       83
 90
      191
 90
      196
 90
       78
 90
      196
 90
       78
 90
       83
 90
      196
 90
      209
 90
       79
 90
      209
 90
       78
 90
       79
 90
      209
 90
      211
 90
       87
 90
      211
 90
       79
 90
       87
 90
      205
 90
      211
 90
       88
 90
      205
 90
       87
 90
       88
 90
      205
 90
      206
 90
       82
 90
      206
 90
       82
 90
       88
 90
      206
 90
      207
 90
       86
 90
      207
 90
       82
 90
       86
 90
      198
 90
      207
 90
       55
 90
      198
 90
       55
 90
       86
 90
      198
 90
      199
 90
       56
 90
      199
 90
       55
 90
       56
 90
      199
 90
      200
 90
       91
 90
      200
 90
       56
 90
       91
 90
      200
 90
      201
 90
       92
 90
      201
 90
       91
 90
       92
 90
      108
 90
      201
 90
       93
 90
      108
 90
       92
 90
       93
 90
      108
 90
      109
 90
       94
 90
      109
 90
       93
 90
       94
 90
      109
 90
      202
 90
       95
 90
      202
 90
       94
 90
       95
 90
      202
 90
      203
 90
       96
 90
      203
 90
       95
 90
       96
 90
      203
 90
      204
 90
      105
 90
      204
 90
       96
 90
      105
 90
      110
 90
      204
 90
        0
 90
      110
 90
        0
 90
      105
 90
      107
 90
      110
 90
        1
 90
      107
 90
        0
 90
        1
 90
      107
 90
      213
 90
        2
 90
      213
 90
        1
 90
        2
 90
      212
 90
      213
 90
        3
 90
      212
 90
        2
 90
        3
 90
      210
 90
      212
 90
        4
 90
      210
 90
        3
 90
        4
 90
      208
 90
      210
 90
        5
 90
      208
 90
        4
 90
        5
 90
      197
 90
      208
 90
        6
 90
      197
 90
        5
 90
        6
 90
      194
 90
      197
 90
        7
 90
      194
 90
        6
 90
        7
 90
      194
 90
      195
 90
        8
 90
      195
 90
        7
 90
        8
 90
      193
 90
      195
 90
        9
 90
      193
 90
        8
 90
        9
 90
      192
 90
      193
 90
       10
 90
      192
 90
        9
 90
       10
 90
      190
 90
      192
 90
       11
 90
      190
 90
       10
 90
       11
 90
      189
 90
      190
 90
       12
 90
      189
 90
       11
 90
       12
 90
      188
 90
      189
 90
       13
 90
      188
 90
       12
 90
       13
 90
      185
 90
      188
 90
       14
 90
      185
 90
       13
 90
       14
 90
      183
 90
      185
 90
       15
 90
      183
 90
       14
 90
       15
 90
      180
 90
      183
 90
       16
 90
      180
 90
       15
 90
       16
 90
      178
 90
      180
 90
       17
 90
      178
 90
       16
 90
       17
 90
      176
 90
      178
 90
       18
 90
      176
 90
       17
 90
       18
 90
      174
 90
      176
 90
       19
 90
      174
 90
       18
 90
       19
 90
      172
 90
      174
 90
       20
 90
      172
 90
       19
 90
       20
 90
      170
 90
      172
 90
       21
 90
      170
 90
       20
 90
       21
 90
      168
 90
      170
 90
       22
 90
      168
 90
       21
 90
       22
 90
      166
 90
      168
 90
       23
 90
      166
 90
       22
 90
       23
 90
      165
 90
      166
 90
       24
 90
      165
 90
       23
 90
       24
 90
      163
 90
      165
 90
       25
 90
      163
 90
       24
 90
       25
 90
      162
 90
      163
 90
       26
 90
      162
 90
       25
 90
       26
 90
      160
 90
      162
 90
       27
 90
      160
 90
       26
 90
       27
 90
      158
 90
      160
 90
       28
 90
      158
 90
       27
 90
       28
 90
      156
 90
      158
 90
       29
 90
      156
 90
       28
 90
       29
 90
      154
 90
      156
 90
       30
 90
      154
 90
       29
 90
       30
 90
      152
 90
      154
 90
       31
 90
      152
 90
       30
 90
       31
 90
      150
 90
      152
 90
       32
 90
      150
 90
       31
 90
       32
 90
      148
 90
      150
 90
       33
 90
      148
 90
       32
 90
       33
 90
      146
 90
      148
 90
       34
 90
      146
 90
       33
 90
       34
 90
      143
 90
      146
 90
       35
 90
      143
 90
       34
 90
       35
 90
      143
 90
      144
 90
       36
 90
      144
 90
       35
 90
       36
 90
      140
 90
      144
 90
       37
 90
      140
 90
       36
 90
       37
 90
      140
 90
      141
 90
       38
 90
      141
 90
       37
 90
       38
 90
      141
 90
      142
 90
       39
 90
      142
 90
       38
 90
       39
 90
      137
 90
      142
 90
       40
 90
      137
 90
       39
 90
       40
 90
      137
 90
      138
 90
       41
 90
      138
 90
       40
 90
       41
 90
      134
 90
      138
 90
       42
 90
      134
 90
       41
 90
       42
 90
      134
 90
      135
 90
       43
 90
      135
 90
       42
 90
       43
 90
      131
 90
      135
 90
       44
 90
      131
 90
       43
 90
       44
 90
      131
 90
      132
 90
       45
 90
      132
 90
       44
 90
       45
 90
      130
 90
      132
 90
       46
 90
      130
 90
       45
 90
       46
 90
      128
 90
      130
 90
       47
 90
      128
 90
       46
 90
       47
 90
      127
 90
      128
 90
       48
 90
      127
 90
       47
 90
       48
 90
      122
 90
      127
 90
       49
 90
      122
 90
       48
 90
       49
 90
      120
 90
      122
 90
       50
 90
      120
 90
       49
 90
       50
 90
      117
 90
      120
 90
       51
 90
      117
 90
       50
 90
       51
 90
      117
 90
      118
 90
       52
 90
      118
 90
       51
 90
       52
 90
      116
 90
      118
 90
       53
 90
      116
 90
       52
 90
       53
 90
      115
 90
      116
 90
       54
 90
      115
 90
       53
 90
       54
 90
      111
 90
      115
 90
       54
 90
      106
 90
        1
 90
       93
 90
        0
 90
       94
 90
      100
 90
      106
 90
       54
 90
      100
 90
       53
 90
      100
 90
       52
 90
      101
 90
       51
 90
      101
 90
       50
 90
      102
 90
       50
 90
      103
 90
       49
 90
       97
 90
       49
 90
       76
 90
       48
 90
       76
 90
       47
 90
       77
 90
       46
 90
       77
 90
       45
 90
       84
 90
       44
 90
       84
 90
       43
 90
       85
 90
       42
 90
       85
 90
       41
 90
       75
 90
       40
 90
       75
 90
       37
 90
       40
 90
       36
 90
       75
 90
       35
 90
       57
 90
       34
 90
       58
 90
       33
 90
       59
 90
       32
 90
       60
 90
       31
 90
       61
 90
       30
 90
       62
 90
       29
 90
       63
 90
       28
 90
       64
 90
       27
 90
       65
 90
       26
 90
       65
 90
       25
 90
       66
 90
       24
 90
       66
 90
       23
 90
       67
 90
       22
 90
       68
 90
       21
 90
       69
 90
       20
 90
       70
 90
       19
 90
       71
 90
       18
 90
       72
 90
       17
 90
       73
 90
       16
 90
       74
 90
       16
 90
       89
 90
       15
 90
       90
 90
       14
 90
       80
 90
       14
 90
       81
 90
       13
 90
       81
 90
       12
 90
       81
 90
       11
 90
       83
 90
       10
 90
       83
 90
        9
 90
       83
 90
        8
 90
       78
 90
        7
 90
       78
 90
        6
 90
       78
 90
       55
 90
       92
 90
        0
 90
       95
 90
        1
 90
       88
 90
       82
 90
       92
 90
       86
 90
       92
 90
        5
 90
       79
 90
        4
 90
       87
 90
        3
 90
       88
 90
      109
 90
      110
 90
      107
 90
      108
 90
      111
 90
      114
 90
      114
 90
      115
 90
      114
 90
      116
 90
      117
 90
      119
 90
      118
 90
      119
 90
      120
 90
      121
 90
      122
 90
      124
 90
      120
 90
      123
 90
      122
 90
      126
 90
      126
 90
      127
 90
      128
 90
      129
 90
      129
 90
      130
 90
      131
 90
      133
 90
      132
 90
      133
 90
      134
 90
      136
 90
      135
 90
      136
 90
      137
 90
      139
 90
      138
 90
      139
 90
      137
 90
      140
 90
      143
 90
      145
 90
      139
 90
      144
 90
      146
 90
      147
 90
      148
 90
      149
 90
      150
 90
      151
 90
      152
 90
      153
 90
      154
 90
      155
 90
      156
 90
      157
 90
      158
 90
      159
 90
      160
 90
      161
 90
      161
 90
      162
 90
      163
 90
      164
 90
      164
 90
      165
 90
      166
 90
      167
 90
      168
 90
      169
 90
      170
 90
      171
 90
      172
 90
      173
 90
      174
 90
      175
 90
      176
 90
      177
 90
      178
 90
      179
 90
      180
 90
      181
 90
      180
 90
      182
 90
      183
 90
      184
 90
      185
 90
      186
 90
      185
 90
      187
 90
      187
 90
      188
 90
      187
 90
      189
 90
      190
 90
      191
 90
      191
 90
      192
 90
      191
 90
      193
 90
      194
 90
      196
 90
      195
 90
      196
 90
      196
 90
      197
 90
      198
 90
      201
 90
      110
 90
      202
 90
      201
 90
      206
 90
      107
 90
      205
 90
      201
 90
      207
 90
      208
 90
      209
 90
      210
 90
      211
 90
      205
 90
      212
 95
      445
140
0.0
140
0.0
140
0.0
140
0.0
140
0.0
140
0.0
140
0.0
140
0.0
140
0.0
140
0.0
140
0.0
140
0.0
140
0.0
140
0.0
140
0.0
140
0.0
140
0.0
140
0.0
140
0.0
140
0.0
140
0.0
140
0.0
140
0.0
140
0.0
140
0.0
140
0.0
140
0.0
140
0.0
140
0.0
140
0.0
140
0.0
140
0.0
140
0.0
140
0.0
140
0.0
140
0.0
140
0.0
140
0.0
140
0.0
140
0.0
140
0.0
140
0.0
140
0.0
140
0.0
140
0.0
140
0.0
140
0.0
140
0.0
140
0.0
140
0.0
140
0.0
140
0.0
140
0.0
140
0.0
140
0.0
140
0.0
140
0.0
140
0.0
140
0.0
140
0.0
140
0.0
140
0.0
140
0.0
140
0.0
140
0.0
140
0.0
140
0.0
140
0.0
140
0.0
140
0.0
140
0.0
140
0.0
140
0.0
140
0.0
140
0.0
140
0.0
140
0.0
140
0.0
140
0.0
140
0.0
140
0.0
140
0.0
140
0.0
140
0.0
140
0.0
140
0.0
140
0.0
140
0.0
140
0.0
140
0.0
140
0.0
140
0.0
140
0.0
140
0.0
140
0.0
140
0.0
140
0.0
140
0.0
140
0.0
140
0.0
140
0.0
140
0.0
140
0.0
140
0.0
140
0.0
140
0.0
140
0.0
140
0.0
140
0.0
140
0.0
140
0.0
140
0.0
140
0.0
140
0.0
140
0.0
140
0.0
140
0.0
140
0.0
140
0.0
140
0.0
140
0.0
140
0.0
140
0.0
140
0.0
140
0.0
140
0.0
140
0.0
140
0.0
140
0.0
140
0.0
140
0.0
140
0.0
140
0.0
140
0.0
140
0.0
140
0.0
140
0.0
140
0.0
140
0.0
140
0.0
140
0.0
140
0.0
140
0.0
140
0.0
140
0.0
140
0.0
140
0.0
140
0.0
140
0.0
140
0.0
140
0.0
140
0.0
140
0.0
140
0.0
140
0.0
140
0.0
140
0.0
140
0.0
140
0.0
140
0.0
140
0.0
140
0.0
140
0.0
140
0.0
140
0.0
140
0.0
140
0.0
140
0.0
140
0.0
140
0.0
140
0.0
140
0.0
140
0.0
140
0.0
140
0.0
140
0.0
140
0.0
140
0.0
140
0.0
140
0.0
140
0.0
140
0.0
140
0.0
140
0.0
140
0.0
140
0.0
140
0.0
140
0.0
140
0.0
140
0.0
140
0.0
140
0.0
140
0.0
140
0.0
140
0.0
140
0.0
140
0.0
140
0.0
140
0.0
140
0.0
140
0.0
140
0.0
140
0.0
140
0.0
140
0.0
140
0.0
140
0.0
140
0.0
140
0.0
140
0.0
140
0.0
140
0.0
140
0.0
140
0.0
140
0.0
140
0.0
140
0.0
140
0.0
140
0.0
140
0.0
140
0.0
140
0.0
140
0.0
140
0.0
140
0.0
140
0.0
140
0.0
140
0.0
140
0.0
140
0.0
140
0.0
140
0.0
140
0.0
140
0.0
140
0.0
140
0.0
140
0.0
140
0.0
140
0.0
140
0.0
140
0.0
140
0.0
140
0.0
140
0.0
140
0.0
140
0.0
140
0.0
140
0.0
140
0.0
140
0.0
140
0.0
140
0.0
140
0.0
140
0.0
140
0.0
140
0.0
140
0.0
140
0.0
140
0.0
140
0.0
140
0.0
140
0.0
140
0.0
140
0.0
140
0.0
140
0.0
140
0.0
140
0.0
140
0.0
140
0.0
140
0.0
140
0.0
140
0.0
140
0.0
140
0.0
140
0.0
140
0.0
140
0.0
140
0.0
140
0.0
140
0.0
140
0.0
140
0.0
140
0.0
140
0.0
140
0.0
140
0.0
140
0.0
140
0.0
140
0.0
140
0.0
140
0.0
140
0.0
140
0.0
140
0.0
140
0.0
140
0.0
140
0.0
140
0.0
140
0.0
140
0.0
140
0.0
140
0.0
140
0.0
140
0.0
140
0.0
140
0.0
140
0.0
140
0.0
140
0.0
140
0.0
140
0.0
140
0.0
140
0.0
140
0.0
140
0.0
140
0.0
140
0.0
140
0.0
140
0.0
140
0.0
140
0.0
140
0.0
140
0.0
140
0.0
140
0.0
140
0.0
140
0.0
140
0.0
140
0.0
140
0.0
140
0.0
140
0.0
140
0.0
140
0.0
140
0.0
140
0.0
140
0.0
140
0.0
140
0.0
140
0.0
140
0.0
140
0.0
140
0.0
140
0.0
140
0.0
140
0.0
140
0.0
140
0.0
140
0.0
140
0.0
140
0.0
140
0.0
140
0.0
140
0.0
140
0.0
140
0.0
140
0.0
140
0.0
140
0.0
140
0.0
140
0.0
140
0.0
140
0.0
140
0.0
140
0.0
140
0.0
140
0.0
140
0.0
140
0.0
140
0.0
140
0.0
140
0.0
140
0.0
140
0.0
140
0.0
140
0.0
140
0.0
140
0.0
140
0.0
140
0.0
140
0.0
140
0.0
140
0.0
140
0.0
140
0.0
140
0.0
140
0.0
140
0.0
140
0.0
140
0.0
140
0.0
140
0.0
140
0.0
140
0.0
140
0.0
140
0.0
140
0.0
140
0.0
140
0.0
140
0.0
140
0.0
140
0.0
140
0.0
140
0.0
140
0.0
140
0.0
140
0.0
140
0.0
140
0.0
140
0.0
140
0.0
140
0.0
140
0.0
140
0.0
140
0.0
140
0.0
140
0.0
140
0.0
140
0.0
140
0.0
140
0.0
140
0.0
140
0.0
140
0.0
140
0.0
140
0.0
140
0.0
140
0.0
140
0.0
140
0.0
140
0.0
140
0.0
140
0.0
140
0.0
140
0.0
140
0.0
140
0.0
140
0.0
140
0.0
140
0.0
140
0.0
140
0.0
140
0.0
140
0.0
 90
        0
  0
POLYLINE
  5
FA
330
1F
100
AcDbEntity
  8
OracDecor_cornice_mouldings
 62
   173
420
  5789921
100
AcDb3dPolyline
 66
     1
 10
0.0
 20
0.0
 30
0.0
 70
     9
  0
VERTEX
  5
FB
330
FA
100
AcDbEntity
  8
OracDecor_cornice_mouldings
 62
   173
420
  5789921
100
AcDbVertex
100
AcDb3dPolylineVertex
 10
-0.0000000000002151
 20
24.49249267578125
 30
-149.9514465332031
 70
    32
  0
VERTEX
  5
FC
330
FA
100
AcDbEntity
  8
OracDecor_cornice_mouldings
 62
   173
420
  5789921
100
AcDbVertex
100
AcDb3dPolylineVertex
 10
-0.0000000000002151
 20
24.49658203125
 30
-136.4514465332031
 70
    32
  0
VERTEX
  5
FD
330
FA
100
AcDbEntity
  8
OracDecor_cornice_mouldings
 62
   173
420
  5789921
100
AcDbVertex
100
AcDb3dPolylineVertex
 10
-0.0000000000002151
 20
29.99658203125
 30
-136.453125
 70
    32
  0
VERTEX
  5
FE
330
FA
100
AcDbEntity
  8
OracDecor_cornice_mouldings
 62
   173
420
  5789921
100
AcDbVertex
100
AcDb3dPolylineVertex
 10
-0.0000000000002151
 20
30.09128570556641
 30
-134.429931640625
 70
    32
  0
VERTEX
  5
FF
330
FA
100
AcDbEntity
  8
OracDecor_cornice_mouldings
 62
   173
420
  5789921
100
AcDbVertex
100
AcDb3dPolylineVertex
 10
-0.0000000000002151
 20
30.65086364746094
 30
-131.7040252685547
 70
    32
  0
VERTEX
  5
100
330
FA
100
AcDbEntity
  8
OracDecor_cornice_mouldings
 62
   173
420
  5789921
100
AcDbVertex
100
AcDb3dPolylineVertex
 10
-0.0000000000002151
 20
31.75335693359375
 30
-129.1362915039062
 70
    32
  0
VERTEX
  5
101
330
FA
100
AcDbEntity
  8
OracDecor_cornice_mouldings
 62
   173
420
  5789921
100
AcDbVertex
100
AcDb3dPolylineVertex
 10
-0.0000000000002151
 20
33.43343353271484
 30
-127.086929321289
 70
    32
  0
VERTEX
  5
102
330
FA
100
AcDbEntity
  8
OracDecor_cornice_mouldings
 62
   173
420
  5789921
100
AcDbVertex
100
AcDb3dPolylineVertex
 10
-0.0000000000002151
 20
35.65578460693359
 30
-125.7682876586914
 70
    32
  0
VERTEX
  5
103
330
FA
100
AcDbEntity
  8
OracDecor_cornice_mouldings
 62
   173
420
  5789921
100
AcDbVertex
100
AcDb3dPolylineVertex
 10
-0.0000000000002151
 20
38.08051300048828
 30
-124.7800674438476
 70
    32
  0
VERTEX
  5
104
330
FA
100
AcDbEntity
  8
OracDecor_cornice_mouldings
 62
   173
420
  5789921
100
AcDbVertex
100
AcDb3dPolylineVertex
 10
-0.0000000000002151
 20
40.46890258789062
 30
-123.6963653564453
 70
    32
  0
VERTEX
  5
105
330
FA
100
AcDbEntity
  8
OracDecor_cornice_mouldings
 62
   173
420
  5789921
100
AcDbVertex
100
AcDb3dPolylineVertex
 10
-0.0000000000002151
 20
42.55158996582031
 30
-122.1976623535156
 70
    32
  0
VERTEX
  5
106
330
FA
100
AcDbEntity
  8
OracDecor_cornice_mouldings
 62
   173
420
  5789921
100
AcDbVertex
100
AcDb3dPolylineVertex
 10
-0.0000000000002151
 20
44.10713958740234
 30
-120.1904678344726
 70
    32
  0
VERTEX
  5
107
330
FA
100
AcDbEntity
  8
OracDecor_cornice_mouldings
 62
   173
420
  5789921
100
AcDbVertex
100
AcDb3dPolylineVertex
 10
-0.0000000000002151
 20
45.05861663818359
 30
-117.875129699707
 70
    32
  0
VERTEX
  5
108
330
FA
100
AcDbEntity
  8
OracDecor_cornice_mouldings
 62
   173
420
  5789921
100
AcDbVertex
100
AcDb3dPolylineVertex
 10
-0.0000000000002151
 20
45.43340301513672
 30
-116.1267700195312
 70
    32
  0
VERTEX
  5
109
330
FA
100
AcDbEntity
  8
OracDecor_cornice_mouldings
 62
   173
420
  5789921
100
AcDbVertex
100
AcDb3dPolylineVertex
 10
-0.0000000000002151
 20
45.50309753417969
 30
-114.9578094482422
 70
    32
  0
VERTEX
  5
10A
330
FA
100
AcDbEntity
  8
OracDecor_cornice_mouldings
 62
   173
420
  5789921
100
AcDbVertex
100
AcDb3dPolylineVertex
 10
-0.0000000000002151
 20
53.50309753417969
 30
-114.9602355957031
 70
    32
  0
VERTEX
  5
10B
330
FA
100
AcDbEntity
  8
OracDecor_cornice_mouldings
 62
   173
420
  5789921
100
AcDbVertex
100
AcDb3dPolylineVertex
 10
-0.0000000000002151
 20
53.5059814453125
 30
-105.4602279663086
 70
    32
  0
VERTEX
  5
10C
330
FA
100
AcDbEntity
  8
OracDecor_cornice_mouldings
 62
   173
420
  5789921
100
AcDbVertex
100
AcDb3dPolylineVertex
 10
-0.0000076293936218
 20
58.27620697021484
 30
-105.3601455688476
 70
    32
  0
VERTEX
  5
10D
330
FA
100
AcDbEntity
  8
OracDecor_cornice_mouldings
 62
   173
420
  5789921
100
AcDbVertex
100
AcDb3dPolylineVertex
 10
-0.0000076293918028
 20
64.74827575683594
 30
-104.413345336914
 70
    32
  0
VERTEX
  5
10E
330
FA
100
AcDbEntity
  8
OracDecor_cornice_mouldings
 62
   173
420
  5789921
100
AcDbVertex
100
AcDb3dPolylineVertex
 10
-0.0000076293936218
 20
71.27609252929687
 30
-102.4630126953125
 70
    32
  0
VERTEX
  5
10F
330
FA
100
AcDbEntity
  8
OracDecor_cornice_mouldings
 62
   173
420
  5789921
100
AcDbVertex
100
AcDb3dPolylineVertex
 10
-0.0000076293954407
 20
77.64105987548828
 30
-99.43688964843751
 70
    32
  0
VERTEX
  5
110
330
FA
100
AcDbEntity
  8
OracDecor_cornice_mouldings
 62
   173
420
  5789921
100
AcDbVertex
100
AcDb3dPolylineVertex
 10
-0.0000076293936218
 20
83.57444763183593
 30
-95.26702117919922
 70
    32
  0
VERTEX
  5
111
330
FA
100
AcDbEntity
  8
OracDecor_cornice_mouldings
 62
   173
420
  5789921
100
AcDbVertex
100
AcDb3dPolylineVertex
 10
-0.0000076293936218
 20
88.8626251220703
 30
-89.92921447753905
 70
    32
  0
VERTEX
  5
112
330
FA
100
AcDbEntity
  8
OracDecor_cornice_mouldings
 62
   173
420
  5789921
100
AcDbVertex
100
AcDb3dPolylineVertex
 10
-0.0000076293936218
 20
93.3953857421875
 30
-83.49652099609375
 70
    32
  0
VERTEX
  5
113
330
FA
100
AcDbEntity
  8
OracDecor_cornice_mouldings
 62
   173
420
  5789921
100
AcDbVertex
100
AcDb3dPolylineVertex
 10
-0.0000076293936218
 20
97.10850524902344
 30
-76.15571594238281
 70
    32
  0
VERTEX
  5
114
330
FA
100
AcDbEntity
  8
OracDecor_cornice_mouldings
 62
   173
420
  5789921
100
AcDbVertex
100
AcDb3dPolylineVertex
 10
-0.0000076293936218
 20
99.9185791015625
 30
-68.25701141357422
 70
    32
  0
VERTEX
  5
115
330
FA
100
AcDbEntity
  8
OracDecor_cornice_mouldings
 62
   173
420
  5789921
100
AcDbVertex
100
AcDb3dPolylineVertex
 10
-0.0000076293936218
 20
102.1930694580078
 30
-60.3449478149414
 70
    32
  0
VERTEX
  5
116
330
FA
100
AcDbEntity
  8
OracDecor_cornice_mouldings
 62
   173
420
  5789921
100
AcDbVertex
100
AcDb3dPolylineVertex
 10
-0.0000076293936218
 20
104.4910354614257
 30
-52.93905639648437
 70
    32
  0
VERTEX
  5
117
330
FA
100
AcDbEntity
  8
OracDecor_cornice_mouldings
 62
   173
420
  5789921
100
AcDbVertex
100
AcDb3dPolylineVertex
 10
-0.0000076293936218
 20
107.2469329833984
 30
-46.40997695922851
 70
    32
  0
VERTEX
  5
118
330
FA
100
AcDbEntity
  8
OracDecor_cornice_mouldings
 62
   173
420
  5789921
100
AcDbVertex
100
AcDb3dPolylineVertex
 10
-0.0000076293936218
 20
110.5615921020508
 30
-40.88311767578125
 70
    32
  0
VERTEX
  5
119
330
FA
100
AcDbEntity
  8
OracDecor_cornice_mouldings
 62
   173
420
  5789921
100
AcDbVertex
100
AcDb3dPolylineVertex
 10
-0.0000076293936218
 20
114.2516326904297
 30
-36.24497985839844
 70
    32
  0
VERTEX
  5
11A
330
FA
100
AcDbEntity
  8
OracDecor_cornice_mouldings
 62
   173
420
  5789921
100
AcDbVertex
100
AcDb3dPolylineVertex
 10
-0.0000076293936218
 20
118.1577529907226
 30
-32.49670791625977
 70
    32
  0
VERTEX
  5
11B
330
FA
100
AcDbEntity
  8
OracDecor_cornice_mouldings
 62
   173
420
  5789921
100
AcDbVertex
100
AcDb3dPolylineVertex
 10
-0.0000076293936218
 20
123.1409530639648
 30
-29.09280776977539
 70
    32
  0
VERTEX
  5
11C
330
FA
100
AcDbEntity
  8
OracDecor_cornice_mouldings
 62
   173
420
  5789921
100
AcDbVertex
100
AcDb3dPolylineVertex
 10
-0.0000076293936218
 20
127.1319885253906
 30
-27.44635772705078
 70
    32
  0
VERTEX
  5
11D
330
FA
100
AcDbEntity
  8
OracDecor_cornice_mouldings
 62
   173
420
  5789921
100
AcDbVertex
100
AcDb3dPolylineVertex
 10
-0.0000076293936218
 20
131.1824035644531
 30
-26.63898849487305
 70
    32
  0
VERTEX
  5
11E
330
FA
100
AcDbEntity
  8
OracDecor_cornice_mouldings
 62
   173
420
  5789921
100
AcDbVertex
100
AcDb3dPolylineVertex
 10
-0.0000076293936218
 20
135.3450622558594
 30
-26.66638565063477
 70
    32
  0
VERTEX
  5
11F
330
FA
100
AcDbEntity
  8
OracDecor_cornice_mouldings
 62
   173
420
  5789921
100
AcDbVertex
100
AcDb3dPolylineVertex
 10
-0.0000076293954407
 20
139.5282135009765
 30
-27.46263122558594
 70
    32
  0
VERTEX
  5
120
330
FA
100
AcDbEntity
  8
OracDecor_cornice_mouldings
 62
   173
420
  5789921
100
AcDbVertex
100
AcDb3dPolylineVertex
 10
-0.0000076293936218
 20
143.5055236816406
 30
-28.93368911743164
 70
    32
  0
VERTEX
  5
121
330
FA
100
AcDbEntity
  8
OracDecor_cornice_mouldings
 62
   173
420
  5789921
100
AcDbVertex
100
AcDb3dPolylineVertex
 10
-0.0000076293954407
 20
147.0285491943359
 30
-30.98857116699219
 70
    32
  0
VERTEX
  5
122
330
FA
100
AcDbEntity
  8
OracDecor_cornice_mouldings
 62
   173
420
  5789921
100
AcDbVertex
100
AcDb3dPolylineVertex
 10
-0.0000076293972597
 20
163.5285491943359
 30
-30.99357604980469
 70
    32
  0
VERTEX
  5
123
330
FA
100
AcDbEntity
  8
OracDecor_cornice_mouldings
 62
   173
420
  5789921
100
AcDbVertex
100
AcDb3dPolylineVertex
 10
-0.0000076293972597
 20
163.5309753417969
 30
-22.99357986450195
 70
    32
  0
VERTEX
  5
124
330
FA
100
AcDbEntity
  8
OracDecor_cornice_mouldings
 62
   173
420
  5789921
100
AcDbVertex
100
AcDb3dPolylineVertex
 10
-0.0000076293918028
 20
165.7118835449218
 30
-22.90474510192871
 70
    32
  0
VERTEX
  5
125
330
FA
100
AcDbEntity
  8
OracDecor_cornice_mouldings
 62
   173
420
  5789921
100
AcDbVertex
100
AcDb3dPolylineVertex
 10
-0.0000076293936218
 20
168.5315551757812
 30
-22.42918014526367
 70
    32
  0
VERTEX
  5
126
330
FA
100
AcDbEntity
  8
OracDecor_cornice_mouldings
 62
   173
420
  5789921
100
AcDbVertex
100
AcDb3dPolylineVertex
 10
-0.0000076293972597
 20
171.2228393554687
 30
-21.526123046875
 70
    32
  0
VERTEX
  5
127
330
FA
100
AcDbEntity
  8
OracDecor_cornice_mouldings
 62
   173
420
  5789921
100
AcDbVertex
100
AcDb3dPolylineVertex
 10
-0.0000076293972597
 20
173.611831665039
 30
-20.18774604797363
 70
    32
  0
VERTEX
  5
128
330
FA
100
AcDbEntity
  8
OracDecor_cornice_mouldings
 62
   173
420
  5789921
100
AcDbVertex
100
AcDb3dPolylineVertex
 10
-0.0000076293990787
 20
175.6497650146484
 30
-18.53958320617676
 70
    32
  0
VERTEX
  5
129
330
FA
100
AcDbEntity
  8
OracDecor_cornice_mouldings
 62
   173
420
  5789921
100
AcDbVertex
100
AcDb3dPolylineVertex
 10
-0.0000076293954407
 20
177.7312927246093
 30
-16.21583747863769
 70
    32
  0
VERTEX
  5
12A
330
FA
100
AcDbEntity
  8
OracDecor_cornice_mouldings
 62
   173
420
  5789921
100
AcDbVertex
100
AcDb3dPolylineVertex
 10
-0.0000076293972597
 20
179.1019897460937
 30
-14.25801277160644
 70
    32
  0
VERTEX
  5
12B
330
FA
100
AcDbEntity
  8
OracDecor_cornice_mouldings
 62
   173
420
  5789921
100
AcDbVertex
100
AcDb3dPolylineVertex
 10
-0.0000076293954407
 20
180.6003112792969
 30
-12.50726318359375
 70
    32
  0
VERTEX
  5
12C
330
FA
100
AcDbEntity
  8
OracDecor_cornice_mouldings
 62
   173
420
  5789921
100
AcDbVertex
100
AcDb3dPolylineVertex
 10
-0.0000076293990787
 20
182.4051361083984
 30
-11.0997314453125
 70
    32
  0
VERTEX
  5
12D
330
FA
100
AcDbEntity
  8
OracDecor_cornice_mouldings
 62
   173
420
  5789921
100
AcDbVertex
100
AcDb3dPolylineVertex
 10
-0.0000076293918028
 20
184.6537628173828
 30
-10.13733863830566
 70
    32
  0
VERTEX
  5
12E
330
FA
100
AcDbEntity
  8
OracDecor_cornice_mouldings
 62
   173
420
  5789921
100
AcDbVertex
100
AcDb3dPolylineVertex
 10
-0.0000076293954407
 20
186.5936126708984
 30
-9.658229827880859
 70
    32
  0
VERTEX
  5
12F
330
FA
100
AcDbEntity
  8
OracDecor_cornice_mouldings
 62
   173
420
  5789921
100
AcDbVertex
100
AcDb3dPolylineVertex
 10
-0.0000076293954407
 20
188.6723327636719
 30
-9.327838897705078
 70
    32
  0
VERTEX
  5
130
330
FA
100
AcDbEntity
  8
OracDecor_cornice_mouldings
 62
   173
420
  5789921
100
AcDbVertex
100
AcDb3dPolylineVertex
 10
-0.0000076293954407
 20
190.817642211914
 30
-9.112756729125976
 70
    32
  0
VERTEX
  5
131
330
FA
100
AcDbEntity
  8
OracDecor_cornice_mouldings
 62
   173
420
  5789921
100
AcDbVertex
100
AcDb3dPolylineVertex
 10
-0.0000076293954407
 20
193.0352172851562
 30
-9.002517700195312
 70
    32
  0
VERTEX
  5
132
330
FA
100
AcDbEntity
  8
OracDecor_cornice_mouldings
 62
   173
420
  5789921
100
AcDbVertex
100
AcDb3dPolylineVertex
 10
-0.0000076293954407
 20
196.0352172851562
 30
-9.003427505493164
 70
    32
  0
VERTEX
  5
133
330
FA
100
AcDbEntity
  8
OracDecor_cornice_mouldings
 62
   173
420
  5789921
100
AcDbVertex
100
AcDb3dPolylineVertex
 10
-0.0000076293954407
 20
196.0379333496094
 30
-0.0034255981445313
 70
    32
  0
VERTEX
  5
134
330
FA
100
AcDbEntity
  8
OracDecor_cornice_mouldings
 62
   173
420
  5789921
100
AcDbVertex
100
AcDb3dPolylineVertex
 10
-0.0000076293954407
 20
184.767105102539
 30
-0.0000114440917969
 70
    32
  0
VERTEX
  5
135
330
FA
100
AcDbEntity
  8
OracDecor_cornice_mouldings
 62
   173
420
  5789921
100
AcDbVertex
100
AcDb3dPolylineVertex
 10
-0.0000076293972597
 20
184.3978881835937
 30
-0.6788787841796875
 70
    32
  0
VERTEX
  5
136
330
FA
100
AcDbEntity
  8
OracDecor_cornice_mouldings
 62
   173
420
  5789921
100
AcDbVertex
100
AcDb3dPolylineVertex
 10
-0.0000076293954407
 20
183.7780456542968
 30
-1.140365600585937
 70
    32
  0
VERTEX
  5
137
330
FA
100
AcDbEntity
  8
OracDecor_cornice_mouldings
 62
   173
420
  5789921
100
AcDbVertex
100
AcDb3dPolylineVertex
 10
-0.0000076293954407
 20
183.0218200683594
 30
-1.299404144287109
 70
    32
  0
VERTEX
  5
138
330
FA
100
AcDbEntity
  8
OracDecor_cornice_mouldings
 62
   173
420
  5789921
100
AcDbVertex
100
AcDb3dPolylineVertex
 10
-0.0000076293972597
 20
182.2686004638672
 30
-1.126708984375
 70
    32
  0
VERTEX
  5
139
330
FA
100
AcDbEntity
  8
OracDecor_cornice_mouldings
 62
   173
420
  5789921
100
AcDbVertex
100
AcDb3dPolylineVertex
 10
-0.0000076293954407
 20
181.6571960449218
 30
-0.6540985107421875
 70
    32
  0
VERTEX
  5
13A
330
FA
100
AcDbEntity
  8
OracDecor_cornice_mouldings
 62
   173
420
  5789921
100
AcDbVertex
100
AcDb3dPolylineVertex
 10
-0.0000076293954407
 20
181.1093597412109
 30
0.0010986328125
 70
    32
  0
VERTEX
  5
13B
330
FA
100
AcDbEntity
  8
OracDecor_cornice_mouldings
 62
   173
420
  5789921
100
AcDbVertex
100
AcDb3dPolylineVertex
 10
-0.0000076293936218
 20
173.0379333496093
 30
0.0035476684570313
 70
    32
  0
VERTEX
  5
13C
330
FA
100
AcDbEntity
  8
OracDecor_cornice_mouldings
 62
   173
420
  5789921
100
AcDbVertex
100
AcDb3dPolylineVertex
 10
-0.0000076293954407
 20
167.1506042480469
 30
-7.008401870727539
 70
    32
  0
VERTEX
  5
13D
330
FA
100
AcDbEntity
  8
OracDecor_cornice_mouldings
 62
   173
420
  5789921
100
AcDbVertex
100
AcDb3dPolylineVertex
 10
-0.0000076293954407
 20
165.27294921875
 30
-8.737968444824218
 70
    32
  0
VERTEX
  5
13E
330
FA
100
AcDbEntity
  8
OracDecor_cornice_mouldings
 62
   173
420
  5789921
100
AcDbVertex
100
AcDb3dPolylineVertex
 10
-0.0000076293972597
 20
163.0185852050781
 30
-9.935768127441406
 70
    32
  0
VERTEX
  5
13F
330
FA
100
AcDbEntity
  8
OracDecor_cornice_mouldings
 62
   173
420
  5789921
100
AcDbVertex
100
AcDb3dPolylineVertex
 10
-0.0000076293936218
 20
160.5343780517578
 30
-10.52373504638672
 70
    32
  0
VERTEX
  5
140
330
FA
100
AcDbEntity
  8
OracDecor_cornice_mouldings
 62
   173
420
  5789921
100
AcDbVertex
100
AcDb3dPolylineVertex
 10
-0.0000076293936218
 20
136.0689392089843
 30
-13.08765983581543
 70
    32
  0
VERTEX
  5
141
330
FA
100
AcDbEntity
  8
OracDecor_cornice_mouldings
 62
   173
420
  5789921
100
AcDbVertex
100
AcDb3dPolylineVertex
 10
-0.0000076293936218
 20
129.19384765625
 30
-14.3928108215332
 70
    32
  0
VERTEX
  5
142
330
FA
100
AcDbEntity
  8
OracDecor_cornice_mouldings
 62
   173
420
  5789921
100
AcDbVertex
100
AcDb3dPolylineVertex
 10
-0.0000076293936218
 20
122.1335372924804
 30
-17.07919692993164
 70
    32
  0
VERTEX
  5
143
330
FA
100
AcDbEntity
  8
OracDecor_cornice_mouldings
 62
   173
420
  5789921
100
AcDbVertex
100
AcDb3dPolylineVertex
 10
-0.0000076293936218
 20
116.8700256347656
 30
-20.08377456665039
 70
    32
  0
VERTEX
  5
144
330
FA
100
AcDbEntity
  8
OracDecor_cornice_mouldings
 62
   173
420
  5789921
100
AcDbVertex
100
AcDb3dPolylineVertex
 10
-0.0000076293936218
 20
110.2264785766601
 30
-25.22626304626465
 70
    32
  0
VERTEX
  5
145
330
FA
100
AcDbEntity
  8
OracDecor_cornice_mouldings
 62
   173
420
  5789921
100
AcDbVertex
100
AcDb3dPolylineVertex
 10
-0.0000076293936218
 20
104.3760147094726
 30
-31.54060745239258
 70
    32
  0
VERTEX
  5
146
330
FA
100
AcDbEntity
  8
OracDecor_cornice_mouldings
 62
   173
420
  5789921
100
AcDbVertex
100
AcDb3dPolylineVertex
 10
-0.0000076293936218
 20
99.46063232421876
 30
-39.0413818359375
 70
    32
  0
VERTEX
  5
147
330
FA
100
AcDbEntity
  8
OracDecor_cornice_mouldings
 62
   173
420
  5789921
100
AcDbVertex
100
AcDb3dPolylineVertex
 10
-0.0000076293936218
 20
95.52619171142579
 30
-48.08233642578125
 70
    32
  0
VERTEX
  5
148
330
FA
100
AcDbEntity
  8
OracDecor_cornice_mouldings
 62
   173
420
  5789921
100
AcDbVertex
100
AcDb3dPolylineVertex
 10
-0.0000076293954407
 20
92.51962280273437
 30
-58.05075454711914
 70
    32
  0
VERTEX
  5
149
330
FA
100
AcDbEntity
  8
OracDecor_cornice_mouldings
 62
   173
420
  5789921
100
AcDbVertex
100
AcDb3dPolylineVertex
 10
-0.0000076293954407
 20
89.67796325683593
 30
-67.29946899414063
 70
    32
  0
VERTEX
  5
14A
330
FA
100
AcDbEntity
  8
OracDecor_cornice_mouldings
 62
   173
420
  5789921
100
AcDbVertex
100
AcDb3dPolylineVertex
 10
-0.0000076293936218
 20
86.09367370605468
 30
-75.10630798339843
 70
    32
  0
VERTEX
  5
14B
330
FA
100
AcDbEntity
  8
OracDecor_cornice_mouldings
 62
   173
420
  5789921
100
AcDbVertex
100
AcDb3dPolylineVertex
 10
-0.0000076293936218
 20
81.81004333496094
 30
-81.4010772705078
 70
    32
  0
VERTEX
  5
14C
330
FA
100
AcDbEntity
  8
OracDecor_cornice_mouldings
 62
   173
420
  5789921
100
AcDbVertex
100
AcDb3dPolylineVertex
 10
-0.0000076293936218
 20
77.01683044433593
 30
-86.30207061767578
 70
    32
  0
VERTEX
  5
14D
330
FA
100
AcDbEntity
  8
OracDecor_cornice_mouldings
 62
   173
420
  5789921
100
AcDbVertex
100
AcDb3dPolylineVertex
 10
-0.0000076293936218
 20
71.76598358154297
 30
-89.94833374023437
 70
    32
  0
VERTEX
  5
14E
330
FA
100
AcDbEntity
  8
OracDecor_cornice_mouldings
 62
   173
420
  5789921
100
AcDbVertex
100
AcDb3dPolylineVertex
 10
-0.0000076293927123
 20
66.04123687744141
 30
-92.54608917236328
 70
    32
  0
VERTEX
  5
14F
330
FA
100
AcDbEntity
  8
OracDecor_cornice_mouldings
 62
   173
420
  5789921
100
AcDbVertex
100
AcDb3dPolylineVertex
 10
-0.0000076293954407
 20
59.53297424316406
 30
-94.0982894897461
 70
    32
  0
VERTEX
  5
150
330
FA
100
AcDbEntity
  8
OracDecor_cornice_mouldings
 62
   173
420
  5789921
100
AcDbVertex
100
AcDb3dPolylineVertex
 10
-0.0000076293936218
 20
53.95634460449219
 30
-94.92639160156249
 70
    32
  0
VERTEX
  5
151
330
FA
100
AcDbEntity
  8
OracDecor_cornice_mouldings
 62
   173
420
  5789921
100
AcDbVertex
100
AcDb3dPolylineVertex
 10
-0.0000076293918028
 20
49.82927703857422
 30
-95.51248168945312
 70
    32
  0
VERTEX
  5
152
330
FA
100
AcDbEntity
  8
OracDecor_cornice_mouldings
 62
   173
420
  5789921
100
AcDbVertex
100
AcDb3dPolylineVertex
 10
-0.0000000000002151
 20
47.84224700927734
 30
-96.12501525878906
 70
    32
  0
VERTEX
  5
153
330
FA
100
AcDbEntity
  8
OracDecor_cornice_mouldings
 62
   173
420
  5789921
100
AcDbVertex
100
AcDb3dPolylineVertex
 10
-0.0000000000002151
 20
46.02484893798828
 30
-97.13521575927735
 70
    32
  0
VERTEX
  5
154
330
FA
100
AcDbEntity
  8
OracDecor_cornice_mouldings
 62
   173
420
  5789921
100
AcDbVertex
100
AcDb3dPolylineVertex
 10
-0.0000000000002151
 20
44.45562744140625
 30
-98.49943542480469
 70
    32
  0
VERTEX
  5
155
330
FA
100
AcDbEntity
  8
OracDecor_cornice_mouldings
 62
   173
420
  5789921
100
AcDbVertex
100
AcDb3dPolylineVertex
 10
-0.0000000000002151
 20
35.19644927978516
 30
-108.4183349609375
 70
    32
  0
VERTEX
  5
156
330
FA
100
AcDbEntity
  8
OracDecor_cornice_mouldings
 62
   173
420
  5789921
100
AcDbVertex
100
AcDb3dPolylineVertex
 10
-0.0000000000002151
 20
33.95135498046875
 30
-109.6406173706054
 70
    32
  0
VERTEX
  5
157
330
FA
100
AcDbEntity
  8
OracDecor_cornice_mouldings
 62
   173
420
  5789921
100
AcDbVertex
100
AcDb3dPolylineVertex
 10
-0.0000000000002151
 20
32.60446929931641
 30
-110.7497253417969
 70
    32
  0
VERTEX
  5
158
330
FA
100
AcDbEntity
  8
OracDecor_cornice_mouldings
 62
   173
420
  5789921
100
AcDbVertex
100
AcDb3dPolylineVertex
 10
-0.0000000000002151
 20
12.35127258300781
 30
-125.9951019287109
 70
    32
  0
VERTEX
  5
159
330
FA
100
AcDbEntity
  8
OracDecor_cornice_mouldings
 62
   173
420
  5789921
100
AcDbVertex
100
AcDb3dPolylineVertex
 10
-0.0000000000002151
 20
11.6199951171875
 30
-126.3408050537109
 70
    32
  0
VERTEX
  5
15A
330
FA
100
AcDbEntity
  8
OracDecor_cornice_mouldings
 62
   173
420
  5789921
100
AcDbVertex
100
AcDb3dPolylineVertex
 10
-0.0000000000002151
 20
10.81161499023437
 30
-126.3686141967773
 70
    32
  0
VERTEX
  5
15B
330
FA
100
AcDbEntity
  8
OracDecor_cornice_mouldings
 62
   173
420
  5789921
100
AcDbVertex
100
AcDb3dPolylineVertex
 10
-0.0000000000002151
 20
9.93658447265625
 30
-125.9948272705078
 70
    32
  0
VERTEX
  5
15C
330
FA
100
AcDbEntity
  8
OracDecor_cornice_mouldings
 62
   173
420
  5789921
100
AcDbVertex
100
AcDb3dPolylineVertex
 10
-0.0000000000002151
 20
8.25079345703125
 30
-125.1939697265625
 70
    32
  0
VERTEX
  5
15D
330
FA
100
AcDbEntity
  8
OracDecor_cornice_mouldings
 62
   173
420
  5789921
100
AcDbVertex
100
AcDb3dPolylineVertex
 10
-0.0000000000002151
 20
6.546218872070312
 30
-124.9459915161132
 70
    32
  0
VERTEX
  5
15E
330
FA
100
AcDbEntity
  8
OracDecor_cornice_mouldings
 62
   173
420
  5789921
100
AcDbVertex
100
AcDb3dPolylineVertex
 10
-0.0000000000002151
 20
0.00006103515625
 30
-124.9440078735351
 70
    32
  0
VERTEX
  5
15F
330
FA
100
AcDbEntity
  8
OracDecor_cornice_mouldings
 62
   173
420
  5789921
100
AcDbVertex
100
AcDb3dPolylineVertex
 10
-0.0000000000002151
 20
-0.0022125244140625
 30
-132.4617767333984
 70
    32
  0
VERTEX
  5
160
330
FA
100
AcDbEntity
  8
OracDecor_cornice_mouldings
 62
   173
420
  5789921
100
AcDbVertex
100
AcDb3dPolylineVertex
 10
-0.0000000000002151
 20
1.0885009765625
 30
-134.1334686279297
 70
    32
  0
VERTEX
  5
161
330
FA
100
AcDbEntity
  8
OracDecor_cornice_mouldings
 62
   173
420
  5789921
100
AcDbVertex
100
AcDb3dPolylineVertex
 10
-0.0000000000002151
 20
1.2835693359375
 30
-134.93701171875
 70
    32
  0
VERTEX
  5
162
330
FA
100
AcDbEntity
  8
OracDecor_cornice_mouldings
 62
   173
420
  5789921
100
AcDbVertex
100
AcDb3dPolylineVertex
 10
-0.0000000000002151
 20
1.092697143554687
 30
-135.7473754882812
 70
    32
  0
VERTEX
  5
163
330
FA
100
AcDbEntity
  8
OracDecor_cornice_mouldings
 62
   173
420
  5789921
100
AcDbVertex
100
AcDb3dPolylineVertex
 10
-0.0000000000002151
 20
0.5602874755859375
 30
-136.3804321289062
 70
    32
  0
VERTEX
  5
164
330
FA
100
AcDbEntity
  8
OracDecor_cornice_mouldings
 62
   173
420
  5789921
100
AcDbVertex
100
AcDb3dPolylineVertex
 10
-0.0000000000002151
 20
-0.00347900390625
 30
-136.6731567382812
 70
    32
  0
VERTEX
  5
165
330
FA
100
AcDbEntity
  8
OracDecor_cornice_mouldings
 62
   173
420
  5789921
100
AcDbVertex
100
AcDb3dPolylineVertex
 10
-0.0000000000002151
 20
-0.00750732421875
 30
-149.9440307617187
 70
    32
  0
SEQEND
  5
166
330
FA
100
AcDbEntity
  8
OracDecor_cornice_mouldings
 62
   173
420
  5789921
  0
ENDSEC
  0
SECTION
  2
OBJECTS
  0
DICTIONARY
  5
C
330
0
100
AcDbDictionary
281
     1
  3
ACAD_COLOR
350
DC
  3
ACAD_DETAILVIEWSTYLE
350
F5
  3
ACAD_GROUP
350
D
  3
ACAD_LAYOUT
350
1A
  3
ACAD_MATERIAL
350
AA
  3
ACAD_MLEADERSTYLE
350
F1
  3
ACAD_MLINESTYLE
350
17
  3
ACAD_PLOTSETTINGS
350
19
  3
ACAD_PLOTSTYLENAME
350
E
  3
ACAD_SCALELIST
350
DF
  3
ACAD_SECTIONVIEWSTYLE
350
F3
  3
ACAD_TABLESTYLE
350
DD
  3
ACAD_VISUALSTYLE
350
C3
  3
ACDB_RECOMPOSE_DATA
350
173
  3
AcDbVariableDictionary
350
167
  0
DICTIONARY
  5
DC
102
{ACAD_REACTORS
330
C
102
}
330
C
100
AcDbDictionary
281
     1
  0
DICTIONARY
  5
F5
102
{ACAD_REACTORS
330
C
102
}
330
C
100
AcDbDictionary
281
     1
  3
Imperial24
350
F6
  0
DICTIONARY
  5
D
102
{ACAD_REACTORS
330
C
102
}
330
C
100
AcDbDictionary
281
     1
  0
DICTIONARY
  5
1A
102
{ACAD_REACTORS
330
C
102
}
330
C
100
AcDbDictionary
281
     1
  3
Layout1
350
1E
  3
Layout2
350
26
  3
Model
350
22
  0
DICTIONARY
  5
AA
102
{ACAD_REACTORS
330
C
102
}
330
C
100
AcDbDictionary
281
     1
  3
ByBlock
350
B3
  3
ByLayer
350
AB
  3
Global
350
BB
  0
DICTIONARY
  5
F1
102
{ACAD_REACTORS
330
C
102
}
330
C
100
AcDbDictionary
281
     1
  3
Standard
350
F2
  0
DICTIONARY
  5
17
102
{ACAD_REACTORS
330
C
102
}
330
C
100
AcDbDictionary
281
     1
  3
Standard
350
18
  0
DICTIONARY
  5
19
102
{ACAD_REACTORS
330
C
102
}
330
C
100
AcDbDictionary
281
     1
  0
ACDBDICTIONARYWDFLT
  5
E
102
{ACAD_REACTORS
330
C
102
}
330
C
100
AcDbDictionary
281
     1
  3
ByLayer
350
2D
  3
Normal
350
F
100
AcDbDictionaryWithDefault
340
F
  0
DICTIONARY
  5
DF
102
{ACAD_REACTORS
330
C
102
}
330
C
100
AcDbDictionary
281
     1
  3
A0
350
E0
  3
A1
350
E1
  3
A2
350
E2
  3
A3
350
E3
  3
A4
350
E4
  3
A5
350
E5
  3
A6
350
E6
  3
A7
350
E7
  3
A8
350
E8
  3
A9
350
E9
  3
B0
350
EA
  3
B1
350
EB
  3
B2
350
EC
  3
B3
350
ED
  3
B4
350
EE
  3
B5
350
EF
  3
B6
350
F0
  0
DICTIONARY
  5
F3
102
{ACAD_REACTORS
330
C
102
}
330
C
100
AcDbDictionary
281
     1
  3
Imperial24
350
F4
  0
DICTIONARY
  5
DD
102
{ACAD_REACTORS
330
C
102
}
330
C
100
AcDbDictionary
281
     1
  3
Standard
350
DE
  0
DICTIONARY
  5
C3
102
{ACAD_REACTORS
330
C
102
}
330
C
100
AcDbDictionary
281
     1
  3
2dWireframe
350
C9
  3
Basic
350
C8
  3
Brighten
350
CF
  3
ColorChange
350
D3
  3
Conceptual
350
CC
  3
Dim
350
CE
  3
EdgeColorOff
350
DB
  3
Facepattern
350
D2
  3
Flat
350
C4
  3
FlatWithEdges
350
C5
  3
Gouraud
350
C6
  3
GouraudWithEdges
350
C7
  3
Hidden
350
CB
  3
JitterOff
350
D9
  3
Linepattern
350
D1
  3
OverhangOff
350
DA
  3
Realistic
350
CD
  3
Shaded
350
D8
  3
Shaded with edges
350
D7
  3
Shades of Gray
350
D4
  3
Sketchy
350
D5
  3
Thicken
350
D0
  3
Wireframe
350
CA
  3
X-Ray
350
D6
  0
XRECORD
  5
173
102
{ACAD_REACTORS
330
C
102
}
330
C
100
AcDbXrecord
280
     1
 90
        1
330
DE
  0
DICTIONARY
  5
167
102
{ACAD_REACTORS
330
C
102
}
330
C
100
AcDbDictionary
281
     1
  3
CANNOSCALE
350
16D
  3
CMLEADERSTYLE
350
169
  3
CTABLESTYLE
350
168
  3
CVIEWDETAILSTYLE
350
16A
  3
CVIEWSECTIONSTYLE
350
16B
  3
LAYEREVAL
350
16F
  3
LAYERNOTIFY
350
170
  3
LIGHTINGUNITS
350
16E
  3
MSLTSCALE
350
16C
  0
ACDBDETAILVIEWSTYLE
  5
F6
102
{ACAD_XDICTIONARY
360
1A8
102
}
102
{ACAD_REACTORS
330
F5
102
}
330
F5
100
AcDbModelDocViewStyle
 70
     0
  3
Imperial24
290
     0
100
AcDbDetailViewStyle
 70
     0
 71
     0
 90
        3
 71
     1
340
11
 62
   256
 40
0.24
340
0
 62
   256
 40
0.24
300

 40
0.36
280
     3
 71
     2
340
16
 90
       25
 62
   256
 71
     3
340
11
 62
   256
 40
0.24
 90
        1
 40
0.75
 90
        1
300
%<\AcVar ViewType \f "%tc1">% %<\AcVar ViewDetailId>%\PSCALE %<\AcVar ViewScale \f "%sn">%
 71
     4
340
16
 90
       25
 62
   256
340
16
 90
       25
 62
   256
280
     0
  0
LAYOUT
  5
1E
102
{ACAD_REACTORS
330
1A
102
}
330
1A
100
AcDbPlotSettings
  1

  2
\\KTXNTBDC\CASF2PN1
  4

  6

 40
0.0
 41
0.0
 42
0.0
 43
0.0
 44
0.0
 45
0.0
 46
0.0
 47
0.0
 48
0.0
 49
0.0
140
0.0
141
0.0
142
1.0
143
1.0
 70
   688
 72
     0
 73
     0
 74
     5
  7

 75
    16
147
1.0
 76
     0
 77
     2
 78
   300
148
0.0
149
0.0
100
AcDbLayout
  1
Layout1
 70
     1
 71
     1
 10
0.0
 20
0.0
 11
12.0
 21
9.0
 12
0.0
 22
0.0
 32
0.0
 14
1.000000000000000E+20
 24
1.000000000000000E+20
 34
1.000000000000000E+20
 15
-1.000000000000000E+20
 25
-1.000000000000000E+20
 35
-1.000000000000000E+20
146
0.0
 13
0.0
 23
0.0
 33
0.0
 16
1.0
 26
0.0
 36
0.0
 17
0.0
 27
1.0
 37
0.0
 76
     0
330
1B
  0
LAYOUT
  5
26
102
{ACAD_REACTORS
330
1A
102
}
330
1A
100
AcDbPlotSettings
  1

  2
\\KTXNTBDC\CASF2PN1
  4

  6

 40
0.0
 41
0.0
 42
0.0
 43
0.0
 44
0.0
 45
0.0
 46
0.0
 47
0.0
 48
0.0
 49
0.0
140
0.0
141
0.0
142
1.0
143
1.0
 70
   688
 72
     0
 73
     0
 74
     5
  7

 75
    16
147
1.0
 76
     0
 77
     2
 78
   300
148
0.0
149
0.0
100
AcDbLayout
  1
Layout2
 70
     1
 71
     2
 10
0.0
 20
0.0
 11
12.0
 21
9.0
 12
0.0
 22
0.0
 32
0.0
 14
0.0
 24
0.0
 34
0.0
 15
0.0
 25
0.0
 35
0.0
146
0.0
 13
0.0
 23
0.0
 33
0.0
 16
1.0
 26
0.0
 36
0.0
 17
0.0
 27
1.0
 37
0.0
 76
     0
330
23
  0
LAYOUT
  5
22
102
{ACAD_REACTORS
330
1A
102
}
330
1A
100
AcDbPlotSettings
  1

  2
\\KTXNTBDC\CASF2PN1
  4

  6

 40
0.0
 41
0.0
 42
0.0
 43
0.0
 44
0.0
 45
0.0
 46
0.0
 47
0.0
 48
0.0
 49
0.0
140
0.0
141
0.0
142
1.0
143
1.0
 70
  1712
 72
     0
 73
     0
 74
     0
  7

 75
     0
147
1.0
 76
     0
 77
     2
 78
   300
148
0.0
149
0.0
100
AcDbLayout
  1
Model
 70
     1
 71
     0
 10
0.0
 20
0.0
 11
12.0
 21
9.0
 12
0.0
 22
0.0
 32
0.0
 14
0.0
 24
0.0
 34
0.0
 15
0.0
 25
0.0
 35
0.0
146
0.0
 13
0.0
 23
0.0
 33
0.0
 16
1.0
 26
0.0
 36
0.0
 17
0.0
 27
1.0
 37
0.0
 76
     0
330
1F
  0
MATERIAL
  5
B3
102
{ACAD_XDICTIONARY
360
B4
102
}
102
{ACAD_REACTORS
330
AA
102
}
330
AA
100
AcDbMaterial
  1
ByBlock
 72
     0
 43
0.0208333333333333
 43
0.0
 43
0.0
 43
0.0
 43
0.0
 43
0.0208333333333333
 43
0.0
 43
0.0
 43
0.0
 43
0.0
 43
1.0
 43
0.0
 43
0.0
 43
0.0
 43
0.0
 43
1.0
 77
     0
 47
0.0208333333333333
 47
0.0
 47
0.0
 47
0.0
 47
0.0
 47
0.0208333333333333
 47
0.0
 47
0.0
 47
0.0
 47
0.0
 47
1.0
 47
0.0
 47
0.0
 47
0.0
 47
0.0
 47
1.0
171
     0
 49
0.0208333333333333
 49
0.0
 49
0.0
 49
0.0
 49
0.0
 49
0.0208333333333333
 49
0.0
 49
0.0
 49
0.0
 49
0.0
 49
1.0
 49
0.0
 49
0.0
 49
0.0
 49
0.0
 49
1.0
175
     0
142
0.0208333333333333
142
0.0
142
0.0
142
0.0
142
0.0
142
0.0208333333333333
142
0.0
142
0.0
142
0.0
142
0.0
142
1.0
142
0.0
142
0.0
142
0.0
142
0.0
142
1.0
179
     0
144
0.0208333333333333
144
0.0
144
0.0
144
0.0
144
0.0
144
0.0208333333333333
144
0.0
144
0.0
144
0.0
144
0.0
144
1.0
144
0.0
144
0.0
144
0.0
144
0.0
144
1.0
147
0.0208333333333333
147
0.0
147
0.0
147
0.0
147
0.0
147
0.0208333333333333
147
0.0
147
0.0
147
0.0
147
0.0
147
1.0
147
0.0
147
0.0
147
0.0
147
0.0
147
1.0
  0
MATERIAL
  5
AB
102
{ACAD_XDICTIONARY
360
AC
102
}
102
{ACAD_REACTORS
330
AA
102
}
330
AA
100
AcDbMaterial
  1
ByLayer
 72
     0
 43
0.0208333333333333
 43
0.0
 43
0.0
 43
0.0
 43
0.0
 43
0.0208333333333333
 43
0.0
 43
0.0
 43
0.0
 43
0.0
 43
1.0
 43
0.0
 43
0.0
 43
0.0
 43
0.0
 43
1.0
 77
     0
 47
0.0208333333333333
 47
0.0
 47
0.0
 47
0.0
 47
0.0
 47
0.0208333333333333
 47
0.0
 47
0.0
 47
0.0
 47
0.0
 47
1.0
 47
0.0
 47
0.0
 47
0.0
 47
0.0
 47
1.0
171
     0
 49
0.0208333333333333
 49
0.0
 49
0.0
 49
0.0
 49
0.0
 49
0.0208333333333333
 49
0.0
 49
0.0
 49
0.0
 49
0.0
 49
1.0
 49
0.0
 49
0.0
 49
0.0
 49
0.0
 49
1.0
175
     0
142
0.0208333333333333
142
0.0
142
0.0
142
0.0
142
0.0
142
0.0208333333333333
142
0.0
142
0.0
142
0.0
142
0.0
142
1.0
142
0.0
142
0.0
142
0.0
142
0.0
142
1.0
179
     0
144
0.0208333333333333
144
0.0
144
0.0
144
0.0
144
0.0
144
0.0208333333333333
144
0.0
144
0.0
144
0.0
144
0.0
144
1.0
144
0.0
144
0.0
144
0.0
144
0.0
144
1.0
147
0.0208333333333333
147
0.0
147
0.0
147
0.0
147
0.0
147
0.0208333333333333
147
0.0
147
0.0
147
0.0
147
0.0
147
1.0
147
0.0
147
0.0
147
0.0
147
0.0
147
1.0
  0
MATERIAL
  5
BB
102
{ACAD_XDICTIONARY
360
BC
102
}
102
{ACAD_REACTORS
330
AA
102
}
330
AA
100
AcDbMaterial
  1
Global
 72
     0
 43
0.0208333333333333
 43
0.0
 43
0.0
 43
0.0
 43
0.0
 43
0.0208333333333333
 43
0.0
 43
0.0
 43
0.0
 43
0.0
 43
1.0
 43
0.0
 43
0.0
 43
0.0
 43
0.0
 43
1.0
 77
     0
 47
0.0208333333333333
 47
0.0
 47
0.0
 47
0.0
 47
0.0
 47
0.0208333333333333
 47
0.0
 47
0.0
 47
0.0
 47
0.0
 47
1.0
 47
0.0
 47
0.0
 47
0.0
 47
0.0
 47
1.0
171
     0
 49
0.0208333333333333
 49
0.0
 49
0.0
 49
0.0
 49
0.0
 49
0.0208333333333333
 49
0.0
 49
0.0
 49
0.0
 49
0.0
 49
1.0
 49
0.0
 49
0.0
 49
0.0
 49
0.0
 49
1.0
175
     0
142
0.0208333333333333
142
0.0
142
0.0
142
0.0
142
0.0
142
0.0208333333333333
142
0.0
142
0.0
142
0.0
142
0.0
142
1.0
142
0.0
142
0.0
142
0.0
142
0.0
142
1.0
179
     0
144
0.0208333333333333
144
0.0
144
0.0
144
0.0
144
0.0
144
0.0208333333333333
144
0.0
144
0.0
144
0.0
144
0.0
144
1.0
144
0.0
144
0.0
144
0.0
144
0.0
144
1.0
147
0.0208333333333333
147
0.0
147
0.0
147
0.0
147
0.0
147
0.0208333333333333
147
0.0
147
0.0
147
0.0
147
0.0
147
1.0
147
0.0
147
0.0
147
0.0
147
0.0
147
1.0
  0
MLEADERSTYLE
  5
F2
102
{ACAD_XDICTIONARY
360
1A4
102
}
102
{ACAD_REACTORS
330
F1
102
}
330
F1
100
AcDbMLeaderStyle
179
     2
170
     2
171
     1
172
     0
 90
        2
 40
0.0
 41
0.0
173
     1
 91
-1056964608
340
14
 92
       -2
290
     1
 42
0.09
291
     1
 43
0.36
  3
Standard
 44
0.18
300

342
11
174
     1
178
     6
175
     1
176
     0
 93
-1056964608
 45
0.18
292
     0
297
     0
 46
0.18
 94
-1056964608
 47
1.0
 49
1.0
140
1.0
293
     1
141
0.0
294
     1
177
     0
142
1.0
295
     0
296
     0
143
0.125
271
     0
272
     9
273
     9
  0
MLINESTYLE
  5
18
102
{ACAD_REACTORS
330
17
102
}
330
17
100
AcDbMlineStyle
  2
STANDARD
 70
     0
  3

 62
   256
 51
90.0
 52
90.0
 71
     2
 49
0.5
 62
   256
  6
BYLAYER
 49
-0.5
 62
   256
  6
BYLAYER
  0
ACDBPLACEHOLDER
  5
2D
102
{ACAD_REACTORS
330
E
102
}
330
E
  0
ACDBPLACEHOLDER
  5
F
102
{ACAD_REACTORS
330
E
102
}
330
E
  0
SCALE
  5
E0
102
{ACAD_REACTORS
330
DF
102
}
330
DF
100
AcDbScale
 70
     0
300
1:1
140
1.0
141
1.0
290
     1
  0
SCALE
  5
E1
102
{ACAD_REACTORS
330
DF
102
}
330
DF
100
AcDbScale
 70
     0
300
1/128" = 1'-0"
140
0.0078125
141
12.0
290
     0
  0
SCALE
  5
E2
102
{ACAD_REACTORS
330
DF
102
}
330
DF
100
AcDbScale
 70
     0
300
1/64" = 1'-0"
140
0.015625
141
12.0
290
     0
  0
SCALE
  5
E3
102
{ACAD_REACTORS
330
DF
102
}
330
DF
100
AcDbScale
 70
     0
300
1/32" = 1'-0"
140
0.03125
141
12.0
290
     0
  0
SCALE
  5
E4
102
{ACAD_REACTORS
330
DF
102
}
330
DF
100
AcDbScale
 70
     0
300
1/16" = 1'-0"
140
0.0625
141
12.0
290
     0
  0
SCALE
  5
E5
102
{ACAD_REACTORS
330
DF
102
}
330
DF
100
AcDbScale
 70
     0
300
3/32" = 1'-0"
140
0.09375
141
12.0
290
     0
  0
SCALE
  5
E6
102
{ACAD_REACTORS
330
DF
102
}
330
DF
100
AcDbScale
 70
     0
300
1/8" = 1'-0"
140
0.125
141
12.0
290
     0
  0
SCALE
  5
E7
102
{ACAD_REACTORS
330
DF
102
}
330
DF
100
AcDbScale
 70
     0
300
3/16" = 1'-0"
140
0.1875
141
12.0
290
     0
  0
SCALE
  5
E8
102
{ACAD_REACTORS
330
DF
102
}
330
DF
100
AcDbScale
 70
     0
300
1/4" = 1'-0"
140
0.25
141
12.0
290
     0
  0
SCALE
  5
E9
102
{ACAD_REACTORS
330
DF
102
}
330
DF
100
AcDbScale
 70
     0
300
3/8" = 1'-0"
140
0.375
141
12.0
290
     0
  0
SCALE
  5
EA
102
{ACAD_REACTORS
330
DF
102
}
330
DF
100
AcDbScale
 70
     0
300
1/2" = 1'-0"
140
0.5
141
12.0
290
     0
  0
SCALE
  5
EB
102
{ACAD_REACTORS
330
DF
102
}
330
DF
100
AcDbScale
 70
     0
300
3/4" = 1'-0"
140
0.75
141
12.0
290
     0
  0
SCALE
  5
EC
102
{ACAD_REACTORS
330
DF
102
}
330
DF
100
AcDbScale
 70
     0
300
1" = 1'-0"
140
1.0
141
12.0
290
     0
  0
SCALE
  5
ED
102
{ACAD_REACTORS
330
DF
102
}
330
DF
100
AcDbScale
 70
     0
300
1-1/2" = 1'-0"
140
1.5
141
12.0
290
     0
  0
SCALE
  5
EE
102
{ACAD_REACTORS
330
DF
102
}
330
DF
100
AcDbScale
 70
     0
300
3" = 1'-0"
140
3.0
141
12.0
290
     0
  0
SCALE
  5
EF
102
{ACAD_REACTORS
330
DF
102
}
330
DF
100
AcDbScale
 70
     0
300
6" = 1'-0"
140
6.0
141
12.0
290
     0
  0
SCALE
  5
F0
102
{ACAD_REACTORS
330
DF
102
}
330
DF
100
AcDbScale
 70
     0
300
1'-0" = 1'-0"
140
12.0
141
12.0
290
     0
  0
ACDBSECTIONVIEWSTYLE
  5
F4
102
{ACAD_XDICTIONARY
360
1A6
102
}
102
{ACAD_REACTORS
330
F3
102
}
330
F3
100
AcDbModelDocViewStyle
 70
     0
  3
Imperial24
290
     0
100
AcDbSectionViewStyle
 70
     0
 71
     0
 90
       78
 71
     1
340
11
 62
   256
 40
0.24
340
0
340
0
 62
   256
 40
0.24
300
I, O, Q, S, X, Z
 40
0.48
 90
        3
 40
0.18
 90
        1
 71
     2
340
16
 90
       25
 62
   256
340
16
 90
       50
 62
   256
 40
0.24
 40
0.0
 40
0.24
 71
     3
340
11
 62
   256
 40
0.24
 90
        1
 40
0.75
 90
        1
300
%<\AcVar ViewType \f "%tc1">% %<\AcVar ViewSectionStartId>%-%<\AcVar ViewSectionEndId>%\PSCALE %<\AcVar ViewScale \f "%sn">%
 71
     4
 62
   256
 62
   257
300
ANSI31
 40
1.0
 90
        0
290
     0
290
     0
 90
        6
 40
0.0
 40
1.570796326794896
 40
0.2617993877991494
 40
1.308996938995747
 40
-0.2617993877991494
 40
1.832595714594046
  0
TABLESTYLE
  5
DE
102
{ACAD_XDICTIONARY
360
171
102
}
102
{ACAD_REACTORS
330
DD
102
}
330
DD
100
AcDbTableStyle
280
     0
  3
Standard
 70
     0
 71
     0
 40
0.06
 41
0.06
280
     0
281
     0
  7
Standard
140
0.18
170
     2
 62
     0
 63
     7
283
     0
 90
      512
 91
        0
  1

274
    -2
284
     1
 64
     0
275
    -2
285
     1
 65
     0
276
    -2
286
     1
 66
     0
277
    -2
287
     1
 67
     0
278
    -2
288
     1
 68
     0
279
    -2
289
     1
 69
     0
  7
Standard
140
0.25
170
     5
 62
     0
 63
     7
283
     0
 90
      512
 91
        0
  1

274
    -2
284
     1
 64
     0
275
    -2
285
     1
 65
     0
276
    -2
286
     1
 66
     0
277
    -2
287
     1
 67
     0
278
    -2
288
     1
 68
     0
279
    -2
289
     1
 69
     0
  7
Standard
140
0.18
170
     5
 62
     0
 63
     7
283
     0
 90
      512
 91
        0
  1

274
    -2
284
     1
 64
     0
275
    -2
285
     1
 65
     0
276
    -2
286
     1
 66
     0
277
    -2
287
     1
 67
     0
278
    -2
288
     1
 68
     0
279
    -2
289
     1
 69
     0
  0
VISUALSTYLE
  5
C9
102
{ACAD_XDICTIONARY
360
17E
102
}
102
{ACAD_REACTORS
330
C3
102
}
330
C3
100
AcDbVisualStyle
  2
2dWireframe
 70
     4
177
     2
291
     0
 71
     0
176
     1
 72
     2
176
     1
 73
     0
176
     1
 90
        0
176
     1
 40
0.6
176
     1
 41
30.0
176
     1
 63
     7
421
 16777215
176
     1
 74
     1
176
     1
 91
        4
176
     1
 64
     7
176
     1
 65
   257
176
     1
 75
     1
176
     1
175
     1
176
     1
 42
1.0
176
     1
 92
        0
176
     1
 66
   257
176
     1
 43
1.0
176
     1
 76
     1
176
     1
 77
     6
176
     1
 78
     2
176
     1
 67
     7
176
     1
 79
     5
176
     1
170
     0
176
     1
171
     0
176
     1
290
     0
176
     1
 93
        1
176
     1
 44
0.0
176
     1
173
     0
176
     1
1001
ACAD
1000
AcDbSavedByObjectVersion
1070
     0
  0
VISUALSTYLE
  5
C8
102
{ACAD_XDICTIONARY
360
17C
102
}
102
{ACAD_REACTORS
330
C3
102
}
330
C3
100
AcDbVisualStyle
  2
Basic
 70
     7
177
     2
291
     1
 71
     1
176
     1
 72
     0
176
     1
 73
     1
176
     1
 90
        0
176
     1
 40
0.6
176
     1
 41
30.0
176
     1
 63
     7
421
 16777215
176
     1
 74
     0
176
     1
 91
        4
176
     1
 64
     7
176
     1
 65
   257
176
     1
 75
     1
176
     1
175
     1
176
     1
 42
1.0
176
     1
 92
        8
176
     1
 66
     7
176
     1
 43
1.0
176
     1
 76
     1
176
     1
 77
     6
176
     1
 78
     2
176
     1
 67
     7
176
     1
 79
     5
176
     1
170
     0
176
     1
171
     0
176
     1
290
     0
176
     1
 93
        1
176
     1
 44
0.0
176
     1
173
     0
176
     1
1001
ACAD
1000
AcDbSavedByObjectVersion
1070
     0
  0
VISUALSTYLE
  5
CF
102
{ACAD_XDICTIONARY
360
18A
102
}
102
{ACAD_REACTORS
330
C3
102
}
330
C3
100
AcDbVisualStyle
  2
Brighten
 70
    12
177
     2
291
     1
 71
     2
176
     1
 72
     2
176
     1
 73
     0
176
     1
 90
        0
176
     1
 40
0.6
176
     1
 41
30.0
176
     1
 63
     7
421
 16777215
176
     1
 74
     1
176
     1
 91
        4
176
     1
 64
     7
176
     1
 65
   257
176
     1
 75
     1
176
     1
175
     1
176
     1
 42
1.0
176
     1
 92
        8
176
     1
 66
     7
176
     1
 43
1.0
176
     1
 76
     1
176
     1
 77
     6
176
     1
 78
     2
176
     1
 67
     7
176
     1
 79
     5
176
     1
170
     0
176
     1
171
     0
176
     1
290
     0
176
     1
 93
        1
176
     1
 44
50.0
176
     1
173
     0
176
     1
1001
ACAD
1000
AcDbSavedByObjectVersion
1070
     0
  0
VISUALSTYLE
  5
D3
102
{ACAD_XDICTIONARY
360
192
102
}
102
{ACAD_REACTORS
330
C3
102
}
330
C3
100
AcDbVisualStyle
  2
ColorChange
 70
    16
177
     2
291
     1
 71
     2
176
     1
 72
     2
176
     1
 73
     3
176
     1
 90
        0
176
     1
 40
0.6
176
     1
 41
30.0
176
     1
 63
     8
421
  8421504
176
     1
 74
     1
176
     1
 91
        4
176
     1
 64
     7
176
     1
 65
   257
176
     1
 75
     1
176
     1
175
     1
176
     1
 42
1.0
176
     1
 92
        8
176
     1
 66
     8
424
  8421504
176
     1
 43
1.0
176
     1
 76
     1
176
     1
 77
     6
176
     1
 78
     2
176
     1
 67
     7
176
     1
 79
     5
176
     1
170
     0
176
     1
171
     0
176
     1
290
     0
176
     1
 93
        1
176
     1
 44
0.0
176
     1
173
     0
176
     1
1001
ACAD
1000
AcDbSavedByObjectVersion
1070
     0
  0
VISUALSTYLE
  5
CC
102
{ACAD_XDICTIONARY
360
184
102
}
102
{ACAD_REACTORS
330
C3
102
}
330
C3
100
AcDbVisualStyle
  2
Conceptual
 70
     9
177
     2
291
     0
 71
     3
176
     1
 72
     2
176
     1
 73
     0
176
     1
 90
        0
176
     1
 40
0.6
176
     1
 41
30.0
176
     1
 63
     7
421
 16777215
176
     1
 74
     2
176
     1
 91
        2
176
     1
 64
     7
176
     1
 65
   257
176
     1
 75
     1
176
     1
175
     1
176
     1
 42
179.0
176
     1
 92
        8
176
     1
 66
     7
176
     1
 43
1.0
176
     1
 76
     1
176
     1
 77
     6
176
     1
 78
     2
176
     1
 67
     7
176
     1
 79
     3
176
     1
170
     0
176
     1
171
     0
176
     1
290
     0
176
     1
 93
        1
176
     1
 44
0.0
176
     1
173
     0
176
     1
1001
ACAD
1000
AcDbSavedByObjectVersion
1070
     0
  0
VISUALSTYLE
  5
CE
102
{ACAD_XDICTIONARY
360
188
102
}
102
{ACAD_REACTORS
330
C3
102
}
330
C3
100
AcDbVisualStyle
  2
Dim
 70
    11
177
     2
291
     1
 71
     2
176
     1
 72
     2
176
     1
 73
     0
176
     1
 90
        0
176
     1
 40
0.6
176
     1
 41
30.0
176
     1
 63
     7
421
 16777215
176
     1
 74
     1
176
     1
 91
        4
176
     1
 64
     7
176
     1
 65
   257
176
     1
 75
     1
176
     1
175
     1
176
     1
 42
1.0
176
     1
 92
        8
176
     1
 66
     7
176
     1
 43
1.0
176
     1
 76
     1
176
     1
 77
     6
176
     1
 78
     2
176
     1
 67
     7
176
     1
 79
     5
176
     1
170
     0
176
     1
171
     0
176
     1
290
     0
176
     1
 93
        1
176
     1
 44
-50.0
176
     1
173
     0
176
     1
1001
ACAD
1000
AcDbSavedByObjectVersion
1070
     0
  0
VISUALSTYLE
  5
DB
102
{ACAD_XDICTIONARY
360
1A2
102
}
102
{ACAD_REACTORS
330
C3
102
}
330
C3
100
AcDbVisualStyle
  2
EdgeColorOff
 70
    22
177
     2
291
     1
 71
     2
176
     0
 72
     2
176
     0
 73
     0
176
     0
 90
        0
176
     0
 40
0.6
176
     0
 41
30.0
176
     0
 63
     7
421
 16777215
176
     0
 74
     1
176
     0
 91
        4
176
     0
 64
     7
176
     0
 65
   257
176
     0
 75
     1
176
     0
175
     1
176
     0
 42
1.0
176
     0
 92
        8
176
     2
 66
     7
176
     0
 43
1.0
176
     0
 76
     1
176
     0
 77
     6
176
     0
 78
     2
176
     0
 67
     7
176
     0
 79
     5
176
     0
170
     0
176
     0
171
     0
176
     0
290
     0
176
     0
 93
        1
176
     0
 44
0.0
176
     0
173
     0
176
     0
1001
ACAD
1000
AcDbSavedByObjectVersion
1070
     0
  0
VISUALSTYLE
  5
D2
102
{ACAD_XDICTIONARY
360
190
102
}
102
{ACAD_REACTORS
330
C3
102
}
330
C3
100
AcDbVisualStyle
  2
Facepattern
 70
    15
177
     2
291
     1
 71
     2
176
     1
 72
     2
176
     1
 73
     0
176
     1
 90
        0
176
     1
 40
0.6
176
     1
 41
30.0
176
     1
 63
     7
421
 16777215
176
     1
 74
     1
176
     1
 91
        4
176
     1
 64
     7
176
     1
 65
   257
176
     1
 75
     1
176
     1
175
     1
176
     1
 42
1.0
176
     1
 92
        8
176
     1
 66
     7
176
     1
 43
1.0
176
     1
 76
     1
176
     1
 77
     6
176
     1
 78
     2
176
     1
 67
     7
176
     1
 79
     5
176
     1
170
     0
176
     1
171
     0
176
     1
290
     0
176
     1
 93
        1
176
     1
 44
0.0
176
     1
173
     0
176
     1
1001
ACAD
1000
AcDbSavedByObjectVersion
1070
     0
  0
VISUALSTYLE
  5
C4
102
{ACAD_XDICTIONARY
360
174
102
}
102
{ACAD_REACTORS
330
C3
102
}
330
C3
100
AcDbVisualStyle
  2
Flat
 70
     0
177
     2
291
     1
 71
     2
176
     1
 72
     1
176
     1
 73
     1
176
     1
 90
        2
176
     1
 40
0.6
176
     1
 41
30.0
176
     1
 63
     7
421
 16777215
176
     1
 74
     0
176
     1
 91
        0
176
     1
 64
     7
176
     1
 65
   257
176
     1
 75
     1
176
     1
175
     1
176
     1
 42
1.0
176
     1
 92
        8
176
     1
 66
     7
176
     1
 43
1.0
176
     1
 76
     1
176
     1
 77
     6
176
     1
 78
     2
176
     1
 67
     7
176
     1
 79
     5
176
     1
170
     0
176
     1
171
     0
176
     1
290
     0
176
     1
 93
       13
176
     1
 44
0.0
176
     1
173
     0
176
     1
1001
ACAD
1000
AcDbSavedByObjectVersion
1070
     0
  0
VISUALSTYLE
  5
C5
102
{ACAD_XDICTIONARY
360
176
102
}
102
{ACAD_REACTORS
330
C3
102
}
330
C3
100
AcDbVisualStyle
  2
FlatWithEdges
 70
     1
177
     2
291
     1
 71
     2
176
     1
 72
     1
176
     1
 73
     1
176
     1
 90
        2
176
     1
 40
0.6
176
     1
 41
30.0
176
     1
 63
     7
421
 16777215
176
     1
 74
     1
176
     1
 91
        0
176
     1
 64
     7
176
     1
 65
   257
176
     1
 75
     1
176
     1
175
     1
176
     1
 42
1.0
176
     1
 92
        0
176
     1
 66
   257
176
     1
 43
1.0
176
     1
 76
     1
176
     1
 77
     6
176
     1
 78
     2
176
     1
 67
     7
176
     1
 79
     5
176
     1
170
     0
176
     1
171
     0
176
     1
290
     0
176
     1
 93
       13
176
     1
 44
0.0
176
     1
173
     0
176
     1
1001
ACAD
1000
AcDbSavedByObjectVersion
1070
     0
  0
VISUALSTYLE
  5
C6
102
{ACAD_XDICTIONARY
360
178
102
}
102
{ACAD_REACTORS
330
C3
102
}
330
C3
100
AcDbVisualStyle
  2
Gouraud
 70
     2
177
     2
291
     1
 71
     2
176
     1
 72
     2
176
     1
 73
     1
176
     1
 90
        2
176
     1
 40
0.6
176
     1
 41
30.0
176
     1
 63
     7
421
 16777215
176
     1
 74
     0
176
     1
 91
        0
176
     1
 64
     7
176
     1
 65
   257
176
     1
 75
     1
176
     1
175
     1
176
     1
 42
1.0
176
     1
 92
        0
176
     1
 66
     7
176
     1
 43
1.0
176
     1
 76
     1
176
     1
 77
     6
176
     1
 78
     2
176
     1
 67
     7
176
     1
 79
     5
176
     1
170
     0
176
     1
171
     0
176
     1
290
     0
176
     1
 93
       13
176
     1
 44
0.0
176
     1
173
     0
176
     1
1001
ACAD
1000
AcDbSavedByObjectVersion
1070
     0
  0
VISUALSTYLE
  5
C7
102
{ACAD_XDICTIONARY
360
17A
102
}
102
{ACAD_REACTORS
330
C3
102
}
330
C3
100
AcDbVisualStyle
  2
GouraudWithEdges
 70
     3
177
     2
291
     1
 71
     2
176
     1
 72
     2
176
     1
 73
     1
176
     1
 90
        2
176
     1
 40
0.6
176
     1
 41
30.0
176
     1
 63
     7
421
 16777215
176
     1
 74
     1
176
     1
 91
        0
176
     1
 64
     7
176
     1
 65
   257
176
     1
 75
     1
176
     1
175
     1
176
     1
 42
1.0
176
     1
 92
        0
176
     1
 66
   257
176
     1
 43
1.0
176
     1
 76
     1
176
     1
 77
     6
176
     1
 78
     2
176
     1
 67
     7
176
     1
 79
     5
176
     1
170
     0
176
     1
171
     0
176
     1
290
     0
176
     1
 93
       13
176
     1
 44
0.0
176
     1
173
     0
176
     1
1001
ACAD
1000
AcDbSavedByObjectVersion
1070
     0
  0
VISUALSTYLE
  5
CB
102
{ACAD_XDICTIONARY
360
182
102
}
102
{ACAD_REACTORS
330
C3
102
}
330
C3
100
AcDbVisualStyle
  2
Hidden
 70
     6
177
     2
291
     0
 71
     1
176
     1
 72
     2
176
     1
 73
     2
176
     1
 90
        0
176
     1
 40
0.6
176
     1
 41
30.0
176
     1
 63
     7
421
 16777215
176
     1
 74
     2
176
     1
 91
        2
176
     1
 64
     7
176
     1
 65
   257
176
     1
 75
     2
176
     1
175
     1
176
     1
 42
40.0
176
     1
 92
        0
176
     1
 66
   257
176
     1
 43
1.0
176
     1
 76
     1
176
     1
 77
     6
176
     1
 78
     2
176
     1
 67
     7
176
     1
 79
     3
176
     1
170
     0
176
     1
171
     0
176
     1
290
     0
176
     1
 93
        1
176
     1
 44
0.0
176
     1
173
     0
176
     1
1001
ACAD
1000
AcDbSavedByObjectVersion
1070
     0
  0
VISUALSTYLE
  5
D9
102
{ACAD_XDICTIONARY
360
19E
102
}
102
{ACAD_REACTORS
330
C3
102
}
330
C3
100
AcDbVisualStyle
  2
JitterOff
 70
    20
177
     2
291
     1
 71
     2
176
     0
 72
     2
176
     0
 73
     0
176
     0
 90
        0
176
     0
 40
0.6
176
     0
 41
30.0
176
     0
 63
     7
421
 16777215
176
     0
 74
     1
176
     0
 91
        4
176
     0
 64
     7
176
     0
 65
   257
176
     0
 75
     1
176
     0
175
     1
176
     0
 42
1.0
176
     0
 92
       10
176
     2
 66
     7
176
     0
 43
1.0
176
     0
 76
     1
176
     0
 77
     6
176
     0
 78
     2
176
     0
 67
     7
176
     0
 79
     5
176
     0
170
     0
176
     0
171
     0
176
     0
290
     0
176
     0
 93
        1
176
     0
 44
0.0
176
     0
173
     0
176
     0
1001
ACAD
1000
AcDbSavedByObjectVersion
1070
     0
  0
VISUALSTYLE
  5
D1
102
{ACAD_XDICTIONARY
360
18E
102
}
102
{ACAD_REACTORS
330
C3
102
}
330
C3
100
AcDbVisualStyle
  2
Linepattern
 70
    14
177
     2
291
     1
 71
     2
176
     1
 72
     2
176
     1
 73
     0
176
     1
 90
        0
176
     1
 40
0.6
176
     1
 41
30.0
176
     1
 63
     7
421
 16777215
176
     1
 74
     1
176
     1
 91
        4
176
     1
 64
     7
176
     1
 65
   257
176
     1
 75
     7
176
     1
175
     7
176
     1
 42
1.0
176
     1
 92
        8
176
     1
 66
     7
176
     1
 43
1.0
176
     1
 76
     1
176
     1
 77
     6
176
     1
 78
     2
176
     1
 67
     7
176
     1
 79
     5
176
     1
170
     0
176
     1
171
     0
176
     1
290
     0
176
     1
 93
        1
176
     1
 44
0.0
176
     1
173
     0
176
     1
1001
ACAD
1000
AcDbSavedByObjectVersion
1070
     0
  0
VISUALSTYLE
  5
DA
102
{ACAD_XDICTIONARY
360
1A0
102
}
102
{ACAD_REACTORS
330
C3
102
}
330
C3
100
AcDbVisualStyle
  2
OverhangOff
 70
    21
177
     2
291
     1
 71
     2
176
     0
 72
     2
176
     0
 73
     0
176
     0
 90
        0
176
     0
 40
0.6
176
     0
 41
30.0
176
     0
 63
     7
421
 16777215
176
     0
 74
     1
176
     0
 91
        4
176
     0
 64
     7
176
     0
 65
   257
176
     0
 75
     1
176
     0
175
     1
176
     0
 42
1.0
176
     0
 92
        9
176
     2
 66
     7
176
     0
 43
1.0
176
     0
 76
     1
176
     0
 77
     6
176
     0
 78
     2
176
     0
 67
     7
176
     0
 79
     5
176
     0
170
     0
176
     0
171
     0
176
     0
290
     0
176
     0
 93
        1
176
     0
 44
0.0
176
     0
173
     0
176
     0
1001
ACAD
1000
AcDbSavedByObjectVersion
1070
     0
  0
VISUALSTYLE
  5
CD
102
{ACAD_XDICTIONARY
360
186
102
}
102
{ACAD_REACTORS
330
C3
102
}
330
C3
100
AcDbVisualStyle
  2
Realistic
 70
     8
177
     2
291
     0
 71
     2
176
     1
 72
     3
176
     1
 73
     0
176
     1
 90
        2
176
     1
 40
0.6
176
     1
 41
30.0
176
     1
 63
     7
421
 16777215
176
     1
 74
     0
176
     1
 91
        0
176
     1
 64
     7
176
     1
 65
   257
176
     1
 75
     1
176
     1
175
     1
176
     1
 42
1.0
176
     1
 92
        8
176
     1
 66
   257
176
     1
 43
1.0
176
     1
 76
     1
176
     1
 77
     6
176
     1
 78
     2
176
     1
 67
     7
176
     1
 79
     3
176
     1
170
     0
176
     1
171
     0
176
     1
290
     0
176
     1
 93
       13
176
     1
 44
0.0
176
     1
173
     0
176
     1
1001
ACAD
1000
AcDbSavedByObjectVersion
1070
     0
  0
VISUALSTYLE
  5
D8
102
{ACAD_XDICTIONARY
360
19C
102
}
102
{ACAD_REACTORS
330
C3
102
}
330
C3
100
AcDbVisualStyle
  2
Shaded
 70
    27
177
     2
291
     0
 71
     2
176
     1
 72
     2
176
     1
 73
     1
176
     1
 90
        2
176
     1
 40
0.6
176
     1
 41
30.0
176
     1
 63
     7
421
 16777215
176
     1
 74
     0
176
     1
 91
        4
176
     1
 64
     7
176
     1
 65
   257
176
     1
 75
     1
176
     1
175
     1
176
     1
 42
1.0
176
     1
 92
        8
176
     1
 66
   257
176
     1
 43
1.0
176
     1
 76
     1
176
     1
 77
     6
176
     1
 78
     2
176
     1
 67
     8
425
  7895160
176
     1
 79
     3
176
     1
170
     0
176
     1
171
     0
176
     1
290
     0
176
     1
 93
        5
176
     1
 44
0.0
176
     1
173
     0
176
     1
1001
ACAD
1000
AcDbSavedByObjectVersion
1070
     0
  0
VISUALSTYLE
  5
D7
102
{ACAD_XDICTIONARY
360
19A
102
}
102
{ACAD_REACTORS
330
C3
102
}
330
C3
100
AcDbVisualStyle
  2
Shaded with edges
 70
    26
177
     2
291
     0
 71
     2
176
     1
 72
     2
176
     1
 73
     1
176
     1
 90
        2
176
     1
 40
0.6
176
     1
 41
30.0
176
     1
 63
     7
421
 16777215
176
     1
 74
     1
176
     1
 91
       10
176
     1
 64
     7
176
     1
 65
   257
176
     1
 75
     2
176
     1
175
     1
176
     1
 42
1.0
176
     1
 92
        8
176
     1
 66
   257
176
     1
 43
1.0
176
     1
 76
     1
176
     1
 77
     6
176
     1
 78
     2
176
     1
 67
     7
176
     1
 79
     3
176
     1
170
     0
176
     1
171
     0
176
     1
290
     0
176
     1
 93
        5
176
     1
 44
0.0
176
     1
173
     0
176
     1
1001
ACAD
1000
AcDbSavedByObjectVersion
1070
     0
  0
VISUALSTYLE
  5
D4
102
{ACAD_XDICTIONARY
360
194
102
}
102
{ACAD_REACTORS
330
C3
102
}
330
C3
100
AcDbVisualStyle
  2
Shades of Gray
 70
    23
177
     2
291
     0
 71
     2
176
     1
 72
     2
176
     1
 73
     3
176
     1
 90
        0
176
     1
 40
0.6
176
     1
 41
30.0
176
     1
 63
     7
421
 16777215
176
     1
 74
     2
176
     1
 91
        2
176
     1
 64
     7
176
     1
 65
     7
176
     1
 75
     1
176
     1
175
     1
176
     1
 42
40.0
176
     1
 92
        8
176
     1
 66
     7
176
     1
 43
1.0
176
     1
 76
     1
176
     1
 77
     6
176
     1
 78
     2
176
     1
 67
     7
176
     1
 79
     3
176
     1
170
     0
176
     1
171
     0
176
     1
290
     0
176
     1
 93
        1
176
     1
 44
0.0
176
     1
173
     0
176
     1
1001
ACAD
1000
AcDbSavedByObjectVersion
1070
     0
  0
VISUALSTYLE
  5
D5
102
{ACAD_XDICTIONARY
360
196
102
}
102
{ACAD_REACTORS
330
C3
102
}
330
C3
100
AcDbVisualStyle
  2
Sketchy
 70
    24
177
     2
291
     0
 71
     1
176
     1
 72
     2
176
     1
 73
     2
176
     1
 90
        0
176
     1
 40
0.6
176
     1
 41
30.0
176
     1
 63
     7
421
 16777215
176
     1
 74
     2
176
     1
 91
        2
176
     1
 64
     7
176
     1
 65
     7
176
     1
 75
     1
176
     1
175
     1
176
     1
 42
40.0
176
     1
 92
       11
176
     1
 66
     7
176
     1
 43
1.0
176
     1
 76
     1
176
     1
 77
     6
176
     1
 78
     2
176
     1
 67
     7
176
     1
 79
     6
176
     1
170
     0
176
     1
171
     0
176
     1
290
     0
176
     1
 93
        1
176
     1
 44
0.0
176
     1
173
     0
176
     1
1001
ACAD
1000
AcDbSavedByObjectVersion
1070
     0
  0
VISUALSTYLE
  5
D0
102
{ACAD_XDICTIONARY
360
18C
102
}
102
{ACAD_REACTORS
330
C3
102
}
330
C3
100
AcDbVisualStyle
  2
Thicken
 70
    13
177
     2
291
     1
 71
     2
176
     1
 72
     2
176
     1
 73
     0
176
     1
 90
        0
176
     1
 40
0.6
176
     1
 41
30.0
176
     1
 63
     7
421
 16777215
176
     1
 74
     1
176
     1
 91
        4
176
     1
 64
     7
176
     1
 65
   257
176
     1
 75
     1
176
     1
175
     1
176
     1
 42
1.0
176
     1
 92
       12
176
     1
 66
     7
176
     1
 43
1.0
176
     1
 76
     1
176
     1
 77
     6
176
     1
 78
     2
176
     1
 67
     7
176
     1
 79
     5
176
     1
170
     0
176
     1
171
     0
176
     1
290
     0
176
     1
 93
        1
176
     1
 44
0.0
176
     1
173
     0
176
     1
1001
ACAD
1000
AcDbSavedByObjectVersion
1070
     0
  0
VISUALSTYLE
  5
CA
102
{ACAD_XDICTIONARY
360
180
102
}
102
{ACAD_REACTORS
330
C3
102
}
330
C3
100
AcDbVisualStyle
  2
Wireframe
 70
     5
177
     2
291
     0
 71
     0
176
     1
 72
     2
176
     1
 73
     0
176
     1
 90
        0
176
     1
 40
0.6
176
     1
 41
30.0
176
     1
 63
     7
421
 16777215
176
     1
 74
     1
176
     1
 91
        4
176
     1
 64
     7
176
     1
 65
   257
176
     1
 75
     1
176
     1
175
     1
176
     1
 42
1.0
176
     1
 92
        0
176
     1
 66
   257
176
     1
 43
1.0
176
     1
 76
     1
176
     1
 77
     6
176
     1
 78
     2
176
     1
 67
     7
176
     1
 79
     3
176
     1
170
     0
176
     1
171
     0
176
     1
290
     0
176
     1
 93
        1
176
     1
 44
0.0
176
     1
173
     0
176
     1
1001
ACAD
1000
AcDbSavedByObjectVersion
1070
     0
  0
VISUALSTYLE
  5
D6
102
{ACAD_XDICTIONARY
360
198
102
}
102
{ACAD_REACTORS
330
C3
102
}
330
C3
100
AcDbVisualStyle
  2
X-Ray
 70
    25
177
     2
291
     0
 71
     2
176
     1
 72
     2
176
     1
 73
     1
176
     1
 90
        1
176
     1
 40
0.5
176
     1
 41
30.0
176
     1
 63
     7
421
 16777215
176
     1
 74
     1
176
     1
 91
        0
176
     1
 64
     7
176
     1
 65
   257
176
     1
 75
     1
176
     1
175
     1
176
     1
 42
1.0
176
     1
 92
        8
176
     1
 66
     7
176
     1
 43
1.0
176
     1
 76
     1
176
     1
 77
     6
176
     1
 78
     2
176
     1
 67
     7
176
     1
 79
     3
176
     1
170
     0
176
     1
171
     0
176
     1
290
     0
176
     1
 93
       13
176
     1
 44
0.0
176
     1
173
     0
176
     1
1001
ACAD
1000
AcDbSavedByObjectVersion
1070
     0
  0
DICTIONARYVAR
  5
16D
102
{ACAD_REACTORS
330
167
102
}
330
167
100
DictionaryVariables
280
     0
  1
1:1
  0
DICTIONARYVAR
  5
169
102
{ACAD_REACTORS
330
167
102
}
330
167
100
DictionaryVariables
280
     0
  1
STANDARD
  0
DICTIONARYVAR
  5
168
102
{ACAD_REACTORS
330
167
102
}
330
167
100
DictionaryVariables
280
     0
  1
STANDARD
  0
DICTIONARYVAR
  5
16A
102
{ACAD_REACTORS
330
167
102
}
330
167
100
DictionaryVariables
280
     0
  1
Imperial24
  0
DICTIONARYVAR
  5
16B
102
{ACAD_REACTORS
330
167
102
}
330
167
100
DictionaryVariables
280
     0
  1
Imperial24
  0
DICTIONARYVAR
  5
16F
102
{ACAD_REACTORS
330
167
102
}
330
167
100
DictionaryVariables
280
     0
  1
1
  0
DICTIONARYVAR
  5
170
102
{ACAD_REACTORS
330
167
102
}
330
167
100
DictionaryVariables
280
     0
  1
15
  0
DICTIONARYVAR
  5
16E
102
{ACAD_REACTORS
330
167
102
}
330
167
100
DictionaryVariables
280
     0
  1
0
  0
DICTIONARYVAR
  5
16C
102
{ACAD_REACTORS
330
167
102
}
330
167
100
DictionaryVariables
280
     0
  1
0
  0
DICTIONARY
  5
1A8
330
F6
100
AcDbDictionary
280
     1
281
     1
  3
ACAD_XREC_ROUNDTRIP
360
1A9
  0
DICTIONARY
  5
B4
330
B3
100
AcDbDictionary
280
     1
281
     1
  3
BUMPTILE
360
B6
  3
DIFFUSETILE
360
B5
  3
OPACITYTILE
360
B9
  3
REFLECTIONTILE
360
B8
  3
REFRACTIONTILE
360
BA
  3
SPECULARTILE
360
B7
  0
DICTIONARY
  5
AC
330
AB
100
AcDbDictionary
280
     1
281
     1
  3
BUMPTILE
360
AE
  3
DIFFUSETILE
360
AD
  3
OPACITYTILE
360
B1
  3
REFLECTIONTILE
360
B0
  3
REFRACTIONTILE
360
B2
  3
SPECULARTILE
360
AF
  0
DICTIONARY
  5
BC
330
BB
100
AcDbDictionary
280
     1
281
     1
  3
BUMPTILE
360
BE
  3
DIFFUSETILE
360
BD
  3
OPACITYTILE
360
C1
  3
REFLECTIONTILE
360
C0
  3
REFRACTIONTILE
360
C2
  3
SPECULARTILE
360
BF
  0
DICTIONARY
  5
1A4
330
F2
100
AcDbDictionary
280
     1
281
     1
  3
ACAD_XREC_ROUNDTRIP
360
1A5
  0
DICTIONARY
  5
1A6
330
F4
100
AcDbDictionary
280
     1
281
     1
  3
ACAD_XREC_ROUNDTRIP
360
1A7
  0
DICTIONARY
  5
171
330
DE
100
AcDbDictionary
280
     1
281
     1
  3
ACAD_ROUNDTRIP_2008_TABLESTYLE_CELLSTYLEMAP
360
172
  0
DICTIONARY
  5
17E
330
C9
100
AcDbDictionary
280
     1
281
     1
  3
ACAD_XREC_ROUNDTRIP
360
17F
  0
DICTIONARY
  5
17C
330
C8
100
AcDbDictionary
280
     1
281
     1
  3
ACAD_XREC_ROUNDTRIP
360
17D
  0
DICTIONARY
  5
18A
330
CF
100
AcDbDictionary
280
     1
281
     1
  3
ACAD_XREC_ROUNDTRIP
360
18B
  0
DICTIONARY
  5
192
330
D3
100
AcDbDictionary
280
     1
281
     1
  3
ACAD_XREC_ROUNDTRIP
360
193
  0
DICTIONARY
  5
184
330
CC
100
AcDbDictionary
280
     1
281
     1
  3
ACAD_XREC_ROUNDTRIP
360
185
  0
DICTIONARY
  5
188
330
CE
100
AcDbDictionary
280
     1
281
     1
  3
ACAD_XREC_ROUNDTRIP
360
189
  0
DICTIONARY
  5
1A2
330
DB
100
AcDbDictionary
280
     1
281
     1
  3
ACAD_XREC_ROUNDTRIP
360
1A3
  0
DICTIONARY
  5
190
330
D2
100
AcDbDictionary
280
     1
281
     1
  3
ACAD_XREC_ROUNDTRIP
360
191
  0
DICTIONARY
  5
174
330
C4
100
AcDbDictionary
280
     1
281
     1
  3
ACAD_XREC_ROUNDTRIP
360
175
  0
DICTIONARY
  5
176
330
C5
100
AcDbDictionary
280
     1
281
     1
  3
ACAD_XREC_ROUNDTRIP
360
177
  0
DICTIONARY
  5
178
330
C6
100
AcDbDictionary
280
     1
281
     1
  3
ACAD_XREC_ROUNDTRIP
360
179
  0
DICTIONARY
  5
17A
330
C7
100
AcDbDictionary
280
     1
281
     1
  3
ACAD_XREC_ROUNDTRIP
360
17B
  0
DICTIONARY
  5
182
330
CB
100
AcDbDictionary
280
     1
281
     1
  3
ACAD_XREC_ROUNDTRIP
360
183
  0
DICTIONARY
  5
19E
330
D9
100
AcDbDictionary
280
     1
281
     1
  3
ACAD_XREC_ROUNDTRIP
360
19F
  0
DICTIONARY
  5
18E
330
D1
100
AcDbDictionary
280
     1
281
     1
  3
ACAD_XREC_ROUNDTRIP
360
18F
  0
DICTIONARY
  5
1A0
330
DA
100
AcDbDictionary
280
     1
281
     1
  3
ACAD_XREC_ROUNDTRIP
360
1A1
  0
DICTIONARY
  5
186
330
CD
100
AcDbDictionary
280
     1
281
     1
  3
ACAD_XREC_ROUNDTRIP
360
187
  0
DICTIONARY
  5
19C
330
D8
100
AcDbDictionary
280
     1
281
     1
  3
ACAD_XREC_ROUNDTRIP
360
19D
  0
DICTIONARY
  5
19A
330
D7
100
AcDbDictionary
280
     1
281
     1
  3
ACAD_XREC_ROUNDTRIP
360
19B
  0
DICTIONARY
  5
194
330
D4
100
AcDbDictionary
280
     1
281
     1
  3
ACAD_XREC_ROUNDTRIP
360
195
  0
DICTIONARY
  5
196
330
D5
100
AcDbDictionary
280
     1
281
     1
  3
ACAD_XREC_ROUNDTRIP
360
197
  0
DICTIONARY
  5
18C
330
D0
100
AcDbDictionary
280
     1
281
     1
  3
ACAD_XREC_ROUNDTRIP
360
18D
  0
DICTIONARY
  5
180
330
CA
100
AcDbDictionary
280
     1
281
     1
  3
ACAD_XREC_ROUNDTRIP
360
181
  0
DICTIONARY
  5
198
330
D6
100
AcDbDictionary
280
     1
281
     1
  3
ACAD_XREC_ROUNDTRIP
360
199
  0
XRECORD
  5
1A9
102
{ACAD_REACTORS
330
1A8
102
}
330
1A8
100
AcDbXrecord
280
     1
102
DISPLAYNAME
  1
Imperial24
102
FLAGS
 90
        0
  0
XRECORD
  5
B6
102
{ACAD_REACTORS
330
B4
102
}
330
B4
100
AcDbXrecord
280
     1
270
     1
271
     1
  0
XRECORD
  5
B5
102
{ACAD_REACTORS
330
B4
102
}
330
B4
100
AcDbXrecord
280
     1
270
     1
271
     1
  0
XRECORD
  5
B9
102
{ACAD_REACTORS
330
B4
102
}
330
B4
100
AcDbXrecord
280
     1
270
     1
271
     1
  0
XRECORD
  5
B8
102
{ACAD_REACTORS
330
B4
102
}
330
B4
100
AcDbXrecord
280
     1
270
     1
271
     1
  0
XRECORD
  5
BA
102
{ACAD_REACTORS
330
B4
102
}
330
B4
100
AcDbXrecord
280
     1
270
     1
271
     1
  0
XRECORD
  5
B7
102
{ACAD_REACTORS
330
B4
102
}
330
B4
100
AcDbXrecord
280
     1
270
     1
271
     1
  0
XRECORD
  5
AE
102
{ACAD_REACTORS
330
AC
102
}
330
AC
100
AcDbXrecord
280
     1
270
     1
271
     1
  0
XRECORD
  5
AD
102
{ACAD_REACTORS
330
AC
102
}
330
AC
100
AcDbXrecord
280
     1
270
     1
271
     1
  0
XRECORD
  5
B1
102
{ACAD_REACTORS
330
AC
102
}
330
AC
100
AcDbXrecord
280
     1
270
     1
271
     1
  0
XRECORD
  5
B0
102
{ACAD_REACTORS
330
AC
102
}
330
AC
100
AcDbXrecord
280
     1
270
     1
271
     1
  0
XRECORD
  5
B2
102
{ACAD_REACTORS
330
AC
102
}
330
AC
100
AcDbXrecord
280
     1
270
     1
271
     1
  0
XRECORD
  5
AF
102
{ACAD_REACTORS
330
AC
102
}
330
AC
100
AcDbXrecord
280
     1
270
     1
271
     1
  0
XRECORD
  5
BE
102
{ACAD_REACTORS
330
BC
102
}
330
BC
100
AcDbXrecord
280
     1
270
     1
271
     1
  0
XRECORD
  5
BD
102
{ACAD_REACTORS
330
BC
102
}
330
BC
100
AcDbXrecord
280
     1
270
     1
271
     1
  0
XRECORD
  5
C1
102
{ACAD_REACTORS
330
BC
102
}
330
BC
100
AcDbXrecord
280
     1
270
     1
271
     1
  0
XRECORD
  5
C0
102
{ACAD_REACTORS
330
BC
102
}
330
BC
100
AcDbXrecord
280
     1
270
     1
271
     1
  0
XRECORD
  5
C2
102
{ACAD_REACTORS
330
BC
102
}
330
BC
100
AcDbXrecord
280
     1
270
     1
271
     1
  0
XRECORD
  5
BF
102
{ACAD_REACTORS
330
BC
102
}
330
BC
100
AcDbXrecord
280
     1
270
     1
271
     1
  0
XRECORD
  5
1A5
102
{ACAD_REACTORS
330
1A4
102
}
330
1A4
100
AcDbXrecord
280
     1
102
ACAD_ROUNDTRIP_2012_MLEADER_STYLE
298
     1
  0
XRECORD
  5
1A7
102
{ACAD_REACTORS
330
1A6
102
}
330
1A6
100
AcDbXrecord
280
     1
102
DISPLAYNAME
  1
Imperial24
102
FLAGS
 90
        0
  0
CELLSTYLEMAP
  5
172
102
{ACAD_REACTORS
330
171
102
}
330
171
100
AcDbCellStyleMap
 90
        3
300
CELLSTYLE
  1
TABLEFORMAT_BEGIN
 90
        5
170
     1
 91
        0
 92
    32768
 62
   257
 93
        1
300
CONTENTFORMAT
  1
CONTENTFORMAT_BEGIN
 90
        0
 91
        0
 92
      512
 93
        0
300

 40
0.0
140
1.0
 94
        5
 62
     0
340
11
144
0.25
309
CONTENTFORMAT_END
171
     0
 94
        0
309
TABLEFORMAT_END
  1
CELLSTYLE_BEGIN
 90
        1
 91
        1
300
_TITLE
309
CELLSTYLE_END
300
CELLSTYLE
  1
TABLEFORMAT_BEGIN
 90
        5
170
     1
 91
        0
 92
        0
 62
   257
 93
        1
300
CONTENTFORMAT
  1
CONTENTFORMAT_BEGIN
 90
        0
 91
        0
 92
      512
 93
        0
300

 40
0.0
140
1.0
 94
        5
 62
     0
340
11
144
0.18
309
CONTENTFORMAT_END
171
     0
 94
        0
309
TABLEFORMAT_END
  1
CELLSTYLE_BEGIN
 90
        2
 91
        1
300
_HEADER
309
CELLSTYLE_END
300
CELLSTYLE
  1
TABLEFORMAT_BEGIN
 90
        5
170
     1
 91
        0
 92
        0
 62
   257
 93
        1
300
CONTENTFORMAT
  1
CONTENTFORMAT_BEGIN
 90
        0
 91
        0
 92
      512
 93
        0
300

 40
0.0
140
1.0
 94
        2
 62
     0
340
11
144
0.18
309
CONTENTFORMAT_END
171
     0
 94
        0
309
TABLEFORMAT_END
  1
CELLSTYLE_BEGIN
 90
        3
 91
        2
300
_DATA
309
CELLSTYLE_END
  0
XRECORD
  5
17F
102
{ACAD_REACTORS
330
17E
102
}
330
17E
100
AcDbXrecord
280
     1
102
RTVSPost2010Prop28
280
     1
102
RTVSPost2010PropOp28
 70
     1
102
RTVSPost2010Prop29
280
     1
102
RTVSPost2010PropOp29
 70
     1
102
RTVSPost2010Prop30
280
     0
102
RTVSPost2010PropOp30
 70
     1
102
RTVSPost2010Prop31
280
     0
102
RTVSPost2010PropOp31
 70
     1
102
RTVSPost2010Prop32
280
     0
102
RTVSPost2010PropOp32
 70
     1
102
RTVSPost2010Prop33
280
     0
102
RTVSPost2010PropOp33
 70
     1
102
RTVSPost2010Prop34
280
     0
102
RTVSPost2010PropOp34
 70
     1
102
RTVSPost2010Prop35
280
     0
102
RTVSPost2010PropOp35
 70
     1
102
RTVSPost2010Prop36
280
     0
102
RTVSPost2010PropOp36
 70
     1
102
RTVSPost2010Prop37
 90
       50
102
RTVSPost2010PropOp37
 70
     1
102
RTVSPost2010Prop38
140
0.0
102
RTVSPost2010PropOp38
 70
     1
102
RTVSPost2010Prop39
140
1.0
102
RTVSPost2010PropOp39
 70
     1
102
RTVSPost2010Prop40
 90
        0
102
RTVSPost2010PropOp40
 70
     1
102
RTVSPost2010Prop41ColorIndex
 90
       18
102
RTVSPost2010Prop41ColorRGB
 90
        0
102
RTVSPost2010PropOp41
 70
     1
102
RTVSPost2010Prop42
 90
       50
102
RTVSPost2010PropOp42
 70
     1
102
RTVSPost2010Prop43
 90
        3
102
RTVSPost2010PropOp43
 70
     1
102
RTVSPost2010Prop44ColorIndex
 90
        5
102
RTVSPost2010Prop44ColorRGB
 90
      255
102
RTVSPost2010PropOp44
 70
     1
102
RTVSPost2010Prop45
280
     0
102
RTVSPost2010PropOp45
 70
     1
102
RTVSPost2010Prop46
 90
       50
102
RTVSPost2010PropOp46
 70
     1
102
RTVSPost2010Prop47
 90
       50
102
RTVSPost2010PropOp47
 70
     1
102
RTVSPost2010Prop48
 90
       50
102
RTVSPost2010PropOp48
 70
     1
102
RTVSPost2010Prop49
280
     0
102
RTVSPost2010PropOp49
 70
     1
102
RTVSPost2010Prop50
 90
       50
102
RTVSPost2010PropOp50
 70
     1
102
RTVSPost2010Prop51ColorIndex
 90
      256
102
RTVSPost2010Prop51ColorRGB
 90
-16777216
102
RTVSPost2010PropOp51
 70
     0
102
RTVSPost2010Prop52
140
1.0
102
RTVSPost2010PropOp52
 70
     0
102
RTVSPost2010Prop53
 90
        2
102
RTVSPost2010PropOp53
 70
     1
102
RTVSPost2010Prop54
  1
strokes_ogs.tif
102
RTVSPost2010PropOp54
 70
     1
102
RTVSPost2010Prop55
280
     0
102
RTVSPost2010PropOp55
 70
     1
102
RTVSPost2010Prop56
140
1.0
102
RTVSPost2010PropOp56
 70
     1
102
RTVSPost2010Prop57
140
1.0
102
RTVSPost2010PropOp57
 70
     1
  0
XRECORD
  5
17D
102
{ACAD_REACTORS
330
17C
102
}
330
17C
100
AcDbXrecord
280
     1
102
RTVSPost2010Prop28
280
     0
102
RTVSPost2010PropOp28
 70
     1
102
RTVSPost2010Prop29
280
     1
102
RTVSPost2010PropOp29
 70
     1
102
RTVSPost2010Prop30
280
     1
102
RTVSPost2010PropOp30
 70
     1
102
RTVSPost2010Prop31
280
     0
102
RTVSPost2010PropOp31
 70
     1
102
RTVSPost2010Prop32
280
     0
102
RTVSPost2010PropOp32
 70
     1
102
RTVSPost2010Prop33
280
     0
102
RTVSPost2010PropOp33
 70
     1
102
RTVSPost2010Prop34
280
     0
102
RTVSPost2010PropOp34
 70
     1
102
RTVSPost2010Prop35
280
     0
102
RTVSPost2010PropOp35
 70
     1
102
RTVSPost2010Prop36
280
     0
102
RTVSPost2010PropOp36
 70
     1
102
RTVSPost2010Prop37
 90
       50
102
RTVSPost2010PropOp37
 70
     1
102
RTVSPost2010Prop38
140
0.0
102
RTVSPost2010PropOp38
 70
     1
102
RTVSPost2010Prop39
140
1.0
102
RTVSPost2010PropOp39
 70
     1
102
RTVSPost2010Prop40
 90
        0
102
RTVSPost2010PropOp40
 70
     1
102
RTVSPost2010Prop41ColorIndex
 90
       18
102
RTVSPost2010Prop41ColorRGB
 90
        0
102
RTVSPost2010PropOp41
 70
     1
102
RTVSPost2010Prop42
 90
       50
102
RTVSPost2010PropOp42
 70
     1
102
RTVSPost2010Prop43
 90
        3
102
RTVSPost2010PropOp43
 70
     1
102
RTVSPost2010Prop44ColorIndex
 90
        5
102
RTVSPost2010Prop44ColorRGB
 90
      255
102
RTVSPost2010PropOp44
 70
     1
102
RTVSPost2010Prop45
280
     0
102
RTVSPost2010PropOp45
 70
     1
102
RTVSPost2010Prop46
 90
       50
102
RTVSPost2010PropOp46
 70
     1
102
RTVSPost2010Prop47
 90
       50
102
RTVSPost2010PropOp47
 70
     1
102
RTVSPost2010Prop48
 90
       50
102
RTVSPost2010PropOp48
 70
     1
102
RTVSPost2010Prop49
280
     0
102
RTVSPost2010PropOp49
 70
     1
102
RTVSPost2010Prop50
 90
       50
102
RTVSPost2010PropOp50
 70
     1
102
RTVSPost2010Prop51ColorIndex
 90
      256
102
RTVSPost2010Prop51ColorRGB
 90
-16777216
102
RTVSPost2010PropOp51
 70
     0
102
RTVSPost2010Prop52
140
1.0
102
RTVSPost2010PropOp52
 70
     0
102
RTVSPost2010Prop53
 90
        2
102
RTVSPost2010PropOp53
 70
     1
102
RTVSPost2010Prop54
  1
strokes_ogs.tif
102
RTVSPost2010PropOp54
 70
     1
102
RTVSPost2010Prop55
280
     0
102
RTVSPost2010PropOp55
 70
     1
102
RTVSPost2010Prop56
140
1.0
102
RTVSPost2010PropOp56
 70
     1
102
RTVSPost2010Prop57
140
1.0
102
RTVSPost2010PropOp57
 70
     1
  0
XRECORD
  5
18B
102
{ACAD_REACTORS
330
18A
102
}
330
18A
100
AcDbXrecord
280
     1
102
RTVSPost2010Prop28
280
     0
102
RTVSPost2010PropOp28
 70
     1
102
RTVSPost2010Prop29
280
     1
102
RTVSPost2010PropOp29
 70
     1
102
RTVSPost2010Prop30
280
     1
102
RTVSPost2010PropOp30
 70
     1
102
RTVSPost2010Prop31
280
     0
102
RTVSPost2010PropOp31
 70
     1
102
RTVSPost2010Prop32
280
     0
102
RTVSPost2010PropOp32
 70
     1
102
RTVSPost2010Prop33
280
     0
102
RTVSPost2010PropOp33
 70
     1
102
RTVSPost2010Prop34
280
     0
102
RTVSPost2010PropOp34
 70
     1
102
RTVSPost2010Prop35
280
     0
102
RTVSPost2010PropOp35
 70
     1
102
RTVSPost2010Prop36
280
     0
102
RTVSPost2010PropOp36
 70
     1
102
RTVSPost2010Prop37
 90
       50
102
RTVSPost2010PropOp37
 70
     1
102
RTVSPost2010Prop38
140
0.0
102
RTVSPost2010PropOp38
 70
     1
102
RTVSPost2010Prop39
140
1.0
102
RTVSPost2010PropOp39
 70
     1
102
RTVSPost2010Prop40
 90
        0
102
RTVSPost2010PropOp40
 70
     1
102
RTVSPost2010Prop41ColorIndex
 90
       18
102
RTVSPost2010Prop41ColorRGB
 90
        0
102
RTVSPost2010PropOp41
 70
     1
102
RTVSPost2010Prop42
 90
       50
102
RTVSPost2010PropOp42
 70
     1
102
RTVSPost2010Prop43
 90
        3
102
RTVSPost2010PropOp43
 70
     1
102
RTVSPost2010Prop44ColorIndex
 90
        5
102
RTVSPost2010Prop44ColorRGB
 90
      255
102
RTVSPost2010PropOp44
 70
     1
102
RTVSPost2010Prop45
280
     0
102
RTVSPost2010PropOp45
 70
     1
102
RTVSPost2010Prop46
 90
       50
102
RTVSPost2010PropOp46
 70
     1
102
RTVSPost2010Prop47
 90
       50
102
RTVSPost2010PropOp47
 70
     1
102
RTVSPost2010Prop48
 90
       50
102
RTVSPost2010PropOp48
 70
     1
102
RTVSPost2010Prop49
280
     0
102
RTVSPost2010PropOp49
 70
     1
102
RTVSPost2010Prop50
 90
       50
102
RTVSPost2010PropOp50
 70
     1
102
RTVSPost2010Prop51ColorIndex
 90
      256
102
RTVSPost2010Prop51ColorRGB
 90
-16777216
102
RTVSPost2010PropOp51
 70
     0
102
RTVSPost2010Prop52
140
1.0
102
RTVSPost2010PropOp52
 70
     0
102
RTVSPost2010Prop53
 90
        2
102
RTVSPost2010PropOp53
 70
     1
102
RTVSPost2010Prop54
  1
strokes_ogs.tif
102
RTVSPost2010PropOp54
 70
     1
102
RTVSPost2010Prop55
280
     0
102
RTVSPost2010PropOp55
 70
     1
102
RTVSPost2010Prop56
140
1.0
102
RTVSPost2010PropOp56
 70
     1
102
RTVSPost2010Prop57
140
1.0
102
RTVSPost2010PropOp57
 70
     1
  0
XRECORD
  5
193
102
{ACAD_REACTORS
330
192
102
}
330
192
100
AcDbXrecord
280
     1
102
RTVSPost2010Prop28
280
     0
102
RTVSPost2010PropOp28
 70
     1
102
RTVSPost2010Prop29
280
     1
102
RTVSPost2010PropOp29
 70
     1
102
RTVSPost2010Prop30
280
     1
102
RTVSPost2010PropOp30
 70
     1
102
RTVSPost2010Prop31
280
     0
102
RTVSPost2010PropOp31
 70
     1
102
RTVSPost2010Prop32
280
     0
102
RTVSPost2010PropOp32
 70
     1
102
RTVSPost2010Prop33
280
     0
102
RTVSPost2010PropOp33
 70
     1
102
RTVSPost2010Prop34
280
     0
102
RTVSPost2010PropOp34
 70
     1
102
RTVSPost2010Prop35
280
     0
102
RTVSPost2010PropOp35
 70
     1
102
RTVSPost2010Prop36
280
     0
102
RTVSPost2010PropOp36
 70
     1
102
RTVSPost2010Prop37
 90
       50
102
RTVSPost2010PropOp37
 70
     1
102
RTVSPost2010Prop38
140
0.0
102
RTVSPost2010PropOp38
 70
     1
102
RTVSPost2010Prop39
140
1.0
102
RTVSPost2010PropOp39
 70
     1
102
RTVSPost2010Prop40
 90
        0
102
RTVSPost2010PropOp40
 70
     1
102
RTVSPost2010Prop41ColorIndex
 90
       18
102
RTVSPost2010Prop41ColorRGB
 90
        0
102
RTVSPost2010PropOp41
 70
     1
102
RTVSPost2010Prop42
 90
       50
102
RTVSPost2010PropOp42
 70
     1
102
RTVSPost2010Prop43
 90
        3
102
RTVSPost2010PropOp43
 70
     1
102
RTVSPost2010Prop44ColorIndex
 90
        5
102
RTVSPost2010Prop44ColorRGB
 90
      255
102
RTVSPost2010PropOp44
 70
     1
102
RTVSPost2010Prop45
280
     0
102
RTVSPost2010PropOp45
 70
     1
102
RTVSPost2010Prop46
 90
       50
102
RTVSPost2010PropOp46
 70
     1
102
RTVSPost2010Prop47
 90
       50
102
RTVSPost2010PropOp47
 70
     1
102
RTVSPost2010Prop48
 90
       50
102
RTVSPost2010PropOp48
 70
     1
102
RTVSPost2010Prop49
280
     0
102
RTVSPost2010PropOp49
 70
     1
102
RTVSPost2010Prop50
 90
       50
102
RTVSPost2010PropOp50
 70
     1
102
RTVSPost2010Prop51ColorIndex
 90
      256
102
RTVSPost2010Prop51ColorRGB
 90
-16777216
102
RTVSPost2010PropOp51
 70
     0
102
RTVSPost2010Prop52
140
1.0
102
RTVSPost2010PropOp52
 70
     0
102
RTVSPost2010Prop53
 90
        2
102
RTVSPost2010PropOp53
 70
     1
102
RTVSPost2010Prop54
  1
strokes_ogs.tif
102
RTVSPost2010PropOp54
 70
     1
102
RTVSPost2010Prop55
280
     0
102
RTVSPost2010PropOp55
 70
     1
102
RTVSPost2010Prop56
140
1.0
102
RTVSPost2010PropOp56
 70
     1
102
RTVSPost2010Prop57
140
1.0
102
RTVSPost2010PropOp57
 70
     1
  0
XRECORD
  5
185
102
{ACAD_REACTORS
330
184
102
}
330
184
100
AcDbXrecord
280
     1
102
RTVSPost2010Prop28
280
     0
102
RTVSPost2010PropOp28
 70
     1
102
RTVSPost2010Prop29
280
     1
102
RTVSPost2010PropOp29
 70
     1
102
RTVSPost2010Prop30
280
     1
102
RTVSPost2010PropOp30
 70
     1
102
RTVSPost2010Prop31
280
     0
102
RTVSPost2010PropOp31
 70
     1
102
RTVSPost2010Prop32
280
     0
102
RTVSPost2010PropOp32
 70
     1
102
RTVSPost2010Prop33
280
     0
102
RTVSPost2010PropOp33
 70
     1
102
RTVSPost2010Prop34
280
     0
102
RTVSPost2010PropOp34
 70
     1
102
RTVSPost2010Prop35
280
     0
102
RTVSPost2010PropOp35
 70
     1
102
RTVSPost2010Prop36
280
     0
102
RTVSPost2010PropOp36
 70
     1
102
RTVSPost2010Prop37
 90
       50
102
RTVSPost2010PropOp37
 70
     1
102
RTVSPost2010Prop38
140
0.0
102
RTVSPost2010PropOp38
 70
     1
102
RTVSPost2010Prop39
140
1.0
102
RTVSPost2010PropOp39
 70
     1
102
RTVSPost2010Prop40
 90
        0
102
RTVSPost2010PropOp40
 70
     1
102
RTVSPost2010Prop41ColorIndex
 90
       18
102
RTVSPost2010Prop41ColorRGB
 90
        0
102
RTVSPost2010PropOp41
 70
     1
102
RTVSPost2010Prop42
 90
       50
102
RTVSPost2010PropOp42
 70
     1
102
RTVSPost2010Prop43
 90
        3
102
RTVSPost2010PropOp43
 70
     1
102
RTVSPost2010Prop44ColorIndex
 90
        5
102
RTVSPost2010Prop44ColorRGB
 90
      255
102
RTVSPost2010PropOp44
 70
     1
102
RTVSPost2010Prop45
280
     0
102
RTVSPost2010PropOp45
 70
     1
102
RTVSPost2010Prop46
 90
       50
102
RTVSPost2010PropOp46
 70
     1
102
RTVSPost2010Prop47
 90
       50
102
RTVSPost2010PropOp47
 70
     1
102
RTVSPost2010Prop48
 90
       50
102
RTVSPost2010PropOp48
 70
     1
102
RTVSPost2010Prop49
280
     0
102
RTVSPost2010PropOp49
 70
     1
102
RTVSPost2010Prop50
 90
       50
102
RTVSPost2010PropOp50
 70
     1
102
RTVSPost2010Prop51ColorIndex
 90
      256
102
RTVSPost2010Prop51ColorRGB
 90
-16777216
102
RTVSPost2010PropOp51
 70
     0
102
RTVSPost2010Prop52
140
1.0
102
RTVSPost2010PropOp52
 70
     0
102
RTVSPost2010Prop53
 90
        2
102
RTVSPost2010PropOp53
 70
     1
102
RTVSPost2010Prop54
  1
strokes_ogs.tif
102
RTVSPost2010PropOp54
 70
     1
102
RTVSPost2010Prop55
280
     0
102
RTVSPost2010PropOp55
 70
     1
102
RTVSPost2010Prop56
140
1.0
102
RTVSPost2010PropOp56
 70
     1
102
RTVSPost2010Prop57
140
1.0
102
RTVSPost2010PropOp57
 70
     1
  0
XRECORD
  5
189
102
{ACAD_REACTORS
330
188
102
}
330
188
100
AcDbXrecord
280
     1
102
RTVSPost2010Prop28
280
     0
102
RTVSPost2010PropOp28
 70
     1
102
RTVSPost2010Prop29
280
     1
102
RTVSPost2010PropOp29
 70
     1
102
RTVSPost2010Prop30
280
     1
102
RTVSPost2010PropOp30
 70
     1
102
RTVSPost2010Prop31
280
     0
102
RTVSPost2010PropOp31
 70
     1
102
RTVSPost2010Prop32
280
     0
102
RTVSPost2010PropOp32
 70
     1
102
RTVSPost2010Prop33
280
     0
102
RTVSPost2010PropOp33
 70
     1
102
RTVSPost2010Prop34
280
     0
102
RTVSPost2010PropOp34
 70
     1
102
RTVSPost2010Prop35
280
     0
102
RTVSPost2010PropOp35
 70
     1
102
RTVSPost2010Prop36
280
     0
102
RTVSPost2010PropOp36
 70
     1
102
RTVSPost2010Prop37
 90
       50
102
RTVSPost2010PropOp37
 70
     1
102
RTVSPost2010Prop38
140
0.0
102
RTVSPost2010PropOp38
 70
     1
102
RTVSPost2010Prop39
140
1.0
102
RTVSPost2010PropOp39
 70
     1
102
RTVSPost2010Prop40
 90
        0
102
RTVSPost2010PropOp40
 70
     1
102
RTVSPost2010Prop41ColorIndex
 90
       18
102
RTVSPost2010Prop41ColorRGB
 90
        0
102
RTVSPost2010PropOp41
 70
     1
102
RTVSPost2010Prop42
 90
       50
102
RTVSPost2010PropOp42
 70
     1
102
RTVSPost2010Prop43
 90
        3
102
RTVSPost2010PropOp43
 70
     1
102
RTVSPost2010Prop44ColorIndex
 90
        5
102
RTVSPost2010Prop44ColorRGB
 90
      255
102
RTVSPost2010PropOp44
 70
     1
102
RTVSPost2010Prop45
280
     0
102
RTVSPost2010PropOp45
 70
     1
102
RTVSPost2010Prop46
 90
       50
102
RTVSPost2010PropOp46
 70
     1
102
RTVSPost2010Prop47
 90
       50
102
RTVSPost2010PropOp47
 70
     1
102
RTVSPost2010Prop48
 90
       50
102
RTVSPost2010PropOp48
 70
     1
102
RTVSPost2010Prop49
280
     0
102
RTVSPost2010PropOp49
 70
     1
102
RTVSPost2010Prop50
 90
       50
102
RTVSPost2010PropOp50
 70
     1
102
RTVSPost2010Prop51ColorIndex
 90
      256
102
RTVSPost2010Prop51ColorRGB
 90
-16777216
102
RTVSPost2010PropOp51
 70
     0
102
RTVSPost2010Prop52
140
1.0
102
RTVSPost2010PropOp52
 70
     0
102
RTVSPost2010Prop53
 90
        2
102
RTVSPost2010PropOp53
 70
     1
102
RTVSPost2010Prop54
  1
strokes_ogs.tif
102
RTVSPost2010PropOp54
 70
     1
102
RTVSPost2010Prop55
280
     0
102
RTVSPost2010PropOp55
 70
     1
102
RTVSPost2010Prop56
140
1.0
102
RTVSPost2010PropOp56
 70
     1
102
RTVSPost2010Prop57
140
1.0
102
RTVSPost2010PropOp57
 70
     1
  0
XRECORD
  5
1A3
102
{ACAD_REACTORS
330
1A2
102
}
330
1A2
100
AcDbXrecord
280
     1
102
RTVSPost2010Prop28
280
     0
102
RTVSPost2010PropOp28
 70
     0
102
RTVSPost2010Prop29
280
     1
102
RTVSPost2010PropOp29
 70
     0
102
RTVSPost2010Prop30
280
     1
102
RTVSPost2010PropOp30
 70
     0
102
RTVSPost2010Prop31
280
     0
102
RTVSPost2010PropOp31
 70
     0
102
RTVSPost2010Prop32
280
     0
102
RTVSPost2010PropOp32
 70
     0
102
RTVSPost2010Prop33
280
     0
102
RTVSPost2010PropOp33
 70
     0
102
RTVSPost2010Prop34
280
     0
102
RTVSPost2010PropOp34
 70
     0
102
RTVSPost2010Prop35
280
     0
102
RTVSPost2010PropOp35
 70
     0
102
RTVSPost2010Prop36
280
     0
102
RTVSPost2010PropOp36
 70
     0
102
RTVSPost2010Prop37
 90
       50
102
RTVSPost2010PropOp37
 70
     0
102
RTVSPost2010Prop38
140
0.0
102
RTVSPost2010PropOp38
 70
     0
102
RTVSPost2010Prop39
140
1.0
102
RTVSPost2010PropOp39
 70
     0
102
RTVSPost2010Prop40
 90
        0
102
RTVSPost2010PropOp40
 70
     0
102
RTVSPost2010Prop41ColorIndex
 90
       18
102
RTVSPost2010Prop41ColorRGB
 90
        0
102
RTVSPost2010PropOp41
 70
     0
102
RTVSPost2010Prop42
 90
       50
102
RTVSPost2010PropOp42
 70
     0
102
RTVSPost2010Prop43
 90
        3
102
RTVSPost2010PropOp43
 70
     0
102
RTVSPost2010Prop44ColorIndex
 90
        5
102
RTVSPost2010Prop44ColorRGB
 90
      255
102
RTVSPost2010PropOp44
 70
     0
102
RTVSPost2010Prop45
280
     0
102
RTVSPost2010PropOp45
 70
     0
102
RTVSPost2010Prop46
 90
       50
102
RTVSPost2010PropOp46
 70
     0
102
RTVSPost2010Prop47
 90
       50
102
RTVSPost2010PropOp47
 70
     0
102
RTVSPost2010Prop48
 90
       50
102
RTVSPost2010PropOp48
 70
     0
102
RTVSPost2010Prop49
280
     0
102
RTVSPost2010PropOp49
 70
     0
102
RTVSPost2010Prop50
 90
       50
102
RTVSPost2010PropOp50
 70
     0
102
RTVSPost2010Prop51ColorIndex
 90
      256
102
RTVSPost2010Prop51ColorRGB
 90
-16777216
102
RTVSPost2010PropOp51
 70
     0
102
RTVSPost2010Prop52
140
1.0
102
RTVSPost2010PropOp52
 70
     0
102
RTVSPost2010Prop53
 90
        2
102
RTVSPost2010PropOp53
 70
     0
102
RTVSPost2010Prop54
  1
strokes_ogs.tif
102
RTVSPost2010PropOp54
 70
     0
102
RTVSPost2010Prop55
280
     0
102
RTVSPost2010PropOp55
 70
     0
102
RTVSPost2010Prop56
140
1.0
102
RTVSPost2010PropOp56
 70
     0
102
RTVSPost2010Prop57
140
1.0
102
RTVSPost2010PropOp57
 70
     0
  0
XRECORD
  5
191
102
{ACAD_REACTORS
330
190
102
}
330
190
100
AcDbXrecord
280
     1
102
RTVSPost2010Prop28
280
     0
102
RTVSPost2010PropOp28
 70
     1
102
RTVSPost2010Prop29
280
     1
102
RTVSPost2010PropOp29
 70
     1
102
RTVSPost2010Prop30
280
     1
102
RTVSPost2010PropOp30
 70
     1
102
RTVSPost2010Prop31
280
     0
102
RTVSPost2010PropOp31
 70
     1
102
RTVSPost2010Prop32
280
     0
102
RTVSPost2010PropOp32
 70
     1
102
RTVSPost2010Prop33
280
     0
102
RTVSPost2010PropOp33
 70
     1
102
RTVSPost2010Prop34
280
     0
102
RTVSPost2010PropOp34
 70
     1
102
RTVSPost2010Prop35
280
     0
102
RTVSPost2010PropOp35
 70
     1
102
RTVSPost2010Prop36
280
     0
102
RTVSPost2010PropOp36
 70
     1
102
RTVSPost2010Prop37
 90
       50
102
RTVSPost2010PropOp37
 70
     1
102
RTVSPost2010Prop38
140
0.0
102
RTVSPost2010PropOp38
 70
     1
102
RTVSPost2010Prop39
140
1.0
102
RTVSPost2010PropOp39
 70
     1
102
RTVSPost2010Prop40
 90
        0
102
RTVSPost2010PropOp40
 70
     1
102
RTVSPost2010Prop41ColorIndex
 90
       18
102
RTVSPost2010Prop41ColorRGB
 90
        0
102
RTVSPost2010PropOp41
 70
     1
102
RTVSPost2010Prop42
 90
       50
102
RTVSPost2010PropOp42
 70
     1
102
RTVSPost2010Prop43
 90
        3
102
RTVSPost2010PropOp43
 70
     1
102
RTVSPost2010Prop44ColorIndex
 90
        5
102
RTVSPost2010Prop44ColorRGB
 90
      255
102
RTVSPost2010PropOp44
 70
     1
102
RTVSPost2010Prop45
280
     0
102
RTVSPost2010PropOp45
 70
     1
102
RTVSPost2010Prop46
 90
       50
102
RTVSPost2010PropOp46
 70
     1
102
RTVSPost2010Prop47
 90
       50
102
RTVSPost2010PropOp47
 70
     1
102
RTVSPost2010Prop48
 90
       50
102
RTVSPost2010PropOp48
 70
     1
102
RTVSPost2010Prop49
280
     0
102
RTVSPost2010PropOp49
 70
     1
102
RTVSPost2010Prop50
 90
       50
102
RTVSPost2010PropOp50
 70
     1
102
RTVSPost2010Prop51ColorIndex
 90
      256
102
RTVSPost2010Prop51ColorRGB
 90
-16777216
102
RTVSPost2010PropOp51
 70
     0
102
RTVSPost2010Prop52
140
1.0
102
RTVSPost2010PropOp52
 70
     0
102
RTVSPost2010Prop53
 90
        2
102
RTVSPost2010PropOp53
 70
     1
102
RTVSPost2010Prop54
  1
strokes_ogs.tif
102
RTVSPost2010PropOp54
 70
     1
102
RTVSPost2010Prop55
280
     0
102
RTVSPost2010PropOp55
 70
     1
102
RTVSPost2010Prop56
140
1.0
102
RTVSPost2010PropOp56
 70
     1
102
RTVSPost2010Prop57
140
1.0
102
RTVSPost2010PropOp57
 70
     1
  0
XRECORD
  5
175
102
{ACAD_REACTORS
330
174
102
}
330
174
100
AcDbXrecord
280
     1
102
RTVSPost2010Prop28
280
     0
102
RTVSPost2010PropOp28
 70
     1
102
RTVSPost2010Prop29
280
     1
102
RTVSPost2010PropOp29
 70
     1
102
RTVSPost2010Prop30
280
     1
102
RTVSPost2010PropOp30
 70
     1
102
RTVSPost2010Prop31
280
     0
102
RTVSPost2010PropOp31
 70
     1
102
RTVSPost2010Prop32
280
     0
102
RTVSPost2010PropOp32
 70
     1
102
RTVSPost2010Prop33
280
     0
102
RTVSPost2010PropOp33
 70
     1
102
RTVSPost2010Prop34
280
     0
102
RTVSPost2010PropOp34
 70
     1
102
RTVSPost2010Prop35
280
     0
102
RTVSPost2010PropOp35
 70
     1
102
RTVSPost2010Prop36
280
     0
102
RTVSPost2010PropOp36
 70
     1
102
RTVSPost2010Prop37
 90
       50
102
RTVSPost2010PropOp37
 70
     1
102
RTVSPost2010Prop38
140
0.0
102
RTVSPost2010PropOp38
 70
     1
102
RTVSPost2010Prop39
140
1.0
102
RTVSPost2010PropOp39
 70
     1
102
RTVSPost2010Prop40
 90
        0
102
RTVSPost2010PropOp40
 70
     1
102
RTVSPost2010Prop41ColorIndex
 90
       18
102
RTVSPost2010Prop41ColorRGB
 90
        0
102
RTVSPost2010PropOp41
 70
     1
102
RTVSPost2010Prop42
 90
       50
102
RTVSPost2010PropOp42
 70
     1
102
RTVSPost2010Prop43
 90
        3
102
RTVSPost2010PropOp43
 70
     1
102
RTVSPost2010Prop44ColorIndex
 90
        5
102
RTVSPost2010Prop44ColorRGB
 90
      255
102
RTVSPost2010PropOp44
 70
     1
102
RTVSPost2010Prop45
280
     0
102
RTVSPost2010PropOp45
 70
     1
102
RTVSPost2010Prop46
 90
       50
102
RTVSPost2010PropOp46
 70
     1
102
RTVSPost2010Prop47
 90
       50
102
RTVSPost2010PropOp47
 70
     1
102
RTVSPost2010Prop48
 90
       50
102
RTVSPost2010PropOp48
 70
     1
102
RTVSPost2010Prop49
280
     0
102
RTVSPost2010PropOp49
 70
     1
102
RTVSPost2010Prop50
 90
       50
102
RTVSPost2010PropOp50
 70
     1
102
RTVSPost2010Prop51ColorIndex
 90
      256
102
RTVSPost2010Prop51ColorRGB
 90
-16777216
102
RTVSPost2010PropOp51
 70
     0
102
RTVSPost2010Prop52
140
1.0
102
RTVSPost2010PropOp52
 70
     0
102
RTVSPost2010Prop53
 90
        2
102
RTVSPost2010PropOp53
 70
     1
102
RTVSPost2010Prop54
  1
strokes_ogs.tif
102
RTVSPost2010PropOp54
 70
     1
102
RTVSPost2010Prop55
280
     0
102
RTVSPost2010PropOp55
 70
     1
102
RTVSPost2010Prop56
140
1.0
102
RTVSPost2010PropOp56
 70
     1
102
RTVSPost2010Prop57
140
1.0
102
RTVSPost2010PropOp57
 70
     1
  0
XRECORD
  5
177
102
{ACAD_REACTORS
330
176
102
}
330
176
100
AcDbXrecord
280
     1
102
RTVSPost2010Prop28
280
     0
102
RTVSPost2010PropOp28
 70
     1
102
RTVSPost2010Prop29
280
     1
102
RTVSPost2010PropOp29
 70
     1
102
RTVSPost2010Prop30
280
     1
102
RTVSPost2010PropOp30
 70
     1
102
RTVSPost2010Prop31
280
     0
102
RTVSPost2010PropOp31
 70
     1
102
RTVSPost2010Prop32
280
     0
102
RTVSPost2010PropOp32
 70
     1
102
RTVSPost2010Prop33
280
     0
102
RTVSPost2010PropOp33
 70
     1
102
RTVSPost2010Prop34
280
     0
102
RTVSPost2010PropOp34
 70
     1
102
RTVSPost2010Prop35
280
     0
102
RTVSPost2010PropOp35
 70
     1
102
RTVSPost2010Prop36
280
     0
102
RTVSPost2010PropOp36
 70
     1
102
RTVSPost2010Prop37
 90
       50
102
RTVSPost2010PropOp37
 70
     1
102
RTVSPost2010Prop38
140
0.0
102
RTVSPost2010PropOp38
 70
     1
102
RTVSPost2010Prop39
140
1.0
102
RTVSPost2010PropOp39
 70
     1
102
RTVSPost2010Prop40
 90
        0
102
RTVSPost2010PropOp40
 70
     1
102
RTVSPost2010Prop41ColorIndex
 90
       18
102
RTVSPost2010Prop41ColorRGB
 90
        0
102
RTVSPost2010PropOp41
 70
     1
102
RTVSPost2010Prop42
 90
       50
102
RTVSPost2010PropOp42
 70
     1
102
RTVSPost2010Prop43
 90
        3
102
RTVSPost2010PropOp43
 70
     1
102
RTVSPost2010Prop44ColorIndex
 90
        5
102
RTVSPost2010Prop44ColorRGB
 90
      255
102
RTVSPost2010PropOp44
 70
     1
102
RTVSPost2010Prop45
280
     0
102
RTVSPost2010PropOp45
 70
     1
102
RTVSPost2010Prop46
 90
       50
102
RTVSPost2010PropOp46
 70
     1
102
RTVSPost2010Prop47
 90
       50
102
RTVSPost2010PropOp47
 70
     1
102
RTVSPost2010Prop48
 90
       50
102
RTVSPost2010PropOp48
 70
     1
102
RTVSPost2010Prop49
280
     0
102
RTVSPost2010PropOp49
 70
     1
102
RTVSPost2010Prop50
 90
       50
102
RTVSPost2010PropOp50
 70
     1
102
RTVSPost2010Prop51ColorIndex
 90
      256
102
RTVSPost2010Prop51ColorRGB
 90
-16777216
102
RTVSPost2010PropOp51
 70
     0
102
RTVSPost2010Prop52
140
1.0
102
RTVSPost2010PropOp52
 70
     0
102
RTVSPost2010Prop53
 90
        2
102
RTVSPost2010PropOp53
 70
     1
102
RTVSPost2010Prop54
  1
strokes_ogs.tif
102
RTVSPost2010PropOp54
 70
     1
102
RTVSPost2010Prop55
280
     0
102
RTVSPost2010PropOp55
 70
     1
102
RTVSPost2010Prop56
140
1.0
102
RTVSPost2010PropOp56
 70
     1
102
RTVSPost2010Prop57
140
1.0
102
RTVSPost2010PropOp57
 70
     1
  0
XRECORD
  5
179
102
{ACAD_REACTORS
330
178
102
}
330
178
100
AcDbXrecord
280
     1
102
RTVSPost2010Prop28
280
     0
102
RTVSPost2010PropOp28
 70
     1
102
RTVSPost2010Prop29
280
     1
102
RTVSPost2010PropOp29
 70
     1
102
RTVSPost2010Prop30
280
     1
102
RTVSPost2010PropOp30
 70
     1
102
RTVSPost2010Prop31
280
     0
102
RTVSPost2010PropOp31
 70
     1
102
RTVSPost2010Prop32
280
     0
102
RTVSPost2010PropOp32
 70
     1
102
RTVSPost2010Prop33
280
     0
102
RTVSPost2010PropOp33
 70
     1
102
RTVSPost2010Prop34
280
     0
102
RTVSPost2010PropOp34
 70
     1
102
RTVSPost2010Prop35
280
     0
102
RTVSPost2010PropOp35
 70
     1
102
RTVSPost2010Prop36
280
     0
102
RTVSPost2010PropOp36
 70
     1
102
RTVSPost2010Prop37
 90
       50
102
RTVSPost2010PropOp37
 70
     1
102
RTVSPost2010Prop38
140
0.0
102
RTVSPost2010PropOp38
 70
     1
102
RTVSPost2010Prop39
140
1.0
102
RTVSPost2010PropOp39
 70
     1
102
RTVSPost2010Prop40
 90
        0
102
RTVSPost2010PropOp40
 70
     1
102
RTVSPost2010Prop41ColorIndex
 90
       18
102
RTVSPost2010Prop41ColorRGB
 90
        0
102
RTVSPost2010PropOp41
 70
     1
102
RTVSPost2010Prop42
 90
       50
102
RTVSPost2010PropOp42
 70
     1
102
RTVSPost2010Prop43
 90
        3
102
RTVSPost2010PropOp43
 70
     1
102
RTVSPost2010Prop44ColorIndex
 90
        5
102
RTVSPost2010Prop44ColorRGB
 90
      255
102
RTVSPost2010PropOp44
 70
     1
102
RTVSPost2010Prop45
280
     0
102
RTVSPost2010PropOp45
 70
     1
102
RTVSPost2010Prop46
 90
       50
102
RTVSPost2010PropOp46
 70
     1
102
RTVSPost2010Prop47
 90
       50
102
RTVSPost2010PropOp47
 70
     1
102
RTVSPost2010Prop48
 90
       50
102
RTVSPost2010PropOp48
 70
     1
102
RTVSPost2010Prop49
280
     0
102
RTVSPost2010PropOp49
 70
     1
102
RTVSPost2010Prop50
 90
       50
102
RTVSPost2010PropOp50
 70
     1
102
RTVSPost2010Prop51ColorIndex
 90
      256
102
RTVSPost2010Prop51ColorRGB
 90
-16777216
102
RTVSPost2010PropOp51
 70
     0
102
RTVSPost2010Prop52
140
1.0
102
RTVSPost2010PropOp52
 70
     0
102
RTVSPost2010Prop53
 90
        2
102
RTVSPost2010PropOp53
 70
     1
102
RTVSPost2010Prop54
  1
strokes_ogs.tif
102
RTVSPost2010PropOp54
 70
     1
102
RTVSPost2010Prop55
280
     0
102
RTVSPost2010PropOp55
 70
     1
102
RTVSPost2010Prop56
140
1.0
102
RTVSPost2010PropOp56
 70
     1
102
RTVSPost2010Prop57
140
1.0
102
RTVSPost2010PropOp57
 70
     1
  0
XRECORD
  5
17B
102
{ACAD_REACTORS
330
17A
102
}
330
17A
100
AcDbXrecord
280
     1
102
RTVSPost2010Prop28
280
     0
102
RTVSPost2010PropOp28
 70
     1
102
RTVSPost2010Prop29
280
     1
102
RTVSPost2010PropOp29
 70
     1
102
RTVSPost2010Prop30
280
     1
102
RTVSPost2010PropOp30
 70
     1
102
RTVSPost2010Prop31
280
     0
102
RTVSPost2010PropOp31
 70
     1
102
RTVSPost2010Prop32
280
     0
102
RTVSPost2010PropOp32
 70
     1
102
RTVSPost2010Prop33
280
     0
102
RTVSPost2010PropOp33
 70
     1
102
RTVSPost2010Prop34
280
     0
102
RTVSPost2010PropOp34
 70
     1
102
RTVSPost2010Prop35
280
     0
102
RTVSPost2010PropOp35
 70
     1
102
RTVSPost2010Prop36
280
     0
102
RTVSPost2010PropOp36
 70
     1
102
RTVSPost2010Prop37
 90
       50
102
RTVSPost2010PropOp37
 70
     1
102
RTVSPost2010Prop38
140
0.0
102
RTVSPost2010PropOp38
 70
     1
102
RTVSPost2010Prop39
140
1.0
102
RTVSPost2010PropOp39
 70
     1
102
RTVSPost2010Prop40
 90
        0
102
RTVSPost2010PropOp40
 70
     1
102
RTVSPost2010Prop41ColorIndex
 90
       18
102
RTVSPost2010Prop41ColorRGB
 90
        0
102
RTVSPost2010PropOp41
 70
     1
102
RTVSPost2010Prop42
 90
       50
102
RTVSPost2010PropOp42
 70
     1
102
RTVSPost2010Prop43
 90
        3
102
RTVSPost2010PropOp43
 70
     1
102
RTVSPost2010Prop44ColorIndex
 90
        5
102
RTVSPost2010Prop44ColorRGB
 90
      255
102
RTVSPost2010PropOp44
 70
     1
102
RTVSPost2010Prop45
280
     0
102
RTVSPost2010PropOp45
 70
     1
102
RTVSPost2010Prop46
 90
       50
102
RTVSPost2010PropOp46
 70
     1
102
RTVSPost2010Prop47
 90
       50
102
RTVSPost2010PropOp47
 70
     1
102
RTVSPost2010Prop48
 90
       50
102
RTVSPost2010PropOp48
 70
     1
102
RTVSPost2010Prop49
280
     0
102
RTVSPost2010PropOp49
 70
     1
102
RTVSPost2010Prop50
 90
       50
102
RTVSPost2010PropOp50
 70
     1
102
RTVSPost2010Prop51ColorIndex
 90
      256
102
RTVSPost2010Prop51ColorRGB
 90
-16777216
102
RTVSPost2010PropOp51
 70
     0
102
RTVSPost2010Prop52
140
1.0
102
RTVSPost2010PropOp52
 70
     0
102
RTVSPost2010Prop53
 90
        2
102
RTVSPost2010PropOp53
 70
     1
102
RTVSPost2010Prop54
  1
strokes_ogs.tif
102
RTVSPost2010PropOp54
 70
     1
102
RTVSPost2010Prop55
280
     0
102
RTVSPost2010PropOp55
 70
     1
102
RTVSPost2010Prop56
140
1.0
102
RTVSPost2010PropOp56
 70
     1
102
RTVSPost2010Prop57
140
1.0
102
RTVSPost2010PropOp57
 70
     1
  0
XRECORD
  5
183
102
{ACAD_REACTORS
330
182
102
}
330
182
100
AcDbXrecord
280
     1
102
RTVSPost2010Prop28
280
     0
102
RTVSPost2010PropOp28
 70
     1
102
RTVSPost2010Prop29
280
     1
102
RTVSPost2010PropOp29
 70
     1
102
RTVSPost2010Prop30
280
     1
102
RTVSPost2010PropOp30
 70
     1
102
RTVSPost2010Prop31
280
     0
102
RTVSPost2010PropOp31
 70
     1
102
RTVSPost2010Prop32
280
     0
102
RTVSPost2010PropOp32
 70
     1
102
RTVSPost2010Prop33
280
     0
102
RTVSPost2010PropOp33
 70
     1
102
RTVSPost2010Prop34
280
     0
102
RTVSPost2010PropOp34
 70
     1
102
RTVSPost2010Prop35
280
     0
102
RTVSPost2010PropOp35
 70
     1
102
RTVSPost2010Prop36
280
     0
102
RTVSPost2010PropOp36
 70
     1
102
RTVSPost2010Prop37
 90
       50
102
RTVSPost2010PropOp37
 70
     1
102
RTVSPost2010Prop38
140
0.0
102
RTVSPost2010PropOp38
 70
     1
102
RTVSPost2010Prop39
140
1.0
102
RTVSPost2010PropOp39
 70
     1
102
RTVSPost2010Prop40
 90
        0
102
RTVSPost2010PropOp40
 70
     1
102
RTVSPost2010Prop41ColorIndex
 90
       18
102
RTVSPost2010Prop41ColorRGB
 90
        0
102
RTVSPost2010PropOp41
 70
     1
102
RTVSPost2010Prop42
 90
       50
102
RTVSPost2010PropOp42
 70
     1
102
RTVSPost2010Prop43
 90
        3
102
RTVSPost2010PropOp43
 70
     1
102
RTVSPost2010Prop44ColorIndex
 90
        5
102
RTVSPost2010Prop44ColorRGB
 90
      255
102
RTVSPost2010PropOp44
 70
     1
102
RTVSPost2010Prop45
280
     0
102
RTVSPost2010PropOp45
 70
     1
102
RTVSPost2010Prop46
 90
       50
102
RTVSPost2010PropOp46
 70
     1
102
RTVSPost2010Prop47
 90
       50
102
RTVSPost2010PropOp47
 70
     1
102
RTVSPost2010Prop48
 90
       50
102
RTVSPost2010PropOp48
 70
     1
102
RTVSPost2010Prop49
280
     0
102
RTVSPost2010PropOp49
 70
     1
102
RTVSPost2010Prop50
 90
       50
102
RTVSPost2010PropOp50
 70
     1
102
RTVSPost2010Prop51ColorIndex
 90
      256
102
RTVSPost2010Prop51ColorRGB
 90
-16777216
102
RTVSPost2010PropOp51
 70
     0
102
RTVSPost2010Prop52
140
1.0
102
RTVSPost2010PropOp52
 70
     0
102
RTVSPost2010Prop53
 90
        2
102
RTVSPost2010PropOp53
 70
     1
102
RTVSPost2010Prop54
  1
strokes_ogs.tif
102
RTVSPost2010PropOp54
 70
     1
102
RTVSPost2010Prop55
280
     0
102
RTVSPost2010PropOp55
 70
     1
102
RTVSPost2010Prop56
140
1.0
102
RTVSPost2010PropOp56
 70
     1
102
RTVSPost2010Prop57
140
1.0
102
RTVSPost2010PropOp57
 70
     1
  0
XRECORD
  5
19F
102
{ACAD_REACTORS
330
19E
102
}
330
19E
100
AcDbXrecord
280
     1
102
RTVSPost2010Prop28
280
     0
102
RTVSPost2010PropOp28
 70
     0
102
RTVSPost2010Prop29
280
     1
102
RTVSPost2010PropOp29
 70
     0
102
RTVSPost2010Prop30
280
     1
102
RTVSPost2010PropOp30
 70
     0
102
RTVSPost2010Prop31
280
     0
102
RTVSPost2010PropOp31
 70
     0
102
RTVSPost2010Prop32
280
     0
102
RTVSPost2010PropOp32
 70
     0
102
RTVSPost2010Prop33
280
     0
102
RTVSPost2010PropOp33
 70
     0
102
RTVSPost2010Prop34
280
     0
102
RTVSPost2010PropOp34
 70
     0
102
RTVSPost2010Prop35
280
     0
102
RTVSPost2010PropOp35
 70
     0
102
RTVSPost2010Prop36
280
     0
102
RTVSPost2010PropOp36
 70
     0
102
RTVSPost2010Prop37
 90
       50
102
RTVSPost2010PropOp37
 70
     0
102
RTVSPost2010Prop38
140
0.0
102
RTVSPost2010PropOp38
 70
     0
102
RTVSPost2010Prop39
140
1.0
102
RTVSPost2010PropOp39
 70
     0
102
RTVSPost2010Prop40
 90
        0
102
RTVSPost2010PropOp40
 70
     0
102
RTVSPost2010Prop41ColorIndex
 90
       18
102
RTVSPost2010Prop41ColorRGB
 90
        0
102
RTVSPost2010PropOp41
 70
     0
102
RTVSPost2010Prop42
 90
       50
102
RTVSPost2010PropOp42
 70
     0
102
RTVSPost2010Prop43
 90
        3
102
RTVSPost2010PropOp43
 70
     0
102
RTVSPost2010Prop44ColorIndex
 90
        5
102
RTVSPost2010Prop44ColorRGB
 90
      255
102
RTVSPost2010PropOp44
 70
     0
102
RTVSPost2010Prop45
280
     0
102
RTVSPost2010PropOp45
 70
     0
102
RTVSPost2010Prop46
 90
       50
102
RTVSPost2010PropOp46
 70
     0
102
RTVSPost2010Prop47
 90
       50
102
RTVSPost2010PropOp47
 70
     0
102
RTVSPost2010Prop48
 90
       50
102
RTVSPost2010PropOp48
 70
     0
102
RTVSPost2010Prop49
280
     0
102
RTVSPost2010PropOp49
 70
     0
102
RTVSPost2010Prop50
 90
       50
102
RTVSPost2010PropOp50
 70
     0
102
RTVSPost2010Prop51ColorIndex
 90
      256
102
RTVSPost2010Prop51ColorRGB
 90
-16777216
102
RTVSPost2010PropOp51
 70
     0
102
RTVSPost2010Prop52
140
1.0
102
RTVSPost2010PropOp52
 70
     0
102
RTVSPost2010Prop53
 90
        2
102
RTVSPost2010PropOp53
 70
     0
102
RTVSPost2010Prop54
  1
strokes_ogs.tif
102
RTVSPost2010PropOp54
 70
     0
102
RTVSPost2010Prop55
280
     0
102
RTVSPost2010PropOp55
 70
     0
102
RTVSPost2010Prop56
140
1.0
102
RTVSPost2010PropOp56
 70
     0
102
RTVSPost2010Prop57
140
1.0
102
RTVSPost2010PropOp57
 70
     0
  0
XRECORD
  5
18F
102
{ACAD_REACTORS
330
18E
102
}
330
18E
100
AcDbXrecord
280
     1
102
RTVSPost2010Prop28
280
     0
102
RTVSPost2010PropOp28
 70
     1
102
RTVSPost2010Prop29
280
     1
102
RTVSPost2010PropOp29
 70
     1
102
RTVSPost2010Prop30
280
     1
102
RTVSPost2010PropOp30
 70
     1
102
RTVSPost2010Prop31
280
     0
102
RTVSPost2010PropOp31
 70
     1
102
RTVSPost2010Prop32
280
     0
102
RTVSPost2010PropOp32
 70
     1
102
RTVSPost2010Prop33
280
     0
102
RTVSPost2010PropOp33
 70
     1
102
RTVSPost2010Prop34
280
     0
102
RTVSPost2010PropOp34
 70
     1
102
RTVSPost2010Prop35
280
     0
102
RTVSPost2010PropOp35
 70
     1
102
RTVSPost2010Prop36
280
     0
102
RTVSPost2010PropOp36
 70
     1
102
RTVSPost2010Prop37
 90
       50
102
RTVSPost2010PropOp37
 70
     1
102
RTVSPost2010Prop38
140
0.0
102
RTVSPost2010PropOp38
 70
     1
102
RTVSPost2010Prop39
140
1.0
102
RTVSPost2010PropOp39
 70
     1
102
RTVSPost2010Prop40
 90
        0
102
RTVSPost2010PropOp40
 70
     1
102
RTVSPost2010Prop41ColorIndex
 90
       18
102
RTVSPost2010Prop41ColorRGB
 90
        0
102
RTVSPost2010PropOp41
 70
     1
102
RTVSPost2010Prop42
 90
       50
102
RTVSPost2010PropOp42
 70
     1
102
RTVSPost2010Prop43
 90
        3
102
RTVSPost2010PropOp43
 70
     1
102
RTVSPost2010Prop44ColorIndex
 90
        5
102
RTVSPost2010Prop44ColorRGB
 90
      255
102
RTVSPost2010PropOp44
 70
     1
102
RTVSPost2010Prop45
280
     0
102
RTVSPost2010PropOp45
 70
     1
102
RTVSPost2010Prop46
 90
       50
102
RTVSPost2010PropOp46
 70
     1
102
RTVSPost2010Prop47
 90
       50
102
RTVSPost2010PropOp47
 70
     1
102
RTVSPost2010Prop48
 90
       50
102
RTVSPost2010PropOp48
 70
     1
102
RTVSPost2010Prop49
280
     0
102
RTVSPost2010PropOp49
 70
     1
102
RTVSPost2010Prop50
 90
       50
102
RTVSPost2010PropOp50
 70
     1
102
RTVSPost2010Prop51ColorIndex
 90
      256
102
RTVSPost2010Prop51ColorRGB
 90
-16777216
102
RTVSPost2010PropOp51
 70
     0
102
RTVSPost2010Prop52
140
1.0
102
RTVSPost2010PropOp52
 70
     0
102
RTVSPost2010Prop53
 90
        2
102
RTVSPost2010PropOp53
 70
     1
102
RTVSPost2010Prop54
  1
strokes_ogs.tif
102
RTVSPost2010PropOp54
 70
     1
102
RTVSPost2010Prop55
280
     0
102
RTVSPost2010PropOp55
 70
     1
102
RTVSPost2010Prop56
140
1.0
102
RTVSPost2010PropOp56
 70
     1
102
RTVSPost2010Prop57
140
1.0
102
RTVSPost2010PropOp57
 70
     1
  0
XRECORD
  5
1A1
102
{ACAD_REACTORS
330
1A0
102
}
330
1A0
100
AcDbXrecord
280
     1
102
RTVSPost2010Prop28
280
     0
102
RTVSPost2010PropOp28
 70
     0
102
RTVSPost2010Prop29
280
     1
102
RTVSPost2010PropOp29
 70
     0
102
RTVSPost2010Prop30
280
     1
102
RTVSPost2010PropOp30
 70
     0
102
RTVSPost2010Prop31
280
     0
102
RTVSPost2010PropOp31
 70
     0
102
RTVSPost2010Prop32
280
     0
102
RTVSPost2010PropOp32
 70
     0
102
RTVSPost2010Prop33
280
     0
102
RTVSPost2010PropOp33
 70
     0
102
RTVSPost2010Prop34
280
     0
102
RTVSPost2010PropOp34
 70
     0
102
RTVSPost2010Prop35
280
     0
102
RTVSPost2010PropOp35
 70
     0
102
RTVSPost2010Prop36
280
     0
102
RTVSPost2010PropOp36
 70
     0
102
RTVSPost2010Prop37
 90
       50
102
RTVSPost2010PropOp37
 70
     0
102
RTVSPost2010Prop38
140
0.0
102
RTVSPost2010PropOp38
 70
     0
102
RTVSPost2010Prop39
140
1.0
102
RTVSPost2010PropOp39
 70
     0
102
RTVSPost2010Prop40
 90
        0
102
RTVSPost2010PropOp40
 70
     0
102
RTVSPost2010Prop41ColorIndex
 90
       18
102
RTVSPost2010Prop41ColorRGB
 90
        0
102
RTVSPost2010PropOp41
 70
     0
102
RTVSPost2010Prop42
 90
       50
102
RTVSPost2010PropOp42
 70
     0
102
RTVSPost2010Prop43
 90
        3
102
RTVSPost2010PropOp43
 70
     0
102
RTVSPost2010Prop44ColorIndex
 90
        5
102
RTVSPost2010Prop44ColorRGB
 90
      255
102
RTVSPost2010PropOp44
 70
     0
102
RTVSPost2010Prop45
280
     0
102
RTVSPost2010PropOp45
 70
     0
102
RTVSPost2010Prop46
 90
       50
102
RTVSPost2010PropOp46
 70
     0
102
RTVSPost2010Prop47
 90
       50
102
RTVSPost2010PropOp47
 70
     0
102
RTVSPost2010Prop48
 90
       50
102
RTVSPost2010PropOp48
 70
     0
102
RTVSPost2010Prop49
280
     0
102
RTVSPost2010PropOp49
 70
     0
102
RTVSPost2010Prop50
 90
       50
102
RTVSPost2010PropOp50
 70
     0
102
RTVSPost2010Prop51ColorIndex
 90
      256
102
RTVSPost2010Prop51ColorRGB
 90
-16777216
102
RTVSPost2010PropOp51
 70
     0
102
RTVSPost2010Prop52
140
1.0
102
RTVSPost2010PropOp52
 70
     0
102
RTVSPost2010Prop53
 90
        2
102
RTVSPost2010PropOp53
 70
     0
102
RTVSPost2010Prop54
  1
strokes_ogs.tif
102
RTVSPost2010PropOp54
 70
     0
102
RTVSPost2010Prop55
280
     0
102
RTVSPost2010PropOp55
 70
     0
102
RTVSPost2010Prop56
140
1.0
102
RTVSPost2010PropOp56
 70
     0
102
RTVSPost2010Prop57
140
1.0
102
RTVSPost2010PropOp57
 70
     0
  0
XRECORD
  5
187
102
{ACAD_REACTORS
330
186
102
}
330
186
100
AcDbXrecord
280
     1
102
RTVSPost2010Prop28
280
     0
102
RTVSPost2010PropOp28
 70
     1
102
RTVSPost2010Prop29
280
     1
102
RTVSPost2010PropOp29
 70
     1
102
RTVSPost2010Prop30
280
     1
102
RTVSPost2010PropOp30
 70
     1
102
RTVSPost2010Prop31
280
     0
102
RTVSPost2010PropOp31
 70
     1
102
RTVSPost2010Prop32
280
     0
102
RTVSPost2010PropOp32
 70
     1
102
RTVSPost2010Prop33
280
     0
102
RTVSPost2010PropOp33
 70
     1
102
RTVSPost2010Prop34
280
     0
102
RTVSPost2010PropOp34
 70
     1
102
RTVSPost2010Prop35
280
     0
102
RTVSPost2010PropOp35
 70
     1
102
RTVSPost2010Prop36
280
     0
102
RTVSPost2010PropOp36
 70
     1
102
RTVSPost2010Prop37
 90
       50
102
RTVSPost2010PropOp37
 70
     1
102
RTVSPost2010Prop38
140
0.0
102
RTVSPost2010PropOp38
 70
     1
102
RTVSPost2010Prop39
140
1.0
102
RTVSPost2010PropOp39
 70
     1
102
RTVSPost2010Prop40
 90
        0
102
RTVSPost2010PropOp40
 70
     1
102
RTVSPost2010Prop41ColorIndex
 90
       18
102
RTVSPost2010Prop41ColorRGB
 90
        0
102
RTVSPost2010PropOp41
 70
     1
102
RTVSPost2010Prop42
 90
       50
102
RTVSPost2010PropOp42
 70
     1
102
RTVSPost2010Prop43
 90
        3
102
RTVSPost2010PropOp43
 70
     1
102
RTVSPost2010Prop44ColorIndex
 90
        5
102
RTVSPost2010Prop44ColorRGB
 90
      255
102
RTVSPost2010PropOp44
 70
     1
102
RTVSPost2010Prop45
280
     0
102
RTVSPost2010PropOp45
 70
     1
102
RTVSPost2010Prop46
 90
       50
102
RTVSPost2010PropOp46
 70
     1
102
RTVSPost2010Prop47
 90
       50
102
RTVSPost2010PropOp47
 70
     1
102
RTVSPost2010Prop48
 90
       50
102
RTVSPost2010PropOp48
 70
     1
102
RTVSPost2010Prop49
280
     0
102
RTVSPost2010PropOp49
 70
     1
102
RTVSPost2010Prop50
 90
       50
102
RTVSPost2010PropOp50
 70
     1
102
RTVSPost2010Prop51ColorIndex
 90
      256
102
RTVSPost2010Prop51ColorRGB
 90
-16777216
102
RTVSPost2010PropOp51
 70
     0
102
RTVSPost2010Prop52
140
1.0
102
RTVSPost2010PropOp52
 70
     0
102
RTVSPost2010Prop53
 90
        2
102
RTVSPost2010PropOp53
 70
     1
102
RTVSPost2010Prop54
  1
strokes_ogs.tif
102
RTVSPost2010PropOp54
 70
     1
102
RTVSPost2010Prop55
280
     0
102
RTVSPost2010PropOp55
 70
     1
102
RTVSPost2010Prop56
140
1.0
102
RTVSPost2010PropOp56
 70
     1
102
RTVSPost2010Prop57
140
1.0
102
RTVSPost2010PropOp57
 70
     1
  0
XRECORD
  5
19D
102
{ACAD_REACTORS
330
19C
102
}
330
19C
100
AcDbXrecord
280
     1
102
RTVSPost2010Prop28
280
     0
102
RTVSPost2010PropOp28
 70
     1
102
RTVSPost2010Prop29
280
     1
102
RTVSPost2010PropOp29
 70
     1
102
RTVSPost2010Prop30
280
     1
102
RTVSPost2010PropOp30
 70
     1
102
RTVSPost2010Prop31
280
     0
102
RTVSPost2010PropOp31
 70
     1
102
RTVSPost2010Prop32
280
     0
102
RTVSPost2010PropOp32
 70
     1
102
RTVSPost2010Prop33
280
     0
102
RTVSPost2010PropOp33
 70
     1
102
RTVSPost2010Prop34
280
     0
102
RTVSPost2010PropOp34
 70
     1
102
RTVSPost2010Prop35
280
     0
102
RTVSPost2010PropOp35
 70
     1
102
RTVSPost2010Prop36
280
     0
102
RTVSPost2010PropOp36
 70
     1
102
RTVSPost2010Prop37
 90
       50
102
RTVSPost2010PropOp37
 70
     1
102
RTVSPost2010Prop38
140
0.0
102
RTVSPost2010PropOp38
 70
     1
102
RTVSPost2010Prop39
140
1.0
102
RTVSPost2010PropOp39
 70
     1
102
RTVSPost2010Prop40
 90
        0
102
RTVSPost2010PropOp40
 70
     1
102
RTVSPost2010Prop41ColorIndex
 90
       18
102
RTVSPost2010Prop41ColorRGB
 90
        0
102
RTVSPost2010PropOp41
 70
     1
102
RTVSPost2010Prop42
 90
       50
102
RTVSPost2010PropOp42
 70
     1
102
RTVSPost2010Prop43
 90
        3
102
RTVSPost2010PropOp43
 70
     1
102
RTVSPost2010Prop44ColorIndex
 90
        5
102
RTVSPost2010Prop44ColorRGB
 90
      255
102
RTVSPost2010PropOp44
 70
     1
102
RTVSPost2010Prop45
280
     0
102
RTVSPost2010PropOp45
 70
     1
102
RTVSPost2010Prop46
 90
       50
102
RTVSPost2010PropOp46
 70
     1
102
RTVSPost2010Prop47
 90
       50
102
RTVSPost2010PropOp47
 70
     1
102
RTVSPost2010Prop48
 90
       50
102
RTVSPost2010PropOp48
 70
     1
102
RTVSPost2010Prop49
280
     0
102
RTVSPost2010PropOp49
 70
     1
102
RTVSPost2010Prop50
 90
       50
102
RTVSPost2010PropOp50
 70
     1
102
RTVSPost2010Prop51ColorIndex
 90
      256
102
RTVSPost2010Prop51ColorRGB
 90
-16777216
102
RTVSPost2010PropOp51
 70
     0
102
RTVSPost2010Prop52
140
1.0
102
RTVSPost2010PropOp52
 70
     0
102
RTVSPost2010Prop53
 90
        2
102
RTVSPost2010PropOp53
 70
     1
102
RTVSPost2010Prop54
  1
strokes_ogs.tif
102
RTVSPost2010PropOp54
 70
     1
102
RTVSPost2010Prop55
280
     0
102
RTVSPost2010PropOp55
 70
     1
102
RTVSPost2010Prop56
140
1.0
102
RTVSPost2010PropOp56
 70
     1
102
RTVSPost2010Prop57
140
1.0
102
RTVSPost2010PropOp57
 70
     1
  0
XRECORD
  5
19B
102
{ACAD_REACTORS
330
19A
102
}
330
19A
100
AcDbXrecord
280
     1
102
RTVSPost2010Prop28
280
     0
102
RTVSPost2010PropOp28
 70
     1
102
RTVSPost2010Prop29
280
     1
102
RTVSPost2010PropOp29
 70
     1
102
RTVSPost2010Prop30
280
     1
102
RTVSPost2010PropOp30
 70
     1
102
RTVSPost2010Prop31
280
     0
102
RTVSPost2010PropOp31
 70
     1
102
RTVSPost2010Prop32
280
     0
102
RTVSPost2010PropOp32
 70
     1
102
RTVSPost2010Prop33
280
     0
102
RTVSPost2010PropOp33
 70
     1
102
RTVSPost2010Prop34
280
     0
102
RTVSPost2010PropOp34
 70
     1
102
RTVSPost2010Prop35
280
     0
102
RTVSPost2010PropOp35
 70
     1
102
RTVSPost2010Prop36
280
     0
102
RTVSPost2010PropOp36
 70
     1
102
RTVSPost2010Prop37
 90
       50
102
RTVSPost2010PropOp37
 70
     1
102
RTVSPost2010Prop38
140
0.0
102
RTVSPost2010PropOp38
 70
     1
102
RTVSPost2010Prop39
140
1.0
102
RTVSPost2010PropOp39
 70
     1
102
RTVSPost2010Prop40
 90
        0
102
RTVSPost2010PropOp40
 70
     1
102
RTVSPost2010Prop41ColorIndex
 90
       18
102
RTVSPost2010Prop41ColorRGB
 90
        0
102
RTVSPost2010PropOp41
 70
     1
102
RTVSPost2010Prop42
 90
       50
102
RTVSPost2010PropOp42
 70
     1
102
RTVSPost2010Prop43
 90
        3
102
RTVSPost2010PropOp43
 70
     1
102
RTVSPost2010Prop44ColorIndex
 90
        5
102
RTVSPost2010Prop44ColorRGB
 90
      255
102
RTVSPost2010PropOp44
 70
     1
102
RTVSPost2010Prop45
280
     0
102
RTVSPost2010PropOp45
 70
     1
102
RTVSPost2010Prop46
 90
       50
102
RTVSPost2010PropOp46
 70
     1
102
RTVSPost2010Prop47
 90
       50
102
RTVSPost2010PropOp47
 70
     1
102
RTVSPost2010Prop48
 90
       50
102
RTVSPost2010PropOp48
 70
     1
102
RTVSPost2010Prop49
280
     0
102
RTVSPost2010PropOp49
 70
     1
102
RTVSPost2010Prop50
 90
       50
102
RTVSPost2010PropOp50
 70
     1
102
RTVSPost2010Prop51ColorIndex
 90
      256
102
RTVSPost2010Prop51ColorRGB
 90
-16777216
102
RTVSPost2010PropOp51
 70
     0
102
RTVSPost2010Prop52
140
1.0
102
RTVSPost2010PropOp52
 70
     0
102
RTVSPost2010Prop53
 90
        2
102
RTVSPost2010PropOp53
 70
     1
102
RTVSPost2010Prop54
  1
strokes_ogs.tif
102
RTVSPost2010PropOp54
 70
     1
102
RTVSPost2010Prop55
280
     0
102
RTVSPost2010PropOp55
 70
     1
102
RTVSPost2010Prop56
140
1.0
102
RTVSPost2010PropOp56
 70
     1
102
RTVSPost2010Prop57
140
1.0
102
RTVSPost2010PropOp57
 70
     1
  0
XRECORD
  5
195
102
{ACAD_REACTORS
330
194
102
}
330
194
100
AcDbXrecord
280
     1
102
RTVSPost2010Prop28
280
     0
102
RTVSPost2010PropOp28
 70
     1
102
RTVSPost2010Prop29
280
     1
102
RTVSPost2010PropOp29
 70
     1
102
RTVSPost2010Prop30
280
     1
102
RTVSPost2010PropOp30
 70
     1
102
RTVSPost2010Prop31
280
     0
102
RTVSPost2010PropOp31
 70
     1
102
RTVSPost2010Prop32
280
     0
102
RTVSPost2010PropOp32
 70
     1
102
RTVSPost2010Prop33
280
     0
102
RTVSPost2010PropOp33
 70
     1
102
RTVSPost2010Prop34
280
     0
102
RTVSPost2010PropOp34
 70
     1
102
RTVSPost2010Prop35
280
     0
102
RTVSPost2010PropOp35
 70
     1
102
RTVSPost2010Prop36
280
     0
102
RTVSPost2010PropOp36
 70
     1
102
RTVSPost2010Prop37
 90
       50
102
RTVSPost2010PropOp37
 70
     1
102
RTVSPost2010Prop38
140
0.0
102
RTVSPost2010PropOp38
 70
     1
102
RTVSPost2010Prop39
140
1.0
102
RTVSPost2010PropOp39
 70
     1
102
RTVSPost2010Prop40
 90
        0
102
RTVSPost2010PropOp40
 70
     1
102
RTVSPost2010Prop41ColorIndex
 90
       18
102
RTVSPost2010Prop41ColorRGB
 90
        0
102
RTVSPost2010PropOp41
 70
     1
102
RTVSPost2010Prop42
 90
       50
102
RTVSPost2010PropOp42
 70
     1
102
RTVSPost2010Prop43
 90
        3
102
RTVSPost2010PropOp43
 70
     1
102
RTVSPost2010Prop44ColorIndex
 90
        5
102
RTVSPost2010Prop44ColorRGB
 90
      255
102
RTVSPost2010PropOp44
 70
     1
102
RTVSPost2010Prop45
280
     0
102
RTVSPost2010PropOp45
 70
     1
102
RTVSPost2010Prop46
 90
       50
102
RTVSPost2010PropOp46
 70
     1
102
RTVSPost2010Prop47
 90
       50
102
RTVSPost2010PropOp47
 70
     1
102
RTVSPost2010Prop48
 90
       50
102
RTVSPost2010PropOp48
 70
     1
102
RTVSPost2010Prop49
280
     0
102
RTVSPost2010PropOp49
 70
     1
102
RTVSPost2010Prop50
 90
       50
102
RTVSPost2010PropOp50
 70
     1
102
RTVSPost2010Prop51ColorIndex
 90
      256
102
RTVSPost2010Prop51ColorRGB
 90
-16777216
102
RTVSPost2010PropOp51
 70
     0
102
RTVSPost2010Prop52
140
1.0
102
RTVSPost2010PropOp52
 70
     0
102
RTVSPost2010Prop53
 90
        2
102
RTVSPost2010PropOp53
 70
     1
102
RTVSPost2010Prop54
  1
strokes_ogs.tif
102
RTVSPost2010PropOp54
 70
     1
102
RTVSPost2010Prop55
280
     0
102
RTVSPost2010PropOp55
 70
     1
102
RTVSPost2010Prop56
140
1.0
102
RTVSPost2010PropOp56
 70
     1
102
RTVSPost2010Prop57
140
1.0
102
RTVSPost2010PropOp57
 70
     1
  0
XRECORD
  5
197
102
{ACAD_REACTORS
330
196
102
}
330
196
100
AcDbXrecord
280
     1
102
RTVSPost2010Prop28
280
     0
102
RTVSPost2010PropOp28
 70
     1
102
RTVSPost2010Prop29
280
     1
102
RTVSPost2010PropOp29
 70
     1
102
RTVSPost2010Prop30
280
     1
102
RTVSPost2010PropOp30
 70
     1
102
RTVSPost2010Prop31
280
     0
102
RTVSPost2010PropOp31
 70
     1
102
RTVSPost2010Prop32
280
     0
102
RTVSPost2010PropOp32
 70
     1
102
RTVSPost2010Prop33
280
     0
102
RTVSPost2010PropOp33
 70
     1
102
RTVSPost2010Prop34
280
     0
102
RTVSPost2010PropOp34
 70
     1
102
RTVSPost2010Prop35
280
     0
102
RTVSPost2010PropOp35
 70
     1
102
RTVSPost2010Prop36
280
     0
102
RTVSPost2010PropOp36
 70
     1
102
RTVSPost2010Prop37
 90
       50
102
RTVSPost2010PropOp37
 70
     1
102
RTVSPost2010Prop38
140
0.0
102
RTVSPost2010PropOp38
 70
     1
102
RTVSPost2010Prop39
140
1.0
102
RTVSPost2010PropOp39
 70
     1
102
RTVSPost2010Prop40
 90
        0
102
RTVSPost2010PropOp40
 70
     1
102
RTVSPost2010Prop41ColorIndex
 90
       18
102
RTVSPost2010Prop41ColorRGB
 90
        0
102
RTVSPost2010PropOp41
 70
     1
102
RTVSPost2010Prop42
 90
       50
102
RTVSPost2010PropOp42
 70
     1
102
RTVSPost2010Prop43
 90
        3
102
RTVSPost2010PropOp43
 70
     1
102
RTVSPost2010Prop44ColorIndex
 90
        5
102
RTVSPost2010Prop44ColorRGB
 90
      255
102
RTVSPost2010PropOp44
 70
     1
102
RTVSPost2010Prop45
280
     0
102
RTVSPost2010PropOp45
 70
     1
102
RTVSPost2010Prop46
 90
       50
102
RTVSPost2010PropOp46
 70
     1
102
RTVSPost2010Prop47
 90
       50
102
RTVSPost2010PropOp47
 70
     1
102
RTVSPost2010Prop48
 90
       50
102
RTVSPost2010PropOp48
 70
     1
102
RTVSPost2010Prop49
280
     0
102
RTVSPost2010PropOp49
 70
     1
102
RTVSPost2010Prop50
 90
       50
102
RTVSPost2010PropOp50
 70
     1
102
RTVSPost2010Prop51ColorIndex
 90
      256
102
RTVSPost2010Prop51ColorRGB
 90
-16777216
102
RTVSPost2010PropOp51
 70
     0
102
RTVSPost2010Prop52
140
1.0
102
RTVSPost2010PropOp52
 70
     0
102
RTVSPost2010Prop53
 90
        2
102
RTVSPost2010PropOp53
 70
     1
102
RTVSPost2010Prop54
  1
strokes_ogs.tif
102
RTVSPost2010PropOp54
 70
     1
102
RTVSPost2010Prop55
280
     0
102
RTVSPost2010PropOp55
 70
     1
102
RTVSPost2010Prop56
140
1.0
102
RTVSPost2010PropOp56
 70
     1
102
RTVSPost2010Prop57
140
1.0
102
RTVSPost2010PropOp57
 70
     1
  0
XRECORD
  5
18D
102
{ACAD_REACTORS
330
18C
102
}
330
18C
100
AcDbXrecord
280
     1
102
RTVSPost2010Prop28
280
     0
102
RTVSPost2010PropOp28
 70
     1
102
RTVSPost2010Prop29
280
     1
102
RTVSPost2010PropOp29
 70
     1
102
RTVSPost2010Prop30
280
     1
102
RTVSPost2010PropOp30
 70
     1
102
RTVSPost2010Prop31
280
     0
102
RTVSPost2010PropOp31
 70
     1
102
RTVSPost2010Prop32
280
     0
102
RTVSPost2010PropOp32
 70
     1
102
RTVSPost2010Prop33
280
     0
102
RTVSPost2010PropOp33
 70
     1
102
RTVSPost2010Prop34
280
     0
102
RTVSPost2010PropOp34
 70
     1
102
RTVSPost2010Prop35
280
     0
102
RTVSPost2010PropOp35
 70
     1
102
RTVSPost2010Prop36
280
     0
102
RTVSPost2010PropOp36
 70
     1
102
RTVSPost2010Prop37
 90
       50
102
RTVSPost2010PropOp37
 70
     1
102
RTVSPost2010Prop38
140
0.0
102
RTVSPost2010PropOp38
 70
     1
102
RTVSPost2010Prop39
140
1.0
102
RTVSPost2010PropOp39
 70
     1
102
RTVSPost2010Prop40
 90
        0
102
RTVSPost2010PropOp40
 70
     1
102
RTVSPost2010Prop41ColorIndex
 90
       18
102
RTVSPost2010Prop41ColorRGB
 90
        0
102
RTVSPost2010PropOp41
 70
     1
102
RTVSPost2010Prop42
 90
       50
102
RTVSPost2010PropOp42
 70
     1
102
RTVSPost2010Prop43
 90
        3
102
RTVSPost2010PropOp43
 70
     1
102
RTVSPost2010Prop44ColorIndex
 90
        5
102
RTVSPost2010Prop44ColorRGB
 90
      255
102
RTVSPost2010PropOp44
 70
     1
102
RTVSPost2010Prop45
280
     0
102
RTVSPost2010PropOp45
 70
     1
102
RTVSPost2010Prop46
 90
       50
102
RTVSPost2010PropOp46
 70
     1
102
RTVSPost2010Prop47
 90
       50
102
RTVSPost2010PropOp47
 70
     1
102
RTVSPost2010Prop48
 90
       50
102
RTVSPost2010PropOp48
 70
     1
102
RTVSPost2010Prop49
280
     0
102
RTVSPost2010PropOp49
 70
     1
102
RTVSPost2010Prop50
 90
       50
102
RTVSPost2010PropOp50
 70
     1
102
RTVSPost2010Prop51ColorIndex
 90
      256
102
RTVSPost2010Prop51ColorRGB
 90
-16777216
102
RTVSPost2010PropOp51
 70
     0
102
RTVSPost2010Prop52
140
1.0
102
RTVSPost2010PropOp52
 70
     0
102
RTVSPost2010Prop53
 90
        2
102
RTVSPost2010PropOp53
 70
     1
102
RTVSPost2010Prop54
  1
strokes_ogs.tif
102
RTVSPost2010PropOp54
 70
     1
102
RTVSPost2010Prop55
280
     0
102
RTVSPost2010PropOp55
 70
     1
102
RTVSPost2010Prop56
140
1.0
102
RTVSPost2010PropOp56
 70
     1
102
RTVSPost2010Prop57
140
1.0
102
RTVSPost2010PropOp57
 70
     1
  0
XRECORD
  5
181
102
{ACAD_REACTORS
330
180
102
}
330
180
100
AcDbXrecord
280
     1
102
RTVSPost2010Prop28
280
     0
102
RTVSPost2010PropOp28
 70
     1
102
RTVSPost2010Prop29
280
     1
102
RTVSPost2010PropOp29
 70
     1
102
RTVSPost2010Prop30
280
     1
102
RTVSPost2010PropOp30
 70
     1
102
RTVSPost2010Prop31
280
     0
102
RTVSPost2010PropOp31
 70
     1
102
RTVSPost2010Prop32
280
     0
102
RTVSPost2010PropOp32
 70
     1
102
RTVSPost2010Prop33
280
     0
102
RTVSPost2010PropOp33
 70
     1
102
RTVSPost2010Prop34
280
     0
102
RTVSPost2010PropOp34
 70
     1
102
RTVSPost2010Prop35
280
     0
102
RTVSPost2010PropOp35
 70
     1
102
RTVSPost2010Prop36
280
     0
102
RTVSPost2010PropOp36
 70
     1
102
RTVSPost2010Prop37
 90
       50
102
RTVSPost2010PropOp37
 70
     1
102
RTVSPost2010Prop38
140
0.0
102
RTVSPost2010PropOp38
 70
     1
102
RTVSPost2010Prop39
140
1.0
102
RTVSPost2010PropOp39
 70
     1
102
RTVSPost2010Prop40
 90
        0
102
RTVSPost2010PropOp40
 70
     1
102
RTVSPost2010Prop41ColorIndex
 90
       18
102
RTVSPost2010Prop41ColorRGB
 90
        0
102
RTVSPost2010PropOp41
 70
     1
102
RTVSPost2010Prop42
 90
       50
102
RTVSPost2010PropOp42
 70
     1
102
RTVSPost2010Prop43
 90
        3
102
RTVSPost2010PropOp43
 70
     1
102
RTVSPost2010Prop44ColorIndex
 90
        5
102
RTVSPost2010Prop44ColorRGB
 90
      255
102
RTVSPost2010PropOp44
 70
     1
102
RTVSPost2010Prop45
280
     0
102
RTVSPost2010PropOp45
 70
     1
102
RTVSPost2010Prop46
 90
       50
102
RTVSPost2010PropOp46
 70
     1
102
RTVSPost2010Prop47
 90
       50
102
RTVSPost2010PropOp47
 70
     1
102
RTVSPost2010Prop48
 90
       50
102
RTVSPost2010PropOp48
 70
     1
102
RTVSPost2010Prop49
280
     0
102
RTVSPost2010PropOp49
 70
     1
102
RTVSPost2010Prop50
 90
       50
102
RTVSPost2010PropOp50
 70
     1
102
RTVSPost2010Prop51ColorIndex
 90
      256
102
RTVSPost2010Prop51ColorRGB
 90
-16777216
102
RTVSPost2010PropOp51
 70
     0
102
RTVSPost2010Prop52
140
1.0
102
RTVSPost2010PropOp52
 70
     0
102
RTVSPost2010Prop53
 90
        2
102
RTVSPost2010PropOp53
 70
     1
102
RTVSPost2010Prop54
  1
strokes_ogs.tif
102
RTVSPost2010PropOp54
 70
     1
102
RTVSPost2010Prop55
280
     0
102
RTVSPost2010PropOp55
 70
     1
102
RTVSPost2010Prop56
140
1.0
102
RTVSPost2010PropOp56
 70
     1
102
RTVSPost2010Prop57
140
1.0
102
RTVSPost2010PropOp57
 70
     1
  0
XRECORD
  5
199
102
{ACAD_REACTORS
330
198
102
}
330
198
100
AcDbXrecord
280
     1
102
RTVSPost2010Prop28
280
     0
102
RTVSPost2010PropOp28
 70
     1
102
RTVSPost2010Prop29
280
     1
102
RTVSPost2010PropOp29
 70
     1
102
RTVSPost2010Prop30
280
     1
102
RTVSPost2010PropOp30
 70
     1
102
RTVSPost2010Prop31
280
     0
102
RTVSPost2010PropOp31
 70
     1
102
RTVSPost2010Prop32
280
     0
102
RTVSPost2010PropOp32
 70
     1
102
RTVSPost2010Prop33
280
     0
102
RTVSPost2010PropOp33
 70
     1
102
RTVSPost2010Prop34
280
     0
102
RTVSPost2010PropOp34
 70
     1
102
RTVSPost2010Prop35
280
     0
102
RTVSPost2010PropOp35
 70
     1
102
RTVSPost2010Prop36
280
     0
102
RTVSPost2010PropOp36
 70
     1
102
RTVSPost2010Prop37
 90
       50
102
RTVSPost2010PropOp37
 70
     1
102
RTVSPost2010Prop38
140
0.0
102
RTVSPost2010PropOp38
 70
     1
102
RTVSPost2010Prop39
140
1.0
102
RTVSPost2010PropOp39
 70
     1
102
RTVSPost2010Prop40
 90
        0
102
RTVSPost2010PropOp40
 70
     1
102
RTVSPost2010Prop41ColorIndex
 90
       18
102
RTVSPost2010Prop41ColorRGB
 90
        0
102
RTVSPost2010PropOp41
 70
     1
102
RTVSPost2010Prop42
 90
       50
102
RTVSPost2010PropOp42
 70
     1
102
RTVSPost2010Prop43
 90
        3
102
RTVSPost2010PropOp43
 70
     1
102
RTVSPost2010Prop44ColorIndex
 90
        5
102
RTVSPost2010Prop44ColorRGB
 90
      255
102
RTVSPost2010PropOp44
 70
     1
102
RTVSPost2010Prop45
280
     0
102
RTVSPost2010PropOp45
 70
     1
102
RTVSPost2010Prop46
 90
       50
102
RTVSPost2010PropOp46
 70
     1
102
RTVSPost2010Prop47
 90
       50
102
RTVSPost2010PropOp47
 70
     1
102
RTVSPost2010Prop48
 90
       50
102
RTVSPost2010PropOp48
 70
     1
102
RTVSPost2010Prop49
280
     0
102
RTVSPost2010PropOp49
 70
     1
102
RTVSPost2010Prop50
 90
       50
102
RTVSPost2010PropOp50
 70
     1
102
RTVSPost2010Prop51ColorIndex
 90
      256
102
RTVSPost2010Prop51ColorRGB
 90
-16777216
102
RTVSPost2010PropOp51
 70
     0
102
RTVSPost2010Prop52
140
1.0
102
RTVSPost2010PropOp52
 70
     0
102
RTVSPost2010Prop53
 90
        2
102
RTVSPost2010PropOp53
 70
     1
102
RTVSPost2010Prop54
  1
strokes_ogs.tif
102
RTVSPost2010PropOp54
 70
     1
102
RTVSPost2010Prop55
280
     0
102
RTVSPost2010PropOp55
 70
     1
102
RTVSPost2010Prop56
140
1.0
102
RTVSPost2010PropOp56
 70
     1
102
RTVSPost2010Prop57
140
1.0
102
RTVSPost2010PropOp57
 70
     1
  0
ENDSEC
  0
EOF
