  0
SECTION
  2
HEADER
  9
$ACADVER
  1
AC1024
  9
$ACADMAINTVER
 70
   205
  9
$DWGCODEPAGE
  3
ANSI_1251
  9
$INSBASE
 10
0.0
 20
0.0
 30
0.0
  9
$EXTMIN
 10
1.000000000000000E+20
 20
1.000000000000000E+20
 30
1.000000000000000E+20
  9
$EXTMAX
 10
-1.000000000000000E+20
 20
-1.000000000000000E+20
 30
-1.000000000000000E+20
  9
$LIMMIN
 10
0.0
 20
0.0
  9
$LIMMAX
 10
12.0
 20
9.0
  9
$ORTHOMODE
 70
     0
  9
$REGENMODE
 70
     1
  9
$FILLMODE
 70
     1
  9
$QTEXTMODE
 70
     0
  9
$MIRRTEXT
 70
     1
  9
$LTSCALE
 40
1.0
  9
$ATTMODE
 70
     1
  9
$TEXTSIZE
 40
0.2
  9
$TRACEWID
 40
0.05
  9
$TEXTSTYLE
  7
Standard
  9
$CLAYER
  8
OracDecor_panel_moldings
  9
$CELTYPE
  6
ByLayer
  9
$CECOLOR
 62
   256
  9
$CELTSCALE
 40
1.0
  9
$DISPSILH
 70
     0
  9
$DIMSCALE
 40
1.0
  9
$DIMASZ
 40
0.18
  9
$DIMEXO
 40
0.0625
  9
$DIMDLI
 40
0.38
  9
$DIMRND
 40
0.0
  9
$DIMDLE
 40
0.0
  9
$DIMEXE
 40
0.18
  9
$DIMTP
 40
0.0
  9
$DIMTM
 40
0.0
  9
$DIMTXT
 40
0.18
  9
$DIMCEN
 40
0.09
  9
$DIMTSZ
 40
0.0
  9
$DIMTOL
 70
     0
  9
$DIMLIM
 70
     0
  9
$DIMTIH
 70
     1
  9
$DIMTOH
 70
     1
  9
$DIMSE1
 70
     0
  9
$DIMSE2
 70
     0
  9
$DIMTAD
 70
     0
  9
$DIMZIN
 70
     0
  9
$DIMBLK
  1

  9
$DIMASO
 70
     1
  9
$DIMSHO
 70
     1
  9
$DIMPOST
  1

  9
$DIMAPOST
  1

  9
$DIMALT
 70
     0
  9
$DIMALTD
 70
     2
  9
$DIMALTF
 40
25.4
  9
$DIMLFAC
 40
1.0
  9
$DIMTOFL
 70
     0
  9
$DIMTVP
 40
0.0
  9
$DIMTIX
 70
     0
  9
$DIMSOXD
 70
     0
  9
$DIMSAH
 70
     0
  9
$DIMBLK1
  1

  9
$DIMBLK2
  1

  9
$DIMSTYLE
  2
Standard
  9
$DIMCLRD
 70
     0
  9
$DIMCLRE
 70
     0
  9
$DIMCLRT
 70
     0
  9
$DIMTFAC
 40
1.0
  9
$DIMGAP
 40
0.09
  9
$DIMJUST
 70
     0
  9
$DIMSD1
 70
     0
  9
$DIMSD2
 70
     0
  9
$DIMTOLJ
 70
     1
  9
$DIMTZIN
 70
     0
  9
$DIMALTZ
 70
     0
  9
$DIMALTTZ
 70
     0
  9
$DIMUPT
 70
     0
  9
$DIMDEC
 70
     4
  9
$DIMTDEC
 70
     4
  9
$DIMALTU
 70
     2
  9
$DIMALTTD
 70
     2
  9
$DIMTXSTY
  7
Standard
  9
$DIMAUNIT
 70
     0
  9
$DIMADEC
 70
     0
  9
$DIMALTRND
 40
0.0
  9
$DIMAZIN
 70
     0
  9
$DIMDSEP
 70
    46
  9
$DIMATFIT
 70
     3
  9
$DIMFRAC
 70
     0
  9
$DIMLDRBLK
  1

  9
$DIMLUNIT
 70
     2
  9
$DIMLWD
 70
    -2
  9
$DIMLWE
 70
    -2
  9
$DIMTMOVE
 70
     0
  9
$DIMFXL
 40
1.0
  9
$DIMFXLON
 70
     0
  9
$DIMJOGANG
 40
0.7853981633974483
  9
$DIMTFILL
 70
     0
  9
$DIMTFILLCLR
 70
     0
  9
$DIMARCSYM
 70
     0
  9
$DIMLTYPE
  6

  9
$DIMLTEX1
  6

  9
$DIMLTEX2
  6

  9
$DIMTXTDIRECTION
 70
     0
  9
$LUNITS
 70
     2
  9
$LUPREC
 70
     4
  9
$SKETCHINC
 40
0.1
  9
$FILLETRAD
 40
0.5
  9
$AUNITS
 70
     0
  9
$AUPREC
 70
     0
  9
$MENU
  1
.
  9
$ELEVATION
 40
0.0
  9
$PELEVATION
 40
0.0
  9
$THICKNESS
 40
0.0
  9
$LIMCHECK
 70
     0
  9
$CHAMFERA
 40
0.5
  9
$CHAMFERB
 40
0.5
  9
$CHAMFERC
 40
1.0
  9
$CHAMFERD
 40
0.0
  9
$SKPOLY
 70
     0
  9
$TDCREATE
 40
2451380.930432396
  9
$TDUCREATE
 40
2451380.805432396
  9
$TDUPDATE
 40
2451380.966180555
  9
$TDUUPDATE
 40
2451380.841180556
  9
$TDINDWG
 40
0.0075623148
  9
$TDUSRTIMER
 40
0.0075532755
  9
$USRTIMER
 70
     1
  9
$ANGBASE
 50
0.0
  9
$ANGDIR
 70
     0
  9
$PDMODE
 70
     0
  9
$PDSIZE
 40
0.0
  9
$PLINEWID
 40
0.0
  9
$SPLFRAME
 70
     0
  9
$SPLINETYPE
 70
     6
  9
$SPLINESEGS
 70
     8
  9
$HANDSEED
  5
1A4
  9
$SURFTAB1
 70
     6
  9
$SURFTAB2
 70
     6
  9
$SURFTYPE
 70
     6
  9
$SURFU
 70
     6
  9
$SURFV
 70
     6
  9
$UCSBASE
  2

  9
$UCSNAME
  2

  9
$UCSORG
 10
0.0
 20
0.0
 30
0.0
  9
$UCSXDIR
 10
1.0
 20
0.0
 30
0.0
  9
$UCSYDIR
 10
0.0
 20
1.0
 30
0.0
  9
$UCSORTHOREF
  2

  9
$UCSORTHOVIEW
 70
     0
  9
$UCSORGTOP
 10
0.0
 20
0.0
 30
0.0
  9
$UCSORGBOTTOM
 10
0.0
 20
0.0
 30
0.0
  9
$UCSORGLEFT
 10
0.0
 20
0.0
 30
0.0
  9
$UCSORGRIGHT
 10
0.0
 20
0.0
 30
0.0
  9
$UCSORGFRONT
 10
0.0
 20
0.0
 30
0.0
  9
$UCSORGBACK
 10
0.0
 20
0.0
 30
0.0
  9
$PUCSBASE
  2

  9
$PUCSNAME
  2

  9
$PUCSORG
 10
0.0
 20
0.0
 30
0.0
  9
$PUCSXDIR
 10
1.0
 20
0.0
 30
0.0
  9
$PUCSYDIR
 10
0.0
 20
1.0
 30
0.0
  9
$PUCSORTHOREF
  2

  9
$PUCSORTHOVIEW
 70
     0
  9
$PUCSORGTOP
 10
0.0
 20
0.0
 30
0.0
  9
$PUCSORGBOTTOM
 10
0.0
 20
0.0
 30
0.0
  9
$PUCSORGLEFT
 10
0.0
 20
0.0
 30
0.0
  9
$PUCSORGRIGHT
 10
0.0
 20
0.0
 30
0.0
  9
$PUCSORGFRONT
 10
0.0
 20
0.0
 30
0.0
  9
$PUCSORGBACK
 10
0.0
 20
0.0
 30
0.0
  9
$USERI1
 70
     0
  9
$USERI2
 70
     0
  9
$USERI3
 70
     0
  9
$USERI4
 70
     0
  9
$USERI5
 70
     0
  9
$USERR1
 40
0.0
  9
$USERR2
 40
0.0
  9
$USERR3
 40
0.0
  9
$USERR4
 40
0.0
  9
$USERR5
 40
0.0
  9
$WORLDVIEW
 70
     1
  9
$SHADEDGE
 70
     3
  9
$SHADEDIF
 70
    70
  9
$TILEMODE
 70
     1
  9
$MAXACTVP
 70
    64
  9
$PINSBASE
 10
0.0
 20
0.0
 30
0.0
  9
$PLIMCHECK
 70
     0
  9
$PEXTMIN
 10
1.000000000000000E+20
 20
1.000000000000000E+20
 30
1.000000000000000E+20
  9
$PEXTMAX
 10
-1.000000000000000E+20
 20
-1.000000000000000E+20
 30
-1.000000000000000E+20
  9
$PLIMMIN
 10
0.0
 20
0.0
  9
$PLIMMAX
 10
12.0
 20
9.0
  9
$UNITMODE
 70
     0
  9
$VISRETAIN
 70
     1
  9
$PLINEGEN
 70
     0
  9
$PSLTSCALE
 70
     1
  9
$TREEDEPTH
 70
  3020
  9
$CMLSTYLE
  2
Standard
  9
$CMLJUST
 70
     0
  9
$CMLSCALE
 40
1.0
  9
$PROXYGRAPHICS
 70
     1
  9
$MEASUREMENT
 70
     1
  9
$CELWEIGHT
370
    -1
  9
$ENDCAPS
280
     0
  9
$JOINSTYLE
280
     0
  9
$LWDISPLAY
290
     0
  9
$INSUNITS
 70
     4
  9
$HYPERLINKBASE
  1

  9
$STYLESHEET
  1

  9
$XEDIT
290
     1
  9
$CEPSNTYPE
380
     0
  9
$PSTYLEMODE
290
     1
  9
$FINGERPRINTGUID
  2
{12F50282-3ED8-11D3-A8B7-0060B0F84BC6}
  9
$VERSIONGUID
  2
{12F50293-3ED8-11D3-A8B7-0060B0F84BC6}
  9
$EXTNAMES
290
     1
  9
$PSVPSCALE
 40
0.0
  9
$OLESTARTUP
290
     0
  9
$SORTENTS
280
   127
  9
$INDEXCTL
280
     0
  9
$HIDETEXT
280
     0
  9
$XCLIPFRAME
280
     2
  9
$HALOGAP
280
     0
  9
$OBSCOLOR
 70
   257
  9
$OBSLTYPE
280
     0
  9
$INTERSECTIONDISPLAY
280
     0
  9
$INTERSECTIONCOLOR
 70
   257
  9
$DIMASSOC
280
     1
  9
$PROJECTNAME
  1

  9
$CAMERADISPLAY
290
     0
  9
$LENSLENGTH
 40
50.0
  9
$CAMERAHEIGHT
 40
0.0
  9
$STEPSPERSEC
 40
2.0
  9
$STEPSIZE
 40
6.0
  9
$3DDWFPREC
 40
2.0
  9
$PSOLWIDTH
 40
0.25
  9
$PSOLHEIGHT
 40
4.0
  9
$LOFTANG1
 40
1.570796326794896
  9
$LOFTANG2
 40
1.570796326794896
  9
$LOFTMAG1
 40
0.0
  9
$LOFTMAG2
 40
0.0
  9
$LOFTPARAM
 70
     7
  9
$LOFTNORMALS
280
     1
  9
$LATITUDE
 40
37.795
  9
$LONGITUDE
 40
-122.394
  9
$NORTHDIRECTION
 40
0.0
  9
$TIMEZONE
 70
 -8000
  9
$LIGHTGLYPHDISPLAY
280
     1
  9
$TILEMODELIGHTSYNCH
280
     1
  9
$CMATERIAL
347
AB
  9
$SOLIDHIST
280
     0
  9
$SHOWHIST
280
     1
  9
$DWFFRAME
280
     2
  9
$DGNFRAME
280
     0
  9
$REALWORLDSCALE
290
     1
  9
$INTERFERECOLOR
 62
     1
  9
$INTERFEREOBJVS
345
CD
  9
$INTERFEREVPVS
346
CA
  9
$CSHADOW
280
     0
  9
$SHADOWPLANELOCATION
 40
0.0
  0
ENDSEC
  0
SECTION
  2
CLASSES
  0
CLASS
  1
ACDBDICTIONARYWDFLT
  2
AcDbDictionaryWithDefault
  3
ObjectDBX Classes
 90
        0
 91
        1
280
     0
281
     0
  0
CLASS
  1
ACDBPLACEHOLDER
  2
AcDbPlaceHolder
  3
ObjectDBX Classes
 90
        0
 91
        2
280
     0
281
     0
  0
CLASS
  1
LAYOUT
  2
AcDbLayout
  3
ObjectDBX Classes
 90
        0
 91
        3
280
     0
281
     0
  0
CLASS
  1
MATERIAL
  2
AcDbMaterial
  3
ObjectDBX Classes
 90
     1153
 91
        3
280
     0
281
     0
  0
CLASS
  1
VISUALSTYLE
  2
AcDbVisualStyle
  3
ObjectDBX Classes
 90
     4095
 91
       24
280
     0
281
     0
  0
CLASS
  1
TABLESTYLE
  2
AcDbTableStyle
  3
ObjectDBX Classes
 90
     4095
 91
        1
280
     0
281
     0
  0
CLASS
  1
SCALE
  2
AcDbScale
  3
ObjectDBX Classes
 90
     1153
 91
       17
280
     0
281
     0
  0
CLASS
  1
MLEADERSTYLE
  2
AcDbMLeaderStyle
  3
ACDB_MLEADERSTYLE_CLASS
 90
     4095
 91
        1
280
     0
281
     0
  0
CLASS
  1
ACDBSECTIONVIEWSTYLE
  2
AcDbSectionViewStyle
  3
ObjectDBX Classes
 90
     1025
 91
        1
280
     0
281
     0
  0
CLASS
  1
ACDBDETAILVIEWSTYLE
  2
AcDbDetailViewStyle
  3
ObjectDBX Classes
 90
     1025
 91
        1
280
     0
281
     0
  0
CLASS
  1
MESH
  2
AcDbSubDMesh
  3
ObjectDBX Classes
 90
        0
 91
        1
280
     0
281
     1
  0
CLASS
  1
DICTIONARYVAR
  2
AcDbDictionaryVar
  3
ObjectDBX Classes
 90
        0
 91
        9
280
     0
281
     0
  0
CLASS
  1
CELLSTYLEMAP
  2
AcDbCellStyleMap
  3
ObjectDBX Classes
 90
     1152
 91
        1
280
     0
281
     0
  0
ENDSEC
  0
SECTION
  2
TABLES
  0
TABLE
  2
VPORT
  5
8
330
0
100
AcDbSymbolTable
 70
     1
  0
VPORT
  5
A8
330
8
100
AcDbSymbolTableRecord
100
AcDbViewportTableRecord
  2
*Active
 70
     0
 10
0.0
 20
0.0
 11
1.0
 21
1.0
 12
0.0000822706497274
 22
17.26775741577148
 13
0.0
 23
0.0
 14
0.5
 24
0.5
 15
0.5
 25
0.5
 16
-1.0
 26
-1.0
 36
1.0
 17
0.0
 27
0.0
 37
0.0
 40
1058.823335621233
 41
1.662859884338748
 42
50.0
 43
0.0
 44
0.0
 50
0.0
 51
0.0
 71
     0
 72
   100
 73
     1
 74
     3
 75
     0
 76
     0
 77
     0
 78
     0
281
     0
 65
     1
110
0.0
120
0.0
130
0.0
111
1.0
121
0.0
131
0.0
112
0.0
122
1.0
132
0.0
 79
     0
146
0.0
348
C9
 60
     3
 61
     5
292
     1
282
     1
141
0.0
142
0.0
 63
   250
421
  3355443
  0
ENDTAB
  0
TABLE
  2
LTYPE
  5
5
330
0
100
AcDbSymbolTable
 70
     1
  0
LTYPE
  5
14
330
5
100
AcDbSymbolTableRecord
100
AcDbLinetypeTableRecord
  2
ByBlock
 70
     0
  3

 72
    65
 73
     0
 40
0.0
  0
LTYPE
  5
15
330
5
100
AcDbSymbolTableRecord
100
AcDbLinetypeTableRecord
  2
ByLayer
 70
     0
  3

 72
    65
 73
     0
 40
0.0
  0
LTYPE
  5
16
330
5
100
AcDbSymbolTableRecord
100
AcDbLinetypeTableRecord
  2
Continuous
 70
     0
  3
Solid line
 72
    65
 73
     0
 40
0.0
  0
ENDTAB
  0
TABLE
  2
LAYER
  5
2
330
0
100
AcDbSymbolTable
 70
     3
  0
LAYER
  5
10
330
2
100
AcDbSymbolTableRecord
100
AcDbLayerTableRecord
  2
0
 70
     0
 62
     7
  6
Continuous
370
    -3
390
F
347
BB
  0
LAYER
  5
2B
330
2
100
AcDbSymbolTableRecord
100
AcDbLayerTableRecord
  2
ASHADE
 70
     4
 62
     7
  6
Continuous
370
    -3
390
2D
347
BB
  0
LAYER
  5
F8
330
2
100
AcDbSymbolTableRecord
100
AcDbLayerTableRecord
  2
OracDecor_panel_moldings
 70
     0
 62
    33
420
 14782295
  6
Continuous
370
    -3
390
F
347
BB
  0
ENDTAB
  0
TABLE
  2
STYLE
  5
3
330
0
100
AcDbSymbolTable
 70
     2
  0
STYLE
  5
11
330
3
100
AcDbSymbolTableRecord
100
AcDbTextStyleTableRecord
  2
Standard
 70
     0
 40
0.0
 41
1.0
 50
0.0
 71
     0
 42
0.2
  3
txt
  4

  0
STYLE
  5
2C
330
3
100
AcDbSymbolTableRecord
100
AcDbTextStyleTableRecord
  2
ASHADE
 70
     0
 40
0.2
 41
1.0
 50
0.0
 71
     0
 42
0.2
  3
simplex
  4

  0
ENDTAB
  0
TABLE
  2
VIEW
  5
6
330
0
100
AcDbSymbolTable
 70
     0
  0
ENDTAB
  0
TABLE
  2
UCS
  5
7
330
0
100
AcDbSymbolTable
 70
     0
  0
ENDTAB
  0
TABLE
  2
APPID
  5
9
330
0
100
AcDbSymbolTable
 70
     6
  0
APPID
  5
12
330
9
100
AcDbSymbolTableRecord
100
AcDbRegAppTableRecord
  2
ACAD
 70
     0
  0
APPID
  5
8F
330
9
100
AcDbSymbolTableRecord
100
AcDbRegAppTableRecord
  2
AVE_RENDER
 70
     0
  0
APPID
  5
90
330
9
100
AcDbSymbolTableRecord
100
AcDbRegAppTableRecord
  2
AVE_ENTITY_MATERIAL
 70
     0
  0
APPID
  5
9C
330
9
100
AcDbSymbolTableRecord
100
AcDbRegAppTableRecord
  2
AVE_FINISH
 70
     0
  0
APPID
  5
9D
330
9
100
AcDbSymbolTableRecord
100
AcDbRegAppTableRecord
  2
AVE_MATERIAL
 70
     0
  0
APPID
  5
9E
330
9
100
AcDbSymbolTableRecord
100
AcDbRegAppTableRecord
  2
AVE_GLOBAL
 70
     0
  0
ENDTAB
  0
TABLE
  2
DIMSTYLE
  5
A
330
0
100
AcDbSymbolTable
 70
     1
100
AcDbDimStyleTable
 71
     0
  0
DIMSTYLE
105
27
330
A
100
AcDbSymbolTableRecord
100
AcDbDimStyleTableRecord
  2
Standard
 70
     0
340
11
  0
ENDTAB
  0
TABLE
  2
BLOCK_RECORD
  5
1
330
0
100
AcDbSymbolTable
 70
     6
  0
BLOCK_RECORD
  5
1F
330
1
100
AcDbSymbolTableRecord
100
AcDbBlockTableRecord
  2
*Model_Space
340
22
 70
     0
280
     1
281
     0
  0
BLOCK_RECORD
  5
1B
330
1
100
AcDbSymbolTableRecord
100
AcDbBlockTableRecord
  2
*Paper_Space
340
1E
 70
     0
280
     1
281
     0
  0
BLOCK_RECORD
  5
23
330
1
100
AcDbSymbolTableRecord
100
AcDbBlockTableRecord
  2
*Paper_Space0
340
26
 70
     0
280
     1
281
     0
  0
BLOCK_RECORD
  5
2E
330
1
100
AcDbSymbolTableRecord
100
AcDbBlockTableRecord
  2
direct
340
0
 70
     0
280
     1
281
     0
  0
BLOCK_RECORD
  5
42
330
1
100
AcDbSymbolTableRecord
100
AcDbBlockTableRecord
  2
overhead
340
0
 70
     0
280
     1
281
     0
  0
BLOCK_RECORD
  5
5F
330
1
100
AcDbSymbolTableRecord
100
AcDbBlockTableRecord
  2
sh_spot
340
0
 70
     0
280
     1
281
     0
  0
BLOCK_RECORD
  5
91
330
1
100
AcDbSymbolTableRecord
100
AcDbBlockTableRecord
  2
AVE_RENDER
340
0
102
{BLKREFS
331
94
331
95
331
96
331
97
331
98
331
99
331
9A
331
9B
102
}
 70
     0
280
     1
281
     0
  0
BLOCK_RECORD
  5
9F
330
1
100
AcDbSymbolTableRecord
100
AcDbBlockTableRecord
  2
AVE_GLOBAL
340
0
102
{BLKREFS
331
A2
102
}
 70
     0
280
     1
281
     0
  0
ENDTAB
  0
ENDSEC
  0
SECTION
  2
BLOCKS
  0
BLOCK
  5
20
330
1F
100
AcDbEntity
  8
0
100
AcDbBlockBegin
  2
*Model_Space
 70
     0
 10
0.0
 20
0.0
 30
0.0
  3
*Model_Space
  1

  0
ENDBLK
  5
21
330
1F
100
AcDbEntity
  8
0
100
AcDbBlockEnd
  0
BLOCK
  5
1C
330
1B
100
AcDbEntity
 67
     1
  8
0
100
AcDbBlockBegin
  2
*Paper_Space
 70
     0
 10
0.0
 20
0.0
 30
0.0
  3
*Paper_Space
  1

  0
ENDBLK
  5
1D
330
1B
100
AcDbEntity
 67
     1
  8
0
100
AcDbBlockEnd
  0
BLOCK
  5
24
330
23
100
AcDbEntity
 67
     1
  8
0
100
AcDbBlockBegin
  2
*Paper_Space0
 70
     0
 10
0.0
 20
0.0
 30
0.0
  3
*Paper_Space0
  1

  0
ENDBLK
  5
25
330
23
100
AcDbEntity
 67
     1
  8
0
100
AcDbBlockEnd
  0
BLOCK
  5
40
330
2E
100
AcDbEntity
  8
0
100
AcDbBlockBegin
  2
direct
 70
     2
 10
0.0
 20
0.0
 30
0.0
  3
direct
  1

  0
ATTDEF
  5
2F
330
2E
100
AcDbEntity
  8
ASHADE
  6
Continuous
 62
     1
100
AcDbText
 10
0.0
 20
-0.1
 30
0.0
 40
0.2
  1

  7
ASHADE
 72
     1
 11
0.0
 21
-0.1
 31
0.0
100
AcDbAttributeDefinition
280
     0
  3
Light Name
  2
SNAME
 70
     0
280
     0
  0
ARC
  5
30
330
2E
100
AcDbEntity
  8
ASHADE
  6
Continuous
 62
     7
100
AcDbCircle
 10
0.0
 20
0.0
 30
0.0
 40
0.3
100
AcDbArc
 50
205.6792886194569
 51
334.3207113805431
  0
ARC
  5
31
330
2E
100
AcDbEntity
  8
ASHADE
  6
Continuous
 62
     7
100
AcDbCircle
 10
0.0
 20
0.0
 30
0.0
 40
0.3
100
AcDbArc
 50
25.67928861945685
 51
154.3207113805431
  0
LINE
  5
32
330
2E
100
AcDbEntity
  8
ASHADE
  6
Continuous
 62
     7
100
AcDbLine
 10
-0.21
 20
0.2142428528562855
 30
0.0
 11
-0.21
 21
0.5
 31
0.0
  0
LINE
  5
33
330
2E
100
AcDbEntity
  8
ASHADE
  6
Continuous
 62
     7
100
AcDbLine
 10
-0.11
 20
0.2791057147390572
 30
0.0
 11
-0.11
 21
0.5
 31
0.0
  0
LINE
  5
34
330
2E
100
AcDbEntity
  8
ASHADE
  6
Continuous
 62
     7
100
AcDbLine
 10
0.21
 20
0.2142428528562855
 30
0.0
 11
0.21
 21
0.5
 31
0.0
  0
ATTDEF
  5
35
330
2E
100
AcDbEntity
  8
ASHADE
  6
Continuous
 62
     7
100
AcDbText
 10
0.0
 20
0.25
 30
0.0
 40
0.01
  1

100
AcDbAttributeDefinition
280
     0
  3
Look-at Y
  2
LAY
 70
     1
280
     0
  0
ATTDEF
  5
36
330
2E
100
AcDbEntity
  8
ASHADE
  6
Continuous
 62
     7
100
AcDbText
 10
0.0
 20
0.22
 30
0.0
 40
0.01
  1
1
100
AcDbAttributeDefinition
280
     0
  3
Light Intensity
  2
INTENSITY
 70
     1
280
     0
  0
ATTDEF
  5
37
330
2E
100
AcDbEntity
  8
ASHADE
  6
Continuous
 62
     7
100
AcDbText
 10
0.0
 20
0.16
 30
0.0
 40
0.01
  1
-1
100
AcDbAttributeDefinition
280
     0
  3
*not used*
  2
BEAMD
 70
     1
280
     0
  0
ATTDEF
  5
38
330
2E
100
AcDbEntity
  8
ASHADE
  6
Continuous
 62
     7
100
AcDbText
 10
0.0
 20
0.175
 30
0.0
 40
0.01
  1
-1
100
AcDbAttributeDefinition
280
     0
  3
*not used*
  2
CONED
 70
     1
280
     0
  0
ATTDEF
  5
39
330
2E
100
AcDbEntity
  8
ASHADE
  6
Continuous
 62
     7
100
AcDbText
 10
0.0
 20
0.19
 30
0.0
 40
0.01
  1
0
100
AcDbAttributeDefinition
280
     0
  3
Depth Map Size
  2
CONEA
 70
     1
280
     0
  0
ATTDEF
  5
3A
330
2E
100
AcDbEntity
  8
ASHADE
  6
Continuous
 62
     7
100
AcDbText
 10
0.0
 20
0.2050000000000001
 30
0.0
 40
0.01
  1
1,1,1
100
AcDbAttributeDefinition
280
     0
  3
Light Color (RGB)
  2
COLOR
 70
     1
280
     0
  0
ATTDEF
  5
3B
330
2E
100
AcDbEntity
  8
ASHADE
  6
Continuous
 62
     7
100
AcDbText
 10
0.0
 20
0.235
 30
0.0
 40
0.01
  1

100
AcDbAttributeDefinition
280
     0
  3
Look-at Z
  2
LAZ
 70
     1
280
     0
  0
LINE
  5
3C
330
2E
100
AcDbEntity
  8
ASHADE
  6
Continuous
 62
     7
100
AcDbLine
 10
0.0
 20
0.3
 30
0.0
 11
0.0
 21
0.5
 31
0.0
  0
LINE
  5
3D
330
2E
100
AcDbEntity
  8
ASHADE
  6
Continuous
 62
     7
100
AcDbLine
 10
0.11
 20
0.2791057147390572
 30
0.0
 11
0.11
 21
0.5
 31
0.0
  0
ATTDEF
  5
3E
330
2E
100
AcDbEntity
  8
ASHADE
  6
Continuous
 62
     7
100
AcDbText
 10
0.0
 20
0.265
 30
0.0
 40
0.01
  1

100
AcDbAttributeDefinition
280
     0
  3
Look-at X
  2
LAX
 70
     1
280
     0
  0
ATTDEF
  5
3F
330
2E
100
AcDbEntity
  8
ASHADE
  6
Continuous
 62
     7
100
AcDbText
 10
0.0
 20
0.28
 30
0.0
 40
0.01
  1

100
AcDbAttributeDefinition
280
     0
  3

  2
GNAME
 70
     1
280
     0
  0
ENDBLK
  5
41
330
2E
100
AcDbEntity
  8
0
100
AcDbBlockEnd
  0
BLOCK
  5
5D
330
42
100
AcDbEntity
  8
0
100
AcDbBlockBegin
  2
overhead
 70
     2
 10
0.0
 20
0.0
 30
0.0
  3
overhead
  1

  0
ATTDEF
  5
43
330
42
100
AcDbEntity
  8
ASHADE
  6
Continuous
 62
     1
100
AcDbText
 10
0.0
 20
-0.1
 30
0.0
 40
0.2
  1

  7
ASHADE
 72
     1
 11
0.0
 21
-0.1
 31
0.0
100
AcDbAttributeDefinition
280
     0
  3
Light Name
  2
SNAME
 70
     0
280
     0
  0
ARC
  5
44
330
42
100
AcDbEntity
  8
ASHADE
  6
Continuous
 62
     7
100
AcDbCircle
 10
0.0
 20
0.0
 30
0.0
 40
0.3
100
AcDbArc
 50
205.6792886194569
 51
334.3207113805431
  0
LINE
  5
45
330
42
100
AcDbEntity
  8
ASHADE
  6
Continuous
 62
     7
100
AcDbLine
 10
-0.2041413561583015
 20
-0.2198324514393848
 30
0.0
 11
-0.2721884748777353
 21
-0.2931099352525131
 31
0.0
  0
LINE
  5
46
330
42
100
AcDbEntity
  8
ASHADE
  6
Continuous
 62
     7
100
AcDbLine
 10
-0.1096591641591904
 20
-0.2792398032442862
 30
0.0
 11
-0.1279356915190555
 21
-0.3257797704516673
 31
0.0
  0
LINE
  5
47
330
42
100
AcDbEntity
  8
ASHADE
  6
Continuous
 62
     7
100
AcDbLine
 10
0.0
 20
-0.2999999999999999
 30
0.0
 11
0.0
 21
-0.4
 31
0.0
  0
LINE
  5
48
330
42
100
AcDbEntity
  8
ASHADE
  6
Continuous
 62
     7
100
AcDbLine
 10
0.1096591641591904
 20
-0.2792398032442862
 30
0.0
 11
0.1279356915190555
 21
-0.3257797704516673
 31
0.0
  0
LINE
  5
49
330
42
100
AcDbEntity
  8
ASHADE
  6
Continuous
 62
     7
100
AcDbLine
 10
0.2041413561583015
 20
-0.2198324514393848
 30
0.0
 11
0.2721884748777353
 21
-0.2931099352525131
 31
0.0
  0
ARC
  5
4A
330
42
100
AcDbEntity
  8
ASHADE
  6
Continuous
 62
     7
100
AcDbCircle
 10
0.0
 20
0.0
 30
0.0
 40
0.3
100
AcDbArc
 50
25.67928861945685
 51
154.3207113805431
  0
LINE
  5
4B
330
42
100
AcDbEntity
  8
ASHADE
  6
Continuous
 62
     7
100
AcDbLine
 10
-0.2703701166919155
 20
0.13
 30
0.0
 11
-0.3154318028072347
 21
0.1516666666666666
 31
0.0
  0
LINE
  5
4C
330
42
100
AcDbEntity
  8
ASHADE
  6
Continuous
 62
     7
100
AcDbLine
 10
-0.2703701166919155
 20
-0.13
 30
0.0
 11
-0.3154318028072347
 21
-0.1516666666666666
 31
0.0
  0
LINE
  5
4D
330
42
100
AcDbEntity
  8
ASHADE
  6
Continuous
 62
     7
100
AcDbLine
 10
-0.2041413561583015
 20
0.2198324514393849
 30
0.0
 11
-0.2721884748777353
 21
0.2931099352525131
 31
0.0
  0
LINE
  5
4E
330
42
100
AcDbEntity
  8
ASHADE
  6
Continuous
 62
     7
100
AcDbLine
 10
-0.1096591641591904
 20
0.2792398032442862
 30
0.0
 11
-0.1279356915190555
 21
0.3257797704516674
 31
0.0
  0
LINE
  5
4F
330
42
100
AcDbEntity
  8
ASHADE
  6
Continuous
 62
     7
100
AcDbLine
 10
0.2703701166919155
 20
-0.13
 30
0.0
 11
0.3154318028072347
 21
-0.1516666666666666
 31
0.0
  0
LINE
  5
50
330
42
100
AcDbEntity
  8
ASHADE
  6
Continuous
 62
     7
100
AcDbLine
 10
0.2703701166919155
 20
0.13
 30
0.0
 11
0.3154318028072347
 21
0.1516666666666666
 31
0.0
  0
LINE
  5
51
330
42
100
AcDbEntity
  8
ASHADE
  6
Continuous
 62
     7
100
AcDbLine
 10
0.0
 20
0.3
 30
0.0
 11
0.0
 21
0.4
 31
0.0
  0
ATTDEF
  5
52
330
42
100
AcDbEntity
  8
ASHADE
  6
Continuous
 62
     7
100
AcDbText
 10
0.0
 20
0.22
 30
0.0
 40
0.01
  1
1
100
AcDbAttributeDefinition
280
     0
  3
Light Intensity
  2
INTENSITY
 70
     1
280
     0
  0
ATTDEF
  5
53
330
42
100
AcDbEntity
  8
ASHADE
  6
Continuous
 62
     7
100
AcDbText
 10
0.0
 20
0.16
 30
0.0
 40
0.01
  1
-1
100
AcDbAttributeDefinition
280
     0
  3
*not used*
  2
BEAMD
 70
     1
280
     0
  0
ATTDEF
  5
54
330
42
100
AcDbEntity
  8
ASHADE
  6
Continuous
 62
     7
100
AcDbText
 10
0.0
 20
0.175
 30
0.0
 40
0.01
  1
-1
100
AcDbAttributeDefinition
280
     0
  3
*not used*
  2
CONED
 70
     1
280
     0
  0
ATTDEF
  5
55
330
42
100
AcDbEntity
  8
ASHADE
  6
Continuous
 62
     7
100
AcDbText
 10
0.0
 20
0.19
 30
0.0
 40
0.01
  1
0
100
AcDbAttributeDefinition
280
     0
  3
Depth Map Size
  2
CONEA
 70
     1
280
     0
  0
ATTDEF
  5
56
330
42
100
AcDbEntity
  8
ASHADE
  6
Continuous
 62
     7
100
AcDbText
 10
0.0
 20
0.2050000000000001
 30
0.0
 40
0.01
  1
1,1,1
100
AcDbAttributeDefinition
280
     0
  3
Light Color (RGB)
  2
COLOR
 70
     1
280
     0
  0
ATTDEF
  5
57
330
42
100
AcDbEntity
  8
ASHADE
  6
Continuous
 62
     7
100
AcDbText
 10
0.0
 20
0.235
 30
0.0
 40
0.01
  1

100
AcDbAttributeDefinition
280
     0
  3
Look-at Z
  2
LAZ
 70
     1
280
     0
  0
ATTDEF
  5
58
330
42
100
AcDbEntity
  8
ASHADE
  6
Continuous
 62
     7
100
AcDbText
 10
0.0
 20
0.25
 30
0.0
 40
0.01
  1

100
AcDbAttributeDefinition
280
     0
  3
Look-at Y
  2
LAY
 70
     1
280
     0
  0
ATTDEF
  5
59
330
42
100
AcDbEntity
  8
ASHADE
  6
Continuous
 62
     7
100
AcDbText
 10
0.0
 20
0.265
 30
0.0
 40
0.01
  1

100
AcDbAttributeDefinition
280
     0
  3
Look-at X
  2
LAX
 70
     1
280
     0
  0
ATTDEF
  5
5A
330
42
100
AcDbEntity
  8
ASHADE
  6
Continuous
 62
     7
100
AcDbText
 10
0.0
 20
0.28
 30
0.0
 40
0.01
  1

100
AcDbAttributeDefinition
280
     0
  3

  2
GNAME
 70
     1
280
     0
  0
LINE
  5
5B
330
42
100
AcDbEntity
  8
ASHADE
  6
Continuous
 62
     7
100
AcDbLine
 10
0.1096591641591904
 20
0.2792398032442862
 30
0.0
 11
0.1279356915190555
 21
0.3257797704516674
 31
0.0
  0
LINE
  5
5C
330
42
100
AcDbEntity
  8
ASHADE
  6
Continuous
 62
     7
100
AcDbLine
 10
0.2041413561583015
 20
0.2198324514393849
 30
0.0
 11
0.2721884748777353
 21
0.2931099352525131
 31
0.0
  0
ENDBLK
  5
5E
330
42
100
AcDbEntity
  8
0
100
AcDbBlockEnd
  0
BLOCK
  5
85
330
5F
100
AcDbEntity
  8
0
100
AcDbBlockBegin
  2
sh_spot
 70
     2
 10
0.0
 20
0.0
 30
0.0
  3
sh_spot
  1

  0
LINE
  5
60
330
5F
100
AcDbEntity
  8
ASHADE
  6
Continuous
 62
     7
100
AcDbLine
 10
0.25
 20
0.26
 30
0.0
 11
-0.25
 21
0.26
 31
0.0
  0
LINE
  5
61
330
5F
100
AcDbEntity
  8
ASHADE
  6
Continuous
 62
     7
100
AcDbLine
 10
-0.25
 20
-0.3399999999999999
 30
0.0
 11
0.25
 21
-0.3399999999999999
 31
0.0
  0
ATTDEF
  5
62
330
5F
100
AcDbEntity
  8
ASHADE
  6
Continuous
 62
     1
100
AcDbText
 10
0.0
 20
-0.1
 30
0.0
 40
0.2
  1

  7
ASHADE
 72
     1
 11
0.0
 21
-0.1
 31
0.0
100
AcDbAttributeDefinition
280
     0
  3
Light Name
  2
SNAME
 70
     0
280
     0
  0
LINE
  5
63
330
5F
100
AcDbEntity
  8
ASHADE
  6
Continuous
 62
     7
100
AcDbLine
 10
-0.25
 20
-0.13
 30
0.0
 11
-0.25
 21
-0.3399999999999999
 31
0.0
  0
LINE
  5
64
330
5F
100
AcDbEntity
  8
ASHADE
  6
Continuous
 62
     7
100
AcDbLine
 10
-0.25
 20
-0.18
 30
0.0
 11
-0.29
 21
-0.18
 31
0.0
  0
LINE
  5
65
330
5F
100
AcDbEntity
  8
ASHADE
  6
Continuous
 62
     7
100
AcDbLine
 10
-0.29
 20
-0.22
 30
0.0
 11
-0.25
 21
-0.22
 31
0.0
  0
LINE
  5
66
330
5F
100
AcDbEntity
  8
ASHADE
  6
Continuous
 62
     7
100
AcDbLine
 10
-0.29
 20
-0.18
 30
0.0
 11
-0.29
 21
-0.22
 31
0.0
  0
LINE
  5
67
330
5F
100
AcDbEntity
  8
ASHADE
  6
Continuous
 62
     7
100
AcDbLine
 10
-0.1045454545454545
 20
0.26
 30
0.0
 11
-0.15
 21
0.46
 31
0.0
  0
LINE
  5
68
330
5F
100
AcDbEntity
  8
ASHADE
  6
Continuous
 62
     7
100
AcDbLine
 10
-0.21
 20
0.26
 30
0.0
 11
-0.301304347826087
 21
0.46
 31
0.0
  0
LINE
  5
69
330
5F
100
AcDbEntity
  8
ASHADE
  6
Continuous
 62
     7
100
AcDbLine
 10
-0.25
 20
0.26
 30
0.0
 11
-0.25
 21
0.13
 31
0.0
  0
LINE
  5
6A
330
5F
100
AcDbEntity
  8
ASHADE
  6
Continuous
 62
     7
100
AcDbLine
 10
-0.25
 20
0.22
 30
0.0
 11
-0.29
 21
0.22
 31
0.0
  0
LINE
  5
6B
330
5F
100
AcDbEntity
  8
ASHADE
  6
Continuous
 62
     7
100
AcDbLine
 10
-0.29
 20
0.1799999999999999
 30
0.0
 11
-0.25
 21
0.1799999999999999
 31
0.0
  0
LINE
  5
6C
330
5F
100
AcDbEntity
  8
ASHADE
  6
Continuous
 62
     7
100
AcDbLine
 10
-0.29
 20
0.22
 30
0.0
 11
-0.29
 21
0.1799999999999999
 31
0.0
  0
ATTDEF
  5
6D
330
5F
100
AcDbEntity
  8
ASHADE
  6
Continuous
 62
     7
100
AcDbText
 10
0.0
 20
-0.24
 30
0.0
 40
0.01
  1
0
100
AcDbAttributeDefinition
280
     0
  3
Depth Map Size
  2
ZSIZE
 70
     1
280
     0
  0
ATTDEF
  5
6E
330
5F
100
AcDbEntity
  8
ASHADE
  6
Continuous
 62
     7
100
AcDbText
 10
0.0
 20
-0.3300000000000001
 30
0.0
 40
0.01
  1
0,0,0
100
AcDbAttributeDefinition
280
     0
  3
Look-from XYZ
  2
LFXYZ
 70
     1
280
     0
  0
ATTDEF
  5
6F
330
5F
100
AcDbEntity
  8
ASHADE
  6
Continuous
 62
     7
100
AcDbText
 10
0.0
 20
-0.315
 30
0.0
 40
0.01
  1
0.0
100
AcDbAttributeDefinition
280
     0
  3
Beam Distribution
  2
BEAMDI
 70
     1
280
     0
  0
ATTDEF
  5
70
330
5F
100
AcDbEntity
  8
ASHADE
  6
Continuous
 62
     7
100
AcDbText
 10
0.0
 20
-0.3
 30
0.0
 40
0.01
  1
0.0
100
AcDbAttributeDefinition
280
     0
  3
Cone Delta
  2
CONEDE
 70
     1
280
     0
  0
ATTDEF
  5
71
330
5F
100
AcDbEntity
  8
ASHADE
  6
Continuous
 62
     7
100
AcDbText
 10
0.0
 20
-0.2850000000000001
 30
0.0
 40
0.01
  1
10.0
100
AcDbAttributeDefinition
280
     0
  3
Cone Angle
  2
CONEAN
 70
     1
280
     0
  0
ATTDEF
  5
72
330
5F
100
AcDbEntity
  8
ASHADE
  6
Continuous
 62
     7
100
AcDbText
 10
0.0
 20
-0.27
 30
0.0
 40
0.01
  1
-1
100
AcDbAttributeDefinition
280
     0
  3
*not used*
  2
BIASMAX
 70
     1
280
     0
  0
ATTDEF
  5
73
330
5F
100
AcDbEntity
  8
ASHADE
  6
Continuous
 62
     7
100
AcDbText
 10
0.0
 20
-0.255
 30
0.0
 40
0.01
  1
-1
100
AcDbAttributeDefinition
280
     0
  3
*not used*
  2
BIASMIN
 70
     1
280
     0
  0
ATTDEF
  5
74
330
5F
100
AcDbEntity
  8
ASHADE
  6
Continuous
 62
     7
100
AcDbText
 10
0.0
 20
-0.225
 30
0.0
 40
0.01
  1
1,1,1
100
AcDbAttributeDefinition
280
     0
  3
Light Color (RGB)
  2
COLOR
 70
     1
280
     0
  0
ATTDEF
  5
75
330
5F
100
AcDbEntity
  8
ASHADE
  6
Continuous
 62
     7
100
AcDbText
 10
0.0
 20
-0.21
 30
0.0
 40
0.01
  1
1
100
AcDbAttributeDefinition
280
     0
  3
Light Intensity
  2
INTENSITY
 70
     1
280
     0
  0
ATTDEF
  5
76
330
5F
100
AcDbEntity
  8
ASHADE
  6
Continuous
 62
     7
100
AcDbText
 10
0.0
 20
-0.15
 30
0.0
 40
0.01
  1

100
AcDbAttributeDefinition
280
     0
  3

  2
GNAME
 70
     1
280
     0
  0
ATTDEF
  5
77
330
5F
100
AcDbEntity
  8
ASHADE
  6
Continuous
 62
     7
100
AcDbText
 10
0.0
 20
-0.195
 30
0.0
 40
0.01
  1

100
AcDbAttributeDefinition
280
     0
  3
Look-at Z
  2
LAZ
 70
     1
280
     0
  0
ATTDEF
  5
78
330
5F
100
AcDbEntity
  8
ASHADE
  6
Continuous
 62
     7
100
AcDbText
 10
0.0
 20
-0.18
 30
0.0
 40
0.01
  1

100
AcDbAttributeDefinition
280
     0
  3
Look-at Y
  2
LAY
 70
     1
280
     0
  0
ATTDEF
  5
79
330
5F
100
AcDbEntity
  8
ASHADE
  6
Continuous
 62
     7
100
AcDbText
 10
0.0
 20
-0.165
 30
0.0
 40
0.01
  1

100
AcDbAttributeDefinition
280
     0
  3
Look-at X
  2
LAX
 70
     1
280
     0
  0
LINE
  5
7A
330
5F
100
AcDbEntity
  8
ASHADE
  6
Continuous
 62
     7
100
AcDbLine
 10
0.25
 20
-0.3399999999999999
 30
0.0
 11
0.25
 21
-0.13
 31
0.0
  0
LINE
  5
7B
330
5F
100
AcDbEntity
  8
ASHADE
  6
Continuous
 62
     7
100
AcDbLine
 10
0.25
 20
-0.18
 30
0.0
 11
0.29
 21
-0.18
 31
0.0
  0
LINE
  5
7C
330
5F
100
AcDbEntity
  8
ASHADE
  6
Continuous
 62
     7
100
AcDbLine
 10
0.29
 20
-0.22
 30
0.0
 11
0.25
 21
-0.22
 31
0.0
  0
LINE
  5
7D
330
5F
100
AcDbEntity
  8
ASHADE
  6
Continuous
 62
     7
100
AcDbLine
 10
0.29
 20
-0.18
 30
0.0
 11
0.29
 21
-0.22
 31
0.0
  0
LINE
  5
7E
330
5F
100
AcDbEntity
  8
ASHADE
  6
Continuous
 62
     7
100
AcDbLine
 10
0.21
 20
0.26
 30
0.0
 11
0.301304347826087
 21
0.46
 31
0.0
  0
LINE
  5
7F
330
5F
100
AcDbEntity
  8
ASHADE
  6
Continuous
 62
     7
100
AcDbLine
 10
0.1045454545454545
 20
0.26
 30
0.0
 11
0.15
 21
0.46
 31
0.0
  0
LINE
  5
80
330
5F
100
AcDbEntity
  8
ASHADE
  6
Continuous
 62
     7
100
AcDbLine
 10
0.0
 20
0.26
 30
0.0
 11
0.0
 21
0.46
 31
0.0
  0
LINE
  5
81
330
5F
100
AcDbEntity
  8
ASHADE
  6
Continuous
 62
     7
100
AcDbLine
 10
0.25
 20
0.13
 30
0.0
 11
0.25
 21
0.26
 31
0.0
  0
LINE
  5
82
330
5F
100
AcDbEntity
  8
ASHADE
  6
Continuous
 62
     7
100
AcDbLine
 10
0.25
 20
0.22
 30
0.0
 11
0.29
 21
0.22
 31
0.0
  0
LINE
  5
83
330
5F
100
AcDbEntity
  8
ASHADE
  6
Continuous
 62
     7
100
AcDbLine
 10
0.29
 20
0.1799999999999999
 30
0.0
 11
0.25
 21
0.1799999999999999
 31
0.0
  0
LINE
  5
84
330
5F
100
AcDbEntity
  8
ASHADE
  6
Continuous
 62
     7
100
AcDbLine
 10
0.29
 20
0.22
 30
0.0
 11
0.29
 21
0.1799999999999999
 31
0.0
  0
ENDBLK
  5
86
330
5F
100
AcDbEntity
  8
0
100
AcDbBlockEnd
  0
BLOCK
  5
92
330
91
100
AcDbEntity
  8
ASHADE
100
AcDbBlockBegin
  2
AVE_RENDER
 70
     0
 10
0.0
 20
0.0
 30
0.0
  3
AVE_RENDER
  1
AVE_RENDER
  0
ENDBLK
  5
93
330
91
100
AcDbEntity
  8
0
100
AcDbBlockEnd
  0
BLOCK
  5
A0
330
9F
100
AcDbEntity
  8
ASHADE
100
AcDbBlockBegin
  2
AVE_GLOBAL
 70
     0
 10
0.0
 20
0.0
 30
0.0
  3
AVE_GLOBAL
  1
AVE_GLOBAL
  0
ENDBLK
  5
A1
330
9F
100
AcDbEntity
  8
0
100
AcDbBlockEnd
  0
ENDSEC
  0
SECTION
  2
ENTITIES
  0
INSERT
  5
94
330
1F
100
AcDbEntity
  8
ASHADE
 62
     1
100
AcDbBlockReference
  2
AVE_RENDER
 10
0.0
 20
0.0
 30
0.0
1001
AVE_RENDER
1002
{
1070
     7
1000
Pref
1070
    30
1070
    20
1070
     1
1070
     0
1000

1070
    10
1070
     1
1070
    10
1040
1.0
1070
     1
1040
0.3
1040
0.7
1040
0.0
1040
10.0
1010
-1.0
1020
-1.0
1030
-1.0
1040
0.3
1070
    49
1070
     0
1070
     0
1010
1.0
1020
1.0
1030
1.0
1040
45.0
1070
     1
1070
     0
1000
WCS
1040
0.0
1070
     0
1040
10.0
1002
}
  0
INSERT
  5
95
330
1F
100
AcDbEntity
  8
ASHADE
 62
     3
100
AcDbBlockReference
  2
AVE_RENDER
 10
0.0
 20
0.0
 30
0.0
1001
AVE_RENDER
1002
{
1070
     0
1000
Full Opt
1070
     0
1070
     1
1070
     1
1070
     1
1070
     0
1070
     0
1070
     0
1070
     1
1070
     1
1040
0.0001
1040
0.0001
1002
}
  0
INSERT
  5
96
330
1F
100
AcDbEntity
  8
ASHADE
 62
     4
100
AcDbBlockReference
  2
AVE_RENDER
 10
0.0
 20
0.0
 30
0.0
1001
AVE_RENDER
1002
{
1070
     0
1000
Quick Opt
1070
     0
1070
     1
1070
     1
1070
     1
1070
     0
1070
     0
1070
     1
1002
}
  0
INSERT
  5
97
330
1F
100
AcDbEntity
  8
ASHADE
 62
     5
100
AcDbBlockReference
  2
AVE_RENDER
 10
0.0
 20
0.0
 30
0.0
1001
AVE_RENDER
1002
{
1070
     1
1000
Scanl Opt
1070
     2
1070
     0
1070
     2
1040
2.0
1040
4.0
1070
     0
1070
     1
1070
     0
1040
0.03
1002
}
  0
INSERT
  5
98
330
1F
100
AcDbEntity
  8
ASHADE
 62
     6
100
AcDbBlockReference
  2
AVE_RENDER
 10
0.0
 20
0.0
 30
0.0
1001
AVE_RENDER
1002
{
1070
     2
1000
Raytr Opt
1070
     2
1070
     0
1070
     2
1040
2.0
1040
4.0
1070
     0
1070
     1
1070
     1
1040
0.03
1070
     3
1040
0.03
1002
}
  0
INSERT
  5
99
330
1F
100
AcDbEntity
  8
ASHADE
 62
     7
100
AcDbBlockReference
  2
AVE_RENDER
 10
0.0
 20
0.0
 30
0.0
1001
AVE_RENDER
1002
{
1070
     0
1000
RFile Opt
1070
     1
1070
   640
1070
   480
1070
 10000
1070
     1
1070
     8
1070
     8
1070
     0
1070
     0
1070
     0
1070
     0
1070
     0
1070
     0
1070
     0
1002
}
  0
INSERT
  5
9A
330
1F
100
AcDbEntity
  8
ASHADE
 62
     8
100
AcDbBlockReference
  2
AVE_RENDER
 10
0.0
 20
0.0
 30
0.0
1001
AVE_RENDER
1002
{
1070
     0
1000
Fog Opt
1070
     0
1070
     0
1040
0.0
1040
1.0
1040
0.0
1040
1.0
1010
0.5
1020
0.5
1030
0.5
1002
}
  0
INSERT
  5
9B
330
1F
100
AcDbEntity
  8
ASHADE
 62
     9
100
AcDbBlockReference
  2
AVE_RENDER
 10
0.0
 20
0.0
 30
0.0
1001
AVE_RENDER
1002
{
1070
     0
1000
BG Opt
1070
     0
1070
     1
1010
0.0
1020
0.0
1030
0.0
1010
1.0
1020
0.0
1030
0.0
1010
0.0
1020
1.0
1030
0.0
1010
0.0
1020
0.0
1030
1.0
1040
0.5
1040
0.33
1040
0.0
1000

1070
     1
1000

1070
     1
1070
     1
1040
1.0
1040
1.0
1040
0.0
1040
0.0
1070
     0
1002
}
  0
INSERT
  5
A2
330
1F
100
AcDbEntity
  8
ASHADE
 62
     1
100
AcDbBlockReference
  2
AVE_GLOBAL
 10
0.0
 20
0.0
 30
0.0
1001
AVE_MATERIAL
1002
{
1000
*GLOBAL*
1000
2
1000
Global finish.
1002
{
1002
}
1002
{
1070
    63
1002
{
1002
{
1010
-1.0
1020
-1.0
1030
-1.0
1002
}
1040
0.1000000014901161
1000

1040
0.0
1002
{
1002
}
1040
0.0
1002
{
1002
}
1040
0.0
1002
}
1002
{
1002
{
1010
-1.0
1020
-1.0
1030
-1.0
1002
}
1040
0.6999999880790711
1000

1040
0.0
1002
{
1002
}
1040
0.0
1002
{
1002
}
1040
0.0
1002
}
1002
{
1002
{
1010
-1.0
1020
-1.0
1030
-1.0
1002
}
1040
0.2000000029802322
1000

1040
0.0
1002
{
1002
}
1040
0.0
1002
{
1002
}
1040
0.0
1002
}
1002
{
1070
     0
1002
{
1070
     1
1002
{
1040
1.0
1040
1.0
1000

1040
0.0
1002
{
1002
}
1040
0.0
1002
{
1002
}
1040
0.0
1002
}
1002
}
1040
1.0
1040
0.0
1040
0.0
1002
}
1002
{
1040
1.0
1040
1.0
1000

1040
0.0
1002
{
1002
}
1040
0.0
1002
{
1002
}
1040
0.0
1002
}
1002
{
1040
0.5
1040
1.0
1000

1040
0.0
1002
{
1002
}
1040
0.0
1002
{
1002
}
1040
0.0
1002
}
1002
{
1070
     0
1040
0.0
1002
{
1002
}
1040
1.0
1002
{
1002
}
1040
0.0
1002
}
1002
{
1040
0.0
1002
{
1002
{
1010
0.0
1020
0.0
1030
0.0
1002
}
1040
1.0
1000

1040
0.0
1002
{
1002
}
1040
0.0
1002
{
1002
}
1040
0.0
1002
}
1002
}
1002
{
1002
{
1070
     1
1002
{
1040
0.0
1040
1.0
1000

1040
0.0
1002
{
1002
}
1040
0.0
1002
{
1002
}
1040
0.0
1002
}
1002
}
1040
0.0
1002
{
1002
}
1010
1.0
1020
0.0
1030
0.0
1010
0.0
1020
1.0
1030
0.0
1010
0.0
1020
0.0
1030
1.0
1070
     0
1002
}
1002
{
1002
{
1040
1.0
1040
1.0
1002
{
1070
     1
1002
{
1040
1.0
1040
1.0
1000

1040
0.0
1002
{
1002
}
1040
0.0
1002
{
1002
}
1040
0.0
1002
}
1002
}
1002
}
1070
     0
1040
0.0
1002
{
1002
}
1002
}
1002
{
1002
}
1002
}
1002
{
1071
        3
1070
     3
1070
     0
1002
{
1070
     2
1070
     0
1070
     0
1040
0.0
1002
}
1070
     0
1070
     2
1002
{
1002
}
1002
}
1002
{
1040
8030.0
1040
190.3000030517578
1040
0.3050000071525574
1040
228.0
1040
545.0
1040
14.0
1040
17.39999961853027
1040
0.4560000002384186
1002
}
1002
}
  0
MESH
  5
F9
330
1F
100
AcDbEntity
  8
OracDecor_panel_moldings
 62
   183
420
  9197793
160
             32048
310
307D00007A0300000C00000013000000020000003C00000006000000020000000000000000408FC000000000004010BF000000000000F63E0000002000408F40000000000000F5BE000000000060353F0C000000130000000A0000003C00000006000000020000000000002000408F40000000804F2F17C0000000008E5BF0
310
3F0000002000408F40000000000000F5BE000000000060353F0C00000013000000120000003C00000006000000020000000000000000408FC0000000005B2F17C0000000004E5AF03F0000002000408F40000000804F2F17C0000000008E5BF03F0C000000130000001A0000003C0000000600000002000000000000000040
310
8FC000000000004010BF000000000000F63E0000000000408FC0000000005B2F17C0000000004E5AF03F0C00000013000000220000003C00000006000000020000000000002000408F40000000009ECF17C000000000BEA2F13F0000002000408F40000000804F2F17C0000000008E5BF03F0C000000130000002A0000003C
310
00000006000000020000000000000000408FC000000080A9CF17C0000000007AA1F13F0000002000408F40000000009ECF17C000000000BEA2F13F0C00000013000000320000003C00000006000000020000000000000000408FC0000000005B2F17C0000000004E5AF03F0000000000408FC000000080A9CF17C000000000
310
7AA1F13F0C000000130000003A0000003C00000006000000020000000000002000408F4000000020992618C000000000F218F43F0000002000408F40000000009ECF17C000000000BEA2F13F0C00000013000000420000003C00000006000000020000000000000000408FC000000080A42618C000000000AE17F43F000000
310
2000408F4000000020992618C000000000F218F43F0C000000130000004A0000003C00000006000000020000000000000000408FC000000080A9CF17C0000000007AA1F13F0000000000408FC000000080A42618C000000000AE17F43F0C00000013000000520000003C00000006000000020000000000002000408F400000
310
00C0512B1AC0000000004B4D05400000002000408F4000000020992618C000000000F218F43F0C000000130000005A0000003C00000006000000020000000000000000408FC0000000805D2B1AC000000000AB4C05400000002000408F40000000C0512B1AC0000000004B4D05400C00000013000000620000003C00000006
310
000000020000000000000000408FC000000080A42618C000000000AE17F43F0000000000408FC0000000805D2B1AC000000000AB4C05400C000000130000006A0000003C00000006000000020000000000002000408F40000000C0F9D61DC0000000002BC50F400000002000408F40000000C0512B1AC0000000004B4D0540
310
0C00000013000000720000003C00000006000000020000000000000000408FC00000008005D71DC0000000008BC40F400000002000408F40000000C0F9D61DC0000000002BC50F400C000000130000007A0000003C00000006000000020000000000000000408FC0000000805D2B1AC000000000AB4C05400000000000408F
310
C00000008005D71DC0000000008BC40F400C00000013000000820000003C00000006000000020000000000002000408F40000000C0352020C000000080CC3012400000002000408F40000000C0F9D61DC0000000002BC50F400C000000130000008A0000003C00000006000000020000000000000000408FC0000000803B20
310
20C0000000807C3012400000002000408F40000000C0352020C000000080CC3012400C00000013000000920000003C00000006000000020000000000000000408FC00000008005D71DC0000000008BC40F400000000000408FC0000000803B2020C0000000807C3012400C000000130000009A0000003C0000000600000002
310
0000000000002000408F4000000020388221C000000080BE3714400000002000408F40000000C0352020C000000080CC3012400C00000013000000A20000003C00000006000000020000000000000000408FC0000000003E8221C0000000806D3714400000002000408F4000000020388221C000000080BE3714400C000000
310
13000000AA0000003C00000006000000020000000000000000408FC0000000803B2020C0000000807C3012400000000000408FC0000000003E8221C0000000806D3714400C00000013000000B20000003C00000006000000020000000000002000408F40000000A0EEFE22C00000008052DC15400000002000408F40000000
310
20388221C000000080BE3714400C00000013000000BA0000003C00000006000000020000000000000000408FC000000080F4FE22C00000008001DC15400000002000408F40000000A0EEFE22C00000008052DC15400C00000013000000C20000003C00000006000000020000000000000000408FC0000000003E8221C00000
310
00806D3714400000000000408FC000000080F4FE22C00000008001DC15400C00000013000000CA0000003C00000006000000020000000000002000408F40000000605C9524C000000080F71C17400000002000408F40000000A0EEFE22C00000008052DC15400C00000013000000D20000003C000000060000000200000000
310
00000000408FC000000000629524C000000080A61C17400000002000408F40000000605C9524C000000080F71C17400C00000013000000DA0000003C00000006000000020000000000000000408FC000000080F4FE22C00000008001DC15400000000000408FC000000000629524C000000080A61C17400C00000013000000
310
E20000003C00000006000000020000000000002000408F400000002084E224C000000080758C17400000002000408F40000000605C9524C000000080F71C17400C00000013000000EA0000003C00000006000000020000000000000000408FC0000000C089E224C000000080248C17400000002000408F400000002084E224
310
C000000080758C17400C00000013000000F20000003C00000006000000020000000000000000408FC000000000629524C000000080A61C17400000000000408FC0000000C089E224C000000080248C17400C00000013000000FA0000003C00000006000000020000000000002000408F4000000060020025C0000000807641
310
18400000002000408F400000002084E224C000000080758C17400C00000013000000020100003C00000006000000020000000000000000408FC000000040080025C000000080264118400000002000408F4000000060020025C000000080764118400C000000130000000A0100003C00000006000000020000000000000000
310
408FC0000000C089E224C000000080248C17400000000000408FC000000040080025C000000080264118400C00000013000000120100003C00000006000000020000000000002000408F4000000060020025C0000000802B781C400000002000408F4000000060020025C000000080764118400C000000130000001A010000
310
3C00000006000000020000000000000000408FC000000040080025C000000080DB771C400000002000408F4000000060020025C0000000802B781C400C00000013000000220100003C00000006000000020000000000000000408FC000000040080025C000000080264118400000000000408FC000000040080025C0000000
310
80DB771C400C000000130000002A0100003C00000006000000020000000000002000408F40000000E0481E25C0000000804C2F1D400000002000408F4000000060020025C0000000802B781C400C00000013000000320100003C00000006000000020000000000000000408FC0000000C04E1E25C000000080FC2E1D400000
310
002000408F40000000E0481E25C0000000804C2F1D400C000000130000003A0100003C00000006000000020000000000000000408FC000000040080025C000000080DB771C400000000000408FC0000000C04E1E25C000000080FC2E1D400C00000013000000420100003C00000006000000020000000000002000408F4000
310
0000202D6D25C0000000803C9E1D400000002000408F40000000E0481E25C0000000804C2F1D400C000000130000004A0100003C00000006000000020000000000000000408FC000000000336D25C000000080EC9D1D400000002000408F40000000202D6D25C0000000803C9E1D400C00000013000000520100003C000000
310
06000000020000000000000000408FC0000000C04E1E25C000000080FC2E1D400000000000408FC000000000336D25C000000080EC9D1D400C000000130000005A0100003C00000006000000020000000000002000408F40000000005BAD27C0000000809C1E1F400000002000408F40000000202D6D25C0000000803C9E1D
310
400C00000013000000620100003C00000006000000020000000000000000408FC0000000C060AD27C0000000804B1E1F400000002000408F40000000005BAD27C0000000809C1E1F400C000000130000006A0100003C00000006000000020000000000000000408FC000000000336D25C000000080EC9D1D40000000000040
310
8FC0000000C060AD27C0000000804B1E1F400C00000013000000720100003C00000006000000020000000000002000408F400000004029B529C000000000DA6C20400000002000408F40000000005BAD27C0000000809C1E1F400C000000130000007A0100003C00000006000000020000000000000000408FC0000000002F
310
B529C000000080B16C20400000002000408F400000004029B529C000000000DA6C20400C00000013000000820100003C00000006000000020000000000000000408FC0000000C060AD27C0000000804B1E1F400000000000408FC0000000002FB529C000000080B16C20400C000000130000008A0100003C00000006000000
310
020000000000002000408F4000000040E6832BC0000000806A6821400000002000408F400000004029B529C000000000DA6C20400C00000013000000920100003C00000006000000020000000000000000408FC000000000EC832BC000000080426821400000002000408F4000000040E6832BC0000000806A6821400C0000
310
00130000009A0100003C00000006000000020000000000000000408FC0000000002FB529C000000080B16C20400000000000408FC000000000EC832BC000000080426821400C00000013000000A20100003C00000006000000020000000000002000408F4000000000DA092DC000000000838E22400000002000408F400000
310
0040E6832BC0000000806A6821400C00000013000000AA0100003C00000006000000020000000000000000408FC0000000C0DF092DC0000000005B8E22400000002000408F4000000000DA092DC000000000838E22400C00000013000000B20100003C00000006000000020000000000000000408FC000000000EC832BC000
310
000080426821400000000000408FC0000000C0DF092DC0000000005B8E22400C00000013000000BA0100003C00000006000000020000000000002000408F40000000C027502EC0000000A0BFE023400000002000408F4000000000DA092DC000000000838E22400C00000013000000C20100003C0000000600000002000000
310
0000000000408FC0000000802D502EC00000002097E023400000002000408F40000000C027502EC0000000A0BFE023400C00000013000000CA0100003C00000006000000020000000000000000408FC0000000C0DF092DC0000000005B8E22400000000000408FC0000000802D502EC00000002097E023400C000000130000
310
00D20100003C00000006000000020000000000002000408F40000000000F5F2FC0000000E0926225400000002000408F40000000C027502EC0000000A0BFE023400C00000013000000DA0100003C00000006000000020000000000000000408FC0000000C0145F2FC0000000606B6225400000002000408F40000000000F5F
310
2FC0000000E0926225400C00000013000000E20100003C00000006000000020000000000000000408FC0000000802D502EC00000002097E023400000000000408FC0000000C0145F2FC0000000606B6225400C00000013000000EA0100003C00000006000000020000000000002000408F4000000040921830C0000000E030
310
0F27400000002000408F40000000000F5F2FC0000000E0926225400C00000013000000F20100003C00000006000000020000000000000000408FC000000000951830C000000020090F27400000002000408F4000000040921830C0000000E0300F27400C00000013000000FA0100003C000000060000000200000000000000
310
00408FC0000000C0145F2FC0000000606B6225400000000000408FC000000000951830C000000020090F27400C00000013000000020200003C00000006000000020000000000002000408F40000000008B6130C000000040B4E028400000002000408F4000000040921830C0000000E0300F27400C000000130000000A0200
310
003C00000006000000020000000000000000408FC0000000C08D6130C0000000C08CE028400000002000408F40000000008B6130C000000040B4E028400C00000013000000120200003C00000006000000020000000000000000408FC000000000951830C000000020090F27400000000000408FC0000000C08D6130C00000
310
00C08CE028400C000000130000001A0200003C00000006000000020000000000002000408F4000000000728630C000000040E2CC2A400000002000408F40000000008B6130C000000040B4E028400C00000013000000220200003C00000006000000020000000000000000408FC0000000C0748630C000000080BACC2A4000
310
00002000408F4000000000728630C000000040E2CC2A400C000000130000002A0200003C00000006000000020000000000000000408FC0000000C08D6130C0000000C08CE028400000000000408FC0000000C0748630C000000080BACC2A400C00000013000000320200003C00000006000000020000000000002000408F40
310
00000040AF8630C00000008055BC2C400000002000408F4000000000728630C000000040E2CC2A400C000000130000003A0200003C00000006000000020000000000000000408FC000000000B28630C0000000802DBC2C400000002000408F4000000040AF8630C00000008055BC2C400C00000013000000420200003C0000
310
0006000000020000000000000000408FC0000000C0748630C000000080BACC2A400000000000408FC000000000B28630C0000000802DBC2C400C000000130000004A0200003C00000006000000020000000000002000408F4000000080D06130C00000008014A42E400000002000408F4000000040AF8630C00000008055BC
310
2C400C00000013000000520200003C00000006000000020000000000000000408FC000000040D36130C000000080ECA32E400000002000408F4000000080D06130C00000008014A42E400C000000130000005A0200003C00000006000000020000000000000000408FC000000000B28630C0000000802DBC2C400000000000
310
408FC000000040D36130C000000080ECA32E400C00000013000000620200003C00000006000000020000000000002000408F4000000040671930C000000040673630400000002000408F4000000080D06130C00000008014A42E400C000000130000006A0200003C00000006000000020000000000000000408FC000000000
310
6A1930C000000060533630400000002000408F4000000040671930C000000040673630400C00000013000000720200003C00000006000000020000000000000000408FC000000040D36130C000000080ECA32E400000000000408FC0000000006A1930C000000060533630400C000000130000007A0200003C000000060000
310
00020000000000002000408F400000008097562FC000000080A21031400000002000408F4000000040671930C000000040673630400C00000013000000820200003C00000006000000020000000000000000408FC0000000809D562FC0000000808E1031400000002000408F400000008097562FC000000080A21031400C00
310
0000130000008A0200003C00000006000000020000000000000000408FC0000000006A1930C000000060533630400000000000408FC0000000809D562FC0000000808E1031400C00000013000000920200003C00000006000000020000000000002000408F4000000080BB2A2EC0000000C0CCE431400000002000408F4000
310
00008097562FC000000080A21031400C000000130000009A0200003C00000006000000020000000000000000408FC000000000C12A2EC0000000E0B8E431400000002000408F4000000080BB2A2EC0000000C0CCE431400C00000013000000A20200003C00000006000000020000000000000000408FC0000000809D562FC0
310
000000808E1031400000000000408FC000000000C12A2EC0000000E0B8E431400C00000013000000AA0200003C00000006000000020000000000002000408F400000002035AC2CC000000080A6B432400000002000408F4000000080BB2A2EC0000000C0CCE431400C00000013000000B20200003C00000006000000020000
310
000000000000408FC0000000803AAC2CC0000000A092B432400000002000408F400000002035AC2CC000000080A6B432400C00000013000000BA0200003C00000006000000020000000000000000408FC000000000C12A2EC0000000E0B8E431400000000000408FC0000000803AAC2CC0000000A092B432400C0000001300
310
0000C20200003C00000006000000020000000000002000408F400000002007EB2AC0000000C0147C33400000002000408F400000002035AC2CC000000080A6B432400C00000013000000CA0200003C00000006000000020000000000000000408FC0000000800CEB2AC0000000E0007C33400000002000408F400000002007
310
EB2AC0000000C0147C33400C00000013000000D20200003C00000006000000020000000000000000408FC0000000803AAC2CC0000000A092B432400000000000408FC0000000800CEB2AC0000000E0007C33400C00000013000000DA0200003C00000006000000020000000000002000408F40000000E0D00B29C000000080
310
972E34400000002000408F400000002007EB2AC0000000C0147C33400C00000013000000E20200003C00000006000000020000000000000000408FC000000040D60B29C0000000A0832E34400000002000408F40000000E0D00B29C000000080972E34400C00000013000000EA0200003C0000000600000002000000000000
310
0000408FC0000000800CEB2AC0000000E0007C33400000000000408FC000000040D60B29C0000000A0832E34400C00000013000000F20200003C00000006000000020000000000002000408F40000000A0833127C00000006046D034400000002000408F40000000E0D00B29C000000080972E34400C00000013000000FA02
310
00003C00000006000000020000000000000000408FC000000000893127C00000008032D034400000002000408F40000000A0833127C00000006046D034400C00000013000000020300003C00000006000000020000000000000000408FC000000040D60B29C0000000A0832E34400000000000408FC000000000893127C000
310
00008032D034400C000000130000000A0300003C00000006000000020000000000002000408F40000000E0316D25C000000040056335400000002000408F40000000A0833127C00000006046D034400C00000013000000120300003C00000006000000020000000000000000408FC000000080376D25C000000060F1623540
310
0000002000408F40000000E0316D25C000000040056335400C000000130000001A0300003C00000006000000020000000000000000408FC000000000893127C00000008032D034400000000000408FC000000080376D25C000000060F16235400C00000013000000220300003C00000006000000020000000000002000408F
310
40000000E0CECE23C0000000A06FF735400000002000408F40000000E0316D25C000000040056335400C000000130000002A0300003C00000006000000020000000000000000408FC000000080D4CE23C0000000C05BF735400000002000408F40000000E0CECE23C0000000A06FF735400C00000013000000320300003C00
310
000006000000020000000000000000408FC000000080376D25C000000060F16235400000000000408FC000000080D4CE23C0000000C05BF735400C000000130000003A0300003C00000006000000020000000000002000408F40000000E03A6322C0000000E0FE9136400000002000408F40000000E0CECE23C0000000A06F
310
F735400C00000013000000420300003C00000006000000020000000000000000408FC000000080406322C000000000EB9136400000002000408F40000000E03A6322C0000000E0FE9136400C000000130000004A0300003C00000006000000020000000000000000408FC000000080D4CE23C0000000C05BF7354000000000
310
00408FC000000080406322C000000000EB9136400C00000013000000520300003C00000006000000020000000000002000408F40000000A0F13821C0000000C0473837400000002000408F40000000E03A6322C0000000E0FE9136400C000000130000005A0300003C00000006000000020000000000000000408FC0000000
310
80F73821C0000000E0333837400000002000408F40000000A0F13821C0000000C0473837400C00000013000000620300003C00000006000000020000000000000000408FC000000080406322C000000000EB9136400000000000408FC000000080F73821C0000000E0333837400C000000130000006A0300003C0000000600
310
0000020000000000002000408F4000000020105520C000000020A3F037400000002000408F40000000A0F13821C0000000C0473837400C00000013000000720300003C00000006000000020000000000000000408FC0000000C0155520C0000000408FF037400000002000408F4000000020105520C000000020A3F037400C
310
000000130000007A0300003C00000006000000020000000000000000408FC000000080F73821C0000000E0333837400000000000408FC0000000C0155520C0000000408FF037400C00000013000000820300003C00000006000000020000000000002000408F40000000E0006C1FC0000000A07BB838400000002000408F40
310
00000020105520C000000020A3F037400C000000130000008A0300003C00000006000000020000000000000000408FC0000000000D6C1FC0000000C067B838400000002000408F40000000E0006C1FC0000000A07BB838400C00000013000000920300003C00000006000000020000000000000000408FC0000000C0155520
310
C0000000408FF037400000000000408FC0000000000D6C1FC0000000C067B838400C000000130000009A0300003C00000006000000020000000000002000408F400000008093AA1EC0000000E0988939400000002000408F40000000E0006C1FC0000000A07BB838400C00000013000000A20300003C000000060000000200
310
00000000000000408FC0000000809FAA1EC000000000858939400000002000408F400000008093AA1EC0000000E0988939400C00000013000000AA0300003C00000006000000020000000000000000408FC0000000000D6C1FC0000000C067B838400000000000408FC0000000809FAA1EC000000000858939400C00000013
310
000000B20300003C00000006000000020000000000002000408F4000000060C96C1EC000000040A4583A400000002000408F400000008093AA1EC0000000E0988939400C00000013000000BA0300003C00000006000000020000000000000000408FC000000080D56C1EC00000006090583A400000002000408F4000000060
310
C96C1EC000000040A4583A400C00000013000000C20300003C00000006000000020000000000000000408FC0000000809FAA1EC000000000858939400000000000408FC000000080D56C1EC00000006090583A400C00000013000000CA0300003C00000006000000020000000000002000408F4000000020DA701FC0000000
310
E0BFE33B400000002000408F4000000060C96C1EC000000040A4583A400C00000013000000D20300003C00000006000000020000000000000000408FC000000020E6701FC000000000ACE33B400000002000408F4000000020DA701FC0000000E0BFE33B400C00000013000000DA0300003C00000006000000020000000000
310
000000408FC000000080D56C1EC00000006090583A400000000000408FC000000020E6701FC000000000ACE33B400C00000013000000E20300003C00000006000000020000000000002000408F40000000C0D98220C0000000201B173D400000002000408F4000000020DA701FC0000000E0BFE33B400C00000013000000EA
310
0300003C00000006000000020000000000000000408FC0000000C0DF8220C00000004007173D400000002000408F40000000C0D98220C0000000201B173D400C00000013000000F20300003C00000006000000020000000000000000408FC000000020E6701FC000000000ACE33B400000000000408FC0000000C0DF8220C0
310
0000004007173D400C00000013000000FA0300003C00000006000000020000000000002000408F40000000801C4621C000000080696E3E400000002000408F40000000C0D98220C0000000201B173D400C00000013000000020400003C00000006000000020000000000000000408FC000000080224621C0000000A0556E3E
310
400000002000408F40000000801C4621C000000080696E3E400C000000130000000A0400003C00000006000000020000000000000000408FC0000000C0DF8220C00000004007173D400000000000408FC000000080224621C0000000A0556E3E400C00000013000000120400003C0000000600000002000000000000200040
310
8F40000000E0E6AA21C000000020AA6E3F400000002000408F40000000801C4621C000000080696E3E400C000000130000001A0400003C00000006000000020000000000000000408FC000000020EDAA21C000000040966E3F400000002000408F40000000E0E6AA21C000000020AA6E3F400C00000013000000220400003C
310
00000006000000020000000000000000408FC000000080224621C0000000A0556E3E400000000000408FC000000020EDAA21C000000040966E3F400C000000130000002A0400003C00000006000000020000000000002000408F40000000A0ABA121C0000000208B963F400000002000408F40000000E0E6AA21C000000020
310
AA6E3F400C00000013000000320400003C00000006000000020000000000000000408FC0000000E0B1A121C00000004077963F400000002000408F40000000A0ABA121C0000000208B963F400C000000130000003A0400003C00000006000000020000000000000000408FC000000020EDAA21C000000040966E3F40000000
310
0000408FC0000000E0B1A121C00000004077963F400C00000013000000420400003C00000006000000020000000000002000408F40000000C0777121C000000040A6B63F400000002000408F40000000A0ABA121C0000000208B963F400C000000130000004A0400003C00000006000000020000000000000000408FC00000
310
00207E7121C00000006092B63F400000002000408F40000000C0777121C000000040A6B63F400C00000013000000520400003C00000006000000020000000000000000408FC0000000E0B1A121C00000004077963F400000000000408FC0000000207E7121C00000006092B63F400C000000130000005A0400003C00000006
310
000000020000000000002000408F40000000E06A611FC0000000C0D03240400000002000408F40000000C0777121C000000040A6B63F400C00000013000000620400003C00000006000000020000000000000000408FC0000000A076611FC000000000C73240400000002000408F40000000E06A611FC0000000C0D0324040
310
0C000000130000006A0400003C00000006000000020000000000000000408FC0000000207E7121C00000006092B63F400000000000408FC0000000A076611FC000000000C73240400C00000013000000720400003C00000006000000020000000000002000408F40000000606B011FC000000080BD4240400000002000408F
310
40000000E06A611FC0000000C0D03240400C000000130000007A0400003C00000006000000020000000000000000408FC00000002077011FC000000080B34240400000002000408F40000000606B011FC000000080BD4240400C00000013000000820400003C00000006000000020000000000000000408FC0000000A07661
310
1FC000000000C73240400000000000408FC00000002077011FC000000080B34240400C000000130000008A0400003C00000006000000020000000000002000408F40000000E039EE1EC000000000865640400000002000408F40000000606B011FC000000080BD4240400C00000013000000920400003C0000000600000002
310
0000000000000000408FC00000008045EE1EC0000000407C5640400000002000408F40000000E039EE1EC000000000865640400C000000130000009A0400003C00000006000000020000000000000000408FC00000002077011FC000000080B34240400000000000408FC00000008045EE1EC0000000407C5640400C000000
310
13000000A20400003C00000006000000020000000000002000408F4000000060FD2C1FC0000000C0DA6840400000002000408F40000000E039EE1EC000000000865640400C00000013000000AA0400003C00000006000000020000000000000000408FC000000040092D1FC000000000D16840400000002000408F40000000
310
60FD2C1FC0000000C0DA6840400C00000013000000B20400003C00000006000000020000000000000000408FC00000008045EE1EC0000000407C5640400000000000408FC000000040092D1FC000000000D16840400C00000013000000BA0400003C00000006000000020000000000002000408F40000000A0B51020C00000
310
00800E9540400000002000408F4000000060FD2C1FC0000000C0DA6840400C00000013000000C20400003C00000006000000020000000000000000408FC0000000C0BB1020C000000080049540400000002000408F40000000A0B51020C0000000800E9540400C00000013000000CA0400003C000000060000000200000000
310
00000000408FC000000040092D1FC000000000D16840400000000000408FC0000000C0BB1020C000000080049540400C00000013000000D20400003C00000006000000020000000000002000408F40000000C0497220C000000080F9C240400000002000408F40000000A0B51020C0000000800E9540400C00000013000000
310
DA0400003C00000006000000020000000000000000408FC000000000507220C000000080EFC240400000002000408F40000000C0497220C000000080F9C240400C00000013000000E20400003C00000006000000020000000000000000408FC0000000C0BB1020C000000080049540400000000000408FC000000000507220
310
C000000080EFC240400C00000013000000EA0400003C00000006000000020000000000002000408F400000006049BB20C0000000C0FEF240400000002000408F40000000C0497220C000000080F9C240400C00000013000000F20400003C00000006000000020000000000000000408FC0000000A04FBB20C0000000C0F4F2
310
40400000002000408F400000006049BB20C0000000C0FEF240400C00000013000000FA0400003C00000006000000020000000000000000408FC000000000507220C000000080EFC240400000000000408FC0000000A04FBB20C0000000C0F4F240400C00000013000000020500003C00000006000000020000000000002000
310
408F40000000804DFA20C000000040C23C41400000002000408F400000006049BB20C0000000C0FEF240400C000000130000000A0500003C00000006000000020000000000000000408FC00000008053FA20C000000040B83C41400000002000408F40000000804DFA20C000000040C23C41400C0000001300000012050000
310
3C00000006000000020000000000000000408FC0000000A04FBB20C0000000C0F4F240400000000000408FC00000008053FA20C000000040B83C41400C000000130000001A0500003C00000006000000020000000000002000408F4000000000050121C0000000006F8641400000002000408F40000000804DFA20C0000000
310
40C23C41400C00000013000000220500003C00000006000000020000000000000000408FC0000000E00A0121C000000000658641400000002000408F4000000000050121C0000000006F8641400C000000130000002A0500003C00000006000000020000000000000000408FC00000008053FA20C000000040B83C41400000
310
000000408FC0000000E00A0121C000000000658641400C00000013000000320500003C00000006000000020000000000002000408F40000000002BD220C00000004020CC41400000002000408F4000000000050121C0000000006F8641400C000000130000003A0500003C00000006000000020000000000000000408FC000
310
00000031D220C00000004016CC41400000002000408F40000000002BD220C00000004020CC41400C00000013000000420500003C00000006000000020000000000000000408FC0000000E00A0121C000000000658641400000000000408FC00000000031D220C00000004016CC41400C000000130000004A0500003C000000
310
06000000020000000000002000408F4000000040387520C000000080E70A42400000002000408F40000000002BD220C00000004020CC41400C00000013000000520500003C00000006000000020000000000000000408FC0000000003E7520C000000080DD0A42400000002000408F4000000040387520C000000080E70A42
310
400C000000130000005A0500003C00000006000000020000000000000000408FC00000000031D220C00000004016CC41400000000000408FC0000000003E7520C000000080DD0A42400C00000013000000620500003C00000006000000020000000000002000408F40000000606CE41FC00000000094404240000000200040
310
8F4000000040387520C000000080E70A42400C000000130000006A0500003C00000006000000020000000000000000408FC00000008078E41FC0000000008A4042400000002000408F40000000606CE41FC000000000944042400C00000013000000720500003C00000006000000020000000000000000408FC0000000003E
310
7520C000000080DD0A42400000000000408FC00000008078E41FC0000000008A4042400C000000130000007A0500003C00000006000000020000000000002000408F40000000600CAE1EC0000000C0766B42400000002000408F40000000606CE41FC000000000944042400C00000013000000820500003C00000006000000
310
020000000000000000408FC0000000A018AE1EC0000000C06C6B42400000002000408F40000000600CAE1EC0000000C0766B42400C000000130000008A0500003C00000006000000020000000000000000408FC00000008078E41FC0000000008A4042400000000000408FC0000000A018AE1EC0000000C06C6B42400C0000
310
0013000000920500003C00000006000000020000000000002000408F40000000E020601DC000000000468E42400000002000408F40000000600CAE1EC0000000C0766B42400C000000130000009A0500003C00000006000000020000000000000000408FC0000000202D601DC0000000003C8E42400000002000408F400000
310
00E020601DC000000000468E42400C00000013000000A20500003C00000006000000020000000000000000408FC0000000A018AE1EC0000000C06C6B42400000000000408FC0000000202D601DC0000000003C8E42400C00000013000000AA0500003C00000006000000020000000000002000408F400000008058081CC000
310
0000C07BAA42400000002000408F40000000E020601DC000000000468E42400C00000013000000B20500003C00000006000000020000000000000000408FC0000000A064081CC0000000C071AA42400000002000408F400000008058081CC0000000C07BAA42400C00000013000000BA0500003C0000000600000002000000
310
0000000000408FC0000000202D601DC0000000003C8E42400000000000408FC0000000A064081CC0000000C071AA42400C00000013000000C20500003C00000006000000020000000000002000408F40000000E098B21AC0000000809AC142400000002000408F400000008058081CC0000000C07BAA42400C000000130000
310
00CA0500003C00000006000000020000000000000000408FC000000020A5B21AC00000008090C142400000002000408F40000000E098B21AC0000000809AC142400C00000013000000D20500003C00000006000000020000000000000000408FC0000000A064081CC0000000C071AA42400000000000408FC000000020A5B2
310
1AC00000008090C142400C00000013000000DA0500003C00000006000000020000000000002000408F4000000060DC6719C00000000015D542400000002000408F40000000E098B21AC0000000809AC142400C00000013000000E20500003C00000006000000020000000000000000408FC000000060E86719C0000000000B
310
D542400000002000408F4000000060DC6719C00000000015D542400C00000013000000EA0500003C00000006000000020000000000000000408FC000000020A5B21AC00000008090C142400000000000408FC000000060E86719C0000000000BD542400C00000013000000F20500003C000000060000000200000000000020
310
00408F40000000C02A2A18C00000008031E442400000002000408F4000000060DC6719C00000000015D542400C00000013000000FA0500003C00000006000000020000000000000000408FC0000000C0362A18C00000008027E442400000002000408F40000000C02A2A18C00000008031E442400C00000013000000020600
310
003C00000006000000020000000000000000408FC000000060E86719C0000000000BD542400000000000408FC0000000C0362A18C00000008027E442400C000000130000000A0600003C00000006000000020000000000002000408F40000000C0E5FA16C00000004084EE42400000002000408F40000000C02A2A18C00000
310
008031E442400C00000013000000120600003C00000006000000020000000000000000408FC0000000A0F1FA16C0000000407AEE42400000002000408F40000000C0E5FA16C00000004084EE42400C000000130000001A0600003C00000006000000020000000000000000408FC0000000C0362A18C00000008027E4424000
310
00000000408FC0000000A0F1FA16C0000000407AEE42400C00000013000000220600003C00000006000000020000000000002000408F40000000E0864015C0000000C0570543400000002000408F40000000C0E5FA16C00000004084EE42400C000000130000002A0600003C00000006000000020000000000000000408FC0
310
000000C0924015C0000000C04D0543400000002000408F40000000E0864015C0000000C0570543400C00000013000000320600003C00000006000000020000000000000000408FC0000000A0F1FA16C0000000407AEE42400000000000408FC0000000C0924015C0000000C04D0543400C000000130000003A0600003C0000
310
0006000000020000000000002000408F4000000020730914C0000000C0CD3243400000002000408F40000000E0864015C0000000C0570543400C00000013000000420600003C00000006000000020000000000000000408FC0000000207F0914C0000000C0C33243400000002000408F4000000020730914C0000000C0CD32
310
43400C000000130000004A0600003C00000006000000020000000000000000408FC0000000C0924015C0000000C04D0543400000000000408FC0000000207F0914C0000000C0C33243400C00000013000000520600003C00000006000000020000000000002000408F40000000A09D9913C000000040F86C43400000002000
310
408F4000000020730914C0000000C0CD3243400C000000130000005A0600003C00000006000000020000000000000000408FC0000000A0A99913C000000040EE6C43400000002000408F40000000A09D9913C000000040F86C43400C00000013000000620600003C00000006000000020000000000000000408FC000000020
310
7F0914C0000000C0C33243400000000000408FC0000000A0A99913C000000040EE6C43400C000000130000006A0600003C00000006000000020000000000002000408F40000000009E9913C0000000C03B9744400000002000408F40000000A09D9913C000000040F86C43400C00000013000000720600003C000000060000
310
00020000000000000000408FC0000000C0A99913C0000000C0319744400000002000408F40000000009E9913C0000000C03B9744400C000000130000007A0600003C00000006000000020000000000000000408FC0000000A0A99913C000000040EE6C43400000000000408FC0000000C0A99913C0000000C0319744400C00
310
000013000000820600003C00000006000000020000000000002000408F4000000080BC5113C000000080EAAF44400000002000408F40000000009E9913C0000000C03B9744400C000000130000008A0600003C00000006000000020000000000000000408FC000000080C85113C000000080E0AF44400000002000408F4000
310
000080BC5113C000000080EAAF44400C00000013000000920600003C00000006000000020000000000000000408FC0000000C0A99913C0000000C0319744400000000000408FC000000080C85113C000000080E0AF44400C000000130000009A0600003C00000006000000020000000000002000408F40000000C0C29B12C0
310
000000C00CBD44400000002000408F4000000080BC5113C000000080EAAF44400C00000013000000A20600003C00000006000000020000000000000000408FC000000080CE9B12C0000000C002BD44400000002000408F40000000C0C29B12C0000000C00CBD44400C00000013000000AA0600003C00000006000000020000
310
000000000000408FC000000080C85113C000000080E0AF44400000000000408FC000000080CE9B12C0000000C002BD44400C00000013000000B20600003C00000006000000020000000000002000408F40000000000000F2BE000000000C2645400000002000408F40000000C0C29B12C0000000C00CBD44400C0000001300
310
0000BA0600003C00000006000000020000000000000000408FC00000000000800FBF00000000022645400000002000408F40000000000000F2BE000000000C2645400C00000013000000C20600003C00000006000000020000000000000000408FC00000000000800FBF00000000022645400000000000408FC000000080CE
310
9B12C0000000C002BD44400C00000013000000CA0600003C00000006000000020000000000002000408F40000000000000F2BE000000000C2645400000002000408F40000000000080F3BE000000C0C37943400C00000013000000D20600003C00000006000000020000000000000000408FC000000000002010BF000000C0
310
B97943400000002000408F40000000000080F3BE000000C0C37943400C00000013000000DA0600003C00000006000000020000000000000000408FC00000000000800FBF00000000022645400000000000408FC000000000002010BF000000C0B97943400C00000013000000E20600003C0000000600000002000000000000
310
2000408F400000000064C7E8BF00000080CE3D43400000002000408F40000000000080F3BE000000C0C37943400C00000013000000EA0600003C00000006000000020000000000000000408FC000000000BDC7E8BF00000080C43D43400000002000408F400000000064C7E8BF00000080CE3D43400C00000013000000F206
310
00003C00000006000000020000000000000000408FC000000000002010BF000000C0B97943400000000000408FC000000000BDC7E8BF00000080C43D43400C00000013000000FA0600003C00000006000000020000000000002000408F400000000068C0F2BF00000040EEF142400000002000408F400000000064C7E8BF00
310
000080CE3D43400C00000013000000020700003C00000006000000020000000000000000408FC00000008094C0F2BF00000040E4F142400000002000408F400000000068C0F2BF00000040EEF142400C000000130000000A0700003C00000006000000020000000000000000408FC000000000BDC7E8BF00000080C43D4340
310
0000000000408FC00000008094C0F2BF00000040E4F142400C00000013000000120700003C00000006000000020000000000002000408F400000000085FCF4BF000000C0549842400000002000408F400000000068C0F2BF00000040EEF142400C000000130000001A0700003C00000006000000020000000000000000408F
310
C000000080B2FCF4BF000000C04A9842400000002000408F400000000085FCF4BF000000C0549842400C00000013000000220700003C00000006000000020000000000000000408FC00000008094C0F2BF00000040E4F142400000000000408FC000000080B2FCF4BF000000C04A9842400C000000130000002A0700003C00
310
000006000000020000000000002000408F400000008067C0F2BF00000040BB3E42400000002000408F400000000085FCF4BF000000C0549842400C00000013000000320700003C00000006000000020000000000000000408FC00000008094C0F2BF00000040B13E42400000002000408F400000008067C0F2BF00000040BB
310
3E42400C000000130000003A0700003C00000006000000020000000000000000408FC000000080B2FCF4BF000000C04A9842400000000000408FC00000008094C0F2BF00000040B13E42400C00000013000000420700003C00000006000000020000000000002000408F400000000060C7E8BF00000000DBF2414000000020
310
00408F400000008067C0F2BF00000040BB3E42400C000000130000004A0700003C00000006000000020000000000000000408FC000000000B8C7E8BF00000000D1F241400000002000408F400000000060C7E8BF00000000DBF241400C00000013000000520700003C00000006000000020000000000000000408FC0000000
310
8094C0F2BF00000040B13E42400000000000408FC000000000B8C7E8BF00000000D1F241400C000000130000005A0700003C00000006000000020000000000002000408F40000000000080F1BE000000C0E5B641400000002000408F400000000060C7E8BF00000000DBF241400C00000013000000620700003C0000000600
310
0000020000000000000000408FC00000000000000FBF000000C0DBB641400000002000408F40000000000080F1BE000000C0E5B641400C000000130000006A0700003C00000006000000020000000000000000408FC000000000B8C7E8BF00000000D1F241400000000000408FC00000000000000FBF000000C0DBB641400C
310
00000013000000720700003C00000006000000020000000000002000408F40000000000080F4BE000000C0E3913C400000002000408F40000000000080F1BE000000C0E5B641400C000000130000007A0700003C00000006000000020000000000000000408FC000000000004010BF000000E0CF913C400000002000408F40
310
000000000080F4BE000000C0E3913C400C00000013000000820700003C00000006000000020000000000000000408FC00000000000000FBF000000C0DBB641400000000000408FC000000000004010BF000000E0CF913C400C000000130000008A0700003C00000006000000020000000000002000408F40000000802AEEF8
310
BF000000A0187D35400000002000408F40000000000080F4BE000000C0E3913C400C00000013000000920700003C00000006000000020000000000000000408FC00000000057EEF8BF000000C0047D35400000002000408F40000000802AEEF8BF000000A0187D35400C000000130000009A0700003C000000060000000200
310
00000000000000408FC000000000004010BF000000E0CF913C400000000000408FC00000000057EEF8BF000000C0047D35400C00000013000000A20700003C00000006000000020000000000002000408F4000000080441AFFBF000000E0B97E34400000002000408F40000000802AEEF8BF000000A0187D35400C00000013
310
000000AA0700003C00000006000000020000000000000000408FC000000080711AFFBF00000000A67E34400000002000408F4000000080441AFFBF000000E0B97E34400C00000013000000B20700003C00000006000000020000000000000000408FC00000000057EEF8BF000000C0047D35400000000000408FC000000080
310
711AFFBF00000000A67E34400C00000013000000BA0700003C00000006000000020000000000002000408F4000000000C7E504C00000006033AA33400000002000408F4000000080441AFFBF000000E0B97E34400C00000013000000C20700003C00000006000000020000000000000000408FC000000000DDE504C0000000
310
801FAA33400000002000408F4000000000C7E504C00000006033AA33400C00000013000000CA0700003C00000006000000020000000000000000408FC000000080711AFFBF00000000A67E34400000000000408FC000000000DDE504C0000000801FAA33400C00000013000000D20700003C00000006000000020000000000
310
002000408F4000000000BC000CC000000060681333400000002000408F4000000000C7E504C00000006033AA33400C00000013000000DA0700003C00000006000000020000000000000000408FC0000000E0D2000CC000000080541333400000002000408F4000000000BC000CC000000060681333400C00000013000000E2
310
0700003C00000006000000020000000000000000408FC000000000DDE504C0000000801FAA33400000000000408FC0000000E0D2000CC000000080541333400C00000013000000EA0700003C00000006000000020000000000002000408F4000000080E21912C0000000A07BC832400000002000408F4000000000BC000CC0
310
00000060681333400C00000013000000F20700003C00000006000000020000000000000000408FC000000040EE1912C0000000C067C832400000002000408F4000000080E21912C0000000A07BC832400C00000013000000FA0700003C00000006000000020000000000000000408FC0000000E0D2000CC000000080541333
310
400000000000408FC000000040EE1912C0000000C067C832400C00000013000000020800003C00000006000000020000000000002000408F40000000C0FB1D17C000000080CC6132400000002000408F4000000080E21912C0000000A07BC832400C000000130000000A0800003C0000000600000002000000000000000040
310
8FC000000060071E17C0000000A0B86132400000002000408F40000000C0FB1D17C000000080CC6132400C00000013000000120800003C00000006000000020000000000000000408FC000000040EE1912C0000000C067C832400000000000408FC000000060071E17C0000000A0B86132400C000000130000001A0800003C
310
00000006000000020000000000002000408F40000000A080361BC0000000E0DB8D31400000002000408F40000000C0FB1D17C000000080CC6132400C00000013000000220800003C00000006000000020000000000000000408FC0000000808C361BC000000000C88D31400000002000408F40000000A080361BC0000000E0
310
DB8D31400C000000130000002A0800003C00000006000000020000000000000000408FC000000060071E17C0000000A0B86132400000000000408FC0000000808C361BC000000000C88D31400C00000013000000320800003C00000006000000020000000000002000408F40000000E00FD51DC0000000C06C693040000000
310
2000408F40000000A080361BC0000000E0DB8D31400C000000130000003A0800003C00000006000000020000000000000000408FC0000000C01BD51DC0000000E0586930400000002000408F40000000E00FD51DC0000000C06C6930400C00000013000000420800003C00000006000000020000000000000000408FC00000
310
00808C361BC000000000C88D31400000000000408FC0000000C01BD51DC0000000E0586930400C000000130000004A0800003C00000006000000020000000000002000408F4000000060C69E1EC0000000C061382E400000002000408F40000000E00FD51DC0000000C06C6930400C00000013000000520800003C00000006
310
000000020000000000000000408FC000000060D29E1EC0000000003A382E400000002000408F4000000060C69E1EC0000000C061382E400C000000130000005A0800003C00000006000000020000000000000000408FC0000000C01BD51DC0000000E0586930400000000000408FC000000060D29E1EC0000000003A382E40
310
0C00000013000000620800003C00000006000000020000000000002000408F40000000C058781DC0000000807FA62B400000002000408F4000000060C69E1EC0000000C061382E400C000000130000006A0800003C00000006000000020000000000000000408FC0000000A064781DC0000000C057A62B400000002000408F
310
40000000C058781DC0000000807FA62B400C00000013000000720800003C00000006000000020000000000000000408FC000000060D29E1EC0000000003A382E400000000000408FC0000000A064781DC0000000C057A62B400C000000130000007A0800003C00000006000000020000000000002000408F40000000209D89
310
1AC0000000407A7629400000002000408F40000000C058781DC0000000807FA62B400C00000013000000820800003C00000006000000020000000000000000408FC0000000C0A8891AC000000080527629400000002000408F40000000209D891AC0000000407A7629400C000000130000008A0800003C0000000600000002
310
0000000000000000408FC0000000A064781DC0000000C057A62B400000000000408FC0000000C0A8891AC000000080527629400C00000013000000920800003C00000006000000020000000000002000408F40000000208B3816C00000004055F427400000002000408F40000000209D891AC0000000407A7629400C000000
310
130000009A0800003C00000006000000020000000000000000408FC000000080963816C0000000802DF427400000002000408F40000000208B3816C00000004055F427400C00000013000000A20800003C00000006000000020000000000000000408FC0000000C0A8891AC000000080527629400000000000408FC0000000
310
80963816C0000000802DF427400C00000013000000AA0800003C00000006000000020000000000002000408F40000000000080F4BE0000004049F022400000002000408F40000000208B3816C00000004055F427400C00000013000000B20800003C00000006000000020000000000000000408FC000000000002010BF0000
310
00C020F022400000002000408F40000000000080F4BE0000004049F022400C00000013000000BA0800003C00000006000000020000000000000000408FC000000080963816C0000000802DF427400000000000408FC000000000002010BF000000C020F022400C00000013000000C20800003C000000060000000200000000
310
00002000408F40000000000000F6BE000000809B311C400000002000408F40000000000080F4BE0000004049F022400C00000013000000CA0800003C00000006000000020000000000000000408FC000000000008010BF000000804A311C400000002000408F40000000000000F6BE000000809B311C400C00000013000000
310
D20800003C00000006000000020000000000000000408FC000000000002010BF000000C020F022400000000000408FC000000000008010BF000000804A311C400C00000013000000DA0800003C00000006000000020000000000002000408F40000000006AC7E8BF00000080F1511A400000002000408F40000000000000F6
310
BE000000809B311C400C00000013000000E20800003C00000006000000020000000000000000408FC000000000C1C7E8BF00000080A1511A400000002000408F40000000006AC7E8BF00000080F1511A400C00000013000000EA0800003C00000006000000020000000000000000408FC000000000008010BF000000804A31
310
1C400000000000408FC000000000C1C7E8BF00000080A1511A400C00000013000000F20800003C00000006000000020000000000002000408F40000000006CC0F2BF00000080EFF217400000002000408F40000000006AC7E8BF00000080F1511A400C00000013000000FA0800003C00000006000000020000000000000000
310
408FC00000000098C0F2BF000000809FF217400000002000408F40000000006CC0F2BF00000080EFF217400C00000013000000020900003C00000006000000020000000000000000408FC000000000C1C7E8BF00000080A1511A400000000000408FC00000000098C0F2BF000000809FF217400C000000130000000A090000
310
3C00000006000000020000000000002000408F40000000008BFCF4BF00000080232615400000002000408F40000000006CC0F2BF00000080EFF217400C00000013000000120900003C00000006000000020000000000000000408FC000000000B6FCF4BF00000080D32515400000002000408F40000000008BFCF4BF000000
310
80232615400C000000130000001A0900003C00000006000000020000000000000000408FC00000000098C0F2BF000000809FF217400000000000408FC000000000B6FCF4BF00000080D32515400C00000013000000220900003C00000006000000020000000000002000408F40000000006AC0F2BF00000080575912400000
310
002000408F40000000008BFCF4BF00000080232615400C000000130000002A0900003C00000006000000020000000000000000408FC00000000096C0F2BF00000080075912400000002000408F40000000006AC0F2BF00000080575912400C00000013000000320900003C00000006000000020000000000000000408FC000
310
000000B6FCF4BF00000080D32515400000000000408FC00000000096C0F2BF00000080075912400C000000130000003A0900003C00000006000000020000000000002000408F400000000066C7E8BF00000000ABF40F400000002000408F40000000006AC0F2BF00000080575912400C00000013000000420900003C000000
310
06000000020000000000000000408FC000000000BCC7E8BF000000000BF40F400000002000408F400000000066C7E8BF00000000ABF40F400C000000130000004A0900003C00000006000000020000000000000000408FC00000000096C0F2BF00000080075912400000000000408FC000000000BCC7E8BF000000000BF40F
310
400C00000013000000520900003C00000006000000020000000000002000408F40000000000000F4BE0000000057350C400000002000408F400000000066C7E8BF00000000ABF40F400C000000130000005A0900003C00000006000000020000000000000000408FC00000000000800FBF00000000B7340C40000000200040
310
8F40000000000000F4BE0000000057350C400C00000013000000620900003C00000006000000020000000000000000408FC000000000BCC7E8BF000000000BF40F400000000000408FC00000000000800FBF00000000B7340C400C000000130000006A0900003C00000006000000020000000000002000408F400000000000
310
00F5BE000000000060353F0000002000408F40000000000000F4BE0000000057350C400C00000013000000720900003C00000006000000020000000000000000408FC00000000000800FBF00000000B7340C400000000000408FC000000000004010BF000000000000F63E0C000000130000007A0900003C00000006000000
310
020000000000000000408FC000000000BDC7E8BF00000080C43D43400000000000408FC000000080CE9B12C0000000C002BD44400C00000013000000820900003C00000006000000020000000000000000408FC000000000BCC7E8BF000000000BF40F400000000000408FC0000000005B2F17C0000000004E5AF03F0C0000
310
00130000008A0900003C00000006000000020000000000000000408FC000000000BCC7E8BF000000000BF40F400000000000408FC000000080A9CF17C0000000007AA1F13F0C00000013000000920900003C00000006000000020000000000000000408FC000000000BCC7E8BF000000000BF40F400000000000408FC00000
310
0080A42618C000000000AE17F43F0C000000130000009A0900003C00000006000000020000000000000000408FC00000000096C0F2BF00000080075912400000000000408FC0000000805D2B1AC000000000AB4C05400C00000013000000A20900003C00000006000000020000000000000000408FC000000000C1C7E8BF00
310
000080A1511A400000000000408FC0000000003E8221C0000000806D3714400C00000013000000AA0900003C00000006000000020000000000000000408FC000000000008010BF000000804A311C400000000000408FC000000080F4FE22C00000008001DC15400C00000013000000B20900003C0000000600000002000000
310
0000000000408FC00000000098C0F2BF000000809FF217400000000000408FC0000000803B2020C0000000807C3012400C00000013000000BA0900003C00000006000000020000000000000000408FC000000000B6FCF4BF00000080D32515400000000000408FC00000008005D71DC0000000008BC40F400C000000130000
310
00C20900003C00000006000000020000000000000000408FC000000000002010BF000000C020F022400000000000408FC000000000629524C000000080A61C17400C00000013000000CA0900003C00000006000000020000000000000000408FC000000000002010BF000000C020F022400000000000408FC0000000C089E2
310
24C000000080248C17400C00000013000000D20900003C00000006000000020000000000000000408FC000000000002010BF000000C020F022400000000000408FC000000040080025C000000080264118400C00000013000000DA0900003C00000006000000020000000000000000408FC000000080963816C0000000802D
310
F427400000000000408FC000000040080025C000000080DB771C400C00000013000000E20900003C00000006000000020000000000000000408FC000000080963816C0000000802DF427400000000000408FC0000000C04E1E25C000000080FC2E1D400C00000013000000EA0900003C000000060000000200000000000000
310
00408FC000000080963816C0000000802DF427400000000000408FC000000000336D25C000000080EC9D1D400C00000013000000F20900003C00000006000000020000000000000000408FC00000000057EEF8BF000000C0047D35400000000000408FC000000080D56C1EC00000006090583A400C00000013000000FA0900
310
003C00000006000000020000000000000000408FC000000000004010BF000000E0CF913C400000000000408FC000000020E6701FC000000000ACE33B400C00000013000000020A00003C00000006000000020000000000000000408FC000000000004010BF000000E0CF913C400000000000408FC0000000C0DF8220C00000
310
004007173D400C000000130000000A0A00003C00000006000000020000000000000000408FC000000000004010BF000000E0CF913C400000000000408FC000000080224621C0000000A0556E3E400C00000013000000120A00003C00000006000000020000000000000000408FC0000000C0A8891AC0000000805276294000
310
00000000408FC0000000C060AD27C0000000804B1E1F400C000000130000001A0A00003C00000006000000020000000000000000408FC0000000C0A8891AC000000080527629400000000000408FC0000000002FB529C000000080B16C20400C00000013000000220A00003C00000006000000020000000000000000408FC0
310
000000A064781DC0000000C057A62B400000000000408FC000000000EC832BC000000080426821400C000000130000002A0A00003C00000006000000020000000000000000408FC0000000A064781DC0000000C057A62B400000000000408FC0000000C0DF092DC0000000005B8E22400C00000013000000320A00003C0000
310
0006000000020000000000000000408FC000000080711AFFBF00000000A67E34400000000000408FC0000000000D6C1FC0000000C067B838400C000000130000003A0A00003C00000006000000020000000000000000408FC00000000057EEF8BF000000C0047D35400000000000408FC0000000809FAA1EC0000000008589
310
39400C00000013000000420A00003C00000006000000020000000000000000408FC000000000DDE504C0000000801FAA33400000000000408FC000000080F73821C0000000E0333837400C000000130000004A0A00003C00000006000000020000000000000000408FC000000080711AFFBF00000000A67E34400000000000
310
408FC0000000C0155520C0000000408FF037400C00000013000000520A00003C00000006000000020000000000000000408FC0000000E0D2000CC000000080541333400000000000408FC000000080D4CE23C0000000C05BF735400C000000130000005A0A00003C00000006000000020000000000000000408FC000000000
310
DDE504C0000000801FAA33400000000000408FC000000080406322C000000000EB9136400C00000013000000620A00003C00000006000000020000000000000000408FC000000060D29E1EC0000000003A382E400000000000408FC0000000802D502EC00000002097E023400C000000130000006A0A00003C000000060000
310
00020000000000000000408FC000000060D29E1EC0000000003A382E400000000000408FC0000000C0145F2FC0000000606B6225400C00000013000000720A00003C00000006000000020000000000000000408FC000000060D29E1EC0000000003A382E400000000000408FC000000000951830C000000020090F27400C00
310
0000130000007A0A00003C00000006000000020000000000000000408FC000000060D29E1EC0000000003A382E400000000000408FC0000000C08D6130C0000000C08CE028400C00000013000000820A00003C00000006000000020000000000000000408FC0000000E0D2000CC000000080541333400000000000408FC000
310
000080376D25C000000060F16235400C000000130000008A0A00003C00000006000000020000000000000000408FC000000040EE1912C0000000C067C832400000000000408FC000000000893127C00000008032D034400C00000013000000920A00003C00000006000000020000000000000000408FC000000060071E17C0
310
000000A0B86132400000000000408FC0000000800CEB2AC0000000E0007C33400C000000130000009A0A00003C00000006000000020000000000000000408FC000000040EE1912C0000000C067C832400000000000408FC000000040D60B29C0000000A0832E34400C00000013000000A20A00003C00000006000000020000
310
000000000000408FC000000060071E17C0000000A0B86132400000000000408FC0000000803AAC2CC0000000A092B432400C00000013000000AA0A00003C00000006000000020000000000000000408FC0000000808C361BC000000000C88D31400000000000408FC000000000C12A2EC0000000E0B8E431400C0000001300
310
0000B20A00003C00000006000000020000000000000000408FC0000000808C361BC000000000C88D31400000000000408FC0000000809D562FC0000000808E1031400C00000013000000BA0A00003C00000006000000020000000000000000408FC0000000808C361BC000000000C88D31400000000000408FC0000000006A
310
1930C000000060533630400C00000013000000C20A00003C00000006000000020000000000000000408FC0000000C01BD51DC0000000E0586930400000000000408FC0000000C0748630C000000080BACC2A400C00000013000000CA0A00003C00000006000000020000000000000000408FC0000000C01BD51DC0000000E0
310
586930400000000000408FC000000000B28630C0000000802DBC2C400C00000013000000D20A00003C00000006000000020000000000000000408FC0000000808C361BC000000000C88D31400000000000408FC000000040D36130C000000080ECA32E400C00000013000000DA0A00003C0000000600000002000000000000
310
0000408FC000000000BDC7E8BF00000080C43D43400000000000408FC0000000C0A99913C0000000C0319744400C00000013000000E20A00003C00000006000000020000000000000000408FC000000000BDC7E8BF00000080C43D43400000000000408FC000000080C85113C000000080E0AF44400C00000013000000EA0A
310
00003C00000006000000020000000000000000408FC00000008094C0F2BF00000040E4F142400000000000408FC0000000A0A99913C000000040EE6C43400C00000013000000F20A00003C00000006000000020000000000000000408FC000000000004010BF000000E0CF913C400000000000408FC000000020EDAA21C000
310
000040966E3F400C00000013000000FA0A00003C00000006000000020000000000000000408FC000000000004010BF000000E0CF913C400000000000408FC0000000E0B1A121C00000004077963F400C00000013000000020B00003C00000006000000020000000000000000408FC000000000004010BF000000E0CF913C40
310
0000000000408FC0000000207E7121C00000006092B63F400C000000130000000A0B00003C00000006000000020000000000000000408FC000000000004010BF000000E0CF913C400000000000408FC0000000A076611FC000000000C73240400C00000013000000120B00003C00000006000000020000000000000000408F
310
C000000000004010BF000000E0CF913C400000000000408FC00000002077011FC000000080B34240400C000000130000001A0B00003C00000006000000020000000000000000408FC00000000000000FBF000000C0DBB641400000000000408FC00000008045EE1EC0000000407C5640400C00000013000000220B00003C00
310
000006000000020000000000000000408FC00000000000000FBF000000C0DBB641400000000000408FC000000040092D1FC000000000D16840400C000000130000002A0B00003C00000006000000020000000000000000408FC000000080B2FCF4BF000000C04A9842400000000000408FC0000000C0924015C0000000C04D
310
0543400C00000013000000320B00003C00000006000000020000000000000000408FC00000008094C0F2BF00000040E4F142400000000000408FC0000000207F0914C0000000C0C33243400C000000130000003A0B00003C00000006000000020000000000000000408FC000000000B8C7E8BF00000000D1F2414000000000
310
00408FC0000000C0BB1020C000000080049540400C00000013000000420B00003C00000006000000020000000000000000408FC000000000B8C7E8BF00000000D1F241400000000000408FC000000000507220C000000080EFC240400C000000130000004A0B00003C00000006000000020000000000000000408FC0000000
310
00B8C7E8BF00000000D1F241400000000000408FC0000000A04FBB20C0000000C0F4F240400C00000013000000520B00003C00000006000000020000000000000000408FC000000000B8C7E8BF00000000D1F241400000000000408FC00000008053FA20C000000040B83C41400C000000130000005A0B00003C0000000600
310
0000020000000000000000408FC00000008094C0F2BF00000040B13E42400000000000408FC0000000E00A0121C000000000658641400C00000013000000620B00003C00000006000000020000000000000000408FC00000008094C0F2BF00000040B13E42400000000000408FC00000000031D220C00000004016CC41400C
310
000000130000006A0B00003C00000006000000020000000000000000408FC00000008094C0F2BF00000040B13E42400000000000408FC0000000003E7520C000000080DD0A42400C00000013000000720B00003C00000006000000020000000000000000408FC00000008094C0F2BF00000040B13E42400000000000408FC0
310
0000008078E41FC0000000008A4042400C000000130000007A0B00003C00000006000000020000000000000000408FC00000008094C0F2BF00000040B13E42400000000000408FC0000000A018AE1EC0000000C06C6B42400C00000013000000820B00003C00000006000000020000000000000000408FC00000008094C0F2
310
BF00000040B13E42400000000000408FC0000000202D601DC0000000003C8E42400C000000130000008A0B00003C00000006000000020000000000000000408FC00000008094C0F2BF00000040B13E42400000000000408FC0000000C0362A18C00000008027E442400C00000013000000920B00003C000000060000000200
310
00000000000000408FC000000080B2FCF4BF000000C04A9842400000000000408FC0000000A0F1FA16C0000000407AEE42400C000000130000009A0B00003C00000006000000020000000000000000408FC00000008094C0F2BF00000040B13E42400000000000408FC000000020A5B21AC00000008090C142400C00000013
310
000000A20B00003C00000006000000020000000000000000408FC00000008094C0F2BF00000040B13E42400000000000408FC000000060E86719C0000000000BD542400C00000013000000AA0B00003C00000006000000020000000000000000408FC00000008094C0F2BF00000040B13E42400000000000408FC0000000A0
310
64081CC0000000C071AA42400C00000013000000B20B00003C00000006000000020000000000002000408F40000000C0C29B12C0000000C00CBD44400000002000408F400000000064C7E8BF00000080CE3D43400C00000013000000BA0B00003C00000006000000020000000000002000408F40000000804F2F17C0000000
310
008E5BF03F0000002000408F400000000066C7E8BF00000000ABF40F400C00000013000000C20B00003C00000006000000020000000000002000408F40000000009ECF17C000000000BEA2F13F0000002000408F400000000066C7E8BF00000000ABF40F400C00000013000000CA0B00003C00000006000000020000000000
310
002000408F4000000020992618C000000000F218F43F0000002000408F400000000066C7E8BF00000000ABF40F400C00000013000000D20B00003C00000006000000020000000000002000408F40000000C0512B1AC0000000004B4D05400000002000408F40000000006AC0F2BF00000080575912400C00000013000000DA
310
0B00003C00000006000000020000000000002000408F40000000A0EEFE22C00000008052DC15400000002000408F40000000000000F6BE000000809B311C400C00000013000000E20B00003C00000006000000020000000000002000408F4000000020388221C000000080BE3714400000002000408F40000000006AC7E8BF
310
00000080F1511A400C00000013000000EA0B00003C00000006000000020000000000002000408F40000000C0352020C000000080CC3012400000002000408F40000000006CC0F2BF00000080EFF217400C00000013000000F20B00003C00000006000000020000000000002000408F40000000C0F9D61DC0000000002BC50F
310
400000002000408F40000000008BFCF4BF00000080232615400C00000013000000FA0B00003C00000006000000020000000000002000408F40000000605C9524C000000080F71C17400000002000408F40000000000080F4BE0000004049F022400C00000013000000020C00003C0000000600000002000000000000200040
310
8F400000002084E224C000000080758C17400000002000408F40000000000080F4BE0000004049F022400C000000130000000A0C00003C00000006000000020000000000002000408F4000000060020025C000000080764118400000002000408F40000000000080F4BE0000004049F022400C00000013000000120C00003C
310
00000006000000020000000000002000408F4000000060020025C0000000802B781C400000002000408F40000000208B3816C00000004055F427400C000000130000001A0C00003C00000006000000020000000000002000408F40000000E0481E25C0000000804C2F1D400000002000408F40000000208B3816C000000040
310
55F427400C00000013000000220C00003C00000006000000020000000000002000408F40000000202D6D25C0000000803C9E1D400000002000408F40000000208B3816C00000004055F427400C000000130000002A0C00003C00000006000000020000000000002000408F4000000020DA701FC0000000E0BFE33B40000000
310
2000408F40000000000080F4BE000000C0E3913C400C00000013000000320C00003C00000006000000020000000000002000408F4000000060C96C1EC000000040A4583A400000002000408F40000000802AEEF8BF000000A0187D35400C000000130000003A0C00003C00000006000000020000000000002000408F400000
310
00C0D98220C0000000201B173D400000002000408F40000000000080F4BE000000C0E3913C400C00000013000000420C00003C00000006000000020000000000002000408F40000000801C4621C000000080696E3E400000002000408F40000000000080F4BE000000C0E3913C400C000000130000004A0C00003C00000006
310
000000020000000000002000408F40000000005BAD27C0000000809C1E1F400000002000408F40000000209D891AC0000000407A7629400C00000013000000520C00003C00000006000000020000000000002000408F400000004029B529C000000000DA6C20400000002000408F40000000209D891AC0000000407A762940
310
0C000000130000005A0C00003C00000006000000020000000000002000408F4000000040E6832BC0000000806A6821400000002000408F40000000C058781DC0000000807FA62B400C00000013000000620C00003C00000006000000020000000000002000408F4000000000DA092DC000000000838E22400000002000408F
310
40000000C058781DC0000000807FA62B400C000000130000006A0C00003C00000006000000020000000000002000408F400000008093AA1EC0000000E0988939400000002000408F40000000802AEEF8BF000000A0187D35400C00000013000000720C00003C00000006000000020000000000002000408F40000000E0006C
310
1FC0000000A07BB838400000002000408F4000000080441AFFBF000000E0B97E34400C000000130000007A0C00003C00000006000000020000000000002000408F4000000020105520C000000020A3F037400000002000408F4000000080441AFFBF000000E0B97E34400C00000013000000820C00003C0000000600000002
310
0000000000002000408F40000000A0F13821C0000000C0473837400000002000408F4000000000C7E504C00000006033AA33400C000000130000008A0C00003C00000006000000020000000000002000408F40000000E03A6322C0000000E0FE9136400000002000408F4000000000C7E504C00000006033AA33400C000000
310
13000000920C00003C00000006000000020000000000002000408F40000000E0CECE23C0000000A06FF735400000002000408F4000000000BC000CC000000060681333400C000000130000009A0C00003C00000006000000020000000000002000408F40000000C027502EC0000000A0BFE023400000002000408F40000000
310
60C69E1EC0000000C061382E400C00000013000000A20C00003C00000006000000020000000000002000408F40000000000F5F2FC0000000E0926225400000002000408F4000000060C69E1EC0000000C061382E400C00000013000000AA0C00003C00000006000000020000000000002000408F4000000040921830C00000
310
00E0300F27400000002000408F4000000060C69E1EC0000000C061382E400C00000013000000B20C00003C00000006000000020000000000002000408F40000000008B6130C000000040B4E028400000002000408F4000000060C69E1EC0000000C061382E400C00000013000000BA0C00003C000000060000000200000000
310
00002000408F40000000E0316D25C000000040056335400000002000408F4000000000BC000CC000000060681333400C00000013000000C20C00003C00000006000000020000000000002000408F40000000A0833127C00000006046D034400000002000408F4000000080E21912C0000000A07BC832400C00000013000000
310
CA0C00003C00000006000000020000000000002000408F40000000E0D00B29C000000080972E34400000002000408F4000000080E21912C0000000A07BC832400C00000013000000D20C00003C00000006000000020000000000002000408F400000002007EB2AC0000000C0147C33400000002000408F40000000C0FB1D17
310
C000000080CC6132400C00000013000000DA0C00003C00000006000000020000000000002000408F400000002035AC2CC000000080A6B432400000002000408F40000000C0FB1D17C000000080CC6132400C00000013000000E20C00003C00000006000000020000000000002000408F4000000080BB2A2EC0000000C0CCE4
310
31400000002000408F40000000A080361BC0000000E0DB8D31400C00000013000000EA0C00003C00000006000000020000000000002000408F400000008097562FC000000080A21031400000002000408F40000000A080361BC0000000E0DB8D31400C00000013000000F20C00003C00000006000000020000000000002000
310
408F4000000040671930C000000040673630400000002000408F40000000A080361BC0000000E0DB8D31400C00000013000000FA0C00003C00000006000000020000000000002000408F4000000040AF8630C00000008055BC2C400000002000408F40000000E00FD51DC0000000C06C6930400C00000013000000020D0000
310
3C00000006000000020000000000002000408F4000000000728630C000000040E2CC2A400000002000408F40000000E00FD51DC0000000C06C6930400C000000130000000A0D00003C00000006000000020000000000002000408F4000000080D06130C00000008014A42E400000002000408F40000000A080361BC0000000
310
E0DB8D31400C00000013000000120D00003C00000006000000020000000000002000408F4000000080BC5113C000000080EAAF44400000002000408F400000000064C7E8BF00000080CE3D43400C000000130000001A0D00003C00000006000000020000000000002000408F40000000009E9913C0000000C03B9744400000
310
002000408F400000000064C7E8BF00000080CE3D43400C00000013000000220D00003C00000006000000020000000000002000408F40000000A09D9913C000000040F86C43400000002000408F400000000068C0F2BF00000040EEF142400C000000130000002A0D00003C00000006000000020000000000002000408F4000
310
0000E0E6AA21C000000020AA6E3F400000002000408F40000000000080F4BE000000C0E3913C400C00000013000000320D00003C00000006000000020000000000002000408F40000000A0ABA121C0000000208B963F400000002000408F40000000000080F4BE000000C0E3913C400C000000130000003A0D00003C000000
310
06000000020000000000002000408F40000000C0777121C000000040A6B63F400000002000408F40000000000080F4BE000000C0E3913C400C00000013000000420D00003C00000006000000020000000000002000408F40000000E06A611FC0000000C0D03240400000002000408F40000000000080F4BE000000C0E3913C
310
400C000000130000004A0D00003C00000006000000020000000000002000408F40000000606B011FC000000080BD4240400000002000408F40000000000080F4BE000000C0E3913C400C00000013000000520D00003C00000006000000020000000000002000408F40000000E039EE1EC00000000086564040000000200040
310
8F40000000000080F1BE000000C0E5B641400C000000130000005A0D00003C00000006000000020000000000002000408F4000000060FD2C1FC0000000C0DA6840400000002000408F40000000000080F1BE000000C0E5B641400C00000013000000620D00003C00000006000000020000000000002000408F400000002073
310
0914C0000000C0CD3243400000002000408F400000000068C0F2BF00000040EEF142400C000000130000006A0D00003C00000006000000020000000000002000408F40000000E0864015C0000000C0570543400000002000408F400000000085FCF4BF000000C0549842400C00000013000000720D00003C00000006000000
310
020000000000002000408F40000000A0B51020C0000000800E9540400000002000408F400000000060C7E8BF00000000DBF241400C000000130000007A0D00003C00000006000000020000000000002000408F40000000C0497220C000000080F9C240400000002000408F400000000060C7E8BF00000000DBF241400C0000
310
0013000000820D00003C00000006000000020000000000002000408F400000006049BB20C0000000C0FEF240400000002000408F400000000060C7E8BF00000000DBF241400C000000130000008A0D00003C00000006000000020000000000002000408F40000000804DFA20C000000040C23C41400000002000408F400000
310
000060C7E8BF00000000DBF241400C00000013000000920D00003C00000006000000020000000000002000408F4000000000050121C0000000006F8641400000002000408F400000008067C0F2BF00000040BB3E42400C000000130000009A0D00003C00000006000000020000000000002000408F40000000002BD220C000
310
00004020CC41400000002000408F400000008067C0F2BF00000040BB3E42400C00000013000000A20D00003C00000006000000020000000000002000408F4000000040387520C000000080E70A42400000002000408F400000008067C0F2BF00000040BB3E42400C00000013000000AA0D00003C0000000600000002000000
310
0000002000408F40000000606CE41FC000000000944042400000002000408F400000008067C0F2BF00000040BB3E42400C00000013000000B20D00003C00000006000000020000000000002000408F40000000600CAE1EC0000000C0766B42400000002000408F400000008067C0F2BF00000040BB3E42400C000000130000
310
00BA0D00003C00000006000000020000000000002000408F40000000E020601DC000000000468E42400000002000408F400000008067C0F2BF00000040BB3E42400C00000013000000C20D00003C00000006000000020000000000002000408F40000000C0E5FA16C00000004084EE42400000002000408F400000000085FC
310
F4BF000000C0549842400C00000013000000CA0D00003C00000006000000020000000000002000408F40000000C02A2A18C00000008031E442400000002000408F400000008067C0F2BF00000040BB3E42400C00000013000000D20D00003C00000006000000020000000000002000408F4000000060DC6719C00000000015
310
D542400000002000408F400000008067C0F2BF00000040BB3E42400C00000013000000DA0D00003C00000006000000020000000000002000408F40000000E098B21AC0000000809AC142400000002000408F400000008067C0F2BF00000040BB3E42400C00000013000000E20D00003C000000060000000200000000000020
310
00408F400000008058081CC0000000C07BAA42400000002000408F400000008067C0F2BF00000040BB3E4240
100
AcDbSubDMesh
 71
     2
 72
     0
 91
        0
 92
      202
 10
-1000.0
 20
-0.0000600814819336
 30
42.29693603515625
 10
-1000.0
 20
-0.0000615119934082
 30
38.95098114013672
 10
-1000.0
 20
-0.7743821144104004
 30
38.48255920410156
 10
-1000.0
 20
-1.172016620635986
 30
37.88977813720703
 10
-1000.0
 20
-1.311693668365478
 30
37.18978118896484
 10
-1000.0
 20
-1.172016620635986
 30
36.48978424072266
 10
-1000.0
 20
-0.7743797302246094
 30
35.89700317382813
 10
-1000.0
 20
-0.0000591278076172
 30
35.42858123779297
 10
-1000.0
 20
-0.0000619888305664
 30
28.56957817077637
 10
-1000.0
 20
-1.558188438415527
 30
21.48835372924805
 10
-1000.0
 20
-1.943955898284912
 30
20.49472045898438
 10
-1000.0
 20
-2.612237930297851
 30
19.66454315185547
 10
-1000.0
 20
-3.500402212142944
 30
19.07550811767578
 10
-1000.0
 20
-4.525322914123535
 30
18.78283309936523
 10
-1000.0
 20
-5.779325008392333
 30
18.38172340393066
 10
-1000.0
 20
-6.80327033996582
 30
17.5538330078125
 10
-1000.0
 20
-7.458113670349121
 30
16.41151237487793
 10
-1000.0
 20
-7.655099391937255
 30
15.10981750488281
 10
-1000.0
 20
-7.367571353912353
 30
13.82488822937012
 10
-1000.0
 20
-6.634432792663574
 30
12.73109817504883
 10
-1000.0
 20
-5.555261611938476
 30
11.97690963745117
 10
-1000.0
 20
-0.0000615119934082
 30
9.468999862670898
 10
-1000.0
 20
-0.0000629425048828
 30
7.048135757446289
 10
-1000.0
 20
-0.7743840217590332
 30
6.579717636108398
 10
-1000.0
 20
-1.172019958496093
 30
5.986936569213867
 10
-1000.0
 20
-1.311697006225585
 30
5.286939620971679
 10
-1000.0
 20
-1.17201805114746
 30
4.586942672729492
 10
-1000.0
 20
-0.7743816375732422
 30
3.99416160583496
 10
-1000.0
 20
-0.0000600814819336
 30
3.525739669799804
 10
-1000.0
 20
-0.0000619888305664
 30
0.0000209808349609
 10
-1000.0
 20
-5.796245574951171
 30
1.022047042846679
 10
-1000.0
 20
-5.952795028686523
 30
1.101922988891601
 10
-1000.0
 20
-6.037736892700195
 30
1.255781173706054
 10
-1000.0
 20
-6.542348861694335
 30
2.66243553161621
 10
-1000.0
 20
-7.45998191833496
 30
3.97096824645996
 10
-1000.0
 20
-8.062953948974609
 30
4.54734992980957
 10
-1000.0
 20
-8.754379272460937
 30
5.054128646850585
 10
-1000.0
 20
-9.49795913696289
 30
5.464849472045898
 10
-1000.0
 20
-10.29176330566406
 30
5.777978897094726
 10
-1000.0
 20
-10.44245719909668
 30
5.886857986450195
 10
-1000.0
 20
-10.50006294250488
 30
6.063623428344726
 10
-1000.0
 20
-10.50006294250488
 30
7.117048263549804
 10
-1000.0
 20
-10.55919456481933
 30
7.29588508605957
 10
-1000.0
 20
-10.71327972412109
 30
7.40422248840332
 10
-1000.0
 20
-11.8386287689209
 30
7.779584884643554
 10
-1000.0
 20
-12.85387420654297
 30
8.212291717529296
 10
-1000.0
 20
-13.75765991210937
 30
8.703632354736328
 10
-1000.0
 20
-14.51928520202637
 30
9.278038024902343
 10
-1000.0
 20
-15.15659713745117
 30
9.938652992248535
 10
-1000.0
 20
-15.68570518493652
 30
10.69222545623779
 10
-1000.0
 20
-16.09602355957031
 30
11.52936649322509
 10
-1000.0
 20
-16.38106918334961
 30
12.43857383728027
 10
-1000.0
 20
-16.52521896362304
 30
13.39986038208008
 10
-1000.0
 20
-16.52615356445312
 30
14.36753463745117
 10
-1000.0
 20
-16.38212966918945
 30
15.32016372680664
 10
-1000.0
 20
-16.09927368164062
 30
16.21220970153808
 10
-1000.0
 20
-15.66917037963867
 30
17.0646743774414
 10
-1000.0
 20
-15.08350372314453
 30
17.89344596862793
 10
-1000.0
 20
-14.33638381958008
 30
18.70536231994629
 10
-1000.0
 20
-13.45907974243164
 30
19.48438835144043
 10
-1000.0
 20
-12.52311897277832
 30
20.18169593811035
 10
-1000.0
 20
-11.59674835205078
 30
20.81327056884766
 10
-1000.0
 20
-10.71331405639648
 30
21.38649559020996
 10
-1000.0
 20
-9.90396499633789
 30
21.96624374389648
 10
-1000.0
 20
-9.193851470947265
 30
22.56999206542969
 10
-1000.0
 20
-8.611263275146484
 30
23.21954154968262
 10
-1000.0
 20
-8.166181564331054
 30
23.9396858215332
 10
-1000.0
 20
-7.855518341064453
 30
24.72033309936524
 10
-1000.0
 20
-7.666624069213867
 30
25.53718566894531
 10
-1000.0
 20
-7.60628318786621
 30
26.3459529876709
 10
-1000.0
 20
-7.860252857208251
 30
27.88934326171875
 10
-1000.0
 20
-8.255613327026367
 30
29.08995437622071
 10
-1000.0
 20
-8.636981964111328
 30
30.43099403381348
 10
-1000.0
 20
-8.833840370178222
 30
31.43198013305664
 10
-1000.0
 20
-8.815810203552246
 30
31.58775711059571
 10
-1000.0
 20
-8.721665382385253
 30
31.71317100524902
 10
-1000.0
 20
-7.845179080963134
 30
32.39669799804687
 10
-1000.0
 20
-7.751430988311767
 30
32.52110290527344
 10
-1000.0
 20
-7.73268699645996
 30
32.67566680908203
 10
-1000.0
 20
-7.793980598449707
 30
32.81887817382813
 10
-1000.0
 20
-8.032682418823242
 30
33.16419982910157
 10
-1000.0
 20
-8.2232666015625
 30
33.52293395996094
 10
-1000.0
 20
-8.36584186553955
 30
33.8980941772461
 10
-1000.0
 20
-8.488918304443359
 30
34.47437286376953
 10
-1000.0
 20
-8.502036094665527
 30
35.04995727539063
 10
-1000.0
 20
-8.410530090332031
 30
35.59442901611328
 10
-1000.0
 20
-8.228988647460937
 30
36.08488464355469
 10
-1000.0
 20
-7.973115921020507
 30
36.50421142578125
 10
-1000.0
 20
-7.670015811920166
 30
36.83925628662109
 10
-1000.0
 20
-7.343922138214111
 30
37.1112060546875
 10
-1000.0
 20
-7.008196353912353
 30
37.33159637451172
 10
-1000.0
 20
-6.674458026885986
 30
37.51222229003906
 10
-1000.0
 20
-6.351472377777099
 30
37.66439819335938
 10
-1000.0
 20
-6.041224479675292
 30
37.78245544433594
 10
-1000.0
 20
-5.745062351226806
 30
37.86310577392578
 10
-1000.0
 20
-5.31305980682373
 30
38.04143524169922
 10
-1000.0
 20
-5.009274005889892
 30
38.39659881591797
 10
-1000.0
 20
-4.900061130523681
 30
38.85102081298828
 10
-1000.0
 20
-4.900061607360839
 30
41.18120574951172
 10
-1000.0
 20
-4.829866409301757
 30
41.37403869628906
 10
-1000.0
 20
-4.652154922485351
 30
41.47664642333984
 10
1000.000061035156
 20
-0.0000171661376953
 30
42.2972412109375
 10
1000.000061035156
 20
-4.65211009979248
 30
41.47695159912109
 10
1000.000061035156
 20
-4.82982063293457
 30
41.37434387207031
 10
1000.000061035156
 20
-4.900016784667968
 30
41.18151092529297
 10
1000.000061035156
 20
-4.900015354156494
 30
38.85132598876953
 10
1000.000061035156
 20
-5.009228229522705
 30
38.39690399169922
 10
1000.000061035156
 20
-5.313014507293701
 30
38.04174041748047
 10
1000.000061035156
 20
-5.745017051696777
 30
37.86341094970703
 10
1000.000061035156
 20
-6.041178703308105
 30
37.78276062011719
 10
1000.000061035156
 20
-6.351426601409912
 30
37.66470336914063
 10
1000.000061035156
 20
-6.674411296844482
 30
37.51252746582031
 10
1000.000061035156
 20
-7.008150100708007
 30
37.33190155029297
 10
1000.000061035156
 20
-7.343875408172607
 30
37.11151123046875
 10
1000.000061035156
 20
-7.669969081878662
 30
36.83956146240234
 10
1000.000061035156
 20
-7.973069667816162
 30
36.5045166015625
 10
1000.000061035156
 20
-8.228944778442382
 30
36.08518981933594
 10
1000.000061035156
 20
-8.410484313964843
 30
35.59473419189453
 10
1000.000061035156
 20
-8.501991271972656
 30
35.05026245117188
 10
1000.000061035156
 20
-8.488872528076171
 30
34.47467803955078
 10
1000.000061035156
 20
-8.36579418182373
 30
33.89839935302735
 10
1000.000061035156
 20
-8.223218917846679
 30
33.52323913574219
 10
1000.000061035156
 20
-8.032635688781738
 30
33.16450500488282
 10
1000.000061035156
 20
-7.793935298919677
 30
32.81917572021484
 10
1000.000061035156
 20
-7.732642650604248
 30
32.67596435546875
 10
1000.000061035156
 20
-7.751386165618896
 30
32.52140808105469
 10
1000.000061035156
 20
-7.845134258270263
 30
32.39699554443359
 10
1000.000061035156
 20
-8.721616744995117
 30
31.71347427368164
 10
1000.000061035156
 20
-8.815762519836425
 30
31.58806037902832
 10
1000.000061035156
 20
-8.833792686462402
 30
31.43228340148926
 10
1000.000061035156
 20
-8.63693618774414
 30
30.4312973022461
 10
1000.000061035156
 20
-8.255567550659179
 30
29.09025764465332
 10
1000.000061035156
 20
-7.860207080841064
 30
27.88964653015137
 10
1000.000061035156
 20
-7.606236934661865
 30
26.34625625610352
 10
1000.000061035156
 20
-7.666578292846679
 30
25.53748893737793
 10
1000.000061035156
 20
-7.855472087860107
 30
24.72063636779785
 10
1000.000061035156
 20
-8.166138648986816
 30
23.93998908996582
 10
1000.000061035156
 20
-8.611218452453613
 30
23.21984481811524
 10
1000.000061035156
 20
-9.193808555603027
 30
22.5702953338623
 10
1000.000061035156
 20
-9.903922080993652
 30
21.9665470123291
 10
1000.000061035156
 20
-10.71327114105224
 30
21.38679885864258
 10
1000.000061035156
 20
-11.59670734405517
 30
20.81357383728027
 10
1000.000061035156
 20
-12.52307796478271
 30
20.18199920654297
 10
1000.000061035156
 20
-13.45903873443603
 30
19.48469161987304
 10
1000.000061035156
 20
-14.33634281158447
 30
18.7056655883789
 10
1000.000061035156
 20
-15.08346176147461
 30
17.89374923706055
 10
1000.000061035156
 20
-15.66912460327148
 30
17.06497955322265
 10
1000.000061035156
 20
-16.0992317199707
 30
16.2125129699707
 10
1000.000061035156
 20
-16.38208770751953
 30
15.32046890258789
 10
1000.000061035156
 20
-16.5261116027832
 30
14.36783981323242
 10
1000.000061035156
 20
-16.52517700195312
 30
13.40016365051269
 10
1000.000061035156
 20
-16.38102722167969
 30
12.43887519836426
 10
1000.000061035156
 20
-16.09598159790039
 30
11.52966976165771
 10
1000.000061035156
 20
-15.68566131591797
 30
10.69252681732177
 10
1000.000061035156
 20
-15.15655326843261
 30
9.93896198272705
 10
1000.000061035156
 20
-14.51924133300781
 30
9.278343200683593
 10
1000.000061035156
 20
-13.75761604309082
 30
8.703937530517578
 10
1000.000061035156
 20
-12.85383033752441
 30
8.212600708007812
 10
1000.000061035156
 20
-11.83858489990234
 30
7.77989387512207
 10
1000.000061035156
 20
-10.71323490142822
 30
7.40452766418457
 10
1000.000061035156
 20
-10.55914974212646
 30
7.29619026184082
 10
1000.000061035156
 20
-10.50001811981201
 30
7.117353439331054
 10
1000.000061035156
 20
-10.50001811981201
 30
6.063928604125976
 10
1000.000061035156
 20
-10.44241428375244
 30
5.88716697692871
 10
1000.000061035156
 20
-10.29172039031982
 30
5.778287887573242
 10
1000.000061035156
 20
-9.497914314270019
 30
5.465158462524414
 10
1000.000061035156
 20
-8.754334449768066
 30
5.054437637329101
 10
1000.000061035156
 20
-8.062910079956054
 30
4.54765510559082
 10
1000.000061035156
 20
-7.459937095642089
 30
3.97127342224121
 10
1000.000061035156
 20
-6.542304039001464
 30
2.66274070739746
 10
1000.000061035156
 20
-6.037693500518798
 30
1.25609016418457
 10
1000.000061035156
 20
-5.952751159667968
 30
1.102231979370117
 10
1000.000061035156
 20
-5.796201705932617
 30
1.022352218627929
 10
1000.000061035156
 20
-0.0000200271606445
 30
0.0003261566162109
 10
1000.000061035156
 20
-0.0000190734863281
 30
3.526044845581054
 10
1000.000061035156
 20
-0.7743406295776368
 30
3.99446678161621
 10
1000.000061035156
 20
-1.171976089477539
 30
4.587247848510742
 10
1000.000061035156
 20
-1.31165599822998
 30
5.287244796752929
 10
1000.000061035156
 20
-1.171977996826171
 30
5.987241744995117
 10
1000.000061035156
 20
-0.7743425369262696
 30
6.580022811889648
 10
1000.000061035156
 20
-0.0000209808349609
 30
7.048444747924804
 10
1000.000061035156
 20
-0.0000195503234863
 30
9.469308853149414
 10
1000.000061035156
 20
-5.55521821975708
 30
11.97721290588379
 10
1000.000061035156
 20
-6.634388446807861
 30
12.73140144348144
 10
1000.000061035156
 20
-7.367526054382324
 30
13.82519149780273
 10
1000.000061035156
 20
-7.655053615570068
 30
15.11012077331543
 10
1000.000061035156
 20
-7.458068370819091
 30
16.41181564331055
 10
1000.000061035156
 20
-6.803225040435791
 30
17.55413627624512
 10
1000.000061035156
 20
-5.779280662536621
 30
18.38202667236328
 10
1000.000061035156
 20
-4.525278091430664
 30
18.78313636779785
 10
1000.000061035156
 20
-3.500358581542968
 30
19.0758113861084
 10
1000.000061035156
 20
-2.612195968627929
 30
19.66484642028808
 10
1000.000061035156
 20
-1.943912982940673
 30
20.49502372741699
 10
1000.000061035156
 20
-1.558145999908447
 30
21.48865699768066
 10
1000.000061035156
 20
-0.0000195503234863
 30
28.56988143920899
 10
1000.000061035156
 20
-0.0000166893005371
 30
35.42888641357422
 10
1000.000061035156
 20
-0.7743377685546875
 30
35.89730834960938
 10
1000.000061035156
 20
-1.171973705291748
 30
36.49008941650391
 10
1000.000061035156
 20
-1.311650276184082
 30
37.19008636474609
 10
1000.000061035156
 20
-1.171974182128906
 30
37.89008331298828
 10
1000.000061035156
 20
-0.7743396759033204
 30
38.48286437988281
 10
1000.000061035156
 20
-0.0000185966491699
 30
38.95128631591797
 93
     1135
 90
        4
 90
       29
 90
      173
 90
      172
 90
       30
 90
        4
 90
       30
 90
      172
 90
      171
 90
       31
 90
        4
 90
       31
 90
      171
 90
      170
 90
       32
 90
        4
 90
       32
 90
      170
 90
      169
 90
       33
 90
        4
 90
       33
 90
      169
 90
      168
 90
       34
 90
        4
 90
       34
 90
      168
 90
      167
 90
       35
 90
        4
 90
       35
 90
      167
 90
      166
 90
       36
 90
        4
 90
       36
 90
      166
 90
      165
 90
       37
 90
        4
 90
       37
 90
      165
 90
      164
 90
       38
 90
        4
 90
       38
 90
      164
 90
      163
 90
       39
 90
        4
 90
       39
 90
      163
 90
      162
 90
       40
 90
        4
 90
       40
 90
      162
 90
      161
 90
       41
 90
        4
 90
       41
 90
      161
 90
      160
 90
       42
 90
        4
 90
       42
 90
      160
 90
      159
 90
       43
 90
        4
 90
       43
 90
      159
 90
      158
 90
       44
 90
        4
 90
       44
 90
      158
 90
      157
 90
       45
 90
        4
 90
       45
 90
      157
 90
      156
 90
       46
 90
        4
 90
       46
 90
      156
 90
      155
 90
       47
 90
        4
 90
       47
 90
      155
 90
      154
 90
       48
 90
        4
 90
       48
 90
      154
 90
      153
 90
       49
 90
        4
 90
       49
 90
      153
 90
      152
 90
       50
 90
        4
 90
       50
 90
      152
 90
      151
 90
       51
 90
        4
 90
       51
 90
      151
 90
      150
 90
       52
 90
        4
 90
       52
 90
      150
 90
      149
 90
       53
 90
        4
 90
       53
 90
      149
 90
      148
 90
       54
 90
        4
 90
       54
 90
      148
 90
      147
 90
       55
 90
        4
 90
       55
 90
      147
 90
      146
 90
       56
 90
        4
 90
       56
 90
      146
 90
      145
 90
       57
 90
        4
 90
       57
 90
      145
 90
      144
 90
       58
 90
        4
 90
       58
 90
      144
 90
      143
 90
       59
 90
        4
 90
       59
 90
      143
 90
      142
 90
       60
 90
        4
 90
       60
 90
      142
 90
      141
 90
       61
 90
        4
 90
       61
 90
      141
 90
      140
 90
       62
 90
        4
 90
       62
 90
      140
 90
      139
 90
       63
 90
        4
 90
       63
 90
      139
 90
      138
 90
       64
 90
        4
 90
       64
 90
      138
 90
      137
 90
       65
 90
        4
 90
       65
 90
      137
 90
      136
 90
       66
 90
        4
 90
       66
 90
      136
 90
      135
 90
       67
 90
        4
 90
       67
 90
      135
 90
      134
 90
       68
 90
        4
 90
       68
 90
      134
 90
      133
 90
       69
 90
        4
 90
       69
 90
      133
 90
      132
 90
       70
 90
        4
 90
       70
 90
      132
 90
      131
 90
       71
 90
        4
 90
       71
 90
      131
 90
      130
 90
       72
 90
        4
 90
       72
 90
      130
 90
      129
 90
       73
 90
        4
 90
       73
 90
      129
 90
      128
 90
       74
 90
        4
 90
       74
 90
      128
 90
      127
 90
       75
 90
        4
 90
       75
 90
      127
 90
      126
 90
       76
 90
        4
 90
       76
 90
      126
 90
      125
 90
       77
 90
        4
 90
       77
 90
      125
 90
      124
 90
       78
 90
        4
 90
       78
 90
      124
 90
      123
 90
       79
 90
        4
 90
       79
 90
      123
 90
      122
 90
       80
 90
        4
 90
       80
 90
      122
 90
      121
 90
       81
 90
        4
 90
       81
 90
      121
 90
      120
 90
       82
 90
        4
 90
       82
 90
      120
 90
      119
 90
       83
 90
        4
 90
       83
 90
      119
 90
      118
 90
       84
 90
        4
 90
       84
 90
      118
 90
      117
 90
       85
 90
        4
 90
       85
 90
      117
 90
      116
 90
       86
 90
        4
 90
       86
 90
      116
 90
      115
 90
       87
 90
        4
 90
       87
 90
      115
 90
      114
 90
       88
 90
        4
 90
       88
 90
      114
 90
      113
 90
       89
 90
        4
 90
       89
 90
      113
 90
      112
 90
       90
 90
        4
 90
       90
 90
      112
 90
      111
 90
       91
 90
        4
 90
       91
 90
      111
 90
      110
 90
       92
 90
        4
 90
       92
 90
      110
 90
      109
 90
       93
 90
        4
 90
       93
 90
      109
 90
      108
 90
       94
 90
        4
 90
       94
 90
      108
 90
      107
 90
       95
 90
        4
 90
       95
 90
      107
 90
      106
 90
       96
 90
        4
 90
       96
 90
      106
 90
      105
 90
       97
 90
        4
 90
       97
 90
      105
 90
      104
 90
       98
 90
        4
 90
       98
 90
      104
 90
      103
 90
       99
 90
        4
 90
       99
 90
      103
 90
      102
 90
      100
 90
        4
 90
      100
 90
      102
 90
      101
 90
        0
 90
        4
 90
        0
 90
      101
 90
      201
 90
        1
 90
        4
 90
        1
 90
      201
 90
      200
 90
        2
 90
        4
 90
        2
 90
      200
 90
      199
 90
        3
 90
        4
 90
        3
 90
      199
 90
      198
 90
        4
 90
        4
 90
        4
 90
      198
 90
      197
 90
        5
 90
        4
 90
        5
 90
      197
 90
      196
 90
        6
 90
        4
 90
        6
 90
      196
 90
      195
 90
        7
 90
        4
 90
        7
 90
      195
 90
      194
 90
        8
 90
        4
 90
        8
 90
      194
 90
      193
 90
        9
 90
        4
 90
        9
 90
      193
 90
      192
 90
       10
 90
        4
 90
       10
 90
      192
 90
      191
 90
       11
 90
        4
 90
       11
 90
      191
 90
      190
 90
       12
 90
        4
 90
       12
 90
      190
 90
      189
 90
       13
 90
        4
 90
       13
 90
      189
 90
      188
 90
       14
 90
        4
 90
       14
 90
      188
 90
      187
 90
       15
 90
        4
 90
       15
 90
      187
 90
      186
 90
       16
 90
        4
 90
       16
 90
      186
 90
      185
 90
       17
 90
        4
 90
       17
 90
      185
 90
      184
 90
       18
 90
        4
 90
       18
 90
      184
 90
      183
 90
       19
 90
        4
 90
       19
 90
      183
 90
      182
 90
       20
 90
        4
 90
       20
 90
      182
 90
      181
 90
       21
 90
        4
 90
       21
 90
      181
 90
      180
 90
       22
 90
        4
 90
       22
 90
      180
 90
      179
 90
       23
 90
        4
 90
       23
 90
      179
 90
      178
 90
       24
 90
        4
 90
       24
 90
      178
 90
      177
 90
       25
 90
        4
 90
       25
 90
      177
 90
      176
 90
       26
 90
        4
 90
       26
 90
      176
 90
      175
 90
       27
 90
        4
 90
       27
 90
      175
 90
      174
 90
       28
 90
        4
 90
       28
 90
      174
 90
      173
 90
       29
 90
        4
 90
        1
 90
        2
 90
      100
 90
        0
 90
        4
 90
       27
 90
       28
 90
       29
 90
       30
 90
        3
 90
       27
 90
       30
 90
       31
 90
        3
 90
       27
 90
       31
 90
       32
 90
        4
 90
       26
 90
       27
 90
       32
 90
       33
 90
        4
 90
       22
 90
       23
 90
       36
 90
       37
 90
        4
 90
       23
 90
       24
 90
       35
 90
       36
 90
        4
 90
       24
 90
       25
 90
       34
 90
       35
 90
        4
 90
       25
 90
       26
 90
       33
 90
       34
 90
        4
 90
       21
 90
       22
 90
       37
 90
       38
 90
        3
 90
       21
 90
       38
 90
       39
 90
        3
 90
       21
 90
       39
 90
       40
 90
        4
 90
       20
 90
       21
 90
       40
 90
       41
 90
        3
 90
       20
 90
       41
 90
       42
 90
        3
 90
       20
 90
       42
 90
       43
 90
        4
 90
        8
 90
        9
 90
       69
 90
       70
 90
        3
 90
        8
 90
       70
 90
       71
 90
        3
 90
        8
 90
       71
 90
       72
 90
        4
 90
       19
 90
       20
 90
       43
 90
       44
 90
        3
 90
       19
 90
       44
 90
       45
 90
        4
 90
       18
 90
       19
 90
       45
 90
       46
 90
        3
 90
       18
 90
       46
 90
       47
 90
        4
 90
        9
 90
       10
 90
       67
 90
       68
 90
        3
 90
        9
 90
       68
 90
       69
 90
        4
 90
       10
 90
       11
 90
       65
 90
       66
 90
        3
 90
       10
 90
       66
 90
       67
 90
        4
 90
       11
 90
       12
 90
       63
 90
       64
 90
        3
 90
       11
 90
       64
 90
       65
 90
        4
 90
       17
 90
       18
 90
       47
 90
       48
 90
        3
 90
       17
 90
       48
 90
       49
 90
        3
 90
       17
 90
       49
 90
       50
 90
        3
 90
       17
 90
       50
 90
       51
 90
        3
 90
       12
 90
       62
 90
       63
 90
        4
 90
       12
 90
       13
 90
       61
 90
       62
 90
        4
 90
       13
 90
       14
 90
       59
 90
       60
 90
        3
 90
       13
 90
       60
 90
       61
 90
        3
 90
       14
 90
       58
 90
       59
 90
        4
 90
       14
 90
       15
 90
       57
 90
       58
 90
        3
 90
       15
 90
       56
 90
       57
 90
        3
 90
       15
 90
       55
 90
       56
 90
        3
 90
       16
 90
       52
 90
       53
 90
        4
 90
       16
 90
       17
 90
       51
 90
       52
 90
        3
 90
       15
 90
       54
 90
       55
 90
        4
 90
       15
 90
       16
 90
       53
 90
       54
 90
        3
 90
        2
 90
       98
 90
       99
 90
        3
 90
        2
 90
       99
 90
      100
 90
        4
 90
        2
 90
        3
 90
       97
 90
       98
 90
        3
 90
        8
 90
       72
 90
       73
 90
        3
 90
        8
 90
       73
 90
       74
 90
        3
 90
        8
 90
       74
 90
       75
 90
        3
 90
        8
 90
       75
 90
       76
 90
        3
 90
        8
 90
       76
 90
       77
 90
        4
 90
        7
 90
        8
 90
       77
 90
       78
 90
        3
 90
        7
 90
       78
 90
       79
 90
        4
 90
        3
 90
        4
 90
       95
 90
       96
 90
        3
 90
        3
 90
       96
 90
       97
 90
        4
 90
        6
 90
        7
 90
       79
 90
       80
 90
        3
 90
        6
 90
       80
 90
       81
 90
        3
 90
        6
 90
       81
 90
       82
 90
        3
 90
        6
 90
       82
 90
       83
 90
        4
 90
        5
 90
        6
 90
       83
 90
       84
 90
        3
 90
        5
 90
       84
 90
       85
 90
        3
 90
        5
 90
       85
 90
       86
 90
        3
 90
        5
 90
       86
 90
       87
 90
        3
 90
        5
 90
       87
 90
       88
 90
        3
 90
        5
 90
       88
 90
       89
 90
        4
 90
        4
 90
        5
 90
       93
 90
       94
 90
        3
 90
        4
 90
       94
 90
       95
 90
        3
 90
        5
 90
       91
 90
       92
 90
        3
 90
        5
 90
       92
 90
       93
 90
        3
 90
        5
 90
       89
 90
       90
 90
        3
 90
        5
 90
       90
 90
       91
 90
        4
 90
      201
 90
      101
 90
      102
 90
      200
 90
        4
 90
      175
 90
      172
 90
      173
 90
      174
 90
        3
 90
      175
 90
      171
 90
      172
 90
        3
 90
      175
 90
      170
 90
      171
 90
        4
 90
      176
 90
      169
 90
      170
 90
      175
 90
        4
 90
      180
 90
      165
 90
      166
 90
      179
 90
        4
 90
      179
 90
      166
 90
      167
 90
      178
 90
        4
 90
      178
 90
      167
 90
      168
 90
      177
 90
        4
 90
      177
 90
      168
 90
      169
 90
      176
 90
        4
 90
      181
 90
      164
 90
      165
 90
      180
 90
        3
 90
      181
 90
      163
 90
      164
 90
        3
 90
      181
 90
      162
 90
      163
 90
        4
 90
      182
 90
      161
 90
      162
 90
      181
 90
        3
 90
      182
 90
      160
 90
      161
 90
        3
 90
      182
 90
      159
 90
      160
 90
        4
 90
      194
 90
      132
 90
      133
 90
      193
 90
        3
 90
      194
 90
      131
 90
      132
 90
        3
 90
      194
 90
      130
 90
      131
 90
        4
 90
      183
 90
      158
 90
      159
 90
      182
 90
        3
 90
      183
 90
      157
 90
      158
 90
        4
 90
      184
 90
      156
 90
      157
 90
      183
 90
        3
 90
      184
 90
      155
 90
      156
 90
        4
 90
      193
 90
      134
 90
      135
 90
      192
 90
        3
 90
      193
 90
      133
 90
      134
 90
        4
 90
      192
 90
      136
 90
      137
 90
      191
 90
        3
 90
      192
 90
      135
 90
      136
 90
        4
 90
      191
 90
      138
 90
      139
 90
      190
 90
        3
 90
      191
 90
      137
 90
      138
 90
        4
 90
      185
 90
      154
 90
      155
 90
      184
 90
        3
 90
      185
 90
      153
 90
      154
 90
        3
 90
      185
 90
      152
 90
      153
 90
        3
 90
      185
 90
      151
 90
      152
 90
        3
 90
      190
 90
      139
 90
      140
 90
        4
 90
      190
 90
      140
 90
      141
 90
      189
 90
        4
 90
      189
 90
      142
 90
      143
 90
      188
 90
        3
 90
      189
 90
      141
 90
      142
 90
        3
 90
      188
 90
      143
 90
      144
 90
        4
 90
      188
 90
      144
 90
      145
 90
      187
 90
        3
 90
      187
 90
      145
 90
      146
 90
        3
 90
      187
 90
      146
 90
      147
 90
        3
 90
      186
 90
      149
 90
      150
 90
        4
 90
      186
 90
      150
 90
      151
 90
      185
 90
        3
 90
      187
 90
      147
 90
      148
 90
        4
 90
      187
 90
      148
 90
      149
 90
      186
 90
        3
 90
      200
 90
      103
 90
      104
 90
        3
 90
      200
 90
      102
 90
      103
 90
        4
 90
      200
 90
      104
 90
      105
 90
      199
 90
        3
 90
      194
 90
      129
 90
      130
 90
        3
 90
      194
 90
      128
 90
      129
 90
        3
 90
      194
 90
      127
 90
      128
 90
        3
 90
      194
 90
      126
 90
      127
 90
        3
 90
      194
 90
      125
 90
      126
 90
        4
 90
      195
 90
      124
 90
      125
 90
      194
 90
        3
 90
      195
 90
      123
 90
      124
 90
        4
 90
      199
 90
      106
 90
      107
 90
      198
 90
        3
 90
      199
 90
      105
 90
      106
 90
        4
 90
      196
 90
      122
 90
      123
 90
      195
 90
        3
 90
      196
 90
      121
 90
      122
 90
        3
 90
      196
 90
      120
 90
      121
 90
        3
 90
      196
 90
      119
 90
      120
 90
        4
 90
      197
 90
      118
 90
      119
 90
      196
 90
        3
 90
      197
 90
      117
 90
      118
 90
        3
 90
      197
 90
      116
 90
      117
 90
        3
 90
      197
 90
      115
 90
      116
 90
        3
 90
      197
 90
      114
 90
      115
 90
        3
 90
      197
 90
      113
 90
      114
 90
        4
 90
      198
 90
      108
 90
      109
 90
      197
 90
        3
 90
      198
 90
      107
 90
      108
 90
        3
 90
      197
 90
      110
 90
      111
 90
        3
 90
      197
 90
      109
 90
      110
 90
        3
 90
      197
 90
      112
 90
      113
 90
        3
 90
      197
 90
      111
 90
      112
 94
      445
 90
       29
 90
      173
 90
      172
 90
      173
 90
       30
 90
      172
 90
       29
 90
       30
 90
      171
 90
      172
 90
       31
 90
      171
 90
       30
 90
       31
 90
      170
 90
      171
 90
       32
 90
      170
 90
       31
 90
       32
 90
      169
 90
      170
 90
       33
 90
      169
 90
       32
 90
       33
 90
      168
 90
      169
 90
       34
 90
      168
 90
       33
 90
       34
 90
      167
 90
      168
 90
       35
 90
      167
 90
       34
 90
       35
 90
      166
 90
      167
 90
       36
 90
      166
 90
       35
 90
       36
 90
      165
 90
      166
 90
       37
 90
      165
 90
       36
 90
       37
 90
      164
 90
      165
 90
       38
 90
      164
 90
       37
 90
       38
 90
      163
 90
      164
 90
       39
 90
      163
 90
       38
 90
       39
 90
      162
 90
      163
 90
       40
 90
      162
 90
       39
 90
       40
 90
      161
 90
      162
 90
       41
 90
      161
 90
       40
 90
       41
 90
      160
 90
      161
 90
       42
 90
      160
 90
       41
 90
       42
 90
      159
 90
      160
 90
       43
 90
      159
 90
       42
 90
       43
 90
      158
 90
      159
 90
       44
 90
      158
 90
       43
 90
       44
 90
      157
 90
      158
 90
       45
 90
      157
 90
       44
 90
       45
 90
      156
 90
      157
 90
       46
 90
      156
 90
       45
 90
       46
 90
      155
 90
      156
 90
       47
 90
      155
 90
       46
 90
       47
 90
      154
 90
      155
 90
       48
 90
      154
 90
       47
 90
       48
 90
      153
 90
      154
 90
       49
 90
      153
 90
       48
 90
       49
 90
      152
 90
      153
 90
       50
 90
      152
 90
       49
 90
       50
 90
      151
 90
      152
 90
       51
 90
      151
 90
       50
 90
       51
 90
      150
 90
      151
 90
       52
 90
      150
 90
       51
 90
       52
 90
      149
 90
      150
 90
       53
 90
      149
 90
       52
 90
       53
 90
      148
 90
      149
 90
       54
 90
      148
 90
       53
 90
       54
 90
      147
 90
      148
 90
       55
 90
      147
 90
       54
 90
       55
 90
      146
 90
      147
 90
       56
 90
      146
 90
       55
 90
       56
 90
      145
 90
      146
 90
       57
 90
      145
 90
       56
 90
       57
 90
      144
 90
      145
 90
       58
 90
      144
 90
       57
 90
       58
 90
      143
 90
      144
 90
       59
 90
      143
 90
       58
 90
       59
 90
      142
 90
      143
 90
       60
 90
      142
 90
       59
 90
       60
 90
      141
 90
      142
 90
       61
 90
      141
 90
       60
 90
       61
 90
      140
 90
      141
 90
       62
 90
      140
 90
       61
 90
       62
 90
      139
 90
      140
 90
       63
 90
      139
 90
       62
 90
       63
 90
      138
 90
      139
 90
       64
 90
      138
 90
       63
 90
       64
 90
      137
 90
      138
 90
       65
 90
      137
 90
       64
 90
       65
 90
      136
 90
      137
 90
       66
 90
      136
 90
       65
 90
       66
 90
      135
 90
      136
 90
       67
 90
      135
 90
       66
 90
       67
 90
      134
 90
      135
 90
       68
 90
      134
 90
       67
 90
       68
 90
      133
 90
      134
 90
       69
 90
      133
 90
       68
 90
       69
 90
      132
 90
      133
 90
       70
 90
      132
 90
       69
 90
       70
 90
      131
 90
      132
 90
       71
 90
      131
 90
       70
 90
       71
 90
      130
 90
      131
 90
       72
 90
      130
 90
       71
 90
       72
 90
      129
 90
      130
 90
       73
 90
      129
 90
       72
 90
       73
 90
      128
 90
      129
 90
       74
 90
      128
 90
       73
 90
       74
 90
      127
 90
      128
 90
       75
 90
      127
 90
       74
 90
       75
 90
      126
 90
      127
 90
       76
 90
      126
 90
       75
 90
       76
 90
      125
 90
      126
 90
       77
 90
      125
 90
       76
 90
       77
 90
      124
 90
      125
 90
       78
 90
      124
 90
       77
 90
       78
 90
      123
 90
      124
 90
       79
 90
      123
 90
       78
 90
       79
 90
      122
 90
      123
 90
       80
 90
      122
 90
       79
 90
       80
 90
      121
 90
      122
 90
       81
 90
      121
 90
       80
 90
       81
 90
      120
 90
      121
 90
       82
 90
      120
 90
       81
 90
       82
 90
      119
 90
      120
 90
       83
 90
      119
 90
       82
 90
       83
 90
      118
 90
      119
 90
       84
 90
      118
 90
       83
 90
       84
 90
      117
 90
      118
 90
       85
 90
      117
 90
       84
 90
       85
 90
      116
 90
      117
 90
       86
 90
      116
 90
       85
 90
       86
 90
      115
 90
      116
 90
       87
 90
      115
 90
       86
 90
       87
 90
      114
 90
      115
 90
       88
 90
      114
 90
       87
 90
       88
 90
      113
 90
      114
 90
       89
 90
      113
 90
       88
 90
       89
 90
      112
 90
      113
 90
       90
 90
      112
 90
       89
 90
       90
 90
      111
 90
      112
 90
       91
 90
      111
 90
       90
 90
       91
 90
      110
 90
      111
 90
       92
 90
      110
 90
       91
 90
       92
 90
      109
 90
      110
 90
       93
 90
      109
 90
       92
 90
       93
 90
      108
 90
      109
 90
       94
 90
      108
 90
       93
 90
       94
 90
      107
 90
      108
 90
       95
 90
      107
 90
       94
 90
       95
 90
      106
 90
      107
 90
       96
 90
      106
 90
       95
 90
       96
 90
      105
 90
      106
 90
       97
 90
      105
 90
       96
 90
       97
 90
      104
 90
      105
 90
       98
 90
      104
 90
       97
 90
       98
 90
      103
 90
      104
 90
       99
 90
      103
 90
       98
 90
       99
 90
      102
 90
      103
 90
      100
 90
      102
 90
       99
 90
      100
 90
      101
 90
      102
 90
        0
 90
      101
 90
        0
 90
      100
 90
      101
 90
      201
 90
        1
 90
      201
 90
        0
 90
        1
 90
      200
 90
      201
 90
        2
 90
      200
 90
        1
 90
        2
 90
      199
 90
      200
 90
        3
 90
      199
 90
        2
 90
        3
 90
      198
 90
      199
 90
        4
 90
      198
 90
        3
 90
        4
 90
      197
 90
      198
 90
        5
 90
      197
 90
        4
 90
        5
 90
      196
 90
      197
 90
        6
 90
      196
 90
        5
 90
        6
 90
      195
 90
      196
 90
        7
 90
      195
 90
        6
 90
        7
 90
      194
 90
      195
 90
        8
 90
      194
 90
        7
 90
        8
 90
      193
 90
      194
 90
        9
 90
      193
 90
        8
 90
        9
 90
      192
 90
      193
 90
       10
 90
      192
 90
        9
 90
       10
 90
      191
 90
      192
 90
       11
 90
      191
 90
       10
 90
       11
 90
      190
 90
      191
 90
       12
 90
      190
 90
       11
 90
       12
 90
      189
 90
      190
 90
       13
 90
      189
 90
       12
 90
       13
 90
      188
 90
      189
 90
       14
 90
      188
 90
       13
 90
       14
 90
      187
 90
      188
 90
       15
 90
      187
 90
       14
 90
       15
 90
      186
 90
      187
 90
       16
 90
      186
 90
       15
 90
       16
 90
      185
 90
      186
 90
       17
 90
      185
 90
       16
 90
       17
 90
      184
 90
      185
 90
       18
 90
      184
 90
       17
 90
       18
 90
      183
 90
      184
 90
       19
 90
      183
 90
       18
 90
       19
 90
      182
 90
      183
 90
       20
 90
      182
 90
       19
 90
       20
 90
      181
 90
      182
 90
       21
 90
      181
 90
       20
 90
       21
 90
      180
 90
      181
 90
       22
 90
      180
 90
       21
 90
       22
 90
      179
 90
      180
 90
       23
 90
      179
 90
       22
 90
       23
 90
      178
 90
      179
 90
       24
 90
      178
 90
       23
 90
       24
 90
      177
 90
      178
 90
       25
 90
      177
 90
       24
 90
       25
 90
      176
 90
      177
 90
       26
 90
      176
 90
       25
 90
       26
 90
      175
 90
      176
 90
       27
 90
      175
 90
       26
 90
       27
 90
      174
 90
      175
 90
       28
 90
      174
 90
       27
 90
       28
 90
      173
 90
      174
 90
       28
 90
       29
 90
        2
 90
      100
 90
       27
 90
       30
 90
       27
 90
       31
 90
       27
 90
       32
 90
       26
 90
       33
 90
       23
 90
       36
 90
       22
 90
       37
 90
       24
 90
       35
 90
       25
 90
       34
 90
       21
 90
       38
 90
       21
 90
       39
 90
       21
 90
       40
 90
       20
 90
       41
 90
       20
 90
       42
 90
       20
 90
       43
 90
        9
 90
       69
 90
        8
 90
       70
 90
        8
 90
       71
 90
        8
 90
       72
 90
       19
 90
       44
 90
       19
 90
       45
 90
       18
 90
       46
 90
       18
 90
       47
 90
       10
 90
       67
 90
        9
 90
       68
 90
       11
 90
       65
 90
       10
 90
       66
 90
       12
 90
       63
 90
       11
 90
       64
 90
       17
 90
       48
 90
       17
 90
       49
 90
       17
 90
       50
 90
       17
 90
       51
 90
       12
 90
       62
 90
       13
 90
       61
 90
       14
 90
       59
 90
       13
 90
       60
 90
       14
 90
       58
 90
       15
 90
       57
 90
       15
 90
       56
 90
       15
 90
       55
 90
       16
 90
       52
 90
       16
 90
       53
 90
       15
 90
       54
 90
        2
 90
       98
 90
        2
 90
       99
 90
        3
 90
       97
 90
        8
 90
       73
 90
        8
 90
       74
 90
        8
 90
       75
 90
        8
 90
       76
 90
        8
 90
       77
 90
        7
 90
       78
 90
        7
 90
       79
 90
        4
 90
       95
 90
        3
 90
       96
 90
        6
 90
       80
 90
        6
 90
       81
 90
        6
 90
       82
 90
        6
 90
       83
 90
        5
 90
       84
 90
        5
 90
       85
 90
        5
 90
       86
 90
        5
 90
       87
 90
        5
 90
       88
 90
        5
 90
       89
 90
        5
 90
       93
 90
        4
 90
       94
 90
        5
 90
       91
 90
        5
 90
       92
 90
        5
 90
       90
 90
      102
 90
      200
 90
      172
 90
      175
 90
      171
 90
      175
 90
      170
 90
      175
 90
      169
 90
      176
 90
      165
 90
      180
 90
      166
 90
      179
 90
      167
 90
      178
 90
      168
 90
      177
 90
      164
 90
      181
 90
      163
 90
      181
 90
      162
 90
      181
 90
      161
 90
      182
 90
      160
 90
      182
 90
      159
 90
      182
 90
      132
 90
      194
 90
      133
 90
      193
 90
      131
 90
      194
 90
      130
 90
      194
 90
      158
 90
      183
 90
      157
 90
      183
 90
      156
 90
      184
 90
      155
 90
      184
 90
      134
 90
      193
 90
      135
 90
      192
 90
      136
 90
      192
 90
      137
 90
      191
 90
      138
 90
      191
 90
      139
 90
      190
 90
      154
 90
      185
 90
      153
 90
      185
 90
      152
 90
      185
 90
      151
 90
      185
 90
      140
 90
      190
 90
      141
 90
      189
 90
      142
 90
      189
 90
      143
 90
      188
 90
      144
 90
      188
 90
      145
 90
      187
 90
      146
 90
      187
 90
      147
 90
      187
 90
      149
 90
      186
 90
      150
 90
      186
 90
      148
 90
      187
 90
      103
 90
      200
 90
      104
 90
      200
 90
      105
 90
      199
 90
      129
 90
      194
 90
      128
 90
      194
 90
      127
 90
      194
 90
      126
 90
      194
 90
      125
 90
      194
 90
      124
 90
      195
 90
      123
 90
      195
 90
      106
 90
      199
 90
      107
 90
      198
 90
      122
 90
      196
 90
      121
 90
      196
 90
      120
 90
      196
 90
      119
 90
      196
 90
      118
 90
      197
 90
      117
 90
      197
 90
      116
 90
      197
 90
      115
 90
      197
 90
      114
 90
      197
 90
      113
 90
      197
 90
      108
 90
      198
 90
      109
 90
      197
 90
      110
 90
      197
 90
      111
 90
      197
 90
      112
 90
      197
 95
      445
140
0.0
140
0.0
140
0.0
140
0.0
140
0.0
140
0.0
140
0.0
140
0.0
140
0.0
140
0.0
140
0.0
140
0.0
140
0.0
140
0.0
140
0.0
140
0.0
140
0.0
140
0.0
140
0.0
140
0.0
140
0.0
140
0.0
140
0.0
140
0.0
140
0.0
140
0.0
140
0.0
140
0.0
140
0.0
140
0.0
140
0.0
140
0.0
140
0.0
140
0.0
140
0.0
140
0.0
140
0.0
140
0.0
140
0.0
140
0.0
140
0.0
140
0.0
140
0.0
140
0.0
140
0.0
140
0.0
140
0.0
140
0.0
140
0.0
140
0.0
140
0.0
140
0.0
140
0.0
140
0.0
140
0.0
140
0.0
140
0.0
140
0.0
140
0.0
140
0.0
140
0.0
140
0.0
140
0.0
140
0.0
140
0.0
140
0.0
140
0.0
140
0.0
140
0.0
140
0.0
140
0.0
140
0.0
140
0.0
140
0.0
140
0.0
140
0.0
140
0.0
140
0.0
140
0.0
140
0.0
140
0.0
140
0.0
140
0.0
140
0.0
140
0.0
140
0.0
140
0.0
140
0.0
140
0.0
140
0.0
140
0.0
140
0.0
140
0.0
140
0.0
140
0.0
140
0.0
140
0.0
140
0.0
140
0.0
140
0.0
140
0.0
140
0.0
140
0.0
140
0.0
140
0.0
140
0.0
140
0.0
140
0.0
140
0.0
140
0.0
140
0.0
140
0.0
140
0.0
140
0.0
140
0.0
140
0.0
140
0.0
140
0.0
140
0.0
140
0.0
140
0.0
140
0.0
140
0.0
140
0.0
140
0.0
140
0.0
140
0.0
140
0.0
140
0.0
140
0.0
140
0.0
140
0.0
140
0.0
140
0.0
140
0.0
140
0.0
140
0.0
140
0.0
140
0.0
140
0.0
140
0.0
140
0.0
140
0.0
140
0.0
140
0.0
140
0.0
140
0.0
140
0.0
140
0.0
140
0.0
140
0.0
140
0.0
140
0.0
140
0.0
140
0.0
140
0.0
140
0.0
140
0.0
140
0.0
140
0.0
140
0.0
140
0.0
140
0.0
140
0.0
140
0.0
140
0.0
140
0.0
140
0.0
140
0.0
140
0.0
140
0.0
140
0.0
140
0.0
140
0.0
140
0.0
140
0.0
140
0.0
140
0.0
140
0.0
140
0.0
140
0.0
140
0.0
140
0.0
140
0.0
140
0.0
140
0.0
140
0.0
140
0.0
140
0.0
140
0.0
140
0.0
140
0.0
140
0.0
140
0.0
140
0.0
140
0.0
140
0.0
140
0.0
140
0.0
140
0.0
140
0.0
140
0.0
140
0.0
140
0.0
140
0.0
140
0.0
140
0.0
140
0.0
140
0.0
140
0.0
140
0.0
140
0.0
140
0.0
140
0.0
140
0.0
140
0.0
140
0.0
140
0.0
140
0.0
140
0.0
140
0.0
140
0.0
140
0.0
140
0.0
140
0.0
140
0.0
140
0.0
140
0.0
140
0.0
140
0.0
140
0.0
140
0.0
140
0.0
140
0.0
140
0.0
140
0.0
140
0.0
140
0.0
140
0.0
140
0.0
140
0.0
140
0.0
140
0.0
140
0.0
140
0.0
140
0.0
140
0.0
140
0.0
140
0.0
140
0.0
140
0.0
140
0.0
140
0.0
140
0.0
140
0.0
140
0.0
140
0.0
140
0.0
140
0.0
140
0.0
140
0.0
140
0.0
140
0.0
140
0.0
140
0.0
140
0.0
140
0.0
140
0.0
140
0.0
140
0.0
140
0.0
140
0.0
140
0.0
140
0.0
140
0.0
140
0.0
140
0.0
140
0.0
140
0.0
140
0.0
140
0.0
140
0.0
140
0.0
140
0.0
140
0.0
140
0.0
140
0.0
140
0.0
140
0.0
140
0.0
140
0.0
140
0.0
140
0.0
140
0.0
140
0.0
140
0.0
140
0.0
140
0.0
140
0.0
140
0.0
140
0.0
140
0.0
140
0.0
140
0.0
140
0.0
140
0.0
140
0.0
140
0.0
140
0.0
140
0.0
140
0.0
140
0.0
140
0.0
140
0.0
140
0.0
140
0.0
140
0.0
140
0.0
140
0.0
140
0.0
140
0.0
140
0.0
140
0.0
140
0.0
140
0.0
140
0.0
140
0.0
140
0.0
140
0.0
140
0.0
140
0.0
140
0.0
140
0.0
140
0.0
140
0.0
140
0.0
140
0.0
140
0.0
140
0.0
140
0.0
140
0.0
140
0.0
140
0.0
140
0.0
140
0.0
140
0.0
140
0.0
140
0.0
140
0.0
140
0.0
140
0.0
140
0.0
140
0.0
140
0.0
140
0.0
140
0.0
140
0.0
140
0.0
140
0.0
140
0.0
140
0.0
140
0.0
140
0.0
140
0.0
140
0.0
140
0.0
140
0.0
140
0.0
140
0.0
140
0.0
140
0.0
140
0.0
140
0.0
140
0.0
140
0.0
140
0.0
140
0.0
140
0.0
140
0.0
140
0.0
140
0.0
140
0.0
140
0.0
140
0.0
140
0.0
140
0.0
140
0.0
140
0.0
140
0.0
140
0.0
140
0.0
140
0.0
140
0.0
140
0.0
140
0.0
140
0.0
140
0.0
140
0.0
140
0.0
140
0.0
140
0.0
140
0.0
140
0.0
140
0.0
140
0.0
140
0.0
140
0.0
140
0.0
140
0.0
140
0.0
140
0.0
140
0.0
140
0.0
140
0.0
140
0.0
140
0.0
140
0.0
140
0.0
140
0.0
140
0.0
140
0.0
140
0.0
140
0.0
140
0.0
140
0.0
140
0.0
140
0.0
140
0.0
140
0.0
140
0.0
140
0.0
140
0.0
140
0.0
140
0.0
140
0.0
140
0.0
140
0.0
140
0.0
140
0.0
140
0.0
140
0.0
140
0.0
140
0.0
140
0.0
140
0.0
 90
        0
  0
POLYLINE
  5
FA
330
1F
100
AcDbEntity
  8
OracDecor_panel_moldings
 62
   146
420
   552583
100
AcDb3dPolyline
 66
     1
 10
0.0
 20
0.0
 30
0.0
 70
     9
  0
VERTEX
  5
FB
330
FA
100
AcDbEntity
  8
OracDecor_panel_moldings
 62
   146
420
   552583
100
AcDbVertex
100
AcDb3dPolylineVertex
 10
-0.0000005488595889
 20
-0.0001010894775391
 30
38.95095825195312
 70
    32
  0
VERTEX
  5
FC
330
FA
100
AcDbEntity
  8
OracDecor_panel_moldings
 62
   146
420
   552583
100
AcDbVertex
100
AcDb3dPolylineVertex
 10
-0.0000050150392781
 20
-0.0001020431518555
 30
42.29692077636719
 70
    32
  0
VERTEX
  5
FD
330
FA
100
AcDbEntity
  8
OracDecor_panel_moldings
 62
   146
420
   552583
100
AcDbVertex
100
AcDb3dPolylineVertex
 10
-0.0000052065461205
 20
4.651991367340087
 30
41.47663116455078
 70
    32
  0
VERTEX
  5
FE
330
FA
100
AcDbEntity
  8
OracDecor_panel_moldings
 62
   146
420
   552583
100
AcDbVertex
100
AcDb3dPolylineVertex
 10
-0.0000051999832067
 20
4.829702377319335
 30
41.37401580810546
 70
    32
  0
VERTEX
  5
FF
330
FA
100
AcDbEntity
  8
OracDecor_panel_moldings
 62
   146
420
   552583
100
AcDbVertex
100
AcDb3dPolylineVertex
 10
-0.0000051677384363
 20
4.899897575378417
 30
41.18119049072265
 70
    32
  0
VERTEX
  5
100
330
FA
100
AcDbEntity
  8
OracDecor_panel_moldings
 62
   146
420
   552583
100
AcDbVertex
100
AcDb3dPolylineVertex
 10
-0.0000008993368965
 20
4.899896621704101
 30
38.85100555419922
 70
    32
  0
VERTEX
  5
101
330
FA
100
AcDbEntity
  8
OracDecor_panel_moldings
 62
   146
420
   552583
100
AcDbVertex
100
AcDb3dPolylineVertex
 10
-0.0000008191030929
 20
5.009109497070312
 30
38.39658355712891
 70
    32
  0
VERTEX
  5
102
330
FA
100
AcDbEntity
  8
OracDecor_panel_moldings
 62
   146
420
   552583
100
AcDbVertex
100
AcDb3dPolylineVertex
 10
-0.0000007728853575
 20
5.312894821166992
 30
38.04141998291015
 70
    32
  0
VERTEX
  5
103
330
FA
100
AcDbEntity
  8
OracDecor_panel_moldings
 62
   146
420
   552583
100
AcDbVertex
100
AcDb3dPolylineVertex
 10
-0.000000770778513
 20
5.74489688873291
 30
37.86309051513672
 70
    32
  0
VERTEX
  5
104
330
FA
100
AcDbEntity
  8
OracDecor_panel_moldings
 62
   146
420
   552583
100
AcDbVertex
100
AcDb3dPolylineVertex
 10
-0.0000007774349342
 20
6.041058540344238
 30
37.78244018554687
 70
    32
  0
VERTEX
  5
105
330
FA
100
AcDbEntity
  8
OracDecor_panel_moldings
 62
   146
420
   552583
100
AcDbVertex
100
AcDb3dPolylineVertex
 10
-0.000000777871378
 20
6.351306915283203
 30
37.66438293457031
 70
    32
  0
VERTEX
  5
106
330
FA
100
AcDbEntity
  8
OracDecor_panel_moldings
 62
   146
420
   552583
100
AcDbVertex
100
AcDb3dPolylineVertex
 10
-0.0000007726254125
 20
6.674291610717773
 30
37.51219940185547
 70
    32
  0
VERTEX
  5
107
330
FA
100
AcDbEntity
  8
OracDecor_panel_moldings
 62
   146
420
   552583
100
AcDbVertex
100
AcDb3dPolylineVertex
 10
-0.0000007626530305
 20
7.00802993774414
 30
37.33157348632813
 70
    32
  0
VERTEX
  5
108
330
FA
100
AcDbEntity
  8
OracDecor_panel_moldings
 62
   146
420
   552583
100
AcDbVertex
100
AcDb3dPolylineVertex
 10
-0.000000745087732
 20
7.343755722045898
 30
37.11118316650391
 70
    32
  0
VERTEX
  5
109
330
FA
100
AcDbEntity
  8
OracDecor_panel_moldings
 62
   146
420
   552583
100
AcDbVertex
100
AcDb3dPolylineVertex
 10
-0.0000007167566309
 20
7.669849395751953
 30
36.8392333984375
 70
    32
  0
VERTEX
  5
10A
330
FA
100
AcDbEntity
  8
OracDecor_panel_moldings
 62
   146
420
   552583
100
AcDbVertex
100
AcDb3dPolylineVertex
 10
-0.0000006744043048
 20
7.972950458526611
 30
36.50418853759766
 70
    32
  0
VERTEX
  5
10B
330
FA
100
AcDbEntity
  8
OracDecor_panel_moldings
 62
   146
420
   552583
100
AcDbVertex
100
AcDb3dPolylineVertex
 10
-0.0000006120765192
 20
8.228824615478515
 30
36.08486175537109
 70
    32
  0
VERTEX
  5
10C
330
FA
100
AcDbEntity
  8
OracDecor_panel_moldings
 62
   146
420
   552583
100
AcDbVertex
100
AcDb3dPolylineVertex
 10
-0.000000530287366
 20
8.410366058349609
 30
35.59440612792969
 70
    32
  0
VERTEX
  5
10D
330
FA
100
AcDbEntity
  8
OracDecor_panel_moldings
 62
   146
420
   552583
100
AcDbVertex
100
AcDb3dPolylineVertex
 10
-0.0000004311832527
 20
8.501872062683105
 30
35.04993438720703
 70
    32
  0
VERTEX
  5
10E
330
FA
100
AcDbEntity
  8
OracDecor_panel_moldings
 62
   146
420
   552583
100
AcDbVertex
100
AcDb3dPolylineVertex
 10
-0.000000318122261
 20
8.488753318786621
 30
34.47434997558594
 70
    32
  0
VERTEX
  5
10F
330
FA
100
AcDbEntity
  8
OracDecor_panel_moldings
 62
   146
420
   552583
100
AcDbVertex
100
AcDb3dPolylineVertex
 10
-0.0000001966245691
 20
8.365675926208496
 30
33.8980712890625
 70
    32
  0
VERTEX
  5
110
330
FA
100
AcDbEntity
  8
OracDecor_panel_moldings
 62
   146
420
   552583
100
AcDbVertex
100
AcDb3dPolylineVertex
 10
-0.0000001128156555
 20
8.223100662231445
 30
33.52291870117188
 70
    32
  0
VERTEX
  5
111
330
FA
100
AcDbEntity
  8
OracDecor_panel_moldings
 62
   146
420
   552583
100
AcDbVertex
100
AcDb3dPolylineVertex
 10
-0.0000000285788815
 20
8.032517433166503
 30
33.1641845703125
 70
    32
  0
VERTEX
  5
112
330
FA
100
AcDbEntity
  8
OracDecor_panel_moldings
 62
   146
420
   552583
100
AcDbVertex
100
AcDb3dPolylineVertex
 10
0.0000000566799372
 20
7.793815612792968
 30
32.81886291503906
 70
    32
  0
VERTEX
  5
113
330
FA
100
AcDbEntity
  8
OracDecor_panel_moldings
 62
   146
420
   552583
100
AcDbVertex
100
AcDb3dPolylineVertex
 10
0.0000000891915306
 20
7.73252248764038
 30
32.67565155029297
 70
    32
  0
VERTEX
  5
114
330
FA
100
AcDbEntity
  8
OracDecor_panel_moldings
 62
   146
420
   552583
100
AcDbVertex
100
AcDb3dPolylineVertex
 10
0.0000001178707407
 20
7.751266479492187
 30
32.52108764648438
 70
    32
  0
VERTEX
  5
115
330
FA
100
AcDbEntity
  8
OracDecor_panel_moldings
 62
   146
420
   552583
100
AcDbVertex
100
AcDb3dPolylineVertex
 10
0.0000001350159664
 20
7.845014572143554
 30
32.39668273925782
 70
    32
  0
VERTEX
  5
116
330
FA
100
AcDbEntity
  8
OracDecor_panel_moldings
 62
   146
420
   552583
100
AcDbVertex
100
AcDb3dPolylineVertex
 10
0.0000002019318117
 20
8.721497535705566
 30
31.71315002441406
 70
    32
  0
VERTEX
  5
117
330
FA
100
AcDbEntity
  8
OracDecor_panel_moldings
 62
   146
420
   552583
100
AcDbVertex
100
AcDb3dPolylineVertex
 10
0.0000002192430202
 20
8.815643310546875
 30
31.58773612976074
 70
    32
  0
VERTEX
  5
118
330
FA
100
AcDbEntity
  8
OracDecor_panel_moldings
 62
   146
420
   552583
100
AcDbVertex
100
AcDb3dPolylineVertex
 10
0.0000002482128139
 20
8.833673477172851
 30
31.43195915222168
 70
    32
  0
VERTEX
  5
119
330
FA
100
AcDbEntity
  8
OracDecor_panel_moldings
 62
   146
420
   552583
100
AcDbVertex
100
AcDb3dPolylineVertex
 10
0.0000004579743518
 20
8.636817932128906
 30
30.43097305297852
 70
    32
  0
VERTEX
  5
11A
330
FA
100
AcDbEntity
  8
OracDecor_panel_moldings
 62
   146
420
   552583
100
AcDbVertex
100
AcDb3dPolylineVertex
 10
0.0000007478764701
 20
8.255448341369628
 30
29.08993530273438
 70
    32
  0
VERTEX
  5
11B
330
FA
100
AcDbEntity
  8
OracDecor_panel_moldings
 62
   146
420
   552583
100
AcDbVertex
100
AcDb3dPolylineVertex
 10
0.0000010114927136
 20
7.860086917877197
 30
27.88932418823242
 70
    32
  0
VERTEX
  5
11C
330
FA
100
AcDbEntity
  8
OracDecor_panel_moldings
 62
   146
420
   552583
100
AcDbVertex
100
AcDb3dPolylineVertex
 10
0.0000013311764633
 20
7.606115341186523
 30
26.34593391418457
 70
    32
  0
VERTEX
  5
11D
330
FA
100
AcDbEntity
  8
OracDecor_panel_moldings
 62
   146
420
   552583
100
AcDbVertex
100
AcDb3dPolylineVertex
 10
0.0000014840935592
 20
7.666457653045654
 30
25.53716659545898
 70
    32
  0
VERTEX
  5
11E
330
FA
100
AcDbEntity
  8
OracDecor_panel_moldings
 62
   146
420
   552583
100
AcDbVertex
100
AcDb3dPolylineVertex
 10
0.000001628879545
 20
7.855351448059082
 30
24.72031402587891
 70
    32
  0
VERTEX
  5
11F
330
FA
100
AcDbEntity
  8
OracDecor_panel_moldings
 62
   146
420
   552583
100
AcDbVertex
100
AcDb3dPolylineVertex
 10
0.0000017574226376
 20
8.166017532348632
 30
23.93966674804687
 70
    32
  0
VERTEX
  5
120
330
FA
100
AcDbEntity
  8
OracDecor_panel_moldings
 62
   146
420
   552583
100
AcDbVertex
100
AcDb3dPolylineVertex
 10
0.000001864037813
 20
8.611098289489746
 30
23.21952056884766
 70
    32
  0
VERTEX
  5
121
330
FA
100
AcDbEntity
  8
OracDecor_panel_moldings
 62
   146
420
   552583
100
AcDbVertex
100
AcDb3dPolylineVertex
 10
0.0000019465251171
 20
9.193687438964843
 30
22.56997108459473
 70
    32
  0
VERTEX
  5
122
330
FA
100
AcDbEntity
  8
OracDecor_panel_moldings
 62
   146
420
   552583
100
AcDbVertex
100
AcDb3dPolylineVertex
 10
0.0000020104675968
 20
9.903800964355468
 30
21.96622276306152
 70
    32
  0
VERTEX
  5
123
330
FA
100
AcDbEntity
  8
OracDecor_panel_moldings
 62
   146
420
   552583
100
AcDbVertex
100
AcDb3dPolylineVertex
 10
0.0000020622444481
 20
10.71315002441406
 30
21.386474609375
 70
    32
  0
VERTEX
  5
124
330
FA
100
AcDbEntity
  8
OracDecor_panel_moldings
 62
   146
420
   552583
100
AcDbVertex
100
AcDb3dPolylineVertex
 10
0.0000021071577976
 20
11.59658432006836
 30
20.81324958801269
 70
    32
  0
VERTEX
  5
125
330
FA
100
AcDbEntity
  8
OracDecor_panel_moldings
 62
   146
420
   552583
100
AcDbVertex
100
AcDb3dPolylineVertex
 10
0.0000021601913431
 20
12.52295398712158
 30
20.18167495727539
 70
    32
  0
VERTEX
  5
126
330
FA
100
AcDbEntity
  8
OracDecor_panel_moldings
 62
   146
420
   552583
100
AcDbVertex
100
AcDb3dPolylineVertex
 10
0.000002225299113
 20
13.45891380310058
 30
19.48436737060547
 70
    32
  0
VERTEX
  5
127
330
FA
100
AcDbEntity
  8
OracDecor_panel_moldings
 62
   146
420
   552583
100
AcDbVertex
100
AcDb3dPolylineVertex
 10
0.0000023107463676
 20
14.33621788024902
 30
18.70534133911133
 70
    32
  0
VERTEX
  5
128
330
FA
100
AcDbEntity
  8
OracDecor_panel_moldings
 62
   146
420
   552583
100
AcDbVertex
100
AcDb3dPolylineVertex
 10
0.000002412426511
 20
15.08333778381348
 30
17.89342498779297
 70
    32
  0
VERTEX
  5
129
330
FA
100
AcDbEntity
  8
OracDecor_panel_moldings
 62
   146
420
   552583
100
AcDbVertex
100
AcDb3dPolylineVertex
 10
0.0000025295773867
 20
15.66900253295898
 30
17.06465339660644
 70
    32
  0
VERTEX
  5
12A
330
FA
100
AcDbEntity
  8
OracDecor_panel_moldings
 62
   146
420
   552583
100
AcDbVertex
100
AcDb3dPolylineVertex
 10
0.0000026630871162
 20
16.09910202026367
 30
16.21218872070312
 70
    32
  0
VERTEX
  5
12B
330
FA
100
AcDbEntity
  8
OracDecor_panel_moldings
 62
   146
420
   552583
100
AcDbVertex
100
AcDb3dPolylineVertex
 10
0.0000028154199754
 20
16.3819580078125
 30
15.32014274597168
 70
    32
  0
VERTEX
  5
12C
330
FA
100
AcDbEntity
  8
OracDecor_panel_moldings
 62
   146
420
   552583
100
AcDbVertex
100
AcDb3dPolylineVertex
 10
0.0000029900302252
 20
16.52598190307617
 30
14.36751365661621
 70
    32
  0
VERTEX
  5
12D
330
FA
100
AcDbEntity
  8
OracDecor_panel_moldings
 62
   146
420
   552583
100
AcDbVertex
100
AcDb3dPolylineVertex
 10
0.0000031785145893
 20
16.52504730224609
 30
13.39983558654785
 70
    32
  0
VERTEX
  5
12E
330
FA
100
AcDbEntity
  8
OracDecor_panel_moldings
 62
   146
420
   552583
100
AcDbVertex
100
AcDb3dPolylineVertex
 10
0.0000033765672924
 20
16.38089752197265
 30
12.43854713439941
 70
    32
  0
VERTEX
  5
12F
330
FA
100
AcDbEntity
  8
OracDecor_panel_moldings
 62
   146
420
   552583
100
AcDbVertex
100
AcDb3dPolylineVertex
 10
0.0000035751165797
 20
16.09585189819336
 30
11.52934074401855
 70
    32
  0
VERTEX
  5
130
330
FA
100
AcDbEntity
  8
OracDecor_panel_moldings
 62
   146
420
   552583
100
AcDbVertex
100
AcDb3dPolylineVertex
 10
0.000003769092018
 20
15.68553924560547
 30
10.69219779968261
 70
    32
  0
VERTEX
  5
131
330
FA
100
AcDbEntity
  8
OracDecor_panel_moldings
 62
   146
420
   552583
100
AcDbVertex
100
AcDb3dPolylineVertex
 10
0.0000039557639866
 20
15.15642929077148
 30
9.938629150390625
 70
    32
  0
VERTEX
  5
132
330
FA
100
AcDbEntity
  8
OracDecor_panel_moldings
 62
   146
420
   552583
100
AcDbVertex
100
AcDb3dPolylineVertex
 10
0.0000041325070015
 20
14.51911926269531
 30
9.278011322021484
 70
    32
  0
VERTEX
  5
133
330
FA
100
AcDbEntity
  8
OracDecor_panel_moldings
 62
   146
420
   552583
100
AcDbVertex
100
AcDb3dPolylineVertex
 10
0.0000043018490032
 20
13.75749206542969
 30
8.703605651855468
 70
    32
  0
VERTEX
  5
134
330
FA
100
AcDbEntity
  8
OracDecor_panel_moldings
 62
   146
420
   552583
100
AcDbVertex
100
AcDb3dPolylineVertex
 10
0.0000044657504077
 20
12.85370826721191
 30
8.212265014648437
 70
    32
  0
VERTEX
  5
135
330
FA
100
AcDbEntity
  8
OracDecor_panel_moldings
 62
   146
420
   552583
100
AcDbVertex
100
AcDb3dPolylineVertex
 10
0.0000046266495701
 20
11.83846282958984
 30
7.779563903808593
 70
    32
  0
VERTEX
  5
136
330
FA
100
AcDbEntity
  8
OracDecor_panel_moldings
 62
   146
420
   552583
100
AcDbVertex
100
AcDb3dPolylineVertex
 10
0.0000047846974667
 20
10.71311283111572
 30
7.404197692871093
 70
    32
  0
VERTEX
  5
137
330
FA
100
AcDbEntity
  8
OracDecor_panel_moldings
 62
   146
420
   552583
100
AcDbVertex
100
AcDb3dPolylineVertex
 10
0.0000048174242693
 20
10.55902862548828
 30
7.295860290527343
 70
    32
  0
VERTEX
  5
138
330
FA
100
AcDbEntity
  8
OracDecor_panel_moldings
 62
   146
420
   552583
100
AcDbVertex
100
AcDb3dPolylineVertex
 10
0.0000048567089834
 20
10.49989700317383
 30
7.117027282714843
 70
    32
  0
VERTEX
  5
139
330
FA
100
AcDbEntity
  8
OracDecor_panel_moldings
 62
   146
420
   552583
100
AcDbVertex
100
AcDb3dPolylineVertex
 10
0.0000050618191381
 20
10.49989700317383
 30
6.0635986328125
 70
    32
  0
VERTEX
  5
13A
330
FA
100
AcDbEntity
  8
OracDecor_panel_moldings
 62
   146
420
   552583
100
AcDbVertex
100
AcDb3dPolylineVertex
 10
0.0000051005845307
 20
10.44229221343994
 30
5.886837005615234
 70
    32
  0
VERTEX
  5
13B
330
FA
100
AcDbEntity
  8
OracDecor_panel_moldings
 62
   146
420
   552583
100
AcDbVertex
100
AcDb3dPolylineVertex
 10
0.0000051331617215
 20
10.29159832000732
 30
5.777957916259765
 70
    32
  0
VERTEX
  5
13C
330
FA
100
AcDbEntity
  8
OracDecor_panel_moldings
 62
   146
420
   552583
100
AcDbVertex
100
AcDb3dPolylineVertex
 10
0.0000052540608522
 20
9.497793197631835
 30
5.464828491210937
 70
    32
  0
VERTEX
  5
13D
330
FA
100
AcDbEntity
  8
OracDecor_panel_moldings
 62
   146
420
   552583
100
AcDbVertex
100
AcDb3dPolylineVertex
 10
0.0000053901703723
 20
8.754213333129882
 30
5.054107666015625
 70
    32
  0
VERTEX
  5
13E
330
FA
100
AcDbEntity
  8
OracDecor_panel_moldings
 62
   146
420
   552583
100
AcDbVertex
100
AcDb3dPolylineVertex
 10
0.0000055410446294
 20
8.062788963317871
 30
4.547328948974609
 70
    32
  0
VERTEX
  5
13F
330
FA
100
AcDbEntity
  8
OracDecor_panel_moldings
 62
   146
420
   552583
100
AcDbVertex
100
AcDb3dPolylineVertex
 10
0.0000056987933021
 20
7.459814071655273
 30
3.970947265625
 70
    32
  0
VERTEX
  5
140
330
FA
100
AcDbEntity
  8
OracDecor_panel_moldings
 62
   146
420
   552583
100
AcDbVertex
100
AcDb3dPolylineVertex
 10
0.0000060228530856
 20
6.542181491851806
 30
2.66241455078125
 70
    32
  0
VERTEX
  5
141
330
FA
100
AcDbEntity
  8
OracDecor_panel_moldings
 62
   146
420
   552583
100
AcDbVertex
100
AcDb3dPolylineVertex
 10
0.0000063348365984
 20
6.037569999694824
 30
1.255760192871093
 70
    32
  0
VERTEX
  5
142
330
FA
100
AcDbEntity
  8
OracDecor_panel_moldings
 62
   146
420
   552583
100
AcDbVertex
100
AcDb3dPolylineVertex
 10
0.0000063712059273
 20
5.952628135681152
 30
1.10190200805664
 70
    32
  0
VERTEX
  5
143
330
FA
100
AcDbEntity
  8
OracDecor_panel_moldings
 62
   146
420
   552583
100
AcDbVertex
100
AcDb3dPolylineVertex
 10
0.0000063985776251
 20
5.796079158782958
 30
1.022026062011718
 70
    32
  0
VERTEX
  5
144
330
FA
100
AcDbEntity
  8
OracDecor_panel_moldings
 62
   146
420
   552583
100
AcDbVertex
100
AcDb3dPolylineVertex
 10
0.0000070351734394
 20
-0.0001029968261719
 30
0.0000038146977204
 70
    32
  0
VERTEX
  5
145
330
FA
100
AcDbEntity
  8
OracDecor_panel_moldings
 62
   146
420
   552583
100
AcDbVertex
100
AcDb3dPolylineVertex
 10
0.0000063486891122
 20
-0.0001029968261719
 30
3.525722503662109
 70
    32
  0
VERTEX
  5
146
330
FA
100
AcDbEntity
  8
OracDecor_panel_moldings
 62
   146
420
   552583
100
AcDbVertex
100
AcDb3dPolylineVertex
 10
0.0000061990253926
 20
0.7742185592651368
 30
3.994140625
 70
    32
  0
VERTEX
  5
147
330
FA
100
AcDbEntity
  8
OracDecor_panel_moldings
 62
   146
420
   552583
100
AcDbVertex
100
AcDb3dPolylineVertex
 10
0.0000060535862758
 20
1.171854019165039
 30
4.586921691894531
 70
    32
  0
VERTEX
  5
148
330
FA
100
AcDbEntity
  8
OracDecor_panel_moldings
 62
   146
420
   552583
100
AcDbVertex
100
AcDb3dPolylineVertex
 10
0.0000059067465372
 20
1.311531543731689
 30
5.286918640136718
 70
    32
  0
VERTEX
  5
149
330
FA
100
AcDbEntity
  8
OracDecor_panel_moldings
 62
   146
420
   552583
100
AcDbVertex
100
AcDb3dPolylineVertex
 10
0.0000057809970713
 20
1.171854496002197
 30
5.986915588378906
 70
    32
  0
VERTEX
  5
14A
330
FA
100
AcDbEntity
  8
OracDecor_panel_moldings
 62
   146
420
   552583
100
AcDbVertex
100
AcDb3dPolylineVertex
 10
0.0000056955996115
 20
0.7742185592651368
 30
6.579696655273437
 70
    32
  0
VERTEX
  5
14B
330
FA
100
AcDbEntity
  8
OracDecor_panel_moldings
 62
   146
420
   552583
100
AcDbVertex
100
AcDb3dPolylineVertex
 10
0.0000056628541643
 20
-0.0001020431518555
 30
7.048118591308593
 70
    32
  0
VERTEX
  5
14C
330
FA
100
AcDbEntity
  8
OracDecor_panel_moldings
 62
   146
420
   552583
100
AcDbVertex
100
AcDb3dPolylineVertex
 10
0.0000051914939831
 20
-0.0001020431518555
 30
9.468982696533203
 70
    32
  0
VERTEX
  5
14D
330
FA
100
AcDbEntity
  8
OracDecor_panel_moldings
 62
   146
420
   552583
100
AcDbVertex
100
AcDb3dPolylineVertex
 10
0.0000042837809815
 20
5.555096626281738
 30
11.97688865661621
 70
    32
  0
VERTEX
  5
14E
330
FA
100
AcDbEntity
  8
OracDecor_panel_moldings
 62
   146
420
   552583
100
AcDbVertex
100
AcDb3dPolylineVertex
 10
0.0000040554596126
 20
6.634266376495361
 30
12.73107719421387
 70
    32
  0
VERTEX
  5
14F
330
FA
100
AcDbEntity
  8
OracDecor_panel_moldings
 62
   146
420
   552583
100
AcDbVertex
100
AcDb3dPolylineVertex
 10
0.0000037871402583
 20
7.367403984069824
 30
13.82486915588379
 70
    32
  0
VERTEX
  5
150
330
FA
100
AcDbEntity
  8
OracDecor_panel_moldings
 62
   146
420
   552583
100
AcDbVertex
100
AcDb3dPolylineVertex
 10
0.0000035152481814
 20
7.654932022094726
 30
15.10979652404785
 70
    32
  0
VERTEX
  5
151
330
FA
100
AcDbEntity
  8
OracDecor_panel_moldings
 62
   146
420
   552583
100
AcDbVertex
100
AcDb3dPolylineVertex
 10
0.000003276669986
 20
7.45794677734375
 30
16.4114933013916
 70
    32
  0
VERTEX
  5
152
330
FA
100
AcDbEntity
  8
OracDecor_panel_moldings
 62
   146
420
   552583
100
AcDbVertex
100
AcDb3dPolylineVertex
 10
0.0000031036913697
 20
6.803103923797607
 30
17.55381393432617
 70
    32
  0
VERTEX
  5
153
330
FA
100
AcDbEntity
  8
OracDecor_panel_moldings
 62
   146
420
   552583
100
AcDbVertex
100
AcDb3dPolylineVertex
 10
0.0000030198007153
 20
5.779159545898437
 30
18.38170433044433
 70
    32
  0
VERTEX
  5
154
330
FA
100
AcDbEntity
  8
OracDecor_panel_moldings
 62
   146
420
   552583
100
AcDbVertex
100
AcDb3dPolylineVertex
 10
0.0000030363762562
 20
4.525157928466796
 30
18.7828140258789
 70
    32
  0
VERTEX
  5
155
330
FA
100
AcDbEntity
  8
OracDecor_panel_moldings
 62
   146
420
   552583
100
AcDbVertex
100
AcDb3dPolylineVertex
 10
0.0000030567698559
 20
3.500236988067626
 30
19.07548904418945
 70
    32
  0
VERTEX
  5
156
330
FA
100
AcDbEntity
  8
OracDecor_panel_moldings
 62
   146
420
   552583
100
AcDbVertex
100
AcDb3dPolylineVertex
 10
0.0000030091350709
 20
2.612073898315429
 30
19.66452407836914
 70
    32
  0
VERTEX
  5
157
330
FA
100
AcDbEntity
  8
OracDecor_panel_moldings
 62
   146
420
   552583
100
AcDbVertex
100
AcDb3dPolylineVertex
 10
0.0000028979475246
 20
1.943791389465332
 30
20.49470138549805
 70
    32
  0
VERTEX
  5
158
330
FA
100
AcDbEntity
  8
OracDecor_panel_moldings
 62
   146
420
   552583
100
AcDbVertex
100
AcDb3dPolylineVertex
 10
0.0000027336041057
 20
1.558024883270263
 30
21.48833465576172
 70
    32
  0
VERTEX
  5
159
330
FA
100
AcDbEntity
  8
OracDecor_panel_moldings
 62
   146
420
   552583
100
AcDbVertex
100
AcDb3dPolylineVertex
 10
0.0000014724740822
 20
-0.0001010894775391
 30
28.56955909729004
 70
    32
  0
VERTEX
  5
15A
330
FA
100
AcDbEntity
  8
OracDecor_panel_moldings
 62
   146
420
   552583
100
AcDbVertex
100
AcDb3dPolylineVertex
 10
0.0000001369763822
 20
-0.0001020431518555
 30
35.42856597900391
 70
    32
  0
VERTEX
  5
15B
330
FA
100
AcDbEntity
  8
OracDecor_panel_moldings
 62
   146
420
   552583
100
AcDbVertex
100
AcDb3dPolylineVertex
 10
-0.0000000126874511
 20
0.774219036102295
 30
35.89698028564453
 70
    32
  0
VERTEX
  5
15C
330
FA
100
AcDbEntity
  8
OracDecor_panel_moldings
 62
   146
420
   552583
100
AcDbVertex
100
AcDb3dPolylineVertex
 10
-0.0000001581278184
 20
1.171854972839355
 30
36.48976898193359
 70
    32
  0
VERTEX
  5
15D
330
FA
100
AcDbEntity
  8
OracDecor_panel_moldings
 62
   146
420
   552583
100
AcDbVertex
100
AcDb3dPolylineVertex
 10
-0.0000003049667612
 20
1.311532020568847
 30
37.18975830078125
 70
    32
  0
VERTEX
  5
15E
330
FA
100
AcDbEntity
  8
OracDecor_panel_moldings
 62
   146
420
   552583
100
AcDbVertex
100
AcDb3dPolylineVertex
 10
-0.0000004307158861
 20
1.171854972839355
 30
37.88975524902344
 70
    32
  0
VERTEX
  5
15F
330
FA
100
AcDbEntity
  8
OracDecor_panel_moldings
 62
   146
420
   552583
100
AcDbVertex
100
AcDb3dPolylineVertex
 10
-0.0000005161148238
 20
0.7742195129394532
 30
38.4825439453125
 70
    32
  0
SEQEND
  5
160
330
FA
100
AcDbEntity
  8
OracDecor_panel_moldings
 62
   146
420
   552583
  0
ENDSEC
  0
SECTION
  2
OBJECTS
  0
DICTIONARY
  5
C
330
0
100
AcDbDictionary
281
     1
  3
ACAD_COLOR
350
DC
  3
ACAD_DETAILVIEWSTYLE
350
F5
  3
ACAD_GROUP
350
D
  3
ACAD_LAYOUT
350
1A
  3
ACAD_MATERIAL
350
AA
  3
ACAD_MLEADERSTYLE
350
F1
  3
ACAD_MLINESTYLE
350
17
  3
ACAD_PLOTSETTINGS
350
19
  3
ACAD_PLOTSTYLENAME
350
E
  3
ACAD_SCALELIST
350
DF
  3
ACAD_SECTIONVIEWSTYLE
350
F3
  3
ACAD_TABLESTYLE
350
DD
  3
ACAD_VISUALSTYLE
350
C3
  3
ACDB_RECOMPOSE_DATA
350
16D
  3
AcDbVariableDictionary
350
161
  0
DICTIONARY
  5
DC
102
{ACAD_REACTORS
330
C
102
}
330
C
100
AcDbDictionary
281
     1
  0
DICTIONARY
  5
F5
102
{ACAD_REACTORS
330
C
102
}
330
C
100
AcDbDictionary
281
     1
  3
Imperial24
350
F6
  0
DICTIONARY
  5
D
102
{ACAD_REACTORS
330
C
102
}
330
C
100
AcDbDictionary
281
     1
  0
DICTIONARY
  5
1A
102
{ACAD_REACTORS
330
C
102
}
330
C
100
AcDbDictionary
281
     1
  3
Layout1
350
1E
  3
Layout2
350
26
  3
Model
350
22
  0
DICTIONARY
  5
AA
102
{ACAD_REACTORS
330
C
102
}
330
C
100
AcDbDictionary
281
     1
  3
ByBlock
350
B3
  3
ByLayer
350
AB
  3
Global
350
BB
  0
DICTIONARY
  5
F1
102
{ACAD_REACTORS
330
C
102
}
330
C
100
AcDbDictionary
281
     1
  3
Standard
350
F2
  0
DICTIONARY
  5
17
102
{ACAD_REACTORS
330
C
102
}
330
C
100
AcDbDictionary
281
     1
  3
Standard
350
18
  0
DICTIONARY
  5
19
102
{ACAD_REACTORS
330
C
102
}
330
C
100
AcDbDictionary
281
     1
  0
ACDBDICTIONARYWDFLT
  5
E
102
{ACAD_REACTORS
330
C
102
}
330
C
100
AcDbDictionary
281
     1
  3
ByLayer
350
2D
  3
Normal
350
F
100
AcDbDictionaryWithDefault
340
F
  0
DICTIONARY
  5
DF
102
{ACAD_REACTORS
330
C
102
}
330
C
100
AcDbDictionary
281
     1
  3
A0
350
E0
  3
A1
350
E1
  3
A2
350
E2
  3
A3
350
E3
  3
A4
350
E4
  3
A5
350
E5
  3
A6
350
E6
  3
A7
350
E7
  3
A8
350
E8
  3
A9
350
E9
  3
B0
350
EA
  3
B1
350
EB
  3
B2
350
EC
  3
B3
350
ED
  3
B4
350
EE
  3
B5
350
EF
  3
B6
350
F0
  0
DICTIONARY
  5
F3
102
{ACAD_REACTORS
330
C
102
}
330
C
100
AcDbDictionary
281
     1
  3
Imperial24
350
F4
  0
DICTIONARY
  5
DD
102
{ACAD_REACTORS
330
C
102
}
330
C
100
AcDbDictionary
281
     1
  3
Standard
350
DE
  0
DICTIONARY
  5
C3
102
{ACAD_REACTORS
330
C
102
}
330
C
100
AcDbDictionary
281
     1
  3
2dWireframe
350
C9
  3
Basic
350
C8
  3
Brighten
350
CF
  3
ColorChange
350
D3
  3
Conceptual
350
CC
  3
Dim
350
CE
  3
EdgeColorOff
350
DB
  3
Facepattern
350
D2
  3
Flat
350
C4
  3
FlatWithEdges
350
C5
  3
Gouraud
350
C6
  3
GouraudWithEdges
350
C7
  3
Hidden
350
CB
  3
JitterOff
350
D9
  3
Linepattern
350
D1
  3
OverhangOff
350
DA
  3
Realistic
350
CD
  3
Shaded
350
D8
  3
Shaded with edges
350
D7
  3
Shades of Gray
350
D4
  3
Sketchy
350
D5
  3
Thicken
350
D0
  3
Wireframe
350
CA
  3
X-Ray
350
D6
  0
XRECORD
  5
16D
102
{ACAD_REACTORS
330
C
102
}
330
C
100
AcDbXrecord
280
     1
 90
        1
330
DE
  0
DICTIONARY
  5
161
102
{ACAD_REACTORS
330
C
102
}
330
C
100
AcDbDictionary
281
     1
  3
CANNOSCALE
350
167
  3
CMLEADERSTYLE
350
163
  3
CTABLESTYLE
350
162
  3
CVIEWDETAILSTYLE
350
164
  3
CVIEWSECTIONSTYLE
350
165
  3
LAYEREVAL
350
169
  3
LAYERNOTIFY
350
16A
  3
LIGHTINGUNITS
350
168
  3
MSLTSCALE
350
166
  0
ACDBDETAILVIEWSTYLE
  5
F6
102
{ACAD_XDICTIONARY
360
1A2
102
}
102
{ACAD_REACTORS
330
F5
102
}
330
F5
100
AcDbModelDocViewStyle
 70
     0
  3
Imperial24
290
     0
100
AcDbDetailViewStyle
 70
     0
 71
     0
 90
        3
 71
     1
340
11
 62
   256
 40
0.24
340
0
 62
   256
 40
0.24
300

 40
0.36
280
     3
 71
     2
340
16
 90
       25
 62
   256
 71
     3
340
11
 62
   256
 40
0.24
 90
        1
 40
0.75
 90
        1
300
%<\AcVar ViewType \f "%tc1">% %<\AcVar ViewDetailId>%\PSCALE %<\AcVar ViewScale \f "%sn">%
 71
     4
340
16
 90
       25
 62
   256
340
16
 90
       25
 62
   256
280
     0
  0
LAYOUT
  5
1E
102
{ACAD_REACTORS
330
1A
102
}
330
1A
100
AcDbPlotSettings
  1

  2
\\KTXNTBDC\CASF2PN1
  4

  6

 40
0.0
 41
0.0
 42
0.0
 43
0.0
 44
0.0
 45
0.0
 46
0.0
 47
0.0
 48
0.0
 49
0.0
140
0.0
141
0.0
142
1.0
143
1.0
 70
   688
 72
     0
 73
     0
 74
     5
  7

 75
    16
147
1.0
 76
     0
 77
     2
 78
   300
148
0.0
149
0.0
100
AcDbLayout
  1
Layout1
 70
     1
 71
     1
 10
0.0
 20
0.0
 11
12.0
 21
9.0
 12
0.0
 22
0.0
 32
0.0
 14
1.000000000000000E+20
 24
1.000000000000000E+20
 34
1.000000000000000E+20
 15
-1.000000000000000E+20
 25
-1.000000000000000E+20
 35
-1.000000000000000E+20
146
0.0
 13
0.0
 23
0.0
 33
0.0
 16
1.0
 26
0.0
 36
0.0
 17
0.0
 27
1.0
 37
0.0
 76
     0
330
1B
  0
LAYOUT
  5
26
102
{ACAD_REACTORS
330
1A
102
}
330
1A
100
AcDbPlotSettings
  1

  2
\\KTXNTBDC\CASF2PN1
  4

  6

 40
0.0
 41
0.0
 42
0.0
 43
0.0
 44
0.0
 45
0.0
 46
0.0
 47
0.0
 48
0.0
 49
0.0
140
0.0
141
0.0
142
1.0
143
1.0
 70
   688
 72
     0
 73
     0
 74
     5
  7

 75
    16
147
1.0
 76
     0
 77
     2
 78
   300
148
0.0
149
0.0
100
AcDbLayout
  1
Layout2
 70
     1
 71
     2
 10
0.0
 20
0.0
 11
12.0
 21
9.0
 12
0.0
 22
0.0
 32
0.0
 14
0.0
 24
0.0
 34
0.0
 15
0.0
 25
0.0
 35
0.0
146
0.0
 13
0.0
 23
0.0
 33
0.0
 16
1.0
 26
0.0
 36
0.0
 17
0.0
 27
1.0
 37
0.0
 76
     0
330
23
  0
LAYOUT
  5
22
102
{ACAD_REACTORS
330
1A
102
}
330
1A
100
AcDbPlotSettings
  1

  2
\\KTXNTBDC\CASF2PN1
  4

  6

 40
0.0
 41
0.0
 42
0.0
 43
0.0
 44
0.0
 45
0.0
 46
0.0
 47
0.0
 48
0.0
 49
0.0
140
0.0
141
0.0
142
1.0
143
1.0
 70
  1712
 72
     0
 73
     0
 74
     0
  7

 75
     0
147
1.0
 76
     0
 77
     2
 78
   300
148
0.0
149
0.0
100
AcDbLayout
  1
Model
 70
     1
 71
     0
 10
0.0
 20
0.0
 11
12.0
 21
9.0
 12
0.0
 22
0.0
 32
0.0
 14
0.0
 24
0.0
 34
0.0
 15
0.0
 25
0.0
 35
0.0
146
0.0
 13
0.0
 23
0.0
 33
0.0
 16
1.0
 26
0.0
 36
0.0
 17
0.0
 27
1.0
 37
0.0
 76
     0
330
1F
  0
MATERIAL
  5
B3
102
{ACAD_XDICTIONARY
360
B4
102
}
102
{ACAD_REACTORS
330
AA
102
}
330
AA
100
AcDbMaterial
  1
ByBlock
 72
     0
 43
0.0208333333333333
 43
0.0
 43
0.0
 43
0.0
 43
0.0
 43
0.0208333333333333
 43
0.0
 43
0.0
 43
0.0
 43
0.0
 43
1.0
 43
0.0
 43
0.0
 43
0.0
 43
0.0
 43
1.0
 77
     0
 47
0.0208333333333333
 47
0.0
 47
0.0
 47
0.0
 47
0.0
 47
0.0208333333333333
 47
0.0
 47
0.0
 47
0.0
 47
0.0
 47
1.0
 47
0.0
 47
0.0
 47
0.0
 47
0.0
 47
1.0
171
     0
 49
0.0208333333333333
 49
0.0
 49
0.0
 49
0.0
 49
0.0
 49
0.0208333333333333
 49
0.0
 49
0.0
 49
0.0
 49
0.0
 49
1.0
 49
0.0
 49
0.0
 49
0.0
 49
0.0
 49
1.0
175
     0
142
0.0208333333333333
142
0.0
142
0.0
142
0.0
142
0.0
142
0.0208333333333333
142
0.0
142
0.0
142
0.0
142
0.0
142
1.0
142
0.0
142
0.0
142
0.0
142
0.0
142
1.0
179
     0
144
0.0208333333333333
144
0.0
144
0.0
144
0.0
144
0.0
144
0.0208333333333333
144
0.0
144
0.0
144
0.0
144
0.0
144
1.0
144
0.0
144
0.0
144
0.0
144
0.0
144
1.0
147
0.0208333333333333
147
0.0
147
0.0
147
0.0
147
0.0
147
0.0208333333333333
147
0.0
147
0.0
147
0.0
147
0.0
147
1.0
147
0.0
147
0.0
147
0.0
147
0.0
147
1.0
  0
MATERIAL
  5
AB
102
{ACAD_XDICTIONARY
360
AC
102
}
102
{ACAD_REACTORS
330
AA
102
}
330
AA
100
AcDbMaterial
  1
ByLayer
 72
     0
 43
0.0208333333333333
 43
0.0
 43
0.0
 43
0.0
 43
0.0
 43
0.0208333333333333
 43
0.0
 43
0.0
 43
0.0
 43
0.0
 43
1.0
 43
0.0
 43
0.0
 43
0.0
 43
0.0
 43
1.0
 77
     0
 47
0.0208333333333333
 47
0.0
 47
0.0
 47
0.0
 47
0.0
 47
0.0208333333333333
 47
0.0
 47
0.0
 47
0.0
 47
0.0
 47
1.0
 47
0.0
 47
0.0
 47
0.0
 47
0.0
 47
1.0
171
     0
 49
0.0208333333333333
 49
0.0
 49
0.0
 49
0.0
 49
0.0
 49
0.0208333333333333
 49
0.0
 49
0.0
 49
0.0
 49
0.0
 49
1.0
 49
0.0
 49
0.0
 49
0.0
 49
0.0
 49
1.0
175
     0
142
0.0208333333333333
142
0.0
142
0.0
142
0.0
142
0.0
142
0.0208333333333333
142
0.0
142
0.0
142
0.0
142
0.0
142
1.0
142
0.0
142
0.0
142
0.0
142
0.0
142
1.0
179
     0
144
0.0208333333333333
144
0.0
144
0.0
144
0.0
144
0.0
144
0.0208333333333333
144
0.0
144
0.0
144
0.0
144
0.0
144
1.0
144
0.0
144
0.0
144
0.0
144
0.0
144
1.0
147
0.0208333333333333
147
0.0
147
0.0
147
0.0
147
0.0
147
0.0208333333333333
147
0.0
147
0.0
147
0.0
147
0.0
147
1.0
147
0.0
147
0.0
147
0.0
147
0.0
147
1.0
  0
MATERIAL
  5
BB
102
{ACAD_XDICTIONARY
360
BC
102
}
102
{ACAD_REACTORS
330
AA
102
}
330
AA
100
AcDbMaterial
  1
Global
 72
     0
 43
0.0208333333333333
 43
0.0
 43
0.0
 43
0.0
 43
0.0
 43
0.0208333333333333
 43
0.0
 43
0.0
 43
0.0
 43
0.0
 43
1.0
 43
0.0
 43
0.0
 43
0.0
 43
0.0
 43
1.0
 77
     0
 47
0.0208333333333333
 47
0.0
 47
0.0
 47
0.0
 47
0.0
 47
0.0208333333333333
 47
0.0
 47
0.0
 47
0.0
 47
0.0
 47
1.0
 47
0.0
 47
0.0
 47
0.0
 47
0.0
 47
1.0
171
     0
 49
0.0208333333333333
 49
0.0
 49
0.0
 49
0.0
 49
0.0
 49
0.0208333333333333
 49
0.0
 49
0.0
 49
0.0
 49
0.0
 49
1.0
 49
0.0
 49
0.0
 49
0.0
 49
0.0
 49
1.0
175
     0
142
0.0208333333333333
142
0.0
142
0.0
142
0.0
142
0.0
142
0.0208333333333333
142
0.0
142
0.0
142
0.0
142
0.0
142
1.0
142
0.0
142
0.0
142
0.0
142
0.0
142
1.0
179
     0
144
0.0208333333333333
144
0.0
144
0.0
144
0.0
144
0.0
144
0.0208333333333333
144
0.0
144
0.0
144
0.0
144
0.0
144
1.0
144
0.0
144
0.0
144
0.0
144
0.0
144
1.0
147
0.0208333333333333
147
0.0
147
0.0
147
0.0
147
0.0
147
0.0208333333333333
147
0.0
147
0.0
147
0.0
147
0.0
147
1.0
147
0.0
147
0.0
147
0.0
147
0.0
147
1.0
  0
MLEADERSTYLE
  5
F2
102
{ACAD_XDICTIONARY
360
19E
102
}
102
{ACAD_REACTORS
330
F1
102
}
330
F1
100
AcDbMLeaderStyle
179
     2
170
     2
171
     1
172
     0
 90
        2
 40
0.0
 41
0.0
173
     1
 91
-1056964608
340
14
 92
       -2
290
     1
 42
0.09
291
     1
 43
0.36
  3
Standard
 44
0.18
300

342
11
174
     1
178
     6
175
     1
176
     0
 93
-1056964608
 45
0.18
292
     0
297
     0
 46
0.18
 94
-1056964608
 47
1.0
 49
1.0
140
1.0
293
     1
141
0.0
294
     1
177
     0
142
1.0
295
     0
296
     0
143
0.125
271
     0
272
     9
273
     9
  0
MLINESTYLE
  5
18
102
{ACAD_REACTORS
330
17
102
}
330
17
100
AcDbMlineStyle
  2
STANDARD
 70
     0
  3

 62
   256
 51
90.0
 52
90.0
 71
     2
 49
0.5
 62
   256
  6
BYLAYER
 49
-0.5
 62
   256
  6
BYLAYER
  0
ACDBPLACEHOLDER
  5
2D
102
{ACAD_REACTORS
330
E
102
}
330
E
  0
ACDBPLACEHOLDER
  5
F
102
{ACAD_REACTORS
330
E
102
}
330
E
  0
SCALE
  5
E0
102
{ACAD_REACTORS
330
DF
102
}
330
DF
100
AcDbScale
 70
     0
300
1:1
140
1.0
141
1.0
290
     1
  0
SCALE
  5
E1
102
{ACAD_REACTORS
330
DF
102
}
330
DF
100
AcDbScale
 70
     0
300
1/128" = 1'-0"
140
0.0078125
141
12.0
290
     0
  0
SCALE
  5
E2
102
{ACAD_REACTORS
330
DF
102
}
330
DF
100
AcDbScale
 70
     0
300
1/64" = 1'-0"
140
0.015625
141
12.0
290
     0
  0
SCALE
  5
E3
102
{ACAD_REACTORS
330
DF
102
}
330
DF
100
AcDbScale
 70
     0
300
1/32" = 1'-0"
140
0.03125
141
12.0
290
     0
  0
SCALE
  5
E4
102
{ACAD_REACTORS
330
DF
102
}
330
DF
100
AcDbScale
 70
     0
300
1/16" = 1'-0"
140
0.0625
141
12.0
290
     0
  0
SCALE
  5
E5
102
{ACAD_REACTORS
330
DF
102
}
330
DF
100
AcDbScale
 70
     0
300
3/32" = 1'-0"
140
0.09375
141
12.0
290
     0
  0
SCALE
  5
E6
102
{ACAD_REACTORS
330
DF
102
}
330
DF
100
AcDbScale
 70
     0
300
1/8" = 1'-0"
140
0.125
141
12.0
290
     0
  0
SCALE
  5
E7
102
{ACAD_REACTORS
330
DF
102
}
330
DF
100
AcDbScale
 70
     0
300
3/16" = 1'-0"
140
0.1875
141
12.0
290
     0
  0
SCALE
  5
E8
102
{ACAD_REACTORS
330
DF
102
}
330
DF
100
AcDbScale
 70
     0
300
1/4" = 1'-0"
140
0.25
141
12.0
290
     0
  0
SCALE
  5
E9
102
{ACAD_REACTORS
330
DF
102
}
330
DF
100
AcDbScale
 70
     0
300
3/8" = 1'-0"
140
0.375
141
12.0
290
     0
  0
SCALE
  5
EA
102
{ACAD_REACTORS
330
DF
102
}
330
DF
100
AcDbScale
 70
     0
300
1/2" = 1'-0"
140
0.5
141
12.0
290
     0
  0
SCALE
  5
EB
102
{ACAD_REACTORS
330
DF
102
}
330
DF
100
AcDbScale
 70
     0
300
3/4" = 1'-0"
140
0.75
141
12.0
290
     0
  0
SCALE
  5
EC
102
{ACAD_REACTORS
330
DF
102
}
330
DF
100
AcDbScale
 70
     0
300
1" = 1'-0"
140
1.0
141
12.0
290
     0
  0
SCALE
  5
ED
102
{ACAD_REACTORS
330
DF
102
}
330
DF
100
AcDbScale
 70
     0
300
1-1/2" = 1'-0"
140
1.5
141
12.0
290
     0
  0
SCALE
  5
EE
102
{ACAD_REACTORS
330
DF
102
}
330
DF
100
AcDbScale
 70
     0
300
3" = 1'-0"
140
3.0
141
12.0
290
     0
  0
SCALE
  5
EF
102
{ACAD_REACTORS
330
DF
102
}
330
DF
100
AcDbScale
 70
     0
300
6" = 1'-0"
140
6.0
141
12.0
290
     0
  0
SCALE
  5
F0
102
{ACAD_REACTORS
330
DF
102
}
330
DF
100
AcDbScale
 70
     0
300
1'-0" = 1'-0"
140
12.0
141
12.0
290
     0
  0
ACDBSECTIONVIEWSTYLE
  5
F4
102
{ACAD_XDICTIONARY
360
1A0
102
}
102
{ACAD_REACTORS
330
F3
102
}
330
F3
100
AcDbModelDocViewStyle
 70
     0
  3
Imperial24
290
     0
100
AcDbSectionViewStyle
 70
     0
 71
     0
 90
       78
 71
     1
340
11
 62
   256
 40
0.24
340
0
340
0
 62
   256
 40
0.24
300
I, O, Q, S, X, Z
 40
0.48
 90
        3
 40
0.18
 90
        1
 71
     2
340
16
 90
       25
 62
   256
340
16
 90
       50
 62
   256
 40
0.24
 40
0.0
 40
0.24
 71
     3
340
11
 62
   256
 40
0.24
 90
        1
 40
0.75
 90
        1
300
%<\AcVar ViewType \f "%tc1">% %<\AcVar ViewSectionStartId>%-%<\AcVar ViewSectionEndId>%\PSCALE %<\AcVar ViewScale \f "%sn">%
 71
     4
 62
   256
 62
   257
300
ANSI31
 40
1.0
 90
        0
290
     0
290
     0
 90
        6
 40
0.0
 40
1.570796326794896
 40
0.2617993877991494
 40
1.308996938995747
 40
-0.2617993877991494
 40
1.832595714594046
  0
TABLESTYLE
  5
DE
102
{ACAD_XDICTIONARY
360
16B
102
}
102
{ACAD_REACTORS
330
DD
102
}
330
DD
100
AcDbTableStyle
280
     0
  3
Standard
 70
     0
 71
     0
 40
0.06
 41
0.06
280
     0
281
     0
  7
Standard
140
0.18
170
     2
 62
     0
 63
     7
283
     0
 90
      512
 91
        0
  1

274
    -2
284
     1
 64
     0
275
    -2
285
     1
 65
     0
276
    -2
286
     1
 66
     0
277
    -2
287
     1
 67
     0
278
    -2
288
     1
 68
     0
279
    -2
289
     1
 69
     0
  7
Standard
140
0.25
170
     5
 62
     0
 63
     7
283
     0
 90
      512
 91
        0
  1

274
    -2
284
     1
 64
     0
275
    -2
285
     1
 65
     0
276
    -2
286
     1
 66
     0
277
    -2
287
     1
 67
     0
278
    -2
288
     1
 68
     0
279
    -2
289
     1
 69
     0
  7
Standard
140
0.18
170
     5
 62
     0
 63
     7
283
     0
 90
      512
 91
        0
  1

274
    -2
284
     1
 64
     0
275
    -2
285
     1
 65
     0
276
    -2
286
     1
 66
     0
277
    -2
287
     1
 67
     0
278
    -2
288
     1
 68
     0
279
    -2
289
     1
 69
     0
  0
VISUALSTYLE
  5
C9
102
{ACAD_XDICTIONARY
360
178
102
}
102
{ACAD_REACTORS
330
C3
102
}
330
C3
100
AcDbVisualStyle
  2
2dWireframe
 70
     4
177
     2
291
     0
 71
     0
176
     1
 72
     2
176
     1
 73
     0
176
     1
 90
        0
176
     1
 40
0.6
176
     1
 41
30.0
176
     1
 63
     7
421
 16777215
176
     1
 74
     1
176
     1
 91
        4
176
     1
 64
     7
176
     1
 65
   257
176
     1
 75
     1
176
     1
175
     1
176
     1
 42
1.0
176
     1
 92
        0
176
     1
 66
   257
176
     1
 43
1.0
176
     1
 76
     1
176
     1
 77
     6
176
     1
 78
     2
176
     1
 67
     7
176
     1
 79
     5
176
     1
170
     0
176
     1
171
     0
176
     1
290
     0
176
     1
 93
        1
176
     1
 44
0.0
176
     1
173
     0
176
     1
1001
ACAD
1000
AcDbSavedByObjectVersion
1070
     0
  0
VISUALSTYLE
  5
C8
102
{ACAD_XDICTIONARY
360
176
102
}
102
{ACAD_REACTORS
330
C3
102
}
330
C3
100
AcDbVisualStyle
  2
Basic
 70
     7
177
     2
291
     1
 71
     1
176
     1
 72
     0
176
     1
 73
     1
176
     1
 90
        0
176
     1
 40
0.6
176
     1
 41
30.0
176
     1
 63
     7
421
 16777215
176
     1
 74
     0
176
     1
 91
        4
176
     1
 64
     7
176
     1
 65
   257
176
     1
 75
     1
176
     1
175
     1
176
     1
 42
1.0
176
     1
 92
        8
176
     1
 66
     7
176
     1
 43
1.0
176
     1
 76
     1
176
     1
 77
     6
176
     1
 78
     2
176
     1
 67
     7
176
     1
 79
     5
176
     1
170
     0
176
     1
171
     0
176
     1
290
     0
176
     1
 93
        1
176
     1
 44
0.0
176
     1
173
     0
176
     1
1001
ACAD
1000
AcDbSavedByObjectVersion
1070
     0
  0
VISUALSTYLE
  5
CF
102
{ACAD_XDICTIONARY
360
184
102
}
102
{ACAD_REACTORS
330
C3
102
}
330
C3
100
AcDbVisualStyle
  2
Brighten
 70
    12
177
     2
291
     1
 71
     2
176
     1
 72
     2
176
     1
 73
     0
176
     1
 90
        0
176
     1
 40
0.6
176
     1
 41
30.0
176
     1
 63
     7
421
 16777215
176
     1
 74
     1
176
     1
 91
        4
176
     1
 64
     7
176
     1
 65
   257
176
     1
 75
     1
176
     1
175
     1
176
     1
 42
1.0
176
     1
 92
        8
176
     1
 66
     7
176
     1
 43
1.0
176
     1
 76
     1
176
     1
 77
     6
176
     1
 78
     2
176
     1
 67
     7
176
     1
 79
     5
176
     1
170
     0
176
     1
171
     0
176
     1
290
     0
176
     1
 93
        1
176
     1
 44
50.0
176
     1
173
     0
176
     1
1001
ACAD
1000
AcDbSavedByObjectVersion
1070
     0
  0
VISUALSTYLE
  5
D3
102
{ACAD_XDICTIONARY
360
18C
102
}
102
{ACAD_REACTORS
330
C3
102
}
330
C3
100
AcDbVisualStyle
  2
ColorChange
 70
    16
177
     2
291
     1
 71
     2
176
     1
 72
     2
176
     1
 73
     3
176
     1
 90
        0
176
     1
 40
0.6
176
     1
 41
30.0
176
     1
 63
     8
421
  8421504
176
     1
 74
     1
176
     1
 91
        4
176
     1
 64
     7
176
     1
 65
   257
176
     1
 75
     1
176
     1
175
     1
176
     1
 42
1.0
176
     1
 92
        8
176
     1
 66
     8
424
  8421504
176
     1
 43
1.0
176
     1
 76
     1
176
     1
 77
     6
176
     1
 78
     2
176
     1
 67
     7
176
     1
 79
     5
176
     1
170
     0
176
     1
171
     0
176
     1
290
     0
176
     1
 93
        1
176
     1
 44
0.0
176
     1
173
     0
176
     1
1001
ACAD
1000
AcDbSavedByObjectVersion
1070
     0
  0
VISUALSTYLE
  5
CC
102
{ACAD_XDICTIONARY
360
17E
102
}
102
{ACAD_REACTORS
330
C3
102
}
330
C3
100
AcDbVisualStyle
  2
Conceptual
 70
     9
177
     2
291
     0
 71
     3
176
     1
 72
     2
176
     1
 73
     0
176
     1
 90
        0
176
     1
 40
0.6
176
     1
 41
30.0
176
     1
 63
     7
421
 16777215
176
     1
 74
     2
176
     1
 91
        2
176
     1
 64
     7
176
     1
 65
   257
176
     1
 75
     1
176
     1
175
     1
176
     1
 42
179.0
176
     1
 92
        8
176
     1
 66
     7
176
     1
 43
1.0
176
     1
 76
     1
176
     1
 77
     6
176
     1
 78
     2
176
     1
 67
     7
176
     1
 79
     3
176
     1
170
     0
176
     1
171
     0
176
     1
290
     0
176
     1
 93
        1
176
     1
 44
0.0
176
     1
173
     0
176
     1
1001
ACAD
1000
AcDbSavedByObjectVersion
1070
     0
  0
VISUALSTYLE
  5
CE
102
{ACAD_XDICTIONARY
360
182
102
}
102
{ACAD_REACTORS
330
C3
102
}
330
C3
100
AcDbVisualStyle
  2
Dim
 70
    11
177
     2
291
     1
 71
     2
176
     1
 72
     2
176
     1
 73
     0
176
     1
 90
        0
176
     1
 40
0.6
176
     1
 41
30.0
176
     1
 63
     7
421
 16777215
176
     1
 74
     1
176
     1
 91
        4
176
     1
 64
     7
176
     1
 65
   257
176
     1
 75
     1
176
     1
175
     1
176
     1
 42
1.0
176
     1
 92
        8
176
     1
 66
     7
176
     1
 43
1.0
176
     1
 76
     1
176
     1
 77
     6
176
     1
 78
     2
176
     1
 67
     7
176
     1
 79
     5
176
     1
170
     0
176
     1
171
     0
176
     1
290
     0
176
     1
 93
        1
176
     1
 44
-50.0
176
     1
173
     0
176
     1
1001
ACAD
1000
AcDbSavedByObjectVersion
1070
     0
  0
VISUALSTYLE
  5
DB
102
{ACAD_XDICTIONARY
360
19C
102
}
102
{ACAD_REACTORS
330
C3
102
}
330
C3
100
AcDbVisualStyle
  2
EdgeColorOff
 70
    22
177
     2
291
     1
 71
     2
176
     0
 72
     2
176
     0
 73
     0
176
     0
 90
        0
176
     0
 40
0.6
176
     0
 41
30.0
176
     0
 63
     7
421
 16777215
176
     0
 74
     1
176
     0
 91
        4
176
     0
 64
     7
176
     0
 65
   257
176
     0
 75
     1
176
     0
175
     1
176
     0
 42
1.0
176
     0
 92
        8
176
     2
 66
     7
176
     0
 43
1.0
176
     0
 76
     1
176
     0
 77
     6
176
     0
 78
     2
176
     0
 67
     7
176
     0
 79
     5
176
     0
170
     0
176
     0
171
     0
176
     0
290
     0
176
     0
 93
        1
176
     0
 44
0.0
176
     0
173
     0
176
     0
1001
ACAD
1000
AcDbSavedByObjectVersion
1070
     0
  0
VISUALSTYLE
  5
D2
102
{ACAD_XDICTIONARY
360
18A
102
}
102
{ACAD_REACTORS
330
C3
102
}
330
C3
100
AcDbVisualStyle
  2
Facepattern
 70
    15
177
     2
291
     1
 71
     2
176
     1
 72
     2
176
     1
 73
     0
176
     1
 90
        0
176
     1
 40
0.6
176
     1
 41
30.0
176
     1
 63
     7
421
 16777215
176
     1
 74
     1
176
     1
 91
        4
176
     1
 64
     7
176
     1
 65
   257
176
     1
 75
     1
176
     1
175
     1
176
     1
 42
1.0
176
     1
 92
        8
176
     1
 66
     7
176
     1
 43
1.0
176
     1
 76
     1
176
     1
 77
     6
176
     1
 78
     2
176
     1
 67
     7
176
     1
 79
     5
176
     1
170
     0
176
     1
171
     0
176
     1
290
     0
176
     1
 93
        1
176
     1
 44
0.0
176
     1
173
     0
176
     1
1001
ACAD
1000
AcDbSavedByObjectVersion
1070
     0
  0
VISUALSTYLE
  5
C4
102
{ACAD_XDICTIONARY
360
16E
102
}
102
{ACAD_REACTORS
330
C3
102
}
330
C3
100
AcDbVisualStyle
  2
Flat
 70
     0
177
     2
291
     1
 71
     2
176
     1
 72
     1
176
     1
 73
     1
176
     1
 90
        2
176
     1
 40
0.6
176
     1
 41
30.0
176
     1
 63
     7
421
 16777215
176
     1
 74
     0
176
     1
 91
        0
176
     1
 64
     7
176
     1
 65
   257
176
     1
 75
     1
176
     1
175
     1
176
     1
 42
1.0
176
     1
 92
        8
176
     1
 66
     7
176
     1
 43
1.0
176
     1
 76
     1
176
     1
 77
     6
176
     1
 78
     2
176
     1
 67
     7
176
     1
 79
     5
176
     1
170
     0
176
     1
171
     0
176
     1
290
     0
176
     1
 93
       13
176
     1
 44
0.0
176
     1
173
     0
176
     1
1001
ACAD
1000
AcDbSavedByObjectVersion
1070
     0
  0
VISUALSTYLE
  5
C5
102
{ACAD_XDICTIONARY
360
170
102
}
102
{ACAD_REACTORS
330
C3
102
}
330
C3
100
AcDbVisualStyle
  2
FlatWithEdges
 70
     1
177
     2
291
     1
 71
     2
176
     1
 72
     1
176
     1
 73
     1
176
     1
 90
        2
176
     1
 40
0.6
176
     1
 41
30.0
176
     1
 63
     7
421
 16777215
176
     1
 74
     1
176
     1
 91
        0
176
     1
 64
     7
176
     1
 65
   257
176
     1
 75
     1
176
     1
175
     1
176
     1
 42
1.0
176
     1
 92
        0
176
     1
 66
   257
176
     1
 43
1.0
176
     1
 76
     1
176
     1
 77
     6
176
     1
 78
     2
176
     1
 67
     7
176
     1
 79
     5
176
     1
170
     0
176
     1
171
     0
176
     1
290
     0
176
     1
 93
       13
176
     1
 44
0.0
176
     1
173
     0
176
     1
1001
ACAD
1000
AcDbSavedByObjectVersion
1070
     0
  0
VISUALSTYLE
  5
C6
102
{ACAD_XDICTIONARY
360
172
102
}
102
{ACAD_REACTORS
330
C3
102
}
330
C3
100
AcDbVisualStyle
  2
Gouraud
 70
     2
177
     2
291
     1
 71
     2
176
     1
 72
     2
176
     1
 73
     1
176
     1
 90
        2
176
     1
 40
0.6
176
     1
 41
30.0
176
     1
 63
     7
421
 16777215
176
     1
 74
     0
176
     1
 91
        0
176
     1
 64
     7
176
     1
 65
   257
176
     1
 75
     1
176
     1
175
     1
176
     1
 42
1.0
176
     1
 92
        0
176
     1
 66
     7
176
     1
 43
1.0
176
     1
 76
     1
176
     1
 77
     6
176
     1
 78
     2
176
     1
 67
     7
176
     1
 79
     5
176
     1
170
     0
176
     1
171
     0
176
     1
290
     0
176
     1
 93
       13
176
     1
 44
0.0
176
     1
173
     0
176
     1
1001
ACAD
1000
AcDbSavedByObjectVersion
1070
     0
  0
VISUALSTYLE
  5
C7
102
{ACAD_XDICTIONARY
360
174
102
}
102
{ACAD_REACTORS
330
C3
102
}
330
C3
100
AcDbVisualStyle
  2
GouraudWithEdges
 70
     3
177
     2
291
     1
 71
     2
176
     1
 72
     2
176
     1
 73
     1
176
     1
 90
        2
176
     1
 40
0.6
176
     1
 41
30.0
176
     1
 63
     7
421
 16777215
176
     1
 74
     1
176
     1
 91
        0
176
     1
 64
     7
176
     1
 65
   257
176
     1
 75
     1
176
     1
175
     1
176
     1
 42
1.0
176
     1
 92
        0
176
     1
 66
   257
176
     1
 43
1.0
176
     1
 76
     1
176
     1
 77
     6
176
     1
 78
     2
176
     1
 67
     7
176
     1
 79
     5
176
     1
170
     0
176
     1
171
     0
176
     1
290
     0
176
     1
 93
       13
176
     1
 44
0.0
176
     1
173
     0
176
     1
1001
ACAD
1000
AcDbSavedByObjectVersion
1070
     0
  0
VISUALSTYLE
  5
CB
102
{ACAD_XDICTIONARY
360
17C
102
}
102
{ACAD_REACTORS
330
C3
102
}
330
C3
100
AcDbVisualStyle
  2
Hidden
 70
     6
177
     2
291
     0
 71
     1
176
     1
 72
     2
176
     1
 73
     2
176
     1
 90
        0
176
     1
 40
0.6
176
     1
 41
30.0
176
     1
 63
     7
421
 16777215
176
     1
 74
     2
176
     1
 91
        2
176
     1
 64
     7
176
     1
 65
   257
176
     1
 75
     2
176
     1
175
     1
176
     1
 42
40.0
176
     1
 92
        0
176
     1
 66
   257
176
     1
 43
1.0
176
     1
 76
     1
176
     1
 77
     6
176
     1
 78
     2
176
     1
 67
     7
176
     1
 79
     3
176
     1
170
     0
176
     1
171
     0
176
     1
290
     0
176
     1
 93
        1
176
     1
 44
0.0
176
     1
173
     0
176
     1
1001
ACAD
1000
AcDbSavedByObjectVersion
1070
     0
  0
VISUALSTYLE
  5
D9
102
{ACAD_XDICTIONARY
360
198
102
}
102
{ACAD_REACTORS
330
C3
102
}
330
C3
100
AcDbVisualStyle
  2
JitterOff
 70
    20
177
     2
291
     1
 71
     2
176
     0
 72
     2
176
     0
 73
     0
176
     0
 90
        0
176
     0
 40
0.6
176
     0
 41
30.0
176
     0
 63
     7
421
 16777215
176
     0
 74
     1
176
     0
 91
        4
176
     0
 64
     7
176
     0
 65
   257
176
     0
 75
     1
176
     0
175
     1
176
     0
 42
1.0
176
     0
 92
       10
176
     2
 66
     7
176
     0
 43
1.0
176
     0
 76
     1
176
     0
 77
     6
176
     0
 78
     2
176
     0
 67
     7
176
     0
 79
     5
176
     0
170
     0
176
     0
171
     0
176
     0
290
     0
176
     0
 93
        1
176
     0
 44
0.0
176
     0
173
     0
176
     0
1001
ACAD
1000
AcDbSavedByObjectVersion
1070
     0
  0
VISUALSTYLE
  5
D1
102
{ACAD_XDICTIONARY
360
188
102
}
102
{ACAD_REACTORS
330
C3
102
}
330
C3
100
AcDbVisualStyle
  2
Linepattern
 70
    14
177
     2
291
     1
 71
     2
176
     1
 72
     2
176
     1
 73
     0
176
     1
 90
        0
176
     1
 40
0.6
176
     1
 41
30.0
176
     1
 63
     7
421
 16777215
176
     1
 74
     1
176
     1
 91
        4
176
     1
 64
     7
176
     1
 65
   257
176
     1
 75
     7
176
     1
175
     7
176
     1
 42
1.0
176
     1
 92
        8
176
     1
 66
     7
176
     1
 43
1.0
176
     1
 76
     1
176
     1
 77
     6
176
     1
 78
     2
176
     1
 67
     7
176
     1
 79
     5
176
     1
170
     0
176
     1
171
     0
176
     1
290
     0
176
     1
 93
        1
176
     1
 44
0.0
176
     1
173
     0
176
     1
1001
ACAD
1000
AcDbSavedByObjectVersion
1070
     0
  0
VISUALSTYLE
  5
DA
102
{ACAD_XDICTIONARY
360
19A
102
}
102
{ACAD_REACTORS
330
C3
102
}
330
C3
100
AcDbVisualStyle
  2
OverhangOff
 70
    21
177
     2
291
     1
 71
     2
176
     0
 72
     2
176
     0
 73
     0
176
     0
 90
        0
176
     0
 40
0.6
176
     0
 41
30.0
176
     0
 63
     7
421
 16777215
176
     0
 74
     1
176
     0
 91
        4
176
     0
 64
     7
176
     0
 65
   257
176
     0
 75
     1
176
     0
175
     1
176
     0
 42
1.0
176
     0
 92
        9
176
     2
 66
     7
176
     0
 43
1.0
176
     0
 76
     1
176
     0
 77
     6
176
     0
 78
     2
176
     0
 67
     7
176
     0
 79
     5
176
     0
170
     0
176
     0
171
     0
176
     0
290
     0
176
     0
 93
        1
176
     0
 44
0.0
176
     0
173
     0
176
     0
1001
ACAD
1000
AcDbSavedByObjectVersion
1070
     0
  0
VISUALSTYLE
  5
CD
102
{ACAD_XDICTIONARY
360
180
102
}
102
{ACAD_REACTORS
330
C3
102
}
330
C3
100
AcDbVisualStyle
  2
Realistic
 70
     8
177
     2
291
     0
 71
     2
176
     1
 72
     3
176
     1
 73
     0
176
     1
 90
        2
176
     1
 40
0.6
176
     1
 41
30.0
176
     1
 63
     7
421
 16777215
176
     1
 74
     0
176
     1
 91
        0
176
     1
 64
     7
176
     1
 65
   257
176
     1
 75
     1
176
     1
175
     1
176
     1
 42
1.0
176
     1
 92
        8
176
     1
 66
   257
176
     1
 43
1.0
176
     1
 76
     1
176
     1
 77
     6
176
     1
 78
     2
176
     1
 67
     7
176
     1
 79
     3
176
     1
170
     0
176
     1
171
     0
176
     1
290
     0
176
     1
 93
       13
176
     1
 44
0.0
176
     1
173
     0
176
     1
1001
ACAD
1000
AcDbSavedByObjectVersion
1070
     0
  0
VISUALSTYLE
  5
D8
102
{ACAD_XDICTIONARY
360
196
102
}
102
{ACAD_REACTORS
330
C3
102
}
330
C3
100
AcDbVisualStyle
  2
Shaded
 70
    27
177
     2
291
     0
 71
     2
176
     1
 72
     2
176
     1
 73
     1
176
     1
 90
        2
176
     1
 40
0.6
176
     1
 41
30.0
176
     1
 63
     7
421
 16777215
176
     1
 74
     0
176
     1
 91
        4
176
     1
 64
     7
176
     1
 65
   257
176
     1
 75
     1
176
     1
175
     1
176
     1
 42
1.0
176
     1
 92
        8
176
     1
 66
   257
176
     1
 43
1.0
176
     1
 76
     1
176
     1
 77
     6
176
     1
 78
     2
176
     1
 67
     8
425
  7895160
176
     1
 79
     3
176
     1
170
     0
176
     1
171
     0
176
     1
290
     0
176
     1
 93
        5
176
     1
 44
0.0
176
     1
173
     0
176
     1
1001
ACAD
1000
AcDbSavedByObjectVersion
1070
     0
  0
VISUALSTYLE
  5
D7
102
{ACAD_XDICTIONARY
360
194
102
}
102
{ACAD_REACTORS
330
C3
102
}
330
C3
100
AcDbVisualStyle
  2
Shaded with edges
 70
    26
177
     2
291
     0
 71
     2
176
     1
 72
     2
176
     1
 73
     1
176
     1
 90
        2
176
     1
 40
0.6
176
     1
 41
30.0
176
     1
 63
     7
421
 16777215
176
     1
 74
     1
176
     1
 91
       10
176
     1
 64
     7
176
     1
 65
   257
176
     1
 75
     2
176
     1
175
     1
176
     1
 42
1.0
176
     1
 92
        8
176
     1
 66
   257
176
     1
 43
1.0
176
     1
 76
     1
176
     1
 77
     6
176
     1
 78
     2
176
     1
 67
     7
176
     1
 79
     3
176
     1
170
     0
176
     1
171
     0
176
     1
290
     0
176
     1
 93
        5
176
     1
 44
0.0
176
     1
173
     0
176
     1
1001
ACAD
1000
AcDbSavedByObjectVersion
1070
     0
  0
VISUALSTYLE
  5
D4
102
{ACAD_XDICTIONARY
360
18E
102
}
102
{ACAD_REACTORS
330
C3
102
}
330
C3
100
AcDbVisualStyle
  2
Shades of Gray
 70
    23
177
     2
291
     0
 71
     2
176
     1
 72
     2
176
     1
 73
     3
176
     1
 90
        0
176
     1
 40
0.6
176
     1
 41
30.0
176
     1
 63
     7
421
 16777215
176
     1
 74
     2
176
     1
 91
        2
176
     1
 64
     7
176
     1
 65
     7
176
     1
 75
     1
176
     1
175
     1
176
     1
 42
40.0
176
     1
 92
        8
176
     1
 66
     7
176
     1
 43
1.0
176
     1
 76
     1
176
     1
 77
     6
176
     1
 78
     2
176
     1
 67
     7
176
     1
 79
     3
176
     1
170
     0
176
     1
171
     0
176
     1
290
     0
176
     1
 93
        1
176
     1
 44
0.0
176
     1
173
     0
176
     1
1001
ACAD
1000
AcDbSavedByObjectVersion
1070
     0
  0
VISUALSTYLE
  5
D5
102
{ACAD_XDICTIONARY
360
190
102
}
102
{ACAD_REACTORS
330
C3
102
}
330
C3
100
AcDbVisualStyle
  2
Sketchy
 70
    24
177
     2
291
     0
 71
     1
176
     1
 72
     2
176
     1
 73
     2
176
     1
 90
        0
176
     1
 40
0.6
176
     1
 41
30.0
176
     1
 63
     7
421
 16777215
176
     1
 74
     2
176
     1
 91
        2
176
     1
 64
     7
176
     1
 65
     7
176
     1
 75
     1
176
     1
175
     1
176
     1
 42
40.0
176
     1
 92
       11
176
     1
 66
     7
176
     1
 43
1.0
176
     1
 76
     1
176
     1
 77
     6
176
     1
 78
     2
176
     1
 67
     7
176
     1
 79
     6
176
     1
170
     0
176
     1
171
     0
176
     1
290
     0
176
     1
 93
        1
176
     1
 44
0.0
176
     1
173
     0
176
     1
1001
ACAD
1000
AcDbSavedByObjectVersion
1070
     0
  0
VISUALSTYLE
  5
D0
102
{ACAD_XDICTIONARY
360
186
102
}
102
{ACAD_REACTORS
330
C3
102
}
330
C3
100
AcDbVisualStyle
  2
Thicken
 70
    13
177
     2
291
     1
 71
     2
176
     1
 72
     2
176
     1
 73
     0
176
     1
 90
        0
176
     1
 40
0.6
176
     1
 41
30.0
176
     1
 63
     7
421
 16777215
176
     1
 74
     1
176
     1
 91
        4
176
     1
 64
     7
176
     1
 65
   257
176
     1
 75
     1
176
     1
175
     1
176
     1
 42
1.0
176
     1
 92
       12
176
     1
 66
     7
176
     1
 43
1.0
176
     1
 76
     1
176
     1
 77
     6
176
     1
 78
     2
176
     1
 67
     7
176
     1
 79
     5
176
     1
170
     0
176
     1
171
     0
176
     1
290
     0
176
     1
 93
        1
176
     1
 44
0.0
176
     1
173
     0
176
     1
1001
ACAD
1000
AcDbSavedByObjectVersion
1070
     0
  0
VISUALSTYLE
  5
CA
102
{ACAD_XDICTIONARY
360
17A
102
}
102
{ACAD_REACTORS
330
C3
102
}
330
C3
100
AcDbVisualStyle
  2
Wireframe
 70
     5
177
     2
291
     0
 71
     0
176
     1
 72
     2
176
     1
 73
     0
176
     1
 90
        0
176
     1
 40
0.6
176
     1
 41
30.0
176
     1
 63
     7
421
 16777215
176
     1
 74
     1
176
     1
 91
        4
176
     1
 64
     7
176
     1
 65
   257
176
     1
 75
     1
176
     1
175
     1
176
     1
 42
1.0
176
     1
 92
        0
176
     1
 66
   257
176
     1
 43
1.0
176
     1
 76
     1
176
     1
 77
     6
176
     1
 78
     2
176
     1
 67
     7
176
     1
 79
     3
176
     1
170
     0
176
     1
171
     0
176
     1
290
     0
176
     1
 93
        1
176
     1
 44
0.0
176
     1
173
     0
176
     1
1001
ACAD
1000
AcDbSavedByObjectVersion
1070
     0
  0
VISUALSTYLE
  5
D6
102
{ACAD_XDICTIONARY
360
192
102
}
102
{ACAD_REACTORS
330
C3
102
}
330
C3
100
AcDbVisualStyle
  2
X-Ray
 70
    25
177
     2
291
     0
 71
     2
176
     1
 72
     2
176
     1
 73
     1
176
     1
 90
        1
176
     1
 40
0.5
176
     1
 41
30.0
176
     1
 63
     7
421
 16777215
176
     1
 74
     1
176
     1
 91
        0
176
     1
 64
     7
176
     1
 65
   257
176
     1
 75
     1
176
     1
175
     1
176
     1
 42
1.0
176
     1
 92
        8
176
     1
 66
     7
176
     1
 43
1.0
176
     1
 76
     1
176
     1
 77
     6
176
     1
 78
     2
176
     1
 67
     7
176
     1
 79
     3
176
     1
170
     0
176
     1
171
     0
176
     1
290
     0
176
     1
 93
       13
176
     1
 44
0.0
176
     1
173
     0
176
     1
1001
ACAD
1000
AcDbSavedByObjectVersion
1070
     0
  0
DICTIONARYVAR
  5
167
102
{ACAD_REACTORS
330
161
102
}
330
161
100
DictionaryVariables
280
     0
  1
1:1
  0
DICTIONARYVAR
  5
163
102
{ACAD_REACTORS
330
161
102
}
330
161
100
DictionaryVariables
280
     0
  1
STANDARD
  0
DICTIONARYVAR
  5
162
102
{ACAD_REACTORS
330
161
102
}
330
161
100
DictionaryVariables
280
     0
  1
STANDARD
  0
DICTIONARYVAR
  5
164
102
{ACAD_REACTORS
330
161
102
}
330
161
100
DictionaryVariables
280
     0
  1
Imperial24
  0
DICTIONARYVAR
  5
165
102
{ACAD_REACTORS
330
161
102
}
330
161
100
DictionaryVariables
280
     0
  1
Imperial24
  0
DICTIONARYVAR
  5
169
102
{ACAD_REACTORS
330
161
102
}
330
161
100
DictionaryVariables
280
     0
  1
1
  0
DICTIONARYVAR
  5
16A
102
{ACAD_REACTORS
330
161
102
}
330
161
100
DictionaryVariables
280
     0
  1
15
  0
DICTIONARYVAR
  5
168
102
{ACAD_REACTORS
330
161
102
}
330
161
100
DictionaryVariables
280
     0
  1
0
  0
DICTIONARYVAR
  5
166
102
{ACAD_REACTORS
330
161
102
}
330
161
100
DictionaryVariables
280
     0
  1
0
  0
DICTIONARY
  5
1A2
330
F6
100
AcDbDictionary
280
     1
281
     1
  3
ACAD_XREC_ROUNDTRIP
360
1A3
  0
DICTIONARY
  5
B4
330
B3
100
AcDbDictionary
280
     1
281
     1
  3
BUMPTILE
360
B6
  3
DIFFUSETILE
360
B5
  3
OPACITYTILE
360
B9
  3
REFLECTIONTILE
360
B8
  3
REFRACTIONTILE
360
BA
  3
SPECULARTILE
360
B7
  0
DICTIONARY
  5
AC
330
AB
100
AcDbDictionary
280
     1
281
     1
  3
BUMPTILE
360
AE
  3
DIFFUSETILE
360
AD
  3
OPACITYTILE
360
B1
  3
REFLECTIONTILE
360
B0
  3
REFRACTIONTILE
360
B2
  3
SPECULARTILE
360
AF
  0
DICTIONARY
  5
BC
330
BB
100
AcDbDictionary
280
     1
281
     1
  3
BUMPTILE
360
BE
  3
DIFFUSETILE
360
BD
  3
OPACITYTILE
360
C1
  3
REFLECTIONTILE
360
C0
  3
REFRACTIONTILE
360
C2
  3
SPECULARTILE
360
BF
  0
DICTIONARY
  5
19E
330
F2
100
AcDbDictionary
280
     1
281
     1
  3
ACAD_XREC_ROUNDTRIP
360
19F
  0
DICTIONARY
  5
1A0
330
F4
100
AcDbDictionary
280
     1
281
     1
  3
ACAD_XREC_ROUNDTRIP
360
1A1
  0
DICTIONARY
  5
16B
330
DE
100
AcDbDictionary
280
     1
281
     1
  3
ACAD_ROUNDTRIP_2008_TABLESTYLE_CELLSTYLEMAP
360
16C
  0
DICTIONARY
  5
178
330
C9
100
AcDbDictionary
280
     1
281
     1
  3
ACAD_XREC_ROUNDTRIP
360
179
  0
DICTIONARY
  5
176
330
C8
100
AcDbDictionary
280
     1
281
     1
  3
ACAD_XREC_ROUNDTRIP
360
177
  0
DICTIONARY
  5
184
330
CF
100
AcDbDictionary
280
     1
281
     1
  3
ACAD_XREC_ROUNDTRIP
360
185
  0
DICTIONARY
  5
18C
330
D3
100
AcDbDictionary
280
     1
281
     1
  3
ACAD_XREC_ROUNDTRIP
360
18D
  0
DICTIONARY
  5
17E
330
CC
100
AcDbDictionary
280
     1
281
     1
  3
ACAD_XREC_ROUNDTRIP
360
17F
  0
DICTIONARY
  5
182
330
CE
100
AcDbDictionary
280
     1
281
     1
  3
ACAD_XREC_ROUNDTRIP
360
183
  0
DICTIONARY
  5
19C
330
DB
100
AcDbDictionary
280
     1
281
     1
  3
ACAD_XREC_ROUNDTRIP
360
19D
  0
DICTIONARY
  5
18A
330
D2
100
AcDbDictionary
280
     1
281
     1
  3
ACAD_XREC_ROUNDTRIP
360
18B
  0
DICTIONARY
  5
16E
330
C4
100
AcDbDictionary
280
     1
281
     1
  3
ACAD_XREC_ROUNDTRIP
360
16F
  0
DICTIONARY
  5
170
330
C5
100
AcDbDictionary
280
     1
281
     1
  3
ACAD_XREC_ROUNDTRIP
360
171
  0
DICTIONARY
  5
172
330
C6
100
AcDbDictionary
280
     1
281
     1
  3
ACAD_XREC_ROUNDTRIP
360
173
  0
DICTIONARY
  5
174
330
C7
100
AcDbDictionary
280
     1
281
     1
  3
ACAD_XREC_ROUNDTRIP
360
175
  0
DICTIONARY
  5
17C
330
CB
100
AcDbDictionary
280
     1
281
     1
  3
ACAD_XREC_ROUNDTRIP
360
17D
  0
DICTIONARY
  5
198
330
D9
100
AcDbDictionary
280
     1
281
     1
  3
ACAD_XREC_ROUNDTRIP
360
199
  0
DICTIONARY
  5
188
330
D1
100
AcDbDictionary
280
     1
281
     1
  3
ACAD_XREC_ROUNDTRIP
360
189
  0
DICTIONARY
  5
19A
330
DA
100
AcDbDictionary
280
     1
281
     1
  3
ACAD_XREC_ROUNDTRIP
360
19B
  0
DICTIONARY
  5
180
330
CD
100
AcDbDictionary
280
     1
281
     1
  3
ACAD_XREC_ROUNDTRIP
360
181
  0
DICTIONARY
  5
196
330
D8
100
AcDbDictionary
280
     1
281
     1
  3
ACAD_XREC_ROUNDTRIP
360
197
  0
DICTIONARY
  5
194
330
D7
100
AcDbDictionary
280
     1
281
     1
  3
ACAD_XREC_ROUNDTRIP
360
195
  0
DICTIONARY
  5
18E
330
D4
100
AcDbDictionary
280
     1
281
     1
  3
ACAD_XREC_ROUNDTRIP
360
18F
  0
DICTIONARY
  5
190
330
D5
100
AcDbDictionary
280
     1
281
     1
  3
ACAD_XREC_ROUNDTRIP
360
191
  0
DICTIONARY
  5
186
330
D0
100
AcDbDictionary
280
     1
281
     1
  3
ACAD_XREC_ROUNDTRIP
360
187
  0
DICTIONARY
  5
17A
330
CA
100
AcDbDictionary
280
     1
281
     1
  3
ACAD_XREC_ROUNDTRIP
360
17B
  0
DICTIONARY
  5
192
330
D6
100
AcDbDictionary
280
     1
281
     1
  3
ACAD_XREC_ROUNDTRIP
360
193
  0
XRECORD
  5
1A3
102
{ACAD_REACTORS
330
1A2
102
}
330
1A2
100
AcDbXrecord
280
     1
102
DISPLAYNAME
  1
Imperial24
102
FLAGS
 90
        0
  0
XRECORD
  5
B6
102
{ACAD_REACTORS
330
B4
102
}
330
B4
100
AcDbXrecord
280
     1
270
     1
271
     1
  0
XRECORD
  5
B5
102
{ACAD_REACTORS
330
B4
102
}
330
B4
100
AcDbXrecord
280
     1
270
     1
271
     1
  0
XRECORD
  5
B9
102
{ACAD_REACTORS
330
B4
102
}
330
B4
100
AcDbXrecord
280
     1
270
     1
271
     1
  0
XRECORD
  5
B8
102
{ACAD_REACTORS
330
B4
102
}
330
B4
100
AcDbXrecord
280
     1
270
     1
271
     1
  0
XRECORD
  5
BA
102
{ACAD_REACTORS
330
B4
102
}
330
B4
100
AcDbXrecord
280
     1
270
     1
271
     1
  0
XRECORD
  5
B7
102
{ACAD_REACTORS
330
B4
102
}
330
B4
100
AcDbXrecord
280
     1
270
     1
271
     1
  0
XRECORD
  5
AE
102
{ACAD_REACTORS
330
AC
102
}
330
AC
100
AcDbXrecord
280
     1
270
     1
271
     1
  0
XRECORD
  5
AD
102
{ACAD_REACTORS
330
AC
102
}
330
AC
100
AcDbXrecord
280
     1
270
     1
271
     1
  0
XRECORD
  5
B1
102
{ACAD_REACTORS
330
AC
102
}
330
AC
100
AcDbXrecord
280
     1
270
     1
271
     1
  0
XRECORD
  5
B0
102
{ACAD_REACTORS
330
AC
102
}
330
AC
100
AcDbXrecord
280
     1
270
     1
271
     1
  0
XRECORD
  5
B2
102
{ACAD_REACTORS
330
AC
102
}
330
AC
100
AcDbXrecord
280
     1
270
     1
271
     1
  0
XRECORD
  5
AF
102
{ACAD_REACTORS
330
AC
102
}
330
AC
100
AcDbXrecord
280
     1
270
     1
271
     1
  0
XRECORD
  5
BE
102
{ACAD_REACTORS
330
BC
102
}
330
BC
100
AcDbXrecord
280
     1
270
     1
271
     1
  0
XRECORD
  5
BD
102
{ACAD_REACTORS
330
BC
102
}
330
BC
100
AcDbXrecord
280
     1
270
     1
271
     1
  0
XRECORD
  5
C1
102
{ACAD_REACTORS
330
BC
102
}
330
BC
100
AcDbXrecord
280
     1
270
     1
271
     1
  0
XRECORD
  5
C0
102
{ACAD_REACTORS
330
BC
102
}
330
BC
100
AcDbXrecord
280
     1
270
     1
271
     1
  0
XRECORD
  5
C2
102
{ACAD_REACTORS
330
BC
102
}
330
BC
100
AcDbXrecord
280
     1
270
     1
271
     1
  0
XRECORD
  5
BF
102
{ACAD_REACTORS
330
BC
102
}
330
BC
100
AcDbXrecord
280
     1
270
     1
271
     1
  0
XRECORD
  5
19F
102
{ACAD_REACTORS
330
19E
102
}
330
19E
100
AcDbXrecord
280
     1
102
ACAD_ROUNDTRIP_2012_MLEADER_STYLE
298
     1
  0
XRECORD
  5
1A1
102
{ACAD_REACTORS
330
1A0
102
}
330
1A0
100
AcDbXrecord
280
     1
102
DISPLAYNAME
  1
Imperial24
102
FLAGS
 90
        0
  0
CELLSTYLEMAP
  5
16C
102
{ACAD_REACTORS
330
16B
102
}
330
16B
100
AcDbCellStyleMap
 90
        3
300
CELLSTYLE
  1
TABLEFORMAT_BEGIN
 90
        5
170
     1
 91
        0
 92
    32768
 62
   257
 93
        1
300
CONTENTFORMAT
  1
CONTENTFORMAT_BEGIN
 90
        0
 91
        0
 92
      512
 93
        0
300

 40
0.0
140
1.0
 94
        5
 62
     0
340
11
144
0.25
309
CONTENTFORMAT_END
171
     0
 94
        0
309
TABLEFORMAT_END
  1
CELLSTYLE_BEGIN
 90
        1
 91
        1
300
_TITLE
309
CELLSTYLE_END
300
CELLSTYLE
  1
TABLEFORMAT_BEGIN
 90
        5
170
     1
 91
        0
 92
        0
 62
   257
 93
        1
300
CONTENTFORMAT
  1
CONTENTFORMAT_BEGIN
 90
        0
 91
        0
 92
      512
 93
        0
300

 40
0.0
140
1.0
 94
        5
 62
     0
340
11
144
0.18
309
CONTENTFORMAT_END
171
     0
 94
        0
309
TABLEFORMAT_END
  1
CELLSTYLE_BEGIN
 90
        2
 91
        1
300
_HEADER
309
CELLSTYLE_END
300
CELLSTYLE
  1
TABLEFORMAT_BEGIN
 90
        5
170
     1
 91
        0
 92
        0
 62
   257
 93
        1
300
CONTENTFORMAT
  1
CONTENTFORMAT_BEGIN
 90
        0
 91
        0
 92
      512
 93
        0
300

 40
0.0
140
1.0
 94
        2
 62
     0
340
11
144
0.18
309
CONTENTFORMAT_END
171
     0
 94
        0
309
TABLEFORMAT_END
  1
CELLSTYLE_BEGIN
 90
        3
 91
        2
300
_DATA
309
CELLSTYLE_END
  0
XRECORD
  5
179
102
{ACAD_REACTORS
330
178
102
}
330
178
100
AcDbXrecord
280
     1
102
RTVSPost2010Prop28
280
     1
102
RTVSPost2010PropOp28
 70
     1
102
RTVSPost2010Prop29
280
     1
102
RTVSPost2010PropOp29
 70
     1
102
RTVSPost2010Prop30
280
     0
102
RTVSPost2010PropOp30
 70
     1
102
RTVSPost2010Prop31
280
     0
102
RTVSPost2010PropOp31
 70
     1
102
RTVSPost2010Prop32
280
     0
102
RTVSPost2010PropOp32
 70
     1
102
RTVSPost2010Prop33
280
     0
102
RTVSPost2010PropOp33
 70
     1
102
RTVSPost2010Prop34
280
     0
102
RTVSPost2010PropOp34
 70
     1
102
RTVSPost2010Prop35
280
     0
102
RTVSPost2010PropOp35
 70
     1
102
RTVSPost2010Prop36
280
     0
102
RTVSPost2010PropOp36
 70
     1
102
RTVSPost2010Prop37
 90
       50
102
RTVSPost2010PropOp37
 70
     1
102
RTVSPost2010Prop38
140
0.0
102
RTVSPost2010PropOp38
 70
     1
102
RTVSPost2010Prop39
140
1.0
102
RTVSPost2010PropOp39
 70
     1
102
RTVSPost2010Prop40
 90
        0
102
RTVSPost2010PropOp40
 70
     1
102
RTVSPost2010Prop41ColorIndex
 90
       18
102
RTVSPost2010Prop41ColorRGB
 90
        0
102
RTVSPost2010PropOp41
 70
     1
102
RTVSPost2010Prop42
 90
       50
102
RTVSPost2010PropOp42
 70
     1
102
RTVSPost2010Prop43
 90
        3
102
RTVSPost2010PropOp43
 70
     1
102
RTVSPost2010Prop44ColorIndex
 90
        5
102
RTVSPost2010Prop44ColorRGB
 90
      255
102
RTVSPost2010PropOp44
 70
     1
102
RTVSPost2010Prop45
280
     0
102
RTVSPost2010PropOp45
 70
     1
102
RTVSPost2010Prop46
 90
       50
102
RTVSPost2010PropOp46
 70
     1
102
RTVSPost2010Prop47
 90
       50
102
RTVSPost2010PropOp47
 70
     1
102
RTVSPost2010Prop48
 90
       50
102
RTVSPost2010PropOp48
 70
     1
102
RTVSPost2010Prop49
280
     0
102
RTVSPost2010PropOp49
 70
     1
102
RTVSPost2010Prop50
 90
       50
102
RTVSPost2010PropOp50
 70
     1
102
RTVSPost2010Prop51ColorIndex
 90
      256
102
RTVSPost2010Prop51ColorRGB
 90
-16777216
102
RTVSPost2010PropOp51
 70
     0
102
RTVSPost2010Prop52
140
1.0
102
RTVSPost2010PropOp52
 70
     0
102
RTVSPost2010Prop53
 90
        2
102
RTVSPost2010PropOp53
 70
     1
102
RTVSPost2010Prop54
  1
strokes_ogs.tif
102
RTVSPost2010PropOp54
 70
     1
102
RTVSPost2010Prop55
280
     0
102
RTVSPost2010PropOp55
 70
     1
102
RTVSPost2010Prop56
140
1.0
102
RTVSPost2010PropOp56
 70
     1
102
RTVSPost2010Prop57
140
1.0
102
RTVSPost2010PropOp57
 70
     1
  0
XRECORD
  5
177
102
{ACAD_REACTORS
330
176
102
}
330
176
100
AcDbXrecord
280
     1
102
RTVSPost2010Prop28
280
     0
102
RTVSPost2010PropOp28
 70
     1
102
RTVSPost2010Prop29
280
     1
102
RTVSPost2010PropOp29
 70
     1
102
RTVSPost2010Prop30
280
     1
102
RTVSPost2010PropOp30
 70
     1
102
RTVSPost2010Prop31
280
     0
102
RTVSPost2010PropOp31
 70
     1
102
RTVSPost2010Prop32
280
     0
102
RTVSPost2010PropOp32
 70
     1
102
RTVSPost2010Prop33
280
     0
102
RTVSPost2010PropOp33
 70
     1
102
RTVSPost2010Prop34
280
     0
102
RTVSPost2010PropOp34
 70
     1
102
RTVSPost2010Prop35
280
     0
102
RTVSPost2010PropOp35
 70
     1
102
RTVSPost2010Prop36
280
     0
102
RTVSPost2010PropOp36
 70
     1
102
RTVSPost2010Prop37
 90
       50
102
RTVSPost2010PropOp37
 70
     1
102
RTVSPost2010Prop38
140
0.0
102
RTVSPost2010PropOp38
 70
     1
102
RTVSPost2010Prop39
140
1.0
102
RTVSPost2010PropOp39
 70
     1
102
RTVSPost2010Prop40
 90
        0
102
RTVSPost2010PropOp40
 70
     1
102
RTVSPost2010Prop41ColorIndex
 90
       18
102
RTVSPost2010Prop41ColorRGB
 90
        0
102
RTVSPost2010PropOp41
 70
     1
102
RTVSPost2010Prop42
 90
       50
102
RTVSPost2010PropOp42
 70
     1
102
RTVSPost2010Prop43
 90
        3
102
RTVSPost2010PropOp43
 70
     1
102
RTVSPost2010Prop44ColorIndex
 90
        5
102
RTVSPost2010Prop44ColorRGB
 90
      255
102
RTVSPost2010PropOp44
 70
     1
102
RTVSPost2010Prop45
280
     0
102
RTVSPost2010PropOp45
 70
     1
102
RTVSPost2010Prop46
 90
       50
102
RTVSPost2010PropOp46
 70
     1
102
RTVSPost2010Prop47
 90
       50
102
RTVSPost2010PropOp47
 70
     1
102
RTVSPost2010Prop48
 90
       50
102
RTVSPost2010PropOp48
 70
     1
102
RTVSPost2010Prop49
280
     0
102
RTVSPost2010PropOp49
 70
     1
102
RTVSPost2010Prop50
 90
       50
102
RTVSPost2010PropOp50
 70
     1
102
RTVSPost2010Prop51ColorIndex
 90
      256
102
RTVSPost2010Prop51ColorRGB
 90
-16777216
102
RTVSPost2010PropOp51
 70
     0
102
RTVSPost2010Prop52
140
1.0
102
RTVSPost2010PropOp52
 70
     0
102
RTVSPost2010Prop53
 90
        2
102
RTVSPost2010PropOp53
 70
     1
102
RTVSPost2010Prop54
  1
strokes_ogs.tif
102
RTVSPost2010PropOp54
 70
     1
102
RTVSPost2010Prop55
280
     0
102
RTVSPost2010PropOp55
 70
     1
102
RTVSPost2010Prop56
140
1.0
102
RTVSPost2010PropOp56
 70
     1
102
RTVSPost2010Prop57
140
1.0
102
RTVSPost2010PropOp57
 70
     1
  0
XRECORD
  5
185
102
{ACAD_REACTORS
330
184
102
}
330
184
100
AcDbXrecord
280
     1
102
RTVSPost2010Prop28
280
     0
102
RTVSPost2010PropOp28
 70
     1
102
RTVSPost2010Prop29
280
     1
102
RTVSPost2010PropOp29
 70
     1
102
RTVSPost2010Prop30
280
     1
102
RTVSPost2010PropOp30
 70
     1
102
RTVSPost2010Prop31
280
     0
102
RTVSPost2010PropOp31
 70
     1
102
RTVSPost2010Prop32
280
     0
102
RTVSPost2010PropOp32
 70
     1
102
RTVSPost2010Prop33
280
     0
102
RTVSPost2010PropOp33
 70
     1
102
RTVSPost2010Prop34
280
     0
102
RTVSPost2010PropOp34
 70
     1
102
RTVSPost2010Prop35
280
     0
102
RTVSPost2010PropOp35
 70
     1
102
RTVSPost2010Prop36
280
     0
102
RTVSPost2010PropOp36
 70
     1
102
RTVSPost2010Prop37
 90
       50
102
RTVSPost2010PropOp37
 70
     1
102
RTVSPost2010Prop38
140
0.0
102
RTVSPost2010PropOp38
 70
     1
102
RTVSPost2010Prop39
140
1.0
102
RTVSPost2010PropOp39
 70
     1
102
RTVSPost2010Prop40
 90
        0
102
RTVSPost2010PropOp40
 70
     1
102
RTVSPost2010Prop41ColorIndex
 90
       18
102
RTVSPost2010Prop41ColorRGB
 90
        0
102
RTVSPost2010PropOp41
 70
     1
102
RTVSPost2010Prop42
 90
       50
102
RTVSPost2010PropOp42
 70
     1
102
RTVSPost2010Prop43
 90
        3
102
RTVSPost2010PropOp43
 70
     1
102
RTVSPost2010Prop44ColorIndex
 90
        5
102
RTVSPost2010Prop44ColorRGB
 90
      255
102
RTVSPost2010PropOp44
 70
     1
102
RTVSPost2010Prop45
280
     0
102
RTVSPost2010PropOp45
 70
     1
102
RTVSPost2010Prop46
 90
       50
102
RTVSPost2010PropOp46
 70
     1
102
RTVSPost2010Prop47
 90
       50
102
RTVSPost2010PropOp47
 70
     1
102
RTVSPost2010Prop48
 90
       50
102
RTVSPost2010PropOp48
 70
     1
102
RTVSPost2010Prop49
280
     0
102
RTVSPost2010PropOp49
 70
     1
102
RTVSPost2010Prop50
 90
       50
102
RTVSPost2010PropOp50
 70
     1
102
RTVSPost2010Prop51ColorIndex
 90
      256
102
RTVSPost2010Prop51ColorRGB
 90
-16777216
102
RTVSPost2010PropOp51
 70
     0
102
RTVSPost2010Prop52
140
1.0
102
RTVSPost2010PropOp52
 70
     0
102
RTVSPost2010Prop53
 90
        2
102
RTVSPost2010PropOp53
 70
     1
102
RTVSPost2010Prop54
  1
strokes_ogs.tif
102
RTVSPost2010PropOp54
 70
     1
102
RTVSPost2010Prop55
280
     0
102
RTVSPost2010PropOp55
 70
     1
102
RTVSPost2010Prop56
140
1.0
102
RTVSPost2010PropOp56
 70
     1
102
RTVSPost2010Prop57
140
1.0
102
RTVSPost2010PropOp57
 70
     1
  0
XRECORD
  5
18D
102
{ACAD_REACTORS
330
18C
102
}
330
18C
100
AcDbXrecord
280
     1
102
RTVSPost2010Prop28
280
     0
102
RTVSPost2010PropOp28
 70
     1
102
RTVSPost2010Prop29
280
     1
102
RTVSPost2010PropOp29
 70
     1
102
RTVSPost2010Prop30
280
     1
102
RTVSPost2010PropOp30
 70
     1
102
RTVSPost2010Prop31
280
     0
102
RTVSPost2010PropOp31
 70
     1
102
RTVSPost2010Prop32
280
     0
102
RTVSPost2010PropOp32
 70
     1
102
RTVSPost2010Prop33
280
     0
102
RTVSPost2010PropOp33
 70
     1
102
RTVSPost2010Prop34
280
     0
102
RTVSPost2010PropOp34
 70
     1
102
RTVSPost2010Prop35
280
     0
102
RTVSPost2010PropOp35
 70
     1
102
RTVSPost2010Prop36
280
     0
102
RTVSPost2010PropOp36
 70
     1
102
RTVSPost2010Prop37
 90
       50
102
RTVSPost2010PropOp37
 70
     1
102
RTVSPost2010Prop38
140
0.0
102
RTVSPost2010PropOp38
 70
     1
102
RTVSPost2010Prop39
140
1.0
102
RTVSPost2010PropOp39
 70
     1
102
RTVSPost2010Prop40
 90
        0
102
RTVSPost2010PropOp40
 70
     1
102
RTVSPost2010Prop41ColorIndex
 90
       18
102
RTVSPost2010Prop41ColorRGB
 90
        0
102
RTVSPost2010PropOp41
 70
     1
102
RTVSPost2010Prop42
 90
       50
102
RTVSPost2010PropOp42
 70
     1
102
RTVSPost2010Prop43
 90
        3
102
RTVSPost2010PropOp43
 70
     1
102
RTVSPost2010Prop44ColorIndex
 90
        5
102
RTVSPost2010Prop44ColorRGB
 90
      255
102
RTVSPost2010PropOp44
 70
     1
102
RTVSPost2010Prop45
280
     0
102
RTVSPost2010PropOp45
 70
     1
102
RTVSPost2010Prop46
 90
       50
102
RTVSPost2010PropOp46
 70
     1
102
RTVSPost2010Prop47
 90
       50
102
RTVSPost2010PropOp47
 70
     1
102
RTVSPost2010Prop48
 90
       50
102
RTVSPost2010PropOp48
 70
     1
102
RTVSPost2010Prop49
280
     0
102
RTVSPost2010PropOp49
 70
     1
102
RTVSPost2010Prop50
 90
       50
102
RTVSPost2010PropOp50
 70
     1
102
RTVSPost2010Prop51ColorIndex
 90
      256
102
RTVSPost2010Prop51ColorRGB
 90
-16777216
102
RTVSPost2010PropOp51
 70
     0
102
RTVSPost2010Prop52
140
1.0
102
RTVSPost2010PropOp52
 70
     0
102
RTVSPost2010Prop53
 90
        2
102
RTVSPost2010PropOp53
 70
     1
102
RTVSPost2010Prop54
  1
strokes_ogs.tif
102
RTVSPost2010PropOp54
 70
     1
102
RTVSPost2010Prop55
280
     0
102
RTVSPost2010PropOp55
 70
     1
102
RTVSPost2010Prop56
140
1.0
102
RTVSPost2010PropOp56
 70
     1
102
RTVSPost2010Prop57
140
1.0
102
RTVSPost2010PropOp57
 70
     1
  0
XRECORD
  5
17F
102
{ACAD_REACTORS
330
17E
102
}
330
17E
100
AcDbXrecord
280
     1
102
RTVSPost2010Prop28
280
     0
102
RTVSPost2010PropOp28
 70
     1
102
RTVSPost2010Prop29
280
     1
102
RTVSPost2010PropOp29
 70
     1
102
RTVSPost2010Prop30
280
     1
102
RTVSPost2010PropOp30
 70
     1
102
RTVSPost2010Prop31
280
     0
102
RTVSPost2010PropOp31
 70
     1
102
RTVSPost2010Prop32
280
     0
102
RTVSPost2010PropOp32
 70
     1
102
RTVSPost2010Prop33
280
     0
102
RTVSPost2010PropOp33
 70
     1
102
RTVSPost2010Prop34
280
     0
102
RTVSPost2010PropOp34
 70
     1
102
RTVSPost2010Prop35
280
     0
102
RTVSPost2010PropOp35
 70
     1
102
RTVSPost2010Prop36
280
     0
102
RTVSPost2010PropOp36
 70
     1
102
RTVSPost2010Prop37
 90
       50
102
RTVSPost2010PropOp37
 70
     1
102
RTVSPost2010Prop38
140
0.0
102
RTVSPost2010PropOp38
 70
     1
102
RTVSPost2010Prop39
140
1.0
102
RTVSPost2010PropOp39
 70
     1
102
RTVSPost2010Prop40
 90
        0
102
RTVSPost2010PropOp40
 70
     1
102
RTVSPost2010Prop41ColorIndex
 90
       18
102
RTVSPost2010Prop41ColorRGB
 90
        0
102
RTVSPost2010PropOp41
 70
     1
102
RTVSPost2010Prop42
 90
       50
102
RTVSPost2010PropOp42
 70
     1
102
RTVSPost2010Prop43
 90
        3
102
RTVSPost2010PropOp43
 70
     1
102
RTVSPost2010Prop44ColorIndex
 90
        5
102
RTVSPost2010Prop44ColorRGB
 90
      255
102
RTVSPost2010PropOp44
 70
     1
102
RTVSPost2010Prop45
280
     0
102
RTVSPost2010PropOp45
 70
     1
102
RTVSPost2010Prop46
 90
       50
102
RTVSPost2010PropOp46
 70
     1
102
RTVSPost2010Prop47
 90
       50
102
RTVSPost2010PropOp47
 70
     1
102
RTVSPost2010Prop48
 90
       50
102
RTVSPost2010PropOp48
 70
     1
102
RTVSPost2010Prop49
280
     0
102
RTVSPost2010PropOp49
 70
     1
102
RTVSPost2010Prop50
 90
       50
102
RTVSPost2010PropOp50
 70
     1
102
RTVSPost2010Prop51ColorIndex
 90
      256
102
RTVSPost2010Prop51ColorRGB
 90
-16777216
102
RTVSPost2010PropOp51
 70
     0
102
RTVSPost2010Prop52
140
1.0
102
RTVSPost2010PropOp52
 70
     0
102
RTVSPost2010Prop53
 90
        2
102
RTVSPost2010PropOp53
 70
     1
102
RTVSPost2010Prop54
  1
strokes_ogs.tif
102
RTVSPost2010PropOp54
 70
     1
102
RTVSPost2010Prop55
280
     0
102
RTVSPost2010PropOp55
 70
     1
102
RTVSPost2010Prop56
140
1.0
102
RTVSPost2010PropOp56
 70
     1
102
RTVSPost2010Prop57
140
1.0
102
RTVSPost2010PropOp57
 70
     1
  0
XRECORD
  5
183
102
{ACAD_REACTORS
330
182
102
}
330
182
100
AcDbXrecord
280
     1
102
RTVSPost2010Prop28
280
     0
102
RTVSPost2010PropOp28
 70
     1
102
RTVSPost2010Prop29
280
     1
102
RTVSPost2010PropOp29
 70
     1
102
RTVSPost2010Prop30
280
     1
102
RTVSPost2010PropOp30
 70
     1
102
RTVSPost2010Prop31
280
     0
102
RTVSPost2010PropOp31
 70
     1
102
RTVSPost2010Prop32
280
     0
102
RTVSPost2010PropOp32
 70
     1
102
RTVSPost2010Prop33
280
     0
102
RTVSPost2010PropOp33
 70
     1
102
RTVSPost2010Prop34
280
     0
102
RTVSPost2010PropOp34
 70
     1
102
RTVSPost2010Prop35
280
     0
102
RTVSPost2010PropOp35
 70
     1
102
RTVSPost2010Prop36
280
     0
102
RTVSPost2010PropOp36
 70
     1
102
RTVSPost2010Prop37
 90
       50
102
RTVSPost2010PropOp37
 70
     1
102
RTVSPost2010Prop38
140
0.0
102
RTVSPost2010PropOp38
 70
     1
102
RTVSPost2010Prop39
140
1.0
102
RTVSPost2010PropOp39
 70
     1
102
RTVSPost2010Prop40
 90
        0
102
RTVSPost2010PropOp40
 70
     1
102
RTVSPost2010Prop41ColorIndex
 90
       18
102
RTVSPost2010Prop41ColorRGB
 90
        0
102
RTVSPost2010PropOp41
 70
     1
102
RTVSPost2010Prop42
 90
       50
102
RTVSPost2010PropOp42
 70
     1
102
RTVSPost2010Prop43
 90
        3
102
RTVSPost2010PropOp43
 70
     1
102
RTVSPost2010Prop44ColorIndex
 90
        5
102
RTVSPost2010Prop44ColorRGB
 90
      255
102
RTVSPost2010PropOp44
 70
     1
102
RTVSPost2010Prop45
280
     0
102
RTVSPost2010PropOp45
 70
     1
102
RTVSPost2010Prop46
 90
       50
102
RTVSPost2010PropOp46
 70
     1
102
RTVSPost2010Prop47
 90
       50
102
RTVSPost2010PropOp47
 70
     1
102
RTVSPost2010Prop48
 90
       50
102
RTVSPost2010PropOp48
 70
     1
102
RTVSPost2010Prop49
280
     0
102
RTVSPost2010PropOp49
 70
     1
102
RTVSPost2010Prop50
 90
       50
102
RTVSPost2010PropOp50
 70
     1
102
RTVSPost2010Prop51ColorIndex
 90
      256
102
RTVSPost2010Prop51ColorRGB
 90
-16777216
102
RTVSPost2010PropOp51
 70
     0
102
RTVSPost2010Prop52
140
1.0
102
RTVSPost2010PropOp52
 70
     0
102
RTVSPost2010Prop53
 90
        2
102
RTVSPost2010PropOp53
 70
     1
102
RTVSPost2010Prop54
  1
strokes_ogs.tif
102
RTVSPost2010PropOp54
 70
     1
102
RTVSPost2010Prop55
280
     0
102
RTVSPost2010PropOp55
 70
     1
102
RTVSPost2010Prop56
140
1.0
102
RTVSPost2010PropOp56
 70
     1
102
RTVSPost2010Prop57
140
1.0
102
RTVSPost2010PropOp57
 70
     1
  0
XRECORD
  5
19D
102
{ACAD_REACTORS
330
19C
102
}
330
19C
100
AcDbXrecord
280
     1
102
RTVSPost2010Prop28
280
     0
102
RTVSPost2010PropOp28
 70
     0
102
RTVSPost2010Prop29
280
     1
102
RTVSPost2010PropOp29
 70
     0
102
RTVSPost2010Prop30
280
     1
102
RTVSPost2010PropOp30
 70
     0
102
RTVSPost2010Prop31
280
     0
102
RTVSPost2010PropOp31
 70
     0
102
RTVSPost2010Prop32
280
     0
102
RTVSPost2010PropOp32
 70
     0
102
RTVSPost2010Prop33
280
     0
102
RTVSPost2010PropOp33
 70
     0
102
RTVSPost2010Prop34
280
     0
102
RTVSPost2010PropOp34
 70
     0
102
RTVSPost2010Prop35
280
     0
102
RTVSPost2010PropOp35
 70
     0
102
RTVSPost2010Prop36
280
     0
102
RTVSPost2010PropOp36
 70
     0
102
RTVSPost2010Prop37
 90
       50
102
RTVSPost2010PropOp37
 70
     0
102
RTVSPost2010Prop38
140
0.0
102
RTVSPost2010PropOp38
 70
     0
102
RTVSPost2010Prop39
140
1.0
102
RTVSPost2010PropOp39
 70
     0
102
RTVSPost2010Prop40
 90
        0
102
RTVSPost2010PropOp40
 70
     0
102
RTVSPost2010Prop41ColorIndex
 90
       18
102
RTVSPost2010Prop41ColorRGB
 90
        0
102
RTVSPost2010PropOp41
 70
     0
102
RTVSPost2010Prop42
 90
       50
102
RTVSPost2010PropOp42
 70
     0
102
RTVSPost2010Prop43
 90
        3
102
RTVSPost2010PropOp43
 70
     0
102
RTVSPost2010Prop44ColorIndex
 90
        5
102
RTVSPost2010Prop44ColorRGB
 90
      255
102
RTVSPost2010PropOp44
 70
     0
102
RTVSPost2010Prop45
280
     0
102
RTVSPost2010PropOp45
 70
     0
102
RTVSPost2010Prop46
 90
       50
102
RTVSPost2010PropOp46
 70
     0
102
RTVSPost2010Prop47
 90
       50
102
RTVSPost2010PropOp47
 70
     0
102
RTVSPost2010Prop48
 90
       50
102
RTVSPost2010PropOp48
 70
     0
102
RTVSPost2010Prop49
280
     0
102
RTVSPost2010PropOp49
 70
     0
102
RTVSPost2010Prop50
 90
       50
102
RTVSPost2010PropOp50
 70
     0
102
RTVSPost2010Prop51ColorIndex
 90
      256
102
RTVSPost2010Prop51ColorRGB
 90
-16777216
102
RTVSPost2010PropOp51
 70
     0
102
RTVSPost2010Prop52
140
1.0
102
RTVSPost2010PropOp52
 70
     0
102
RTVSPost2010Prop53
 90
        2
102
RTVSPost2010PropOp53
 70
     0
102
RTVSPost2010Prop54
  1
strokes_ogs.tif
102
RTVSPost2010PropOp54
 70
     0
102
RTVSPost2010Prop55
280
     0
102
RTVSPost2010PropOp55
 70
     0
102
RTVSPost2010Prop56
140
1.0
102
RTVSPost2010PropOp56
 70
     0
102
RTVSPost2010Prop57
140
1.0
102
RTVSPost2010PropOp57
 70
     0
  0
XRECORD
  5
18B
102
{ACAD_REACTORS
330
18A
102
}
330
18A
100
AcDbXrecord
280
     1
102
RTVSPost2010Prop28
280
     0
102
RTVSPost2010PropOp28
 70
     1
102
RTVSPost2010Prop29
280
     1
102
RTVSPost2010PropOp29
 70
     1
102
RTVSPost2010Prop30
280
     1
102
RTVSPost2010PropOp30
 70
     1
102
RTVSPost2010Prop31
280
     0
102
RTVSPost2010PropOp31
 70
     1
102
RTVSPost2010Prop32
280
     0
102
RTVSPost2010PropOp32
 70
     1
102
RTVSPost2010Prop33
280
     0
102
RTVSPost2010PropOp33
 70
     1
102
RTVSPost2010Prop34
280
     0
102
RTVSPost2010PropOp34
 70
     1
102
RTVSPost2010Prop35
280
     0
102
RTVSPost2010PropOp35
 70
     1
102
RTVSPost2010Prop36
280
     0
102
RTVSPost2010PropOp36
 70
     1
102
RTVSPost2010Prop37
 90
       50
102
RTVSPost2010PropOp37
 70
     1
102
RTVSPost2010Prop38
140
0.0
102
RTVSPost2010PropOp38
 70
     1
102
RTVSPost2010Prop39
140
1.0
102
RTVSPost2010PropOp39
 70
     1
102
RTVSPost2010Prop40
 90
        0
102
RTVSPost2010PropOp40
 70
     1
102
RTVSPost2010Prop41ColorIndex
 90
       18
102
RTVSPost2010Prop41ColorRGB
 90
        0
102
RTVSPost2010PropOp41
 70
     1
102
RTVSPost2010Prop42
 90
       50
102
RTVSPost2010PropOp42
 70
     1
102
RTVSPost2010Prop43
 90
        3
102
RTVSPost2010PropOp43
 70
     1
102
RTVSPost2010Prop44ColorIndex
 90
        5
102
RTVSPost2010Prop44ColorRGB
 90
      255
102
RTVSPost2010PropOp44
 70
     1
102
RTVSPost2010Prop45
280
     0
102
RTVSPost2010PropOp45
 70
     1
102
RTVSPost2010Prop46
 90
       50
102
RTVSPost2010PropOp46
 70
     1
102
RTVSPost2010Prop47
 90
       50
102
RTVSPost2010PropOp47
 70
     1
102
RTVSPost2010Prop48
 90
       50
102
RTVSPost2010PropOp48
 70
     1
102
RTVSPost2010Prop49
280
     0
102
RTVSPost2010PropOp49
 70
     1
102
RTVSPost2010Prop50
 90
       50
102
RTVSPost2010PropOp50
 70
     1
102
RTVSPost2010Prop51ColorIndex
 90
      256
102
RTVSPost2010Prop51ColorRGB
 90
-16777216
102
RTVSPost2010PropOp51
 70
     0
102
RTVSPost2010Prop52
140
1.0
102
RTVSPost2010PropOp52
 70
     0
102
RTVSPost2010Prop53
 90
        2
102
RTVSPost2010PropOp53
 70
     1
102
RTVSPost2010Prop54
  1
strokes_ogs.tif
102
RTVSPost2010PropOp54
 70
     1
102
RTVSPost2010Prop55
280
     0
102
RTVSPost2010PropOp55
 70
     1
102
RTVSPost2010Prop56
140
1.0
102
RTVSPost2010PropOp56
 70
     1
102
RTVSPost2010Prop57
140
1.0
102
RTVSPost2010PropOp57
 70
     1
  0
XRECORD
  5
16F
102
{ACAD_REACTORS
330
16E
102
}
330
16E
100
AcDbXrecord
280
     1
102
RTVSPost2010Prop28
280
     0
102
RTVSPost2010PropOp28
 70
     1
102
RTVSPost2010Prop29
280
     1
102
RTVSPost2010PropOp29
 70
     1
102
RTVSPost2010Prop30
280
     1
102
RTVSPost2010PropOp30
 70
     1
102
RTVSPost2010Prop31
280
     0
102
RTVSPost2010PropOp31
 70
     1
102
RTVSPost2010Prop32
280
     0
102
RTVSPost2010PropOp32
 70
     1
102
RTVSPost2010Prop33
280
     0
102
RTVSPost2010PropOp33
 70
     1
102
RTVSPost2010Prop34
280
     0
102
RTVSPost2010PropOp34
 70
     1
102
RTVSPost2010Prop35
280
     0
102
RTVSPost2010PropOp35
 70
     1
102
RTVSPost2010Prop36
280
     0
102
RTVSPost2010PropOp36
 70
     1
102
RTVSPost2010Prop37
 90
       50
102
RTVSPost2010PropOp37
 70
     1
102
RTVSPost2010Prop38
140
0.0
102
RTVSPost2010PropOp38
 70
     1
102
RTVSPost2010Prop39
140
1.0
102
RTVSPost2010PropOp39
 70
     1
102
RTVSPost2010Prop40
 90
        0
102
RTVSPost2010PropOp40
 70
     1
102
RTVSPost2010Prop41ColorIndex
 90
       18
102
RTVSPost2010Prop41ColorRGB
 90
        0
102
RTVSPost2010PropOp41
 70
     1
102
RTVSPost2010Prop42
 90
       50
102
RTVSPost2010PropOp42
 70
     1
102
RTVSPost2010Prop43
 90
        3
102
RTVSPost2010PropOp43
 70
     1
102
RTVSPost2010Prop44ColorIndex
 90
        5
102
RTVSPost2010Prop44ColorRGB
 90
      255
102
RTVSPost2010PropOp44
 70
     1
102
RTVSPost2010Prop45
280
     0
102
RTVSPost2010PropOp45
 70
     1
102
RTVSPost2010Prop46
 90
       50
102
RTVSPost2010PropOp46
 70
     1
102
RTVSPost2010Prop47
 90
       50
102
RTVSPost2010PropOp47
 70
     1
102
RTVSPost2010Prop48
 90
       50
102
RTVSPost2010PropOp48
 70
     1
102
RTVSPost2010Prop49
280
     0
102
RTVSPost2010PropOp49
 70
     1
102
RTVSPost2010Prop50
 90
       50
102
RTVSPost2010PropOp50
 70
     1
102
RTVSPost2010Prop51ColorIndex
 90
      256
102
RTVSPost2010Prop51ColorRGB
 90
-16777216
102
RTVSPost2010PropOp51
 70
     0
102
RTVSPost2010Prop52
140
1.0
102
RTVSPost2010PropOp52
 70
     0
102
RTVSPost2010Prop53
 90
        2
102
RTVSPost2010PropOp53
 70
     1
102
RTVSPost2010Prop54
  1
strokes_ogs.tif
102
RTVSPost2010PropOp54
 70
     1
102
RTVSPost2010Prop55
280
     0
102
RTVSPost2010PropOp55
 70
     1
102
RTVSPost2010Prop56
140
1.0
102
RTVSPost2010PropOp56
 70
     1
102
RTVSPost2010Prop57
140
1.0
102
RTVSPost2010PropOp57
 70
     1
  0
XRECORD
  5
171
102
{ACAD_REACTORS
330
170
102
}
330
170
100
AcDbXrecord
280
     1
102
RTVSPost2010Prop28
280
     0
102
RTVSPost2010PropOp28
 70
     1
102
RTVSPost2010Prop29
280
     1
102
RTVSPost2010PropOp29
 70
     1
102
RTVSPost2010Prop30
280
     1
102
RTVSPost2010PropOp30
 70
     1
102
RTVSPost2010Prop31
280
     0
102
RTVSPost2010PropOp31
 70
     1
102
RTVSPost2010Prop32
280
     0
102
RTVSPost2010PropOp32
 70
     1
102
RTVSPost2010Prop33
280
     0
102
RTVSPost2010PropOp33
 70
     1
102
RTVSPost2010Prop34
280
     0
102
RTVSPost2010PropOp34
 70
     1
102
RTVSPost2010Prop35
280
     0
102
RTVSPost2010PropOp35
 70
     1
102
RTVSPost2010Prop36
280
     0
102
RTVSPost2010PropOp36
 70
     1
102
RTVSPost2010Prop37
 90
       50
102
RTVSPost2010PropOp37
 70
     1
102
RTVSPost2010Prop38
140
0.0
102
RTVSPost2010PropOp38
 70
     1
102
RTVSPost2010Prop39
140
1.0
102
RTVSPost2010PropOp39
 70
     1
102
RTVSPost2010Prop40
 90
        0
102
RTVSPost2010PropOp40
 70
     1
102
RTVSPost2010Prop41ColorIndex
 90
       18
102
RTVSPost2010Prop41ColorRGB
 90
        0
102
RTVSPost2010PropOp41
 70
     1
102
RTVSPost2010Prop42
 90
       50
102
RTVSPost2010PropOp42
 70
     1
102
RTVSPost2010Prop43
 90
        3
102
RTVSPost2010PropOp43
 70
     1
102
RTVSPost2010Prop44ColorIndex
 90
        5
102
RTVSPost2010Prop44ColorRGB
 90
      255
102
RTVSPost2010PropOp44
 70
     1
102
RTVSPost2010Prop45
280
     0
102
RTVSPost2010PropOp45
 70
     1
102
RTVSPost2010Prop46
 90
       50
102
RTVSPost2010PropOp46
 70
     1
102
RTVSPost2010Prop47
 90
       50
102
RTVSPost2010PropOp47
 70
     1
102
RTVSPost2010Prop48
 90
       50
102
RTVSPost2010PropOp48
 70
     1
102
RTVSPost2010Prop49
280
     0
102
RTVSPost2010PropOp49
 70
     1
102
RTVSPost2010Prop50
 90
       50
102
RTVSPost2010PropOp50
 70
     1
102
RTVSPost2010Prop51ColorIndex
 90
      256
102
RTVSPost2010Prop51ColorRGB
 90
-16777216
102
RTVSPost2010PropOp51
 70
     0
102
RTVSPost2010Prop52
140
1.0
102
RTVSPost2010PropOp52
 70
     0
102
RTVSPost2010Prop53
 90
        2
102
RTVSPost2010PropOp53
 70
     1
102
RTVSPost2010Prop54
  1
strokes_ogs.tif
102
RTVSPost2010PropOp54
 70
     1
102
RTVSPost2010Prop55
280
     0
102
RTVSPost2010PropOp55
 70
     1
102
RTVSPost2010Prop56
140
1.0
102
RTVSPost2010PropOp56
 70
     1
102
RTVSPost2010Prop57
140
1.0
102
RTVSPost2010PropOp57
 70
     1
  0
XRECORD
  5
173
102
{ACAD_REACTORS
330
172
102
}
330
172
100
AcDbXrecord
280
     1
102
RTVSPost2010Prop28
280
     0
102
RTVSPost2010PropOp28
 70
     1
102
RTVSPost2010Prop29
280
     1
102
RTVSPost2010PropOp29
 70
     1
102
RTVSPost2010Prop30
280
     1
102
RTVSPost2010PropOp30
 70
     1
102
RTVSPost2010Prop31
280
     0
102
RTVSPost2010PropOp31
 70
     1
102
RTVSPost2010Prop32
280
     0
102
RTVSPost2010PropOp32
 70
     1
102
RTVSPost2010Prop33
280
     0
102
RTVSPost2010PropOp33
 70
     1
102
RTVSPost2010Prop34
280
     0
102
RTVSPost2010PropOp34
 70
     1
102
RTVSPost2010Prop35
280
     0
102
RTVSPost2010PropOp35
 70
     1
102
RTVSPost2010Prop36
280
     0
102
RTVSPost2010PropOp36
 70
     1
102
RTVSPost2010Prop37
 90
       50
102
RTVSPost2010PropOp37
 70
     1
102
RTVSPost2010Prop38
140
0.0
102
RTVSPost2010PropOp38
 70
     1
102
RTVSPost2010Prop39
140
1.0
102
RTVSPost2010PropOp39
 70
     1
102
RTVSPost2010Prop40
 90
        0
102
RTVSPost2010PropOp40
 70
     1
102
RTVSPost2010Prop41ColorIndex
 90
       18
102
RTVSPost2010Prop41ColorRGB
 90
        0
102
RTVSPost2010PropOp41
 70
     1
102
RTVSPost2010Prop42
 90
       50
102
RTVSPost2010PropOp42
 70
     1
102
RTVSPost2010Prop43
 90
        3
102
RTVSPost2010PropOp43
 70
     1
102
RTVSPost2010Prop44ColorIndex
 90
        5
102
RTVSPost2010Prop44ColorRGB
 90
      255
102
RTVSPost2010PropOp44
 70
     1
102
RTVSPost2010Prop45
280
     0
102
RTVSPost2010PropOp45
 70
     1
102
RTVSPost2010Prop46
 90
       50
102
RTVSPost2010PropOp46
 70
     1
102
RTVSPost2010Prop47
 90
       50
102
RTVSPost2010PropOp47
 70
     1
102
RTVSPost2010Prop48
 90
       50
102
RTVSPost2010PropOp48
 70
     1
102
RTVSPost2010Prop49
280
     0
102
RTVSPost2010PropOp49
 70
     1
102
RTVSPost2010Prop50
 90
       50
102
RTVSPost2010PropOp50
 70
     1
102
RTVSPost2010Prop51ColorIndex
 90
      256
102
RTVSPost2010Prop51ColorRGB
 90
-16777216
102
RTVSPost2010PropOp51
 70
     0
102
RTVSPost2010Prop52
140
1.0
102
RTVSPost2010PropOp52
 70
     0
102
RTVSPost2010Prop53
 90
        2
102
RTVSPost2010PropOp53
 70
     1
102
RTVSPost2010Prop54
  1
strokes_ogs.tif
102
RTVSPost2010PropOp54
 70
     1
102
RTVSPost2010Prop55
280
     0
102
RTVSPost2010PropOp55
 70
     1
102
RTVSPost2010Prop56
140
1.0
102
RTVSPost2010PropOp56
 70
     1
102
RTVSPost2010Prop57
140
1.0
102
RTVSPost2010PropOp57
 70
     1
  0
XRECORD
  5
175
102
{ACAD_REACTORS
330
174
102
}
330
174
100
AcDbXrecord
280
     1
102
RTVSPost2010Prop28
280
     0
102
RTVSPost2010PropOp28
 70
     1
102
RTVSPost2010Prop29
280
     1
102
RTVSPost2010PropOp29
 70
     1
102
RTVSPost2010Prop30
280
     1
102
RTVSPost2010PropOp30
 70
     1
102
RTVSPost2010Prop31
280
     0
102
RTVSPost2010PropOp31
 70
     1
102
RTVSPost2010Prop32
280
     0
102
RTVSPost2010PropOp32
 70
     1
102
RTVSPost2010Prop33
280
     0
102
RTVSPost2010PropOp33
 70
     1
102
RTVSPost2010Prop34
280
     0
102
RTVSPost2010PropOp34
 70
     1
102
RTVSPost2010Prop35
280
     0
102
RTVSPost2010PropOp35
 70
     1
102
RTVSPost2010Prop36
280
     0
102
RTVSPost2010PropOp36
 70
     1
102
RTVSPost2010Prop37
 90
       50
102
RTVSPost2010PropOp37
 70
     1
102
RTVSPost2010Prop38
140
0.0
102
RTVSPost2010PropOp38
 70
     1
102
RTVSPost2010Prop39
140
1.0
102
RTVSPost2010PropOp39
 70
     1
102
RTVSPost2010Prop40
 90
        0
102
RTVSPost2010PropOp40
 70
     1
102
RTVSPost2010Prop41ColorIndex
 90
       18
102
RTVSPost2010Prop41ColorRGB
 90
        0
102
RTVSPost2010PropOp41
 70
     1
102
RTVSPost2010Prop42
 90
       50
102
RTVSPost2010PropOp42
 70
     1
102
RTVSPost2010Prop43
 90
        3
102
RTVSPost2010PropOp43
 70
     1
102
RTVSPost2010Prop44ColorIndex
 90
        5
102
RTVSPost2010Prop44ColorRGB
 90
      255
102
RTVSPost2010PropOp44
 70
     1
102
RTVSPost2010Prop45
280
     0
102
RTVSPost2010PropOp45
 70
     1
102
RTVSPost2010Prop46
 90
       50
102
RTVSPost2010PropOp46
 70
     1
102
RTVSPost2010Prop47
 90
       50
102
RTVSPost2010PropOp47
 70
     1
102
RTVSPost2010Prop48
 90
       50
102
RTVSPost2010PropOp48
 70
     1
102
RTVSPost2010Prop49
280
     0
102
RTVSPost2010PropOp49
 70
     1
102
RTVSPost2010Prop50
 90
       50
102
RTVSPost2010PropOp50
 70
     1
102
RTVSPost2010Prop51ColorIndex
 90
      256
102
RTVSPost2010Prop51ColorRGB
 90
-16777216
102
RTVSPost2010PropOp51
 70
     0
102
RTVSPost2010Prop52
140
1.0
102
RTVSPost2010PropOp52
 70
     0
102
RTVSPost2010Prop53
 90
        2
102
RTVSPost2010PropOp53
 70
     1
102
RTVSPost2010Prop54
  1
strokes_ogs.tif
102
RTVSPost2010PropOp54
 70
     1
102
RTVSPost2010Prop55
280
     0
102
RTVSPost2010PropOp55
 70
     1
102
RTVSPost2010Prop56
140
1.0
102
RTVSPost2010PropOp56
 70
     1
102
RTVSPost2010Prop57
140
1.0
102
RTVSPost2010PropOp57
 70
     1
  0
XRECORD
  5
17D
102
{ACAD_REACTORS
330
17C
102
}
330
17C
100
AcDbXrecord
280
     1
102
RTVSPost2010Prop28
280
     0
102
RTVSPost2010PropOp28
 70
     1
102
RTVSPost2010Prop29
280
     1
102
RTVSPost2010PropOp29
 70
     1
102
RTVSPost2010Prop30
280
     1
102
RTVSPost2010PropOp30
 70
     1
102
RTVSPost2010Prop31
280
     0
102
RTVSPost2010PropOp31
 70
     1
102
RTVSPost2010Prop32
280
     0
102
RTVSPost2010PropOp32
 70
     1
102
RTVSPost2010Prop33
280
     0
102
RTVSPost2010PropOp33
 70
     1
102
RTVSPost2010Prop34
280
     0
102
RTVSPost2010PropOp34
 70
     1
102
RTVSPost2010Prop35
280
     0
102
RTVSPost2010PropOp35
 70
     1
102
RTVSPost2010Prop36
280
     0
102
RTVSPost2010PropOp36
 70
     1
102
RTVSPost2010Prop37
 90
       50
102
RTVSPost2010PropOp37
 70
     1
102
RTVSPost2010Prop38
140
0.0
102
RTVSPost2010PropOp38
 70
     1
102
RTVSPost2010Prop39
140
1.0
102
RTVSPost2010PropOp39
 70
     1
102
RTVSPost2010Prop40
 90
        0
102
RTVSPost2010PropOp40
 70
     1
102
RTVSPost2010Prop41ColorIndex
 90
       18
102
RTVSPost2010Prop41ColorRGB
 90
        0
102
RTVSPost2010PropOp41
 70
     1
102
RTVSPost2010Prop42
 90
       50
102
RTVSPost2010PropOp42
 70
     1
102
RTVSPost2010Prop43
 90
        3
102
RTVSPost2010PropOp43
 70
     1
102
RTVSPost2010Prop44ColorIndex
 90
        5
102
RTVSPost2010Prop44ColorRGB
 90
      255
102
RTVSPost2010PropOp44
 70
     1
102
RTVSPost2010Prop45
280
     0
102
RTVSPost2010PropOp45
 70
     1
102
RTVSPost2010Prop46
 90
       50
102
RTVSPost2010PropOp46
 70
     1
102
RTVSPost2010Prop47
 90
       50
102
RTVSPost2010PropOp47
 70
     1
102
RTVSPost2010Prop48
 90
       50
102
RTVSPost2010PropOp48
 70
     1
102
RTVSPost2010Prop49
280
     0
102
RTVSPost2010PropOp49
 70
     1
102
RTVSPost2010Prop50
 90
       50
102
RTVSPost2010PropOp50
 70
     1
102
RTVSPost2010Prop51ColorIndex
 90
      256
102
RTVSPost2010Prop51ColorRGB
 90
-16777216
102
RTVSPost2010PropOp51
 70
     0
102
RTVSPost2010Prop52
140
1.0
102
RTVSPost2010PropOp52
 70
     0
102
RTVSPost2010Prop53
 90
        2
102
RTVSPost2010PropOp53
 70
     1
102
RTVSPost2010Prop54
  1
strokes_ogs.tif
102
RTVSPost2010PropOp54
 70
     1
102
RTVSPost2010Prop55
280
     0
102
RTVSPost2010PropOp55
 70
     1
102
RTVSPost2010Prop56
140
1.0
102
RTVSPost2010PropOp56
 70
     1
102
RTVSPost2010Prop57
140
1.0
102
RTVSPost2010PropOp57
 70
     1
  0
XRECORD
  5
199
102
{ACAD_REACTORS
330
198
102
}
330
198
100
AcDbXrecord
280
     1
102
RTVSPost2010Prop28
280
     0
102
RTVSPost2010PropOp28
 70
     0
102
RTVSPost2010Prop29
280
     1
102
RTVSPost2010PropOp29
 70
     0
102
RTVSPost2010Prop30
280
     1
102
RTVSPost2010PropOp30
 70
     0
102
RTVSPost2010Prop31
280
     0
102
RTVSPost2010PropOp31
 70
     0
102
RTVSPost2010Prop32
280
     0
102
RTVSPost2010PropOp32
 70
     0
102
RTVSPost2010Prop33
280
     0
102
RTVSPost2010PropOp33
 70
     0
102
RTVSPost2010Prop34
280
     0
102
RTVSPost2010PropOp34
 70
     0
102
RTVSPost2010Prop35
280
     0
102
RTVSPost2010PropOp35
 70
     0
102
RTVSPost2010Prop36
280
     0
102
RTVSPost2010PropOp36
 70
     0
102
RTVSPost2010Prop37
 90
       50
102
RTVSPost2010PropOp37
 70
     0
102
RTVSPost2010Prop38
140
0.0
102
RTVSPost2010PropOp38
 70
     0
102
RTVSPost2010Prop39
140
1.0
102
RTVSPost2010PropOp39
 70
     0
102
RTVSPost2010Prop40
 90
        0
102
RTVSPost2010PropOp40
 70
     0
102
RTVSPost2010Prop41ColorIndex
 90
       18
102
RTVSPost2010Prop41ColorRGB
 90
        0
102
RTVSPost2010PropOp41
 70
     0
102
RTVSPost2010Prop42
 90
       50
102
RTVSPost2010PropOp42
 70
     0
102
RTVSPost2010Prop43
 90
        3
102
RTVSPost2010PropOp43
 70
     0
102
RTVSPost2010Prop44ColorIndex
 90
        5
102
RTVSPost2010Prop44ColorRGB
 90
      255
102
RTVSPost2010PropOp44
 70
     0
102
RTVSPost2010Prop45
280
     0
102
RTVSPost2010PropOp45
 70
     0
102
RTVSPost2010Prop46
 90
       50
102
RTVSPost2010PropOp46
 70
     0
102
RTVSPost2010Prop47
 90
       50
102
RTVSPost2010PropOp47
 70
     0
102
RTVSPost2010Prop48
 90
       50
102
RTVSPost2010PropOp48
 70
     0
102
RTVSPost2010Prop49
280
     0
102
RTVSPost2010PropOp49
 70
     0
102
RTVSPost2010Prop50
 90
       50
102
RTVSPost2010PropOp50
 70
     0
102
RTVSPost2010Prop51ColorIndex
 90
      256
102
RTVSPost2010Prop51ColorRGB
 90
-16777216
102
RTVSPost2010PropOp51
 70
     0
102
RTVSPost2010Prop52
140
1.0
102
RTVSPost2010PropOp52
 70
     0
102
RTVSPost2010Prop53
 90
        2
102
RTVSPost2010PropOp53
 70
     0
102
RTVSPost2010Prop54
  1
strokes_ogs.tif
102
RTVSPost2010PropOp54
 70
     0
102
RTVSPost2010Prop55
280
     0
102
RTVSPost2010PropOp55
 70
     0
102
RTVSPost2010Prop56
140
1.0
102
RTVSPost2010PropOp56
 70
     0
102
RTVSPost2010Prop57
140
1.0
102
RTVSPost2010PropOp57
 70
     0
  0
XRECORD
  5
189
102
{ACAD_REACTORS
330
188
102
}
330
188
100
AcDbXrecord
280
     1
102
RTVSPost2010Prop28
280
     0
102
RTVSPost2010PropOp28
 70
     1
102
RTVSPost2010Prop29
280
     1
102
RTVSPost2010PropOp29
 70
     1
102
RTVSPost2010Prop30
280
     1
102
RTVSPost2010PropOp30
 70
     1
102
RTVSPost2010Prop31
280
     0
102
RTVSPost2010PropOp31
 70
     1
102
RTVSPost2010Prop32
280
     0
102
RTVSPost2010PropOp32
 70
     1
102
RTVSPost2010Prop33
280
     0
102
RTVSPost2010PropOp33
 70
     1
102
RTVSPost2010Prop34
280
     0
102
RTVSPost2010PropOp34
 70
     1
102
RTVSPost2010Prop35
280
     0
102
RTVSPost2010PropOp35
 70
     1
102
RTVSPost2010Prop36
280
     0
102
RTVSPost2010PropOp36
 70
     1
102
RTVSPost2010Prop37
 90
       50
102
RTVSPost2010PropOp37
 70
     1
102
RTVSPost2010Prop38
140
0.0
102
RTVSPost2010PropOp38
 70
     1
102
RTVSPost2010Prop39
140
1.0
102
RTVSPost2010PropOp39
 70
     1
102
RTVSPost2010Prop40
 90
        0
102
RTVSPost2010PropOp40
 70
     1
102
RTVSPost2010Prop41ColorIndex
 90
       18
102
RTVSPost2010Prop41ColorRGB
 90
        0
102
RTVSPost2010PropOp41
 70
     1
102
RTVSPost2010Prop42
 90
       50
102
RTVSPost2010PropOp42
 70
     1
102
RTVSPost2010Prop43
 90
        3
102
RTVSPost2010PropOp43
 70
     1
102
RTVSPost2010Prop44ColorIndex
 90
        5
102
RTVSPost2010Prop44ColorRGB
 90
      255
102
RTVSPost2010PropOp44
 70
     1
102
RTVSPost2010Prop45
280
     0
102
RTVSPost2010PropOp45
 70
     1
102
RTVSPost2010Prop46
 90
       50
102
RTVSPost2010PropOp46
 70
     1
102
RTVSPost2010Prop47
 90
       50
102
RTVSPost2010PropOp47
 70
     1
102
RTVSPost2010Prop48
 90
       50
102
RTVSPost2010PropOp48
 70
     1
102
RTVSPost2010Prop49
280
     0
102
RTVSPost2010PropOp49
 70
     1
102
RTVSPost2010Prop50
 90
       50
102
RTVSPost2010PropOp50
 70
     1
102
RTVSPost2010Prop51ColorIndex
 90
      256
102
RTVSPost2010Prop51ColorRGB
 90
-16777216
102
RTVSPost2010PropOp51
 70
     0
102
RTVSPost2010Prop52
140
1.0
102
RTVSPost2010PropOp52
 70
     0
102
RTVSPost2010Prop53
 90
        2
102
RTVSPost2010PropOp53
 70
     1
102
RTVSPost2010Prop54
  1
strokes_ogs.tif
102
RTVSPost2010PropOp54
 70
     1
102
RTVSPost2010Prop55
280
     0
102
RTVSPost2010PropOp55
 70
     1
102
RTVSPost2010Prop56
140
1.0
102
RTVSPost2010PropOp56
 70
     1
102
RTVSPost2010Prop57
140
1.0
102
RTVSPost2010PropOp57
 70
     1
  0
XRECORD
  5
19B
102
{ACAD_REACTORS
330
19A
102
}
330
19A
100
AcDbXrecord
280
     1
102
RTVSPost2010Prop28
280
     0
102
RTVSPost2010PropOp28
 70
     0
102
RTVSPost2010Prop29
280
     1
102
RTVSPost2010PropOp29
 70
     0
102
RTVSPost2010Prop30
280
     1
102
RTVSPost2010PropOp30
 70
     0
102
RTVSPost2010Prop31
280
     0
102
RTVSPost2010PropOp31
 70
     0
102
RTVSPost2010Prop32
280
     0
102
RTVSPost2010PropOp32
 70
     0
102
RTVSPost2010Prop33
280
     0
102
RTVSPost2010PropOp33
 70
     0
102
RTVSPost2010Prop34
280
     0
102
RTVSPost2010PropOp34
 70
     0
102
RTVSPost2010Prop35
280
     0
102
RTVSPost2010PropOp35
 70
     0
102
RTVSPost2010Prop36
280
     0
102
RTVSPost2010PropOp36
 70
     0
102
RTVSPost2010Prop37
 90
       50
102
RTVSPost2010PropOp37
 70
     0
102
RTVSPost2010Prop38
140
0.0
102
RTVSPost2010PropOp38
 70
     0
102
RTVSPost2010Prop39
140
1.0
102
RTVSPost2010PropOp39
 70
     0
102
RTVSPost2010Prop40
 90
        0
102
RTVSPost2010PropOp40
 70
     0
102
RTVSPost2010Prop41ColorIndex
 90
       18
102
RTVSPost2010Prop41ColorRGB
 90
        0
102
RTVSPost2010PropOp41
 70
     0
102
RTVSPost2010Prop42
 90
       50
102
RTVSPost2010PropOp42
 70
     0
102
RTVSPost2010Prop43
 90
        3
102
RTVSPost2010PropOp43
 70
     0
102
RTVSPost2010Prop44ColorIndex
 90
        5
102
RTVSPost2010Prop44ColorRGB
 90
      255
102
RTVSPost2010PropOp44
 70
     0
102
RTVSPost2010Prop45
280
     0
102
RTVSPost2010PropOp45
 70
     0
102
RTVSPost2010Prop46
 90
       50
102
RTVSPost2010PropOp46
 70
     0
102
RTVSPost2010Prop47
 90
       50
102
RTVSPost2010PropOp47
 70
     0
102
RTVSPost2010Prop48
 90
       50
102
RTVSPost2010PropOp48
 70
     0
102
RTVSPost2010Prop49
280
     0
102
RTVSPost2010PropOp49
 70
     0
102
RTVSPost2010Prop50
 90
       50
102
RTVSPost2010PropOp50
 70
     0
102
RTVSPost2010Prop51ColorIndex
 90
      256
102
RTVSPost2010Prop51ColorRGB
 90
-16777216
102
RTVSPost2010PropOp51
 70
     0
102
RTVSPost2010Prop52
140
1.0
102
RTVSPost2010PropOp52
 70
     0
102
RTVSPost2010Prop53
 90
        2
102
RTVSPost2010PropOp53
 70
     0
102
RTVSPost2010Prop54
  1
strokes_ogs.tif
102
RTVSPost2010PropOp54
 70
     0
102
RTVSPost2010Prop55
280
     0
102
RTVSPost2010PropOp55
 70
     0
102
RTVSPost2010Prop56
140
1.0
102
RTVSPost2010PropOp56
 70
     0
102
RTVSPost2010Prop57
140
1.0
102
RTVSPost2010PropOp57
 70
     0
  0
XRECORD
  5
181
102
{ACAD_REACTORS
330
180
102
}
330
180
100
AcDbXrecord
280
     1
102
RTVSPost2010Prop28
280
     0
102
RTVSPost2010PropOp28
 70
     1
102
RTVSPost2010Prop29
280
     1
102
RTVSPost2010PropOp29
 70
     1
102
RTVSPost2010Prop30
280
     1
102
RTVSPost2010PropOp30
 70
     1
102
RTVSPost2010Prop31
280
     0
102
RTVSPost2010PropOp31
 70
     1
102
RTVSPost2010Prop32
280
     0
102
RTVSPost2010PropOp32
 70
     1
102
RTVSPost2010Prop33
280
     0
102
RTVSPost2010PropOp33
 70
     1
102
RTVSPost2010Prop34
280
     0
102
RTVSPost2010PropOp34
 70
     1
102
RTVSPost2010Prop35
280
     0
102
RTVSPost2010PropOp35
 70
     1
102
RTVSPost2010Prop36
280
     0
102
RTVSPost2010PropOp36
 70
     1
102
RTVSPost2010Prop37
 90
       50
102
RTVSPost2010PropOp37
 70
     1
102
RTVSPost2010Prop38
140
0.0
102
RTVSPost2010PropOp38
 70
     1
102
RTVSPost2010Prop39
140
1.0
102
RTVSPost2010PropOp39
 70
     1
102
RTVSPost2010Prop40
 90
        0
102
RTVSPost2010PropOp40
 70
     1
102
RTVSPost2010Prop41ColorIndex
 90
       18
102
RTVSPost2010Prop41ColorRGB
 90
        0
102
RTVSPost2010PropOp41
 70
     1
102
RTVSPost2010Prop42
 90
       50
102
RTVSPost2010PropOp42
 70
     1
102
RTVSPost2010Prop43
 90
        3
102
RTVSPost2010PropOp43
 70
     1
102
RTVSPost2010Prop44ColorIndex
 90
        5
102
RTVSPost2010Prop44ColorRGB
 90
      255
102
RTVSPost2010PropOp44
 70
     1
102
RTVSPost2010Prop45
280
     0
102
RTVSPost2010PropOp45
 70
     1
102
RTVSPost2010Prop46
 90
       50
102
RTVSPost2010PropOp46
 70
     1
102
RTVSPost2010Prop47
 90
       50
102
RTVSPost2010PropOp47
 70
     1
102
RTVSPost2010Prop48
 90
       50
102
RTVSPost2010PropOp48
 70
     1
102
RTVSPost2010Prop49
280
     0
102
RTVSPost2010PropOp49
 70
     1
102
RTVSPost2010Prop50
 90
       50
102
RTVSPost2010PropOp50
 70
     1
102
RTVSPost2010Prop51ColorIndex
 90
      256
102
RTVSPost2010Prop51ColorRGB
 90
-16777216
102
RTVSPost2010PropOp51
 70
     0
102
RTVSPost2010Prop52
140
1.0
102
RTVSPost2010PropOp52
 70
     0
102
RTVSPost2010Prop53
 90
        2
102
RTVSPost2010PropOp53
 70
     1
102
RTVSPost2010Prop54
  1
strokes_ogs.tif
102
RTVSPost2010PropOp54
 70
     1
102
RTVSPost2010Prop55
280
     0
102
RTVSPost2010PropOp55
 70
     1
102
RTVSPost2010Prop56
140
1.0
102
RTVSPost2010PropOp56
 70
     1
102
RTVSPost2010Prop57
140
1.0
102
RTVSPost2010PropOp57
 70
     1
  0
XRECORD
  5
197
102
{ACAD_REACTORS
330
196
102
}
330
196
100
AcDbXrecord
280
     1
102
RTVSPost2010Prop28
280
     0
102
RTVSPost2010PropOp28
 70
     1
102
RTVSPost2010Prop29
280
     1
102
RTVSPost2010PropOp29
 70
     1
102
RTVSPost2010Prop30
280
     1
102
RTVSPost2010PropOp30
 70
     1
102
RTVSPost2010Prop31
280
     0
102
RTVSPost2010PropOp31
 70
     1
102
RTVSPost2010Prop32
280
     0
102
RTVSPost2010PropOp32
 70
     1
102
RTVSPost2010Prop33
280
     0
102
RTVSPost2010PropOp33
 70
     1
102
RTVSPost2010Prop34
280
     0
102
RTVSPost2010PropOp34
 70
     1
102
RTVSPost2010Prop35
280
     0
102
RTVSPost2010PropOp35
 70
     1
102
RTVSPost2010Prop36
280
     0
102
RTVSPost2010PropOp36
 70
     1
102
RTVSPost2010Prop37
 90
       50
102
RTVSPost2010PropOp37
 70
     1
102
RTVSPost2010Prop38
140
0.0
102
RTVSPost2010PropOp38
 70
     1
102
RTVSPost2010Prop39
140
1.0
102
RTVSPost2010PropOp39
 70
     1
102
RTVSPost2010Prop40
 90
        0
102
RTVSPost2010PropOp40
 70
     1
102
RTVSPost2010Prop41ColorIndex
 90
       18
102
RTVSPost2010Prop41ColorRGB
 90
        0
102
RTVSPost2010PropOp41
 70
     1
102
RTVSPost2010Prop42
 90
       50
102
RTVSPost2010PropOp42
 70
     1
102
RTVSPost2010Prop43
 90
        3
102
RTVSPost2010PropOp43
 70
     1
102
RTVSPost2010Prop44ColorIndex
 90
        5
102
RTVSPost2010Prop44ColorRGB
 90
      255
102
RTVSPost2010PropOp44
 70
     1
102
RTVSPost2010Prop45
280
     0
102
RTVSPost2010PropOp45
 70
     1
102
RTVSPost2010Prop46
 90
       50
102
RTVSPost2010PropOp46
 70
     1
102
RTVSPost2010Prop47
 90
       50
102
RTVSPost2010PropOp47
 70
     1
102
RTVSPost2010Prop48
 90
       50
102
RTVSPost2010PropOp48
 70
     1
102
RTVSPost2010Prop49
280
     0
102
RTVSPost2010PropOp49
 70
     1
102
RTVSPost2010Prop50
 90
       50
102
RTVSPost2010PropOp50
 70
     1
102
RTVSPost2010Prop51ColorIndex
 90
      256
102
RTVSPost2010Prop51ColorRGB
 90
-16777216
102
RTVSPost2010PropOp51
 70
     0
102
RTVSPost2010Prop52
140
1.0
102
RTVSPost2010PropOp52
 70
     0
102
RTVSPost2010Prop53
 90
        2
102
RTVSPost2010PropOp53
 70
     1
102
RTVSPost2010Prop54
  1
strokes_ogs.tif
102
RTVSPost2010PropOp54
 70
     1
102
RTVSPost2010Prop55
280
     0
102
RTVSPost2010PropOp55
 70
     1
102
RTVSPost2010Prop56
140
1.0
102
RTVSPost2010PropOp56
 70
     1
102
RTVSPost2010Prop57
140
1.0
102
RTVSPost2010PropOp57
 70
     1
  0
XRECORD
  5
195
102
{ACAD_REACTORS
330
194
102
}
330
194
100
AcDbXrecord
280
     1
102
RTVSPost2010Prop28
280
     0
102
RTVSPost2010PropOp28
 70
     1
102
RTVSPost2010Prop29
280
     1
102
RTVSPost2010PropOp29
 70
     1
102
RTVSPost2010Prop30
280
     1
102
RTVSPost2010PropOp30
 70
     1
102
RTVSPost2010Prop31
280
     0
102
RTVSPost2010PropOp31
 70
     1
102
RTVSPost2010Prop32
280
     0
102
RTVSPost2010PropOp32
 70
     1
102
RTVSPost2010Prop33
280
     0
102
RTVSPost2010PropOp33
 70
     1
102
RTVSPost2010Prop34
280
     0
102
RTVSPost2010PropOp34
 70
     1
102
RTVSPost2010Prop35
280
     0
102
RTVSPost2010PropOp35
 70
     1
102
RTVSPost2010Prop36
280
     0
102
RTVSPost2010PropOp36
 70
     1
102
RTVSPost2010Prop37
 90
       50
102
RTVSPost2010PropOp37
 70
     1
102
RTVSPost2010Prop38
140
0.0
102
RTVSPost2010PropOp38
 70
     1
102
RTVSPost2010Prop39
140
1.0
102
RTVSPost2010PropOp39
 70
     1
102
RTVSPost2010Prop40
 90
        0
102
RTVSPost2010PropOp40
 70
     1
102
RTVSPost2010Prop41ColorIndex
 90
       18
102
RTVSPost2010Prop41ColorRGB
 90
        0
102
RTVSPost2010PropOp41
 70
     1
102
RTVSPost2010Prop42
 90
       50
102
RTVSPost2010PropOp42
 70
     1
102
RTVSPost2010Prop43
 90
        3
102
RTVSPost2010PropOp43
 70
     1
102
RTVSPost2010Prop44ColorIndex
 90
        5
102
RTVSPost2010Prop44ColorRGB
 90
      255
102
RTVSPost2010PropOp44
 70
     1
102
RTVSPost2010Prop45
280
     0
102
RTVSPost2010PropOp45
 70
     1
102
RTVSPost2010Prop46
 90
       50
102
RTVSPost2010PropOp46
 70
     1
102
RTVSPost2010Prop47
 90
       50
102
RTVSPost2010PropOp47
 70
     1
102
RTVSPost2010Prop48
 90
       50
102
RTVSPost2010PropOp48
 70
     1
102
RTVSPost2010Prop49
280
     0
102
RTVSPost2010PropOp49
 70
     1
102
RTVSPost2010Prop50
 90
       50
102
RTVSPost2010PropOp50
 70
     1
102
RTVSPost2010Prop51ColorIndex
 90
      256
102
RTVSPost2010Prop51ColorRGB
 90
-16777216
102
RTVSPost2010PropOp51
 70
     0
102
RTVSPost2010Prop52
140
1.0
102
RTVSPost2010PropOp52
 70
     0
102
RTVSPost2010Prop53
 90
        2
102
RTVSPost2010PropOp53
 70
     1
102
RTVSPost2010Prop54
  1
strokes_ogs.tif
102
RTVSPost2010PropOp54
 70
     1
102
RTVSPost2010Prop55
280
     0
102
RTVSPost2010PropOp55
 70
     1
102
RTVSPost2010Prop56
140
1.0
102
RTVSPost2010PropOp56
 70
     1
102
RTVSPost2010Prop57
140
1.0
102
RTVSPost2010PropOp57
 70
     1
  0
XRECORD
  5
18F
102
{ACAD_REACTORS
330
18E
102
}
330
18E
100
AcDbXrecord
280
     1
102
RTVSPost2010Prop28
280
     0
102
RTVSPost2010PropOp28
 70
     1
102
RTVSPost2010Prop29
280
     1
102
RTVSPost2010PropOp29
 70
     1
102
RTVSPost2010Prop30
280
     1
102
RTVSPost2010PropOp30
 70
     1
102
RTVSPost2010Prop31
280
     0
102
RTVSPost2010PropOp31
 70
     1
102
RTVSPost2010Prop32
280
     0
102
RTVSPost2010PropOp32
 70
     1
102
RTVSPost2010Prop33
280
     0
102
RTVSPost2010PropOp33
 70
     1
102
RTVSPost2010Prop34
280
     0
102
RTVSPost2010PropOp34
 70
     1
102
RTVSPost2010Prop35
280
     0
102
RTVSPost2010PropOp35
 70
     1
102
RTVSPost2010Prop36
280
     0
102
RTVSPost2010PropOp36
 70
     1
102
RTVSPost2010Prop37
 90
       50
102
RTVSPost2010PropOp37
 70
     1
102
RTVSPost2010Prop38
140
0.0
102
RTVSPost2010PropOp38
 70
     1
102
RTVSPost2010Prop39
140
1.0
102
RTVSPost2010PropOp39
 70
     1
102
RTVSPost2010Prop40
 90
        0
102
RTVSPost2010PropOp40
 70
     1
102
RTVSPost2010Prop41ColorIndex
 90
       18
102
RTVSPost2010Prop41ColorRGB
 90
        0
102
RTVSPost2010PropOp41
 70
     1
102
RTVSPost2010Prop42
 90
       50
102
RTVSPost2010PropOp42
 70
     1
102
RTVSPost2010Prop43
 90
        3
102
RTVSPost2010PropOp43
 70
     1
102
RTVSPost2010Prop44ColorIndex
 90
        5
102
RTVSPost2010Prop44ColorRGB
 90
      255
102
RTVSPost2010PropOp44
 70
     1
102
RTVSPost2010Prop45
280
     0
102
RTVSPost2010PropOp45
 70
     1
102
RTVSPost2010Prop46
 90
       50
102
RTVSPost2010PropOp46
 70
     1
102
RTVSPost2010Prop47
 90
       50
102
RTVSPost2010PropOp47
 70
     1
102
RTVSPost2010Prop48
 90
       50
102
RTVSPost2010PropOp48
 70
     1
102
RTVSPost2010Prop49
280
     0
102
RTVSPost2010PropOp49
 70
     1
102
RTVSPost2010Prop50
 90
       50
102
RTVSPost2010PropOp50
 70
     1
102
RTVSPost2010Prop51ColorIndex
 90
      256
102
RTVSPost2010Prop51ColorRGB
 90
-16777216
102
RTVSPost2010PropOp51
 70
     0
102
RTVSPost2010Prop52
140
1.0
102
RTVSPost2010PropOp52
 70
     0
102
RTVSPost2010Prop53
 90
        2
102
RTVSPost2010PropOp53
 70
     1
102
RTVSPost2010Prop54
  1
strokes_ogs.tif
102
RTVSPost2010PropOp54
 70
     1
102
RTVSPost2010Prop55
280
     0
102
RTVSPost2010PropOp55
 70
     1
102
RTVSPost2010Prop56
140
1.0
102
RTVSPost2010PropOp56
 70
     1
102
RTVSPost2010Prop57
140
1.0
102
RTVSPost2010PropOp57
 70
     1
  0
XRECORD
  5
191
102
{ACAD_REACTORS
330
190
102
}
330
190
100
AcDbXrecord
280
     1
102
RTVSPost2010Prop28
280
     0
102
RTVSPost2010PropOp28
 70
     1
102
RTVSPost2010Prop29
280
     1
102
RTVSPost2010PropOp29
 70
     1
102
RTVSPost2010Prop30
280
     1
102
RTVSPost2010PropOp30
 70
     1
102
RTVSPost2010Prop31
280
     0
102
RTVSPost2010PropOp31
 70
     1
102
RTVSPost2010Prop32
280
     0
102
RTVSPost2010PropOp32
 70
     1
102
RTVSPost2010Prop33
280
     0
102
RTVSPost2010PropOp33
 70
     1
102
RTVSPost2010Prop34
280
     0
102
RTVSPost2010PropOp34
 70
     1
102
RTVSPost2010Prop35
280
     0
102
RTVSPost2010PropOp35
 70
     1
102
RTVSPost2010Prop36
280
     0
102
RTVSPost2010PropOp36
 70
     1
102
RTVSPost2010Prop37
 90
       50
102
RTVSPost2010PropOp37
 70
     1
102
RTVSPost2010Prop38
140
0.0
102
RTVSPost2010PropOp38
 70
     1
102
RTVSPost2010Prop39
140
1.0
102
RTVSPost2010PropOp39
 70
     1
102
RTVSPost2010Prop40
 90
        0
102
RTVSPost2010PropOp40
 70
     1
102
RTVSPost2010Prop41ColorIndex
 90
       18
102
RTVSPost2010Prop41ColorRGB
 90
        0
102
RTVSPost2010PropOp41
 70
     1
102
RTVSPost2010Prop42
 90
       50
102
RTVSPost2010PropOp42
 70
     1
102
RTVSPost2010Prop43
 90
        3
102
RTVSPost2010PropOp43
 70
     1
102
RTVSPost2010Prop44ColorIndex
 90
        5
102
RTVSPost2010Prop44ColorRGB
 90
      255
102
RTVSPost2010PropOp44
 70
     1
102
RTVSPost2010Prop45
280
     0
102
RTVSPost2010PropOp45
 70
     1
102
RTVSPost2010Prop46
 90
       50
102
RTVSPost2010PropOp46
 70
     1
102
RTVSPost2010Prop47
 90
       50
102
RTVSPost2010PropOp47
 70
     1
102
RTVSPost2010Prop48
 90
       50
102
RTVSPost2010PropOp48
 70
     1
102
RTVSPost2010Prop49
280
     0
102
RTVSPost2010PropOp49
 70
     1
102
RTVSPost2010Prop50
 90
       50
102
RTVSPost2010PropOp50
 70
     1
102
RTVSPost2010Prop51ColorIndex
 90
      256
102
RTVSPost2010Prop51ColorRGB
 90
-16777216
102
RTVSPost2010PropOp51
 70
     0
102
RTVSPost2010Prop52
140
1.0
102
RTVSPost2010PropOp52
 70
     0
102
RTVSPost2010Prop53
 90
        2
102
RTVSPost2010PropOp53
 70
     1
102
RTVSPost2010Prop54
  1
strokes_ogs.tif
102
RTVSPost2010PropOp54
 70
     1
102
RTVSPost2010Prop55
280
     0
102
RTVSPost2010PropOp55
 70
     1
102
RTVSPost2010Prop56
140
1.0
102
RTVSPost2010PropOp56
 70
     1
102
RTVSPost2010Prop57
140
1.0
102
RTVSPost2010PropOp57
 70
     1
  0
XRECORD
  5
187
102
{ACAD_REACTORS
330
186
102
}
330
186
100
AcDbXrecord
280
     1
102
RTVSPost2010Prop28
280
     0
102
RTVSPost2010PropOp28
 70
     1
102
RTVSPost2010Prop29
280
     1
102
RTVSPost2010PropOp29
 70
     1
102
RTVSPost2010Prop30
280
     1
102
RTVSPost2010PropOp30
 70
     1
102
RTVSPost2010Prop31
280
     0
102
RTVSPost2010PropOp31
 70
     1
102
RTVSPost2010Prop32
280
     0
102
RTVSPost2010PropOp32
 70
     1
102
RTVSPost2010Prop33
280
     0
102
RTVSPost2010PropOp33
 70
     1
102
RTVSPost2010Prop34
280
     0
102
RTVSPost2010PropOp34
 70
     1
102
RTVSPost2010Prop35
280
     0
102
RTVSPost2010PropOp35
 70
     1
102
RTVSPost2010Prop36
280
     0
102
RTVSPost2010PropOp36
 70
     1
102
RTVSPost2010Prop37
 90
       50
102
RTVSPost2010PropOp37
 70
     1
102
RTVSPost2010Prop38
140
0.0
102
RTVSPost2010PropOp38
 70
     1
102
RTVSPost2010Prop39
140
1.0
102
RTVSPost2010PropOp39
 70
     1
102
RTVSPost2010Prop40
 90
        0
102
RTVSPost2010PropOp40
 70
     1
102
RTVSPost2010Prop41ColorIndex
 90
       18
102
RTVSPost2010Prop41ColorRGB
 90
        0
102
RTVSPost2010PropOp41
 70
     1
102
RTVSPost2010Prop42
 90
       50
102
RTVSPost2010PropOp42
 70
     1
102
RTVSPost2010Prop43
 90
        3
102
RTVSPost2010PropOp43
 70
     1
102
RTVSPost2010Prop44ColorIndex
 90
        5
102
RTVSPost2010Prop44ColorRGB
 90
      255
102
RTVSPost2010PropOp44
 70
     1
102
RTVSPost2010Prop45
280
     0
102
RTVSPost2010PropOp45
 70
     1
102
RTVSPost2010Prop46
 90
       50
102
RTVSPost2010PropOp46
 70
     1
102
RTVSPost2010Prop47
 90
       50
102
RTVSPost2010PropOp47
 70
     1
102
RTVSPost2010Prop48
 90
       50
102
RTVSPost2010PropOp48
 70
     1
102
RTVSPost2010Prop49
280
     0
102
RTVSPost2010PropOp49
 70
     1
102
RTVSPost2010Prop50
 90
       50
102
RTVSPost2010PropOp50
 70
     1
102
RTVSPost2010Prop51ColorIndex
 90
      256
102
RTVSPost2010Prop51ColorRGB
 90
-16777216
102
RTVSPost2010PropOp51
 70
     0
102
RTVSPost2010Prop52
140
1.0
102
RTVSPost2010PropOp52
 70
     0
102
RTVSPost2010Prop53
 90
        2
102
RTVSPost2010PropOp53
 70
     1
102
RTVSPost2010Prop54
  1
strokes_ogs.tif
102
RTVSPost2010PropOp54
 70
     1
102
RTVSPost2010Prop55
280
     0
102
RTVSPost2010PropOp55
 70
     1
102
RTVSPost2010Prop56
140
1.0
102
RTVSPost2010PropOp56
 70
     1
102
RTVSPost2010Prop57
140
1.0
102
RTVSPost2010PropOp57
 70
     1
  0
XRECORD
  5
17B
102
{ACAD_REACTORS
330
17A
102
}
330
17A
100
AcDbXrecord
280
     1
102
RTVSPost2010Prop28
280
     0
102
RTVSPost2010PropOp28
 70
     1
102
RTVSPost2010Prop29
280
     1
102
RTVSPost2010PropOp29
 70
     1
102
RTVSPost2010Prop30
280
     1
102
RTVSPost2010PropOp30
 70
     1
102
RTVSPost2010Prop31
280
     0
102
RTVSPost2010PropOp31
 70
     1
102
RTVSPost2010Prop32
280
     0
102
RTVSPost2010PropOp32
 70
     1
102
RTVSPost2010Prop33
280
     0
102
RTVSPost2010PropOp33
 70
     1
102
RTVSPost2010Prop34
280
     0
102
RTVSPost2010PropOp34
 70
     1
102
RTVSPost2010Prop35
280
     0
102
RTVSPost2010PropOp35
 70
     1
102
RTVSPost2010Prop36
280
     0
102
RTVSPost2010PropOp36
 70
     1
102
RTVSPost2010Prop37
 90
       50
102
RTVSPost2010PropOp37
 70
     1
102
RTVSPost2010Prop38
140
0.0
102
RTVSPost2010PropOp38
 70
     1
102
RTVSPost2010Prop39
140
1.0
102
RTVSPost2010PropOp39
 70
     1
102
RTVSPost2010Prop40
 90
        0
102
RTVSPost2010PropOp40
 70
     1
102
RTVSPost2010Prop41ColorIndex
 90
       18
102
RTVSPost2010Prop41ColorRGB
 90
        0
102
RTVSPost2010PropOp41
 70
     1
102
RTVSPost2010Prop42
 90
       50
102
RTVSPost2010PropOp42
 70
     1
102
RTVSPost2010Prop43
 90
        3
102
RTVSPost2010PropOp43
 70
     1
102
RTVSPost2010Prop44ColorIndex
 90
        5
102
RTVSPost2010Prop44ColorRGB
 90
      255
102
RTVSPost2010PropOp44
 70
     1
102
RTVSPost2010Prop45
280
     0
102
RTVSPost2010PropOp45
 70
     1
102
RTVSPost2010Prop46
 90
       50
102
RTVSPost2010PropOp46
 70
     1
102
RTVSPost2010Prop47
 90
       50
102
RTVSPost2010PropOp47
 70
     1
102
RTVSPost2010Prop48
 90
       50
102
RTVSPost2010PropOp48
 70
     1
102
RTVSPost2010Prop49
280
     0
102
RTVSPost2010PropOp49
 70
     1
102
RTVSPost2010Prop50
 90
       50
102
RTVSPost2010PropOp50
 70
     1
102
RTVSPost2010Prop51ColorIndex
 90
      256
102
RTVSPost2010Prop51ColorRGB
 90
-16777216
102
RTVSPost2010PropOp51
 70
     0
102
RTVSPost2010Prop52
140
1.0
102
RTVSPost2010PropOp52
 70
     0
102
RTVSPost2010Prop53
 90
        2
102
RTVSPost2010PropOp53
 70
     1
102
RTVSPost2010Prop54
  1
strokes_ogs.tif
102
RTVSPost2010PropOp54
 70
     1
102
RTVSPost2010Prop55
280
     0
102
RTVSPost2010PropOp55
 70
     1
102
RTVSPost2010Prop56
140
1.0
102
RTVSPost2010PropOp56
 70
     1
102
RTVSPost2010Prop57
140
1.0
102
RTVSPost2010PropOp57
 70
     1
  0
XRECORD
  5
193
102
{ACAD_REACTORS
330
192
102
}
330
192
100
AcDbXrecord
280
     1
102
RTVSPost2010Prop28
280
     0
102
RTVSPost2010PropOp28
 70
     1
102
RTVSPost2010Prop29
280
     1
102
RTVSPost2010PropOp29
 70
     1
102
RTVSPost2010Prop30
280
     1
102
RTVSPost2010PropOp30
 70
     1
102
RTVSPost2010Prop31
280
     0
102
RTVSPost2010PropOp31
 70
     1
102
RTVSPost2010Prop32
280
     0
102
RTVSPost2010PropOp32
 70
     1
102
RTVSPost2010Prop33
280
     0
102
RTVSPost2010PropOp33
 70
     1
102
RTVSPost2010Prop34
280
     0
102
RTVSPost2010PropOp34
 70
     1
102
RTVSPost2010Prop35
280
     0
102
RTVSPost2010PropOp35
 70
     1
102
RTVSPost2010Prop36
280
     0
102
RTVSPost2010PropOp36
 70
     1
102
RTVSPost2010Prop37
 90
       50
102
RTVSPost2010PropOp37
 70
     1
102
RTVSPost2010Prop38
140
0.0
102
RTVSPost2010PropOp38
 70
     1
102
RTVSPost2010Prop39
140
1.0
102
RTVSPost2010PropOp39
 70
     1
102
RTVSPost2010Prop40
 90
        0
102
RTVSPost2010PropOp40
 70
     1
102
RTVSPost2010Prop41ColorIndex
 90
       18
102
RTVSPost2010Prop41ColorRGB
 90
        0
102
RTVSPost2010PropOp41
 70
     1
102
RTVSPost2010Prop42
 90
       50
102
RTVSPost2010PropOp42
 70
     1
102
RTVSPost2010Prop43
 90
        3
102
RTVSPost2010PropOp43
 70
     1
102
RTVSPost2010Prop44ColorIndex
 90
        5
102
RTVSPost2010Prop44ColorRGB
 90
      255
102
RTVSPost2010PropOp44
 70
     1
102
RTVSPost2010Prop45
280
     0
102
RTVSPost2010PropOp45
 70
     1
102
RTVSPost2010Prop46
 90
       50
102
RTVSPost2010PropOp46
 70
     1
102
RTVSPost2010Prop47
 90
       50
102
RTVSPost2010PropOp47
 70
     1
102
RTVSPost2010Prop48
 90
       50
102
RTVSPost2010PropOp48
 70
     1
102
RTVSPost2010Prop49
280
     0
102
RTVSPost2010PropOp49
 70
     1
102
RTVSPost2010Prop50
 90
       50
102
RTVSPost2010PropOp50
 70
     1
102
RTVSPost2010Prop51ColorIndex
 90
      256
102
RTVSPost2010Prop51ColorRGB
 90
-16777216
102
RTVSPost2010PropOp51
 70
     0
102
RTVSPost2010Prop52
140
1.0
102
RTVSPost2010PropOp52
 70
     0
102
RTVSPost2010Prop53
 90
        2
102
RTVSPost2010PropOp53
 70
     1
102
RTVSPost2010Prop54
  1
strokes_ogs.tif
102
RTVSPost2010PropOp54
 70
     1
102
RTVSPost2010Prop55
280
     0
102
RTVSPost2010PropOp55
 70
     1
102
RTVSPost2010Prop56
140
1.0
102
RTVSPost2010PropOp56
 70
     1
102
RTVSPost2010Prop57
140
1.0
102
RTVSPost2010PropOp57
 70
     1
  0
ENDSEC
  0
EOF
