  0
SECTION
  2
HEADER
  9
$ACADVER
  1
AC1024
  9
$ACADMAINTVER
 70
   205
  9
$DWGCODEPAGE
  3
ANSI_1251
  9
$INSBASE
 10
0.0
 20
0.0
 30
0.0
  9
$EXTMIN
 10
1.000000000000000E+20
 20
1.000000000000000E+20
 30
1.000000000000000E+20
  9
$EXTMAX
 10
-1.000000000000000E+20
 20
-1.000000000000000E+20
 30
-1.000000000000000E+20
  9
$LIMMIN
 10
0.0
 20
0.0
  9
$LIMMAX
 10
12.0
 20
9.0
  9
$ORTHOMODE
 70
     0
  9
$REGENMODE
 70
     1
  9
$FILLMODE
 70
     1
  9
$QTEXTMODE
 70
     0
  9
$MIRRTEXT
 70
     1
  9
$LTSCALE
 40
1.0
  9
$ATTMODE
 70
     1
  9
$TEXTSIZE
 40
0.2
  9
$TRACEWID
 40
0.05
  9
$TEXTSTYLE
  7
Standard
  9
$CLAYER
  8
OracDecor_skirtings
  9
$CELTYPE
  6
ByLayer
  9
$CECOLOR
 62
   256
  9
$CELTSCALE
 40
1.0
  9
$DISPSILH
 70
     0
  9
$DIMSCALE
 40
1.0
  9
$DIMASZ
 40
0.18
  9
$DIMEXO
 40
0.0625
  9
$DIMDLI
 40
0.38
  9
$DIMRND
 40
0.0
  9
$DIMDLE
 40
0.0
  9
$DIMEXE
 40
0.18
  9
$DIMTP
 40
0.0
  9
$DIMTM
 40
0.0
  9
$DIMTXT
 40
0.18
  9
$DIMCEN
 40
0.09
  9
$DIMTSZ
 40
0.0
  9
$DIMTOL
 70
     0
  9
$DIMLIM
 70
     0
  9
$DIMTIH
 70
     1
  9
$DIMTOH
 70
     1
  9
$DIMSE1
 70
     0
  9
$DIMSE2
 70
     0
  9
$DIMTAD
 70
     0
  9
$DIMZIN
 70
     0
  9
$DIMBLK
  1

  9
$DIMASO
 70
     1
  9
$DIMSHO
 70
     1
  9
$DIMPOST
  1

  9
$DIMAPOST
  1

  9
$DIMALT
 70
     0
  9
$DIMALTD
 70
     2
  9
$DIMALTF
 40
25.4
  9
$DIMLFAC
 40
1.0
  9
$DIMTOFL
 70
     0
  9
$DIMTVP
 40
0.0
  9
$DIMTIX
 70
     0
  9
$DIMSOXD
 70
     0
  9
$DIMSAH
 70
     0
  9
$DIMBLK1
  1

  9
$DIMBLK2
  1

  9
$DIMSTYLE
  2
Standard
  9
$DIMCLRD
 70
     0
  9
$DIMCLRE
 70
     0
  9
$DIMCLRT
 70
     0
  9
$DIMTFAC
 40
1.0
  9
$DIMGAP
 40
0.09
  9
$DIMJUST
 70
     0
  9
$DIMSD1
 70
     0
  9
$DIMSD2
 70
     0
  9
$DIMTOLJ
 70
     1
  9
$DIMTZIN
 70
     0
  9
$DIMALTZ
 70
     0
  9
$DIMALTTZ
 70
     0
  9
$DIMUPT
 70
     0
  9
$DIMDEC
 70
     4
  9
$DIMTDEC
 70
     4
  9
$DIMALTU
 70
     2
  9
$DIMALTTD
 70
     2
  9
$DIMTXSTY
  7
Standard
  9
$DIMAUNIT
 70
     0
  9
$DIMADEC
 70
     0
  9
$DIMALTRND
 40
0.0
  9
$DIMAZIN
 70
     0
  9
$DIMDSEP
 70
    46
  9
$DIMATFIT
 70
     3
  9
$DIMFRAC
 70
     0
  9
$DIMLDRBLK
  1

  9
$DIMLUNIT
 70
     2
  9
$DIMLWD
 70
    -2
  9
$DIMLWE
 70
    -2
  9
$DIMTMOVE
 70
     0
  9
$DIMFXL
 40
1.0
  9
$DIMFXLON
 70
     0
  9
$DIMJOGANG
 40
0.7853981633974483
  9
$DIMTFILL
 70
     0
  9
$DIMTFILLCLR
 70
     0
  9
$DIMARCSYM
 70
     0
  9
$DIMLTYPE
  6

  9
$DIMLTEX1
  6

  9
$DIMLTEX2
  6

  9
$DIMTXTDIRECTION
 70
     0
  9
$LUNITS
 70
     2
  9
$LUPREC
 70
     4
  9
$SKETCHINC
 40
0.1
  9
$FILLETRAD
 40
0.5
  9
$AUNITS
 70
     0
  9
$AUPREC
 70
     0
  9
$MENU
  1
.
  9
$ELEVATION
 40
0.0
  9
$PELEVATION
 40
0.0
  9
$THICKNESS
 40
0.0
  9
$LIMCHECK
 70
     0
  9
$CHAMFERA
 40
0.5
  9
$CHAMFERB
 40
0.5
  9
$CHAMFERC
 40
1.0
  9
$CHAMFERD
 40
0.0
  9
$SKPOLY
 70
     0
  9
$TDCREATE
 40
2451380.930432396
  9
$TDUCREATE
 40
2451380.805432396
  9
$TDUPDATE
 40
2451380.966180555
  9
$TDUUPDATE
 40
2451380.841180556
  9
$TDINDWG
 40
0.0075631481
  9
$TDUSRTIMER
 40
0.0075541088
  9
$USRTIMER
 70
     1
  9
$ANGBASE
 50
0.0
  9
$ANGDIR
 70
     0
  9
$PDMODE
 70
     0
  9
$PDSIZE
 40
0.0
  9
$PLINEWID
 40
0.0
  9
$SPLFRAME
 70
     0
  9
$SPLINETYPE
 70
     6
  9
$SPLINESEGS
 70
     8
  9
$HANDSEED
  5
1B2
  9
$SURFTAB1
 70
     6
  9
$SURFTAB2
 70
     6
  9
$SURFTYPE
 70
     6
  9
$SURFU
 70
     6
  9
$SURFV
 70
     6
  9
$UCSBASE
  2

  9
$UCSNAME
  2

  9
$UCSORG
 10
0.0
 20
0.0
 30
0.0
  9
$UCSXDIR
 10
1.0
 20
0.0
 30
0.0
  9
$UCSYDIR
 10
0.0
 20
1.0
 30
0.0
  9
$UCSORTHOREF
  2

  9
$UCSORTHOVIEW
 70
     0
  9
$UCSORGTOP
 10
0.0
 20
0.0
 30
0.0
  9
$UCSORGBOTTOM
 10
0.0
 20
0.0
 30
0.0
  9
$UCSORGLEFT
 10
0.0
 20
0.0
 30
0.0
  9
$UCSORGRIGHT
 10
0.0
 20
0.0
 30
0.0
  9
$UCSORGFRONT
 10
0.0
 20
0.0
 30
0.0
  9
$UCSORGBACK
 10
0.0
 20
0.0
 30
0.0
  9
$PUCSBASE
  2

  9
$PUCSNAME
  2

  9
$PUCSORG
 10
0.0
 20
0.0
 30
0.0
  9
$PUCSXDIR
 10
1.0
 20
0.0
 30
0.0
  9
$PUCSYDIR
 10
0.0
 20
1.0
 30
0.0
  9
$PUCSORTHOREF
  2

  9
$PUCSORTHOVIEW
 70
     0
  9
$PUCSORGTOP
 10
0.0
 20
0.0
 30
0.0
  9
$PUCSORGBOTTOM
 10
0.0
 20
0.0
 30
0.0
  9
$PUCSORGLEFT
 10
0.0
 20
0.0
 30
0.0
  9
$PUCSORGRIGHT
 10
0.0
 20
0.0
 30
0.0
  9
$PUCSORGFRONT
 10
0.0
 20
0.0
 30
0.0
  9
$PUCSORGBACK
 10
0.0
 20
0.0
 30
0.0
  9
$USERI1
 70
     0
  9
$USERI2
 70
     0
  9
$USERI3
 70
     0
  9
$USERI4
 70
     0
  9
$USERI5
 70
     0
  9
$USERR1
 40
0.0
  9
$USERR2
 40
0.0
  9
$USERR3
 40
0.0
  9
$USERR4
 40
0.0
  9
$USERR5
 40
0.0
  9
$WORLDVIEW
 70
     1
  9
$SHADEDGE
 70
     3
  9
$SHADEDIF
 70
    70
  9
$TILEMODE
 70
     1
  9
$MAXACTVP
 70
    64
  9
$PINSBASE
 10
0.0
 20
0.0
 30
0.0
  9
$PLIMCHECK
 70
     0
  9
$PEXTMIN
 10
1.000000000000000E+20
 20
1.000000000000000E+20
 30
1.000000000000000E+20
  9
$PEXTMAX
 10
-1.000000000000000E+20
 20
-1.000000000000000E+20
 30
-1.000000000000000E+20
  9
$PLIMMIN
 10
0.0
 20
0.0
  9
$PLIMMAX
 10
12.0
 20
9.0
  9
$UNITMODE
 70
     0
  9
$VISRETAIN
 70
     1
  9
$PLINEGEN
 70
     0
  9
$PSLTSCALE
 70
     1
  9
$TREEDEPTH
 70
  3020
  9
$CMLSTYLE
  2
Standard
  9
$CMLJUST
 70
     0
  9
$CMLSCALE
 40
1.0
  9
$PROXYGRAPHICS
 70
     1
  9
$MEASUREMENT
 70
     1
  9
$CELWEIGHT
370
    -1
  9
$ENDCAPS
280
     0
  9
$JOINSTYLE
280
     0
  9
$LWDISPLAY
290
     0
  9
$INSUNITS
 70
     4
  9
$HYPERLINKBASE
  1

  9
$STYLESHEET
  1

  9
$XEDIT
290
     1
  9
$CEPSNTYPE
380
     0
  9
$PSTYLEMODE
290
     1
  9
$FINGERPRINTGUID
  2
{12F50282-3ED8-11D3-A8B7-0060B0F84BC6}
  9
$VERSIONGUID
  2
{12F50293-3ED8-11D3-A8B7-0060B0F84BC6}
  9
$EXTNAMES
290
     1
  9
$PSVPSCALE
 40
0.0
  9
$OLESTARTUP
290
     0
  9
$SORTENTS
280
   127
  9
$INDEXCTL
280
     0
  9
$HIDETEXT
280
     0
  9
$XCLIPFRAME
280
     2
  9
$HALOGAP
280
     0
  9
$OBSCOLOR
 70
   257
  9
$OBSLTYPE
280
     0
  9
$INTERSECTIONDISPLAY
280
     0
  9
$INTERSECTIONCOLOR
 70
   257
  9
$DIMASSOC
280
     1
  9
$PROJECTNAME
  1

  9
$CAMERADISPLAY
290
     0
  9
$LENSLENGTH
 40
50.0
  9
$CAMERAHEIGHT
 40
0.0
  9
$STEPSPERSEC
 40
2.0
  9
$STEPSIZE
 40
6.0
  9
$3DDWFPREC
 40
2.0
  9
$PSOLWIDTH
 40
0.25
  9
$PSOLHEIGHT
 40
4.0
  9
$LOFTANG1
 40
1.570796326794896
  9
$LOFTANG2
 40
1.570796326794896
  9
$LOFTMAG1
 40
0.0
  9
$LOFTMAG2
 40
0.0
  9
$LOFTPARAM
 70
     7
  9
$LOFTNORMALS
280
     1
  9
$LATITUDE
 40
37.795
  9
$LONGITUDE
 40
-122.394
  9
$NORTHDIRECTION
 40
0.0
  9
$TIMEZONE
 70
 -8000
  9
$LIGHTGLYPHDISPLAY
280
     1
  9
$TILEMODELIGHTSYNCH
280
     1
  9
$CMATERIAL
347
AB
  9
$SOLIDHIST
280
     0
  9
$SHOWHIST
280
     1
  9
$DWFFRAME
280
     2
  9
$DGNFRAME
280
     0
  9
$REALWORLDSCALE
290
     1
  9
$INTERFERECOLOR
 62
     1
  9
$INTERFEREOBJVS
345
CD
  9
$INTERFEREVPVS
346
CA
  9
$CSHADOW
280
     0
  9
$SHADOWPLANELOCATION
 40
0.0
  0
ENDSEC
  0
SECTION
  2
CLASSES
  0
CLASS
  1
ACDBDICTIONARYWDFLT
  2
AcDbDictionaryWithDefault
  3
ObjectDBX Classes
 90
        0
 91
        1
280
     0
281
     0
  0
CLASS
  1
ACDBPLACEHOLDER
  2
AcDbPlaceHolder
  3
ObjectDBX Classes
 90
        0
 91
        2
280
     0
281
     0
  0
CLASS
  1
LAYOUT
  2
AcDbLayout
  3
ObjectDBX Classes
 90
        0
 91
        3
280
     0
281
     0
  0
CLASS
  1
MATERIAL
  2
AcDbMaterial
  3
ObjectDBX Classes
 90
     1153
 91
        3
280
     0
281
     0
  0
CLASS
  1
VISUALSTYLE
  2
AcDbVisualStyle
  3
ObjectDBX Classes
 90
     4095
 91
       24
280
     0
281
     0
  0
CLASS
  1
TABLESTYLE
  2
AcDbTableStyle
  3
ObjectDBX Classes
 90
     4095
 91
        1
280
     0
281
     0
  0
CLASS
  1
SCALE
  2
AcDbScale
  3
ObjectDBX Classes
 90
     1153
 91
       17
280
     0
281
     0
  0
CLASS
  1
MLEADERSTYLE
  2
AcDbMLeaderStyle
  3
ACDB_MLEADERSTYLE_CLASS
 90
     4095
 91
        1
280
     0
281
     0
  0
CLASS
  1
ACDBSECTIONVIEWSTYLE
  2
AcDbSectionViewStyle
  3
ObjectDBX Classes
 90
     1025
 91
        1
280
     0
281
     0
  0
CLASS
  1
ACDBDETAILVIEWSTYLE
  2
AcDbDetailViewStyle
  3
ObjectDBX Classes
 90
     1025
 91
        1
280
     0
281
     0
  0
CLASS
  1
MESH
  2
AcDbSubDMesh
  3
ObjectDBX Classes
 90
        0
 91
        1
280
     0
281
     1
  0
CLASS
  1
DICTIONARYVAR
  2
AcDbDictionaryVar
  3
ObjectDBX Classes
 90
        0
 91
        9
280
     0
281
     0
  0
CLASS
  1
CELLSTYLEMAP
  2
AcDbCellStyleMap
  3
ObjectDBX Classes
 90
     1152
 91
        1
280
     0
281
     0
  0
ENDSEC
  0
SECTION
  2
TABLES
  0
TABLE
  2
VPORT
  5
8
330
0
100
AcDbSymbolTable
 70
     1
  0
VPORT
  5
A8
330
8
100
AcDbSymbolTableRecord
100
AcDbViewportTableRecord
  2
*Active
 70
     0
 10
0.0
 20
0.0
 11
1.0
 21
1.0
 12
0.0000070806709118
 22
82.46588134765625
 13
0.0
 23
0.0
 14
0.5
 24
0.5
 15
0.5
 25
0.5
 16
-1.0
 26
-1.0
 36
1.0
 17
0.0
 27
0.0
 37
0.0
 40
1217.99988314856
 41
1.444797690463759
 42
50.0
 43
0.0
 44
0.0
 50
0.0
 51
0.0
 71
     0
 72
   100
 73
     1
 74
     3
 75
     0
 76
     0
 77
     0
 78
     0
281
     0
 65
     1
110
0.0
120
0.0
130
0.0
111
1.0
121
0.0
131
0.0
112
0.0
122
1.0
132
0.0
 79
     0
146
0.0
348
C9
 60
     3
 61
     5
292
     1
282
     1
141
0.0
142
0.0
 63
   250
421
  3355443
  0
ENDTAB
  0
TABLE
  2
LTYPE
  5
5
330
0
100
AcDbSymbolTable
 70
     1
  0
LTYPE
  5
14
330
5
100
AcDbSymbolTableRecord
100
AcDbLinetypeTableRecord
  2
ByBlock
 70
     0
  3

 72
    65
 73
     0
 40
0.0
  0
LTYPE
  5
15
330
5
100
AcDbSymbolTableRecord
100
AcDbLinetypeTableRecord
  2
ByLayer
 70
     0
  3

 72
    65
 73
     0
 40
0.0
  0
LTYPE
  5
16
330
5
100
AcDbSymbolTableRecord
100
AcDbLinetypeTableRecord
  2
Continuous
 70
     0
  3
Solid line
 72
    65
 73
     0
 40
0.0
  0
ENDTAB
  0
TABLE
  2
LAYER
  5
2
330
0
100
AcDbSymbolTable
 70
     3
  0
LAYER
  5
10
330
2
100
AcDbSymbolTableRecord
100
AcDbLayerTableRecord
  2
0
 70
     0
 62
     7
  6
Continuous
370
    -3
390
F
347
BB
  0
LAYER
  5
2B
330
2
100
AcDbSymbolTableRecord
100
AcDbLayerTableRecord
  2
ASHADE
 70
     4
 62
     7
  6
Continuous
370
    -3
390
2D
347
BB
  0
LAYER
  5
F8
330
2
100
AcDbSymbolTableRecord
100
AcDbLayerTableRecord
  2
OracDecor_skirtings
 70
     0
 62
    21
420
 14915993
  6
Continuous
370
    -3
390
F
347
BB
  0
ENDTAB
  0
TABLE
  2
STYLE
  5
3
330
0
100
AcDbSymbolTable
 70
     2
  0
STYLE
  5
11
330
3
100
AcDbSymbolTableRecord
100
AcDbTextStyleTableRecord
  2
Standard
 70
     0
 40
0.0
 41
1.0
 50
0.0
 71
     0
 42
0.2
  3
txt
  4

  0
STYLE
  5
2C
330
3
100
AcDbSymbolTableRecord
100
AcDbTextStyleTableRecord
  2
ASHADE
 70
     0
 40
0.2
 41
1.0
 50
0.0
 71
     0
 42
0.2
  3
simplex
  4

  0
ENDTAB
  0
TABLE
  2
VIEW
  5
6
330
0
100
AcDbSymbolTable
 70
     0
  0
ENDTAB
  0
TABLE
  2
UCS
  5
7
330
0
100
AcDbSymbolTable
 70
     0
  0
ENDTAB
  0
TABLE
  2
APPID
  5
9
330
0
100
AcDbSymbolTable
 70
     6
  0
APPID
  5
12
330
9
100
AcDbSymbolTableRecord
100
AcDbRegAppTableRecord
  2
ACAD
 70
     0
  0
APPID
  5
8F
330
9
100
AcDbSymbolTableRecord
100
AcDbRegAppTableRecord
  2
AVE_RENDER
 70
     0
  0
APPID
  5
90
330
9
100
AcDbSymbolTableRecord
100
AcDbRegAppTableRecord
  2
AVE_ENTITY_MATERIAL
 70
     0
  0
APPID
  5
9C
330
9
100
AcDbSymbolTableRecord
100
AcDbRegAppTableRecord
  2
AVE_FINISH
 70
     0
  0
APPID
  5
9D
330
9
100
AcDbSymbolTableRecord
100
AcDbRegAppTableRecord
  2
AVE_MATERIAL
 70
     0
  0
APPID
  5
9E
330
9
100
AcDbSymbolTableRecord
100
AcDbRegAppTableRecord
  2
AVE_GLOBAL
 70
     0
  0
ENDTAB
  0
TABLE
  2
DIMSTYLE
  5
A
330
0
100
AcDbSymbolTable
 70
     1
100
AcDbDimStyleTable
 71
     0
  0
DIMSTYLE
105
27
330
A
100
AcDbSymbolTableRecord
100
AcDbDimStyleTableRecord
  2
Standard
 70
     0
340
11
  0
ENDTAB
  0
TABLE
  2
BLOCK_RECORD
  5
1
330
0
100
AcDbSymbolTable
 70
     6
  0
BLOCK_RECORD
  5
1F
330
1
100
AcDbSymbolTableRecord
100
AcDbBlockTableRecord
  2
*Model_Space
340
22
 70
     0
280
     1
281
     0
  0
BLOCK_RECORD
  5
1B
330
1
100
AcDbSymbolTableRecord
100
AcDbBlockTableRecord
  2
*Paper_Space
340
1E
 70
     0
280
     1
281
     0
  0
BLOCK_RECORD
  5
23
330
1
100
AcDbSymbolTableRecord
100
AcDbBlockTableRecord
  2
*Paper_Space0
340
26
 70
     0
280
     1
281
     0
  0
BLOCK_RECORD
  5
2E
330
1
100
AcDbSymbolTableRecord
100
AcDbBlockTableRecord
  2
direct
340
0
 70
     0
280
     1
281
     0
  0
BLOCK_RECORD
  5
42
330
1
100
AcDbSymbolTableRecord
100
AcDbBlockTableRecord
  2
overhead
340
0
 70
     0
280
     1
281
     0
  0
BLOCK_RECORD
  5
5F
330
1
100
AcDbSymbolTableRecord
100
AcDbBlockTableRecord
  2
sh_spot
340
0
 70
     0
280
     1
281
     0
  0
BLOCK_RECORD
  5
91
330
1
100
AcDbSymbolTableRecord
100
AcDbBlockTableRecord
  2
AVE_RENDER
340
0
102
{BLKREFS
331
94
331
95
331
96
331
97
331
98
331
99
331
9A
331
9B
102
}
 70
     0
280
     1
281
     0
  0
BLOCK_RECORD
  5
9F
330
1
100
AcDbSymbolTableRecord
100
AcDbBlockTableRecord
  2
AVE_GLOBAL
340
0
102
{BLKREFS
331
A2
102
}
 70
     0
280
     1
281
     0
  0
ENDTAB
  0
ENDSEC
  0
SECTION
  2
BLOCKS
  0
BLOCK
  5
20
330
1F
100
AcDbEntity
  8
0
100
AcDbBlockBegin
  2
*Model_Space
 70
     0
 10
0.0
 20
0.0
 30
0.0
  3
*Model_Space
  1

  0
ENDBLK
  5
21
330
1F
100
AcDbEntity
  8
0
100
AcDbBlockEnd
  0
BLOCK
  5
1C
330
1B
100
AcDbEntity
 67
     1
  8
0
100
AcDbBlockBegin
  2
*Paper_Space
 70
     0
 10
0.0
 20
0.0
 30
0.0
  3
*Paper_Space
  1

  0
ENDBLK
  5
1D
330
1B
100
AcDbEntity
 67
     1
  8
0
100
AcDbBlockEnd
  0
BLOCK
  5
24
330
23
100
AcDbEntity
 67
     1
  8
0
100
AcDbBlockBegin
  2
*Paper_Space0
 70
     0
 10
0.0
 20
0.0
 30
0.0
  3
*Paper_Space0
  1

  0
ENDBLK
  5
25
330
23
100
AcDbEntity
 67
     1
  8
0
100
AcDbBlockEnd
  0
BLOCK
  5
40
330
2E
100
AcDbEntity
  8
0
100
AcDbBlockBegin
  2
direct
 70
     2
 10
0.0
 20
0.0
 30
0.0
  3
direct
  1

  0
ATTDEF
  5
2F
330
2E
100
AcDbEntity
  8
ASHADE
  6
Continuous
 62
     1
100
AcDbText
 10
0.0
 20
-0.1
 30
0.0
 40
0.2
  1

  7
ASHADE
 72
     1
 11
0.0
 21
-0.1
 31
0.0
100
AcDbAttributeDefinition
280
     0
  3
Light Name
  2
SNAME
 70
     0
280
     0
  0
ARC
  5
30
330
2E
100
AcDbEntity
  8
ASHADE
  6
Continuous
 62
     7
100
AcDbCircle
 10
0.0
 20
0.0
 30
0.0
 40
0.3
100
AcDbArc
 50
205.6792886194569
 51
334.3207113805431
  0
ARC
  5
31
330
2E
100
AcDbEntity
  8
ASHADE
  6
Continuous
 62
     7
100
AcDbCircle
 10
0.0
 20
0.0
 30
0.0
 40
0.3
100
AcDbArc
 50
25.67928861945685
 51
154.3207113805431
  0
LINE
  5
32
330
2E
100
AcDbEntity
  8
ASHADE
  6
Continuous
 62
     7
100
AcDbLine
 10
-0.21
 20
0.2142428528562855
 30
0.0
 11
-0.21
 21
0.5
 31
0.0
  0
LINE
  5
33
330
2E
100
AcDbEntity
  8
ASHADE
  6
Continuous
 62
     7
100
AcDbLine
 10
-0.11
 20
0.2791057147390572
 30
0.0
 11
-0.11
 21
0.5
 31
0.0
  0
LINE
  5
34
330
2E
100
AcDbEntity
  8
ASHADE
  6
Continuous
 62
     7
100
AcDbLine
 10
0.21
 20
0.2142428528562855
 30
0.0
 11
0.21
 21
0.5
 31
0.0
  0
ATTDEF
  5
35
330
2E
100
AcDbEntity
  8
ASHADE
  6
Continuous
 62
     7
100
AcDbText
 10
0.0
 20
0.25
 30
0.0
 40
0.01
  1

100
AcDbAttributeDefinition
280
     0
  3
Look-at Y
  2
LAY
 70
     1
280
     0
  0
ATTDEF
  5
36
330
2E
100
AcDbEntity
  8
ASHADE
  6
Continuous
 62
     7
100
AcDbText
 10
0.0
 20
0.22
 30
0.0
 40
0.01
  1
1
100
AcDbAttributeDefinition
280
     0
  3
Light Intensity
  2
INTENSITY
 70
     1
280
     0
  0
ATTDEF
  5
37
330
2E
100
AcDbEntity
  8
ASHADE
  6
Continuous
 62
     7
100
AcDbText
 10
0.0
 20
0.16
 30
0.0
 40
0.01
  1
-1
100
AcDbAttributeDefinition
280
     0
  3
*not used*
  2
BEAMD
 70
     1
280
     0
  0
ATTDEF
  5
38
330
2E
100
AcDbEntity
  8
ASHADE
  6
Continuous
 62
     7
100
AcDbText
 10
0.0
 20
0.175
 30
0.0
 40
0.01
  1
-1
100
AcDbAttributeDefinition
280
     0
  3
*not used*
  2
CONED
 70
     1
280
     0
  0
ATTDEF
  5
39
330
2E
100
AcDbEntity
  8
ASHADE
  6
Continuous
 62
     7
100
AcDbText
 10
0.0
 20
0.19
 30
0.0
 40
0.01
  1
0
100
AcDbAttributeDefinition
280
     0
  3
Depth Map Size
  2
CONEA
 70
     1
280
     0
  0
ATTDEF
  5
3A
330
2E
100
AcDbEntity
  8
ASHADE
  6
Continuous
 62
     7
100
AcDbText
 10
0.0
 20
0.2050000000000001
 30
0.0
 40
0.01
  1
1,1,1
100
AcDbAttributeDefinition
280
     0
  3
Light Color (RGB)
  2
COLOR
 70
     1
280
     0
  0
ATTDEF
  5
3B
330
2E
100
AcDbEntity
  8
ASHADE
  6
Continuous
 62
     7
100
AcDbText
 10
0.0
 20
0.235
 30
0.0
 40
0.01
  1

100
AcDbAttributeDefinition
280
     0
  3
Look-at Z
  2
LAZ
 70
     1
280
     0
  0
LINE
  5
3C
330
2E
100
AcDbEntity
  8
ASHADE
  6
Continuous
 62
     7
100
AcDbLine
 10
0.0
 20
0.3
 30
0.0
 11
0.0
 21
0.5
 31
0.0
  0
LINE
  5
3D
330
2E
100
AcDbEntity
  8
ASHADE
  6
Continuous
 62
     7
100
AcDbLine
 10
0.11
 20
0.2791057147390572
 30
0.0
 11
0.11
 21
0.5
 31
0.0
  0
ATTDEF
  5
3E
330
2E
100
AcDbEntity
  8
ASHADE
  6
Continuous
 62
     7
100
AcDbText
 10
0.0
 20
0.265
 30
0.0
 40
0.01
  1

100
AcDbAttributeDefinition
280
     0
  3
Look-at X
  2
LAX
 70
     1
280
     0
  0
ATTDEF
  5
3F
330
2E
100
AcDbEntity
  8
ASHADE
  6
Continuous
 62
     7
100
AcDbText
 10
0.0
 20
0.28
 30
0.0
 40
0.01
  1

100
AcDbAttributeDefinition
280
     0
  3

  2
GNAME
 70
     1
280
     0
  0
ENDBLK
  5
41
330
2E
100
AcDbEntity
  8
0
100
AcDbBlockEnd
  0
BLOCK
  5
5D
330
42
100
AcDbEntity
  8
0
100
AcDbBlockBegin
  2
overhead
 70
     2
 10
0.0
 20
0.0
 30
0.0
  3
overhead
  1

  0
ATTDEF
  5
43
330
42
100
AcDbEntity
  8
ASHADE
  6
Continuous
 62
     1
100
AcDbText
 10
0.0
 20
-0.1
 30
0.0
 40
0.2
  1

  7
ASHADE
 72
     1
 11
0.0
 21
-0.1
 31
0.0
100
AcDbAttributeDefinition
280
     0
  3
Light Name
  2
SNAME
 70
     0
280
     0
  0
ARC
  5
44
330
42
100
AcDbEntity
  8
ASHADE
  6
Continuous
 62
     7
100
AcDbCircle
 10
0.0
 20
0.0
 30
0.0
 40
0.3
100
AcDbArc
 50
205.6792886194569
 51
334.3207113805431
  0
LINE
  5
45
330
42
100
AcDbEntity
  8
ASHADE
  6
Continuous
 62
     7
100
AcDbLine
 10
-0.2041413561583015
 20
-0.2198324514393848
 30
0.0
 11
-0.2721884748777353
 21
-0.2931099352525131
 31
0.0
  0
LINE
  5
46
330
42
100
AcDbEntity
  8
ASHADE
  6
Continuous
 62
     7
100
AcDbLine
 10
-0.1096591641591904
 20
-0.2792398032442862
 30
0.0
 11
-0.1279356915190555
 21
-0.3257797704516673
 31
0.0
  0
LINE
  5
47
330
42
100
AcDbEntity
  8
ASHADE
  6
Continuous
 62
     7
100
AcDbLine
 10
0.0
 20
-0.2999999999999999
 30
0.0
 11
0.0
 21
-0.4
 31
0.0
  0
LINE
  5
48
330
42
100
AcDbEntity
  8
ASHADE
  6
Continuous
 62
     7
100
AcDbLine
 10
0.1096591641591904
 20
-0.2792398032442862
 30
0.0
 11
0.1279356915190555
 21
-0.3257797704516673
 31
0.0
  0
LINE
  5
49
330
42
100
AcDbEntity
  8
ASHADE
  6
Continuous
 62
     7
100
AcDbLine
 10
0.2041413561583015
 20
-0.2198324514393848
 30
0.0
 11
0.2721884748777353
 21
-0.2931099352525131
 31
0.0
  0
ARC
  5
4A
330
42
100
AcDbEntity
  8
ASHADE
  6
Continuous
 62
     7
100
AcDbCircle
 10
0.0
 20
0.0
 30
0.0
 40
0.3
100
AcDbArc
 50
25.67928861945685
 51
154.3207113805431
  0
LINE
  5
4B
330
42
100
AcDbEntity
  8
ASHADE
  6
Continuous
 62
     7
100
AcDbLine
 10
-0.2703701166919155
 20
0.13
 30
0.0
 11
-0.3154318028072347
 21
0.1516666666666666
 31
0.0
  0
LINE
  5
4C
330
42
100
AcDbEntity
  8
ASHADE
  6
Continuous
 62
     7
100
AcDbLine
 10
-0.2703701166919155
 20
-0.13
 30
0.0
 11
-0.3154318028072347
 21
-0.1516666666666666
 31
0.0
  0
LINE
  5
4D
330
42
100
AcDbEntity
  8
ASHADE
  6
Continuous
 62
     7
100
AcDbLine
 10
-0.2041413561583015
 20
0.2198324514393849
 30
0.0
 11
-0.2721884748777353
 21
0.2931099352525131
 31
0.0
  0
LINE
  5
4E
330
42
100
AcDbEntity
  8
ASHADE
  6
Continuous
 62
     7
100
AcDbLine
 10
-0.1096591641591904
 20
0.2792398032442862
 30
0.0
 11
-0.1279356915190555
 21
0.3257797704516674
 31
0.0
  0
LINE
  5
4F
330
42
100
AcDbEntity
  8
ASHADE
  6
Continuous
 62
     7
100
AcDbLine
 10
0.2703701166919155
 20
-0.13
 30
0.0
 11
0.3154318028072347
 21
-0.1516666666666666
 31
0.0
  0
LINE
  5
50
330
42
100
AcDbEntity
  8
ASHADE
  6
Continuous
 62
     7
100
AcDbLine
 10
0.2703701166919155
 20
0.13
 30
0.0
 11
0.3154318028072347
 21
0.1516666666666666
 31
0.0
  0
LINE
  5
51
330
42
100
AcDbEntity
  8
ASHADE
  6
Continuous
 62
     7
100
AcDbLine
 10
0.0
 20
0.3
 30
0.0
 11
0.0
 21
0.4
 31
0.0
  0
ATTDEF
  5
52
330
42
100
AcDbEntity
  8
ASHADE
  6
Continuous
 62
     7
100
AcDbText
 10
0.0
 20
0.22
 30
0.0
 40
0.01
  1
1
100
AcDbAttributeDefinition
280
     0
  3
Light Intensity
  2
INTENSITY
 70
     1
280
     0
  0
ATTDEF
  5
53
330
42
100
AcDbEntity
  8
ASHADE
  6
Continuous
 62
     7
100
AcDbText
 10
0.0
 20
0.16
 30
0.0
 40
0.01
  1
-1
100
AcDbAttributeDefinition
280
     0
  3
*not used*
  2
BEAMD
 70
     1
280
     0
  0
ATTDEF
  5
54
330
42
100
AcDbEntity
  8
ASHADE
  6
Continuous
 62
     7
100
AcDbText
 10
0.0
 20
0.175
 30
0.0
 40
0.01
  1
-1
100
AcDbAttributeDefinition
280
     0
  3
*not used*
  2
CONED
 70
     1
280
     0
  0
ATTDEF
  5
55
330
42
100
AcDbEntity
  8
ASHADE
  6
Continuous
 62
     7
100
AcDbText
 10
0.0
 20
0.19
 30
0.0
 40
0.01
  1
0
100
AcDbAttributeDefinition
280
     0
  3
Depth Map Size
  2
CONEA
 70
     1
280
     0
  0
ATTDEF
  5
56
330
42
100
AcDbEntity
  8
ASHADE
  6
Continuous
 62
     7
100
AcDbText
 10
0.0
 20
0.2050000000000001
 30
0.0
 40
0.01
  1
1,1,1
100
AcDbAttributeDefinition
280
     0
  3
Light Color (RGB)
  2
COLOR
 70
     1
280
     0
  0
ATTDEF
  5
57
330
42
100
AcDbEntity
  8
ASHADE
  6
Continuous
 62
     7
100
AcDbText
 10
0.0
 20
0.235
 30
0.0
 40
0.01
  1

100
AcDbAttributeDefinition
280
     0
  3
Look-at Z
  2
LAZ
 70
     1
280
     0
  0
ATTDEF
  5
58
330
42
100
AcDbEntity
  8
ASHADE
  6
Continuous
 62
     7
100
AcDbText
 10
0.0
 20
0.25
 30
0.0
 40
0.01
  1

100
AcDbAttributeDefinition
280
     0
  3
Look-at Y
  2
LAY
 70
     1
280
     0
  0
ATTDEF
  5
59
330
42
100
AcDbEntity
  8
ASHADE
  6
Continuous
 62
     7
100
AcDbText
 10
0.0
 20
0.265
 30
0.0
 40
0.01
  1

100
AcDbAttributeDefinition
280
     0
  3
Look-at X
  2
LAX
 70
     1
280
     0
  0
ATTDEF
  5
5A
330
42
100
AcDbEntity
  8
ASHADE
  6
Continuous
 62
     7
100
AcDbText
 10
0.0
 20
0.28
 30
0.0
 40
0.01
  1

100
AcDbAttributeDefinition
280
     0
  3

  2
GNAME
 70
     1
280
     0
  0
LINE
  5
5B
330
42
100
AcDbEntity
  8
ASHADE
  6
Continuous
 62
     7
100
AcDbLine
 10
0.1096591641591904
 20
0.2792398032442862
 30
0.0
 11
0.1279356915190555
 21
0.3257797704516674
 31
0.0
  0
LINE
  5
5C
330
42
100
AcDbEntity
  8
ASHADE
  6
Continuous
 62
     7
100
AcDbLine
 10
0.2041413561583015
 20
0.2198324514393849
 30
0.0
 11
0.2721884748777353
 21
0.2931099352525131
 31
0.0
  0
ENDBLK
  5
5E
330
42
100
AcDbEntity
  8
0
100
AcDbBlockEnd
  0
BLOCK
  5
85
330
5F
100
AcDbEntity
  8
0
100
AcDbBlockBegin
  2
sh_spot
 70
     2
 10
0.0
 20
0.0
 30
0.0
  3
sh_spot
  1

  0
LINE
  5
60
330
5F
100
AcDbEntity
  8
ASHADE
  6
Continuous
 62
     7
100
AcDbLine
 10
0.25
 20
0.26
 30
0.0
 11
-0.25
 21
0.26
 31
0.0
  0
LINE
  5
61
330
5F
100
AcDbEntity
  8
ASHADE
  6
Continuous
 62
     7
100
AcDbLine
 10
-0.25
 20
-0.3399999999999999
 30
0.0
 11
0.25
 21
-0.3399999999999999
 31
0.0
  0
ATTDEF
  5
62
330
5F
100
AcDbEntity
  8
ASHADE
  6
Continuous
 62
     1
100
AcDbText
 10
0.0
 20
-0.1
 30
0.0
 40
0.2
  1

  7
ASHADE
 72
     1
 11
0.0
 21
-0.1
 31
0.0
100
AcDbAttributeDefinition
280
     0
  3
Light Name
  2
SNAME
 70
     0
280
     0
  0
LINE
  5
63
330
5F
100
AcDbEntity
  8
ASHADE
  6
Continuous
 62
     7
100
AcDbLine
 10
-0.25
 20
-0.13
 30
0.0
 11
-0.25
 21
-0.3399999999999999
 31
0.0
  0
LINE
  5
64
330
5F
100
AcDbEntity
  8
ASHADE
  6
Continuous
 62
     7
100
AcDbLine
 10
-0.25
 20
-0.18
 30
0.0
 11
-0.29
 21
-0.18
 31
0.0
  0
LINE
  5
65
330
5F
100
AcDbEntity
  8
ASHADE
  6
Continuous
 62
     7
100
AcDbLine
 10
-0.29
 20
-0.22
 30
0.0
 11
-0.25
 21
-0.22
 31
0.0
  0
LINE
  5
66
330
5F
100
AcDbEntity
  8
ASHADE
  6
Continuous
 62
     7
100
AcDbLine
 10
-0.29
 20
-0.18
 30
0.0
 11
-0.29
 21
-0.22
 31
0.0
  0
LINE
  5
67
330
5F
100
AcDbEntity
  8
ASHADE
  6
Continuous
 62
     7
100
AcDbLine
 10
-0.1045454545454545
 20
0.26
 30
0.0
 11
-0.15
 21
0.46
 31
0.0
  0
LINE
  5
68
330
5F
100
AcDbEntity
  8
ASHADE
  6
Continuous
 62
     7
100
AcDbLine
 10
-0.21
 20
0.26
 30
0.0
 11
-0.301304347826087
 21
0.46
 31
0.0
  0
LINE
  5
69
330
5F
100
AcDbEntity
  8
ASHADE
  6
Continuous
 62
     7
100
AcDbLine
 10
-0.25
 20
0.26
 30
0.0
 11
-0.25
 21
0.13
 31
0.0
  0
LINE
  5
6A
330
5F
100
AcDbEntity
  8
ASHADE
  6
Continuous
 62
     7
100
AcDbLine
 10
-0.25
 20
0.22
 30
0.0
 11
-0.29
 21
0.22
 31
0.0
  0
LINE
  5
6B
330
5F
100
AcDbEntity
  8
ASHADE
  6
Continuous
 62
     7
100
AcDbLine
 10
-0.29
 20
0.1799999999999999
 30
0.0
 11
-0.25
 21
0.1799999999999999
 31
0.0
  0
LINE
  5
6C
330
5F
100
AcDbEntity
  8
ASHADE
  6
Continuous
 62
     7
100
AcDbLine
 10
-0.29
 20
0.22
 30
0.0
 11
-0.29
 21
0.1799999999999999
 31
0.0
  0
ATTDEF
  5
6D
330
5F
100
AcDbEntity
  8
ASHADE
  6
Continuous
 62
     7
100
AcDbText
 10
0.0
 20
-0.24
 30
0.0
 40
0.01
  1
0
100
AcDbAttributeDefinition
280
     0
  3
Depth Map Size
  2
ZSIZE
 70
     1
280
     0
  0
ATTDEF
  5
6E
330
5F
100
AcDbEntity
  8
ASHADE
  6
Continuous
 62
     7
100
AcDbText
 10
0.0
 20
-0.3300000000000001
 30
0.0
 40
0.01
  1
0,0,0
100
AcDbAttributeDefinition
280
     0
  3
Look-from XYZ
  2
LFXYZ
 70
     1
280
     0
  0
ATTDEF
  5
6F
330
5F
100
AcDbEntity
  8
ASHADE
  6
Continuous
 62
     7
100
AcDbText
 10
0.0
 20
-0.315
 30
0.0
 40
0.01
  1
0.0
100
AcDbAttributeDefinition
280
     0
  3
Beam Distribution
  2
BEAMDI
 70
     1
280
     0
  0
ATTDEF
  5
70
330
5F
100
AcDbEntity
  8
ASHADE
  6
Continuous
 62
     7
100
AcDbText
 10
0.0
 20
-0.3
 30
0.0
 40
0.01
  1
0.0
100
AcDbAttributeDefinition
280
     0
  3
Cone Delta
  2
CONEDE
 70
     1
280
     0
  0
ATTDEF
  5
71
330
5F
100
AcDbEntity
  8
ASHADE
  6
Continuous
 62
     7
100
AcDbText
 10
0.0
 20
-0.2850000000000001
 30
0.0
 40
0.01
  1
10.0
100
AcDbAttributeDefinition
280
     0
  3
Cone Angle
  2
CONEAN
 70
     1
280
     0
  0
ATTDEF
  5
72
330
5F
100
AcDbEntity
  8
ASHADE
  6
Continuous
 62
     7
100
AcDbText
 10
0.0
 20
-0.27
 30
0.0
 40
0.01
  1
-1
100
AcDbAttributeDefinition
280
     0
  3
*not used*
  2
BIASMAX
 70
     1
280
     0
  0
ATTDEF
  5
73
330
5F
100
AcDbEntity
  8
ASHADE
  6
Continuous
 62
     7
100
AcDbText
 10
0.0
 20
-0.255
 30
0.0
 40
0.01
  1
-1
100
AcDbAttributeDefinition
280
     0
  3
*not used*
  2
BIASMIN
 70
     1
280
     0
  0
ATTDEF
  5
74
330
5F
100
AcDbEntity
  8
ASHADE
  6
Continuous
 62
     7
100
AcDbText
 10
0.0
 20
-0.225
 30
0.0
 40
0.01
  1
1,1,1
100
AcDbAttributeDefinition
280
     0
  3
Light Color (RGB)
  2
COLOR
 70
     1
280
     0
  0
ATTDEF
  5
75
330
5F
100
AcDbEntity
  8
ASHADE
  6
Continuous
 62
     7
100
AcDbText
 10
0.0
 20
-0.21
 30
0.0
 40
0.01
  1
1
100
AcDbAttributeDefinition
280
     0
  3
Light Intensity
  2
INTENSITY
 70
     1
280
     0
  0
ATTDEF
  5
76
330
5F
100
AcDbEntity
  8
ASHADE
  6
Continuous
 62
     7
100
AcDbText
 10
0.0
 20
-0.15
 30
0.0
 40
0.01
  1

100
AcDbAttributeDefinition
280
     0
  3

  2
GNAME
 70
     1
280
     0
  0
ATTDEF
  5
77
330
5F
100
AcDbEntity
  8
ASHADE
  6
Continuous
 62
     7
100
AcDbText
 10
0.0
 20
-0.195
 30
0.0
 40
0.01
  1

100
AcDbAttributeDefinition
280
     0
  3
Look-at Z
  2
LAZ
 70
     1
280
     0
  0
ATTDEF
  5
78
330
5F
100
AcDbEntity
  8
ASHADE
  6
Continuous
 62
     7
100
AcDbText
 10
0.0
 20
-0.18
 30
0.0
 40
0.01
  1

100
AcDbAttributeDefinition
280
     0
  3
Look-at Y
  2
LAY
 70
     1
280
     0
  0
ATTDEF
  5
79
330
5F
100
AcDbEntity
  8
ASHADE
  6
Continuous
 62
     7
100
AcDbText
 10
0.0
 20
-0.165
 30
0.0
 40
0.01
  1

100
AcDbAttributeDefinition
280
     0
  3
Look-at X
  2
LAX
 70
     1
280
     0
  0
LINE
  5
7A
330
5F
100
AcDbEntity
  8
ASHADE
  6
Continuous
 62
     7
100
AcDbLine
 10
0.25
 20
-0.3399999999999999
 30
0.0
 11
0.25
 21
-0.13
 31
0.0
  0
LINE
  5
7B
330
5F
100
AcDbEntity
  8
ASHADE
  6
Continuous
 62
     7
100
AcDbLine
 10
0.25
 20
-0.18
 30
0.0
 11
0.29
 21
-0.18
 31
0.0
  0
LINE
  5
7C
330
5F
100
AcDbEntity
  8
ASHADE
  6
Continuous
 62
     7
100
AcDbLine
 10
0.29
 20
-0.22
 30
0.0
 11
0.25
 21
-0.22
 31
0.0
  0
LINE
  5
7D
330
5F
100
AcDbEntity
  8
ASHADE
  6
Continuous
 62
     7
100
AcDbLine
 10
0.29
 20
-0.18
 30
0.0
 11
0.29
 21
-0.22
 31
0.0
  0
LINE
  5
7E
330
5F
100
AcDbEntity
  8
ASHADE
  6
Continuous
 62
     7
100
AcDbLine
 10
0.21
 20
0.26
 30
0.0
 11
0.301304347826087
 21
0.46
 31
0.0
  0
LINE
  5
7F
330
5F
100
AcDbEntity
  8
ASHADE
  6
Continuous
 62
     7
100
AcDbLine
 10
0.1045454545454545
 20
0.26
 30
0.0
 11
0.15
 21
0.46
 31
0.0
  0
LINE
  5
80
330
5F
100
AcDbEntity
  8
ASHADE
  6
Continuous
 62
     7
100
AcDbLine
 10
0.0
 20
0.26
 30
0.0
 11
0.0
 21
0.46
 31
0.0
  0
LINE
  5
81
330
5F
100
AcDbEntity
  8
ASHADE
  6
Continuous
 62
     7
100
AcDbLine
 10
0.25
 20
0.13
 30
0.0
 11
0.25
 21
0.26
 31
0.0
  0
LINE
  5
82
330
5F
100
AcDbEntity
  8
ASHADE
  6
Continuous
 62
     7
100
AcDbLine
 10
0.25
 20
0.22
 30
0.0
 11
0.29
 21
0.22
 31
0.0
  0
LINE
  5
83
330
5F
100
AcDbEntity
  8
ASHADE
  6
Continuous
 62
     7
100
AcDbLine
 10
0.29
 20
0.1799999999999999
 30
0.0
 11
0.25
 21
0.1799999999999999
 31
0.0
  0
LINE
  5
84
330
5F
100
AcDbEntity
  8
ASHADE
  6
Continuous
 62
     7
100
AcDbLine
 10
0.29
 20
0.22
 30
0.0
 11
0.29
 21
0.1799999999999999
 31
0.0
  0
ENDBLK
  5
86
330
5F
100
AcDbEntity
  8
0
100
AcDbBlockEnd
  0
BLOCK
  5
92
330
91
100
AcDbEntity
  8
ASHADE
100
AcDbBlockBegin
  2
AVE_RENDER
 70
     0
 10
0.0
 20
0.0
 30
0.0
  3
AVE_RENDER
  1
AVE_RENDER
  0
ENDBLK
  5
93
330
91
100
AcDbEntity
  8
0
100
AcDbBlockEnd
  0
BLOCK
  5
A0
330
9F
100
AcDbEntity
  8
ASHADE
100
AcDbBlockBegin
  2
AVE_GLOBAL
 70
     0
 10
0.0
 20
0.0
 30
0.0
  3
AVE_GLOBAL
  1
AVE_GLOBAL
  0
ENDBLK
  5
A1
330
9F
100
AcDbEntity
  8
0
100
AcDbBlockEnd
  0
ENDSEC
  0
SECTION
  2
ENTITIES
  0
INSERT
  5
94
330
1F
100
AcDbEntity
  8
ASHADE
 62
     1
100
AcDbBlockReference
  2
AVE_RENDER
 10
0.0
 20
0.0
 30
0.0
1001
AVE_RENDER
1002
{
1070
     7
1000
Pref
1070
    30
1070
    20
1070
     1
1070
     0
1000

1070
    10
1070
     1
1070
    10
1040
1.0
1070
     1
1040
0.3
1040
0.7
1040
0.0
1040
10.0
1010
-1.0
1020
-1.0
1030
-1.0
1040
0.3
1070
    49
1070
     0
1070
     0
1010
1.0
1020
1.0
1030
1.0
1040
45.0
1070
     1
1070
     0
1000
WCS
1040
0.0
1070
     0
1040
10.0
1002
}
  0
INSERT
  5
95
330
1F
100
AcDbEntity
  8
ASHADE
 62
     3
100
AcDbBlockReference
  2
AVE_RENDER
 10
0.0
 20
0.0
 30
0.0
1001
AVE_RENDER
1002
{
1070
     0
1000
Full Opt
1070
     0
1070
     1
1070
     1
1070
     1
1070
     0
1070
     0
1070
     0
1070
     1
1070
     1
1040
0.0001
1040
0.0001
1002
}
  0
INSERT
  5
96
330
1F
100
AcDbEntity
  8
ASHADE
 62
     4
100
AcDbBlockReference
  2
AVE_RENDER
 10
0.0
 20
0.0
 30
0.0
1001
AVE_RENDER
1002
{
1070
     0
1000
Quick Opt
1070
     0
1070
     1
1070
     1
1070
     1
1070
     0
1070
     0
1070
     1
1002
}
  0
INSERT
  5
97
330
1F
100
AcDbEntity
  8
ASHADE
 62
     5
100
AcDbBlockReference
  2
AVE_RENDER
 10
0.0
 20
0.0
 30
0.0
1001
AVE_RENDER
1002
{
1070
     1
1000
Scanl Opt
1070
     2
1070
     0
1070
     2
1040
2.0
1040
4.0
1070
     0
1070
     1
1070
     0
1040
0.03
1002
}
  0
INSERT
  5
98
330
1F
100
AcDbEntity
  8
ASHADE
 62
     6
100
AcDbBlockReference
  2
AVE_RENDER
 10
0.0
 20
0.0
 30
0.0
1001
AVE_RENDER
1002
{
1070
     2
1000
Raytr Opt
1070
     2
1070
     0
1070
     2
1040
2.0
1040
4.0
1070
     0
1070
     1
1070
     1
1040
0.03
1070
     3
1040
0.03
1002
}
  0
INSERT
  5
99
330
1F
100
AcDbEntity
  8
ASHADE
 62
     7
100
AcDbBlockReference
  2
AVE_RENDER
 10
0.0
 20
0.0
 30
0.0
1001
AVE_RENDER
1002
{
1070
     0
1000
RFile Opt
1070
     1
1070
   640
1070
   480
1070
 10000
1070
     1
1070
     8
1070
     8
1070
     0
1070
     0
1070
     0
1070
     0
1070
     0
1070
     0
1070
     0
1002
}
  0
INSERT
  5
9A
330
1F
100
AcDbEntity
  8
ASHADE
 62
     8
100
AcDbBlockReference
  2
AVE_RENDER
 10
0.0
 20
0.0
 30
0.0
1001
AVE_RENDER
1002
{
1070
     0
1000
Fog Opt
1070
     0
1070
     0
1040
0.0
1040
1.0
1040
0.0
1040
1.0
1010
0.5
1020
0.5
1030
0.5
1002
}
  0
INSERT
  5
9B
330
1F
100
AcDbEntity
  8
ASHADE
 62
     9
100
AcDbBlockReference
  2
AVE_RENDER
 10
0.0
 20
0.0
 30
0.0
1001
AVE_RENDER
1002
{
1070
     0
1000
BG Opt
1070
     0
1070
     1
1010
0.0
1020
0.0
1030
0.0
1010
1.0
1020
0.0
1030
0.0
1010
0.0
1020
1.0
1030
0.0
1010
0.0
1020
0.0
1030
1.0
1040
0.5
1040
0.33
1040
0.0
1000

1070
     1
1000

1070
     1
1070
     1
1040
1.0
1040
1.0
1040
0.0
1040
0.0
1070
     0
1002
}
  0
INSERT
  5
A2
330
1F
100
AcDbEntity
  8
ASHADE
 62
     1
100
AcDbBlockReference
  2
AVE_GLOBAL
 10
0.0
 20
0.0
 30
0.0
1001
AVE_MATERIAL
1002
{
1000
*GLOBAL*
1000
2
1000
Global finish.
1002
{
1002
}
1002
{
1070
    63
1002
{
1002
{
1010
-1.0
1020
-1.0
1030
-1.0
1002
}
1040
0.1000000014901161
1000

1040
0.0
1002
{
1002
}
1040
0.0
1002
{
1002
}
1040
0.0
1002
}
1002
{
1002
{
1010
-1.0
1020
-1.0
1030
-1.0
1002
}
1040
0.6999999880790711
1000

1040
0.0
1002
{
1002
}
1040
0.0
1002
{
1002
}
1040
0.0
1002
}
1002
{
1002
{
1010
-1.0
1020
-1.0
1030
-1.0
1002
}
1040
0.2000000029802322
1000

1040
0.0
1002
{
1002
}
1040
0.0
1002
{
1002
}
1040
0.0
1002
}
1002
{
1070
     0
1002
{
1070
     1
1002
{
1040
1.0
1040
1.0
1000

1040
0.0
1002
{
1002
}
1040
0.0
1002
{
1002
}
1040
0.0
1002
}
1002
}
1040
1.0
1040
0.0
1040
0.0
1002
}
1002
{
1040
1.0
1040
1.0
1000

1040
0.0
1002
{
1002
}
1040
0.0
1002
{
1002
}
1040
0.0
1002
}
1002
{
1040
0.5
1040
1.0
1000

1040
0.0
1002
{
1002
}
1040
0.0
1002
{
1002
}
1040
0.0
1002
}
1002
{
1070
     0
1040
0.0
1002
{
1002
}
1040
1.0
1002
{
1002
}
1040
0.0
1002
}
1002
{
1040
0.0
1002
{
1002
{
1010
0.0
1020
0.0
1030
0.0
1002
}
1040
1.0
1000

1040
0.0
1002
{
1002
}
1040
0.0
1002
{
1002
}
1040
0.0
1002
}
1002
}
1002
{
1002
{
1070
     1
1002
{
1040
0.0
1040
1.0
1000

1040
0.0
1002
{
1002
}
1040
0.0
1002
{
1002
}
1040
0.0
1002
}
1002
}
1040
0.0
1002
{
1002
}
1010
1.0
1020
0.0
1030
0.0
1010
0.0
1020
1.0
1030
0.0
1010
0.0
1020
0.0
1030
1.0
1070
     0
1002
}
1002
{
1002
{
1040
1.0
1040
1.0
1002
{
1070
     1
1002
{
1040
1.0
1040
1.0
1000

1040
0.0
1002
{
1002
}
1040
0.0
1002
{
1002
}
1040
0.0
1002
}
1002
}
1002
}
1070
     0
1040
0.0
1002
{
1002
}
1002
}
1002
{
1002
}
1002
}
1002
{
1071
        3
1070
     3
1070
     0
1002
{
1070
     2
1070
     0
1070
     0
1040
0.0
1002
}
1070
     0
1070
     2
1002
{
1002
}
1002
}
1002
{
1040
8030.0
1040
190.3000030517578
1040
0.3050000071525574
1040
228.0
1040
545.0
1040
14.0
1040
17.39999961853027
1040
0.4560000002384186
1002
}
1002
}
  0
MESH
  5
F9
330
1F
100
AcDbEntity
  8
OracDecor_skirtings
 62
    36
420
  8862472
160
             34352
310
30860000BA0300000C00000013000000020000003C0000000600000002000000000000C0FF3F8F40000000000000F1BE00000040FD3F6940000000C0FF3F8F400000002004F304C000000040FD3F69400C000000130000000A0000003C0000000600000002000000000000C0FF3F8F40000000000000F1BE00000040889068
310
40000000C0FF3F8F400000002004F304C000000040FD3F69400C00000013000000120000003C0000000600000002000000000000C0FF3F8F40000000000000F1BE0000004088906840000000C0FF3F8F40000000000000F1BE00000040FD3F69400C000000130000001A0000003C0000000600000002000000000000C0FF3F
310
8F40000000805614F4BF00000000AE7D2D40000000C0FF3F8F40000000200DB719C000000000D8E821400C00000013000000220000003C0000000600000002000000000000C0FF3F8F40000000805614F4BF00000000941B2F40000000C0FF3F8F40000000805614F4BF00000000AE7D2D400C000000130000002A0000003C
310
0000000600000002000000000000C0FF3F8F4000000080A56315C000000000E7263540000000C0FF3F8F40000000805614F4BF00000000941B2F400C00000013000000320000003C0000000600000002000000000000C0FF3F8F4000000080A56315C000000000E7263540000000C0FF3F8F40000000200DB719C000000000
310
D8E821400C000000130000003A0000003C0000000600000002000000000000C0FF3F8F40000000200DB719C000000000D8E82140000000C0FF3F8F400000006092861CC000000000925E21400C00000013000000420000003C0000000600000002000000000000C0FF3F8F40000000A00D0018C00000000055643540000000
310
C0FF3F8F4000000080A56315C000000000E72635400C000000130000004A0000003C0000000600000002000000000000C0FF3F8F40000000A00D0018C00000000055643540000000C0FF3F8F400000006092861CC000000000925E21400C00000013000000520000003C0000000600000002000000000000C0FF3F8F400000
310
006092861CC000000000925E2140000000C0FF3F8F40000000002BBE1EC000000000EC5720400C000000130000005A0000003C0000000600000002000000000000C0FF3F8F40000000E0DF201AC000000000C5D73540000000C0FF3F8F40000000A00D0018C000000000556435400C00000013000000620000003C00000006
310
00000002000000000000C0FF3F8F40000000E0DF201AC000000000C5D73540000000C0FF3F8F40000000002BBE1EC000000000EC5720400C000000130000006A0000003C0000000600000002000000000000C0FF3F8F40000000002BBE1EC000000000EC572040000000C0FF3F8F4000000080D10620C000000000FCF31D40
310
0C00000013000000720000003C0000000600000002000000000000C0FF3F8F40000000C07D841BC0000000004B733640000000C0FF3F8F40000000E0DF201AC000000000C5D735400C000000130000007A0000003C0000000600000002000000000000C0FF3F8F40000000C07D841BC0000000004B733640000000C0FF3F8F
310
4000000080D10620C000000000FCF31D400C00000013000000820000003C0000000600000002000000000000C0FF3F8F40000000E003001CC0000000002B243740000000C0FF3F8F40000000C07D841BC0000000004B7336400C000000130000008A0000003C0000000600000002000000000000C0FF3F8F40000000E00300
310
1CC0000000002B243740000000C0FF3F8F4000000080D10620C000000000FCF31D400C00000013000000920000003C0000000600000002000000000000C0FF3F8F40000000C001002FC000000000000036BF000000C0FF3F8F40000000C001802FC0000000000010B13F0C000000130000009A0000003C0000000600000002
310
000000000000C0FF3F8F40000000C001002FC000000000000036BF000000C0FF3F8F400000008071C424C000000000000036BF0C00000013000000A20000003C0000000600000002000000000000C0FF3F8F400000008071C424C000000000000036BF000000C0FF3F8F4000000000415824C000000000000EA83F0C000000
310
13000000AA0000003C0000000600000002000000000000C0FF3F8F4000000000415824C000000000000EA83F000000C0FF3F8F40000000C001802FC0000000000010B13F0C00000013000000B20000003C0000000600000002000000000000C0FF3F8F40000000C001802FC0000000000010B13F000000C0FF3F8F40000000
310
C0B5DD2FC00000000000F5CF3F0C00000013000000BA0000003C0000000600000002000000000000C0FF3F8F4000000000560024C000000000000CC73F000000C0FF3F8F4000000000415824C000000000000EA83F0C00000013000000C20000003C0000000600000002000000000000C0FF3F8F4000000000560024C00000
310
0000000CC73F000000C0FF3F8F40000000C0B5DD2FC00000000000F5CF3F0C00000013000000CA0000003C0000000600000002000000000000C0FF3F8F40000000C0000030C00000000080FADF3F000000C0FF3F8F40000000C0B5DD2FC00000000000F5CF3F0C00000013000000D20000003C000000060000000200000000
310
0000C0FF3F8F40000000C02ACD23C00000000000EFD73F000000C0FF3F8F4000000000560024C000000000000CC73F0C00000013000000DA0000003C0000000600000002000000000000C0FF3F8F40000000C0000030C00000000080FADF3F000000C0FF3F8F40000000C02ACD23C00000000000EFD73F0C00000013000000
310
E20000003C0000000600000002000000000000C0FF3F8F40000000000080F1BE00000000F2E42540000000C0FF3F8F4000000000083CBBBF00000000DCFC24400C00000013000000EA0000003C0000000600000002000000000000C0FF3F8F40000000000080F1BE00000000F2E42540000000C0FF3F8F40000000000080F1
310
BE000000008E1D2A400C00000013000000F20000003C0000000600000002000000000000C0FF3F8F40000000000080F1BE000000008E1D2A40000000C0FF3F8F4000000000F096B3BF0000000002A72A400C00000013000000FA0000003C0000000600000002000000000000C0FF3F8F4000000000F096B3BF0000000002A7
310
2A40000000C0FF3F8F4000000000083CBBBF00000000DCFC24400C00000013000000020100003C0000000600000002000000000000C0FF3F8F4000000000083CBBBF00000000DCFC2440000000C0FF3F8F400000000070C8D9BF00000000264624400C000000130000000A0100003C0000000600000002000000000000C0FF
310
3F8F40000000008A16D2BF0000000066062B40000000C0FF3F8F4000000000F096B3BF0000000002A72A400C00000013000000120100003C0000000600000002000000000000C0FF3F8F40000000008A16D2BF0000000066062B40000000C0FF3F8F400000000070C8D9BF00000000264624400C000000130000001A010000
310
3C0000000600000002000000000000C0FF3F8F400000000070C8D9BF0000000026462440000000C0FF3F8F40000000009D71EABF00000000AEE723400C00000013000000220100003C0000000600000002000000000000C0FF3F8F4000000000290EEDBF00000000B4082C40000000C0FF3F8F40000000008A16D2BF000000
310
0066062B400C000000130000002A0100003C0000000600000002000000000000C0FF3F8F4000000000290EEDBF00000000B4082C40000000C0FF3F8F40000000009D71EABF00000000AEE723400C00000013000000320100003C0000000600000002000000000000C0FF3F8F40000000009D71EABF00000000AEE723400000
310
00C0FF3F8F40000000200DB719C000000000D8E821400C000000130000003A0100003C0000000600000002000000000000C0FF3F8F40000000805614F4BF00000000AE7D2D40000000C0FF3F8F4000000000290EEDBF00000000B4082C400C00000013000000420100003C0000000600000002000000000000C0FF3F8F4000
310
000000280EEDBF0000000046483040000000C0FF3F8F40000000805614F4BF00000000941B2F400C000000130000004A0100003C0000000600000002000000000000C0FF3F8F40000000009C71EABF00000000CA583440000000C0FF3F8F4000000000280EEDBF00000000464830400C00000013000000520100003C000000
310
0600000002000000000000C0FF3F8F4000000080A56315C000000000E7263540000000C0FF3F8F40000000009C71EABF00000000CA5834400C000000130000005A0100003C0000000600000002000000000000C0FF3F8F40000000000000F1BE00000000DA3D3140000000C0FF3F8F4000000000E896B3BF0000000020F930
310
400C00000013000000620100003C0000000600000002000000000000C0FF3F8F40000000000000F1BE00000000DA3D3140000000C0FF3F8F40000000000000F1BE00000000285A33400C000000130000006A0100003C0000000600000002000000000000C0FF3F8F40000000000000F1BE00000000285A3340000000C0FF3F
310
8F4000000000F03BBBBF0000000033CE33400C00000013000000720100003C0000000600000002000000000000C0FF3F8F4000000000F03BBBBF0000000033CE3340000000C0FF3F8F4000000000E896B3BF0000000020F930400C000000130000007A0100003C0000000600000002000000000000C0FF3F8F4000000000E8
310
96B3BF0000000020F93040000000C0FF3F8F40000000008816D2BF000000006EC930400C00000013000000820100003C0000000600000002000000000000C0FF3F8F40000000006AC8D9BF000000008E293440000000C0FF3F8F4000000000F03BBBBF0000000033CE33400C000000130000008A0100003C00000006000000
310
02000000000000C0FF3F8F40000000006AC8D9BF000000008E293440000000C0FF3F8F40000000008816D2BF000000006EC930400C00000013000000920100003C0000000600000002000000000000C0FF3F8F40000000008816D2BF000000006EC93040000000C0FF3F8F4000000000280EEDBF00000000464830400C0000
310
00130000009A0100003C0000000600000002000000000000C0FF3F8F40000000009C71EABF00000000CA583440000000C0FF3F8F40000000006AC8D9BF000000008E2934400C00000013000000A20100003C0000000600000002000000000000C0FF3F8F4000000080D10620C000000000FCF31D40000000C0FF3F8F400000
310
00C02ACD23C00000000000EFD73F0C00000013000000AA0100003C0000000600000002000000000000C0FF3F8F40000000C0000030C00000000080FADF3F000000C0FF3F8F40000000E003001CC0000000002B2437400C00000013000000B20100003C0000000600000002000000000000C0FF3F8F4000000000010030C000
310
000040C75D6140000000C0FF3F8F40000000C0000030C00000000080FADF3F0C00000013000000BA0100003C0000000600000002000000000000C0FF3F8F40000000E003001CC000000040BF9F6040000000C0FF3F8F40000000E003001CC0000000002B2437400C00000013000000C20100003C0000000600000002000000
310
000000C0FF3F8F4000000000010030C000000040C75D6140000000C0FF3F8F40000000E003001CC000000040BF9F60400C00000013000000CA0100003C0000000600000002000000000000C0FF3F8F40000000404CC12FC000000080A0676140000000C0FF3F8F40000000C099332FC000000040736D61400C000000130000
310
00D20100003C0000000600000002000000000000C0FF3F8F40000000C07D841BC000000040DBB56040000000C0FF3F8F40000000404CC12FC000000080A06761400C00000013000000DA0100003C0000000600000002000000000000C0FF3F8F40000000C07D841BC000000040DBB56040000000C0FF3F8F40000000C09933
310
2FC000000040736D61400C00000013000000E20100003C0000000600000002000000000000C0FF3F8F4000000000010030C000000040C75D6140000000C0FF3F8F40000000404CC12FC000000080A06761400C00000013000000EA0100003C0000000600000002000000000000C0FF3F8F40000000C07D841BC000000040DB
310
B56040000000C0FF3F8F40000000E003001CC000000040BF9F60400C00000013000000F20100003C0000000600000002000000000000C0FF3F8F40000000C099332FC000000040736D6140000000C0FF3F8F40000000C087EE2DC000000000767561400C00000013000000FA0100003C0000000600000002000000000000C0
310
FF3F8F40000000E0DF201AC0000000004CC96040000000C0FF3F8F40000000C07D841BC000000040DBB560400C00000013000000020200003C0000000600000002000000000000C0FF3F8F40000000E0DF201AC0000000004CC96040000000C0FF3F8F40000000C087EE2DC000000000767561400C000000130000000A0200
310
003C0000000600000002000000000000C0FF3F8F40000000C087EE2DC00000000076756140000000C0FF3F8F4000000040F3E62CC0000000C0E58361400C00000013000000120200003C0000000600000002000000000000C0FF3F8F40000000A00D0018C000000000BAD76040000000C0FF3F8F40000000E0DF201AC00000
310
00004CC960400C000000130000001A0200003C0000000600000002000000000000C0FF3F8F40000000A00D0018C000000000BAD76040000000C0FF3F8F4000000040F3E62CC0000000C0E58361400C00000013000000220200003C0000000600000002000000000000C0FF3F8F4000000040F3E62CC0000000C0E583614000
310
0000C0FF3F8F4000000040783B2CC000000040159761400C000000130000002A0200003C0000000600000002000000000000C0FF3F8F40000000C0A56315C0000000C067DF6040000000C0FF3F8F40000000A00D0018C000000000BAD760400C00000013000000320200003C0000000600000002000000000000C0FF3F8F40
310
000000C0A56315C0000000C067DF6040000000C0FF3F8F4000000040783B2CC000000040159761400C000000130000003A0200003C0000000600000002000000000000C0FF3F8F400000000002002CC000000000CAAC6140000000C0FF3F8F4000000040783B2CC000000040159761400C00000013000000420200003C0000
310
000600000002000000000000C0FF3F8F4000000000CE38F5BF0000000052F66040000000C0FF3F8F40000000C0A56315C0000000C067DF60400C000000130000004A0200003C0000000600000002000000000000C0FF3F8F400000000002002CC000000000CAAC6140000000C0FF3F8F4000000000CE38F5BF0000000052F6
310
60400C00000013000000520200003C0000000600000002000000000000C0FF3F8F400000000036E4ECBF0000008039FC6040000000C0FF3F8F4000000000CE38F5BF0000000052F660400C000000130000005A0200003C0000000600000002000000000000C0FF3F8F400000000037E4ECBF00000000C1BB6140000000C0FF
310
3F8F400000000036E4ECBF0000008039FC60400C00000013000000620200003C0000000600000002000000000000C0FF3F8F4000000080CF38F5BF000000C0A8C16140000000C0FF3F8F400000000037E4ECBF00000000C1BB61400C000000130000006A0200003C0000000600000002000000000000C0FF3F8F4000000080
310
CF38F5BF000000C0A8C16140000000C0FF3F8F4000000000CE38F5BF0000000052F660400C00000013000000720200003C0000000600000002000000000000C0FF3F8F40000000007E67E3BF000000C0A4076140000000C0FF3F8F400000000036E4ECBF0000008039FC60400C000000130000007A0200003C000000060000
310
0002000000000000C0FF3F8F40000000008167E3BF000000C055B06140000000C0FF3F8F40000000007E67E3BF000000C0A40761400C00000013000000820200003C0000000600000002000000000000C0FF3F8F400000000037E4ECBF00000000C1BB6140000000C0FF3F8F40000000008167E3BF000000C055B061400C00
310
0000130000008A0200003C0000000600000002000000000000C0FF3F8F40000000002200E0BF0000004026166140000000C0FF3F8F40000000007E67E3BF000000C0A40761400C00000013000000920200003C0000000600000002000000000000C0FF3F8F40000000002500E0BF00000080D4A16140000000C0FF3F8F4000
310
0000002200E0BF00000040261661400C000000130000009A0200003C0000000600000002000000000000C0FF3F8F40000000008167E3BF000000C055B06140000000C0FF3F8F40000000002500E0BF00000080D4A161400C00000013000000A20200003C0000000600000002000000000000C0FF3F8F40000000404BC70AC0
310
000000002DCD6140000000C0FF3F8F4000000080CF38F5BF000000C0A8C161400C00000013000000AA0200003C0000000600000002000000000000C0FF3F8F400000000002002CC000000000CAAC6140000000C0FF3F8F40000000404BC70AC0000000002DCD61400C00000013000000B20200003C00000006000000020000
310
00000000C0FF3F8F40000000A00D0010C0000000C0DAD46140000000C0FF3F8F40000000404BC70AC0000000002DCD61400C00000013000000BA0200003C0000000600000002000000000000C0FF3F8F400000000002002CC000000000CAAC6140000000C0FF3F8F40000000A00D0010C0000000C0DAD461400C0000001300
310
0000C20200003C0000000600000002000000000000C0FF3F8F40000000E0DF2012C00000008048E36140000000C0FF3F8F40000000A00D0010C0000000C0DAD461400C00000013000000CA0200003C0000000600000002000000000000C0FF3F8F400000000002002CC000000000CAAC6140000000C0FF3F8F40000000E0DF
310
2012C00000008048E361400C00000013000000D20200003C0000000600000002000000000000C0FF3F8F40000000C07D8413C000000040B9F66140000000C0FF3F8F40000000E0DF2012C00000008048E361400C00000013000000DA0200003C0000000600000002000000000000C0FF3F8F400000000002002CC000000000
310
CAAC6140000000C0FF3F8F40000000C07D8413C000000040B9F661400C00000013000000E20200003C0000000600000002000000000000C0FF3F8F40000000E0030014C000000040D50C6240000000C0FF3F8F40000000C07D8413C000000040B9F661400C00000013000000EA0200003C0000000600000002000000000000
310
C0FF3F8F400000000002002CC000000000CAAC6140000000C0FF3F8F40000000E0030014C000000040D50C62400C00000013000000F20200003C0000000600000002000000000000C0FF3F8F400000000002002CC00000008030916640000000C0FF3F8F400000000002002CC000000000CAAC61400C00000013000000FA02
310
00003C0000000600000002000000000000C0FF3F8F40000000E0030014C000000000D7266640000000C0FF3F8F40000000E0030014C000000040D50C62400C00000013000000020300003C0000000600000002000000000000C0FF3F8F400000000002002CC00000008030916640000000C0FF3F8F40000000E0030014C000
310
000000D72666400C000000130000000A0300003C0000000600000002000000000000C0FF3F8F4000000000B6DD2BC00000000045996640000000C0FF3F8F400000004002802BC0000000002F9F66400C00000013000000120300003C0000000600000002000000000000C0FF3F8F40000000E0030014C000000000D7266640
310
000000C0FF3F8F4000000000B6DD2BC000000000459966400C000000130000001A0300003C0000000600000002000000000000C0FF3F8F40000000E0030014C000000000D7266640000000C0FF3F8F400000004002802BC0000000002F9F66400C00000013000000220300003C0000000600000002000000000000C0FF3F8F
310
400000000002002CC00000008030916640000000C0FF3F8F4000000000B6DD2BC000000000459966400C000000130000002A0300003C0000000600000002000000000000C0FF3F8F400000004002802BC0000000002F9F6640000000C0FF3F8F400000004002002BC00000004059A166400C00000013000000320300003C00
310
00000600000002000000000000C0FF3F8F40000000E0030014C000000000D7266640000000C0FF3F8F400000004002002BC00000004059A166400C000000130000003A0300003C0000000600000002000000000000C0FF3F8F4000000040020029C00000004059A16640000000C0FF3F8F4000000040028028C0000000407E
310
A366400C00000013000000420300003C0000000600000002000000000000C0FF3F8F400000000043A913C00000004074396640000000C0FF3F8F4000000040020029C00000004059A166400C000000130000004A0300003C0000000600000002000000000000C0FF3F8F400000000043A913C00000004074396640000000C0
310
FF3F8F4000000040028028C0000000407EA366400C00000013000000520300003C0000000600000002000000000000C0FF3F8F400000004002002BC00000004059A16640000000C0FF3F8F4000000040020029C00000004059A166400C000000130000005A0300003C0000000600000002000000000000C0FF3F8F40000000
310
0043A913C00000004074396640000000C0FF3F8F40000000E0030014C000000000D72666400C00000013000000620300003C0000000600000002000000000000C0FF3F8F40000000404E2228C00000004059A96640000000C0FF3F8F4000000040020028C00000004059B166400C000000130000006A0300003C0000000600
310
000002000000000000C0FF3F8F400000004059AC12C0000000C07D4A6640000000C0FF3F8F40000000404E2228C00000004059A966400C00000013000000720300003C0000000600000002000000000000C0FF3F8F400000004059AC12C0000000C07D4A6640000000C0FF3F8F4000000040020028C00000004059B166400C
310
000000130000007A0300003C0000000600000002000000000000C0FF3F8F4000000040028028C0000000407EA36640000000C0FF3F8F40000000404E2228C00000004059A966400C00000013000000820300003C0000000600000002000000000000C0FF3F8F400000004059AC12C0000000C07D4A6640000000C0FF3F8F40
310
0000000043A913C000000040743966400C000000130000008A0300003C0000000600000002000000000000C0FF3F8F4000000040020028C00000004059B16640000000C0FF3F8F4000000040020028C00000000089E066400C00000013000000920300003C0000000600000002000000000000C0FF3F8F40000000A053C00D
310
C000000080AB896640000000C0FF3F8F400000004059AC12C0000000C07D4A66400C000000130000009A0300003C0000000600000002000000000000C0FF3F8F40000000A053C00DC000000080AB896640000000C0FF3F8F4000000040020028C00000000089E066400C00000013000000A20300003C000000060000000200
310
0000000000C0FF3F8F4000000000D61328C00000004071E96640000000C0FF3F8F4000000000C84D28C0000000C0A8F166400C00000013000000AA0300003C0000000600000002000000000000C0FF3F8F40000000C0C7800AC000000080ABCE6640000000C0FF3F8F4000000000D61328C00000004071E966400C00000013
310
000000B20300003C0000000600000002000000000000C0FF3F8F40000000C0C7800AC000000080ABCE6640000000C0FF3F8F4000000000C84D28C0000000C0A8F166400C00000013000000BA0300003C0000000600000002000000000000C0FF3F8F4000000040020028C00000000089E06640000000C0FF3F8F4000000000
310
D61328C00000004071E966400C00000013000000C20300003C0000000600000002000000000000C0FF3F8F40000000C0C7800AC000000080ABCE6640000000C0FF3F8F40000000A053C00DC000000080AB8966400C00000013000000CA0300003C0000000600000002000000000000C0FF3F8F4000000000C84D28C0000000
310
C0A8F16640000000C0FF3F8F40000000E018CF29C000000040942867400C00000013000000D20300003C0000000600000002000000000000C0FF3F8F4000000000C0D30BC0000000C0B3146740000000C0FF3F8F40000000C0C7800AC000000080ABCE66400C00000013000000DA0300003C00000006000000020000000000
310
00C0FF3F8F4000000000C0D30BC0000000C0B3146740000000C0FF3F8F40000000E018CF29C000000040942867400C00000013000000E20300003C0000000600000002000000000000C0FF3F8F4000000040C0802AC0000000C03E506740000000C0FF3F8F40000000E018CF29C000000040942867400C00000013000000EA
310
0300003C0000000600000002000000000000C0FF3F8F4000000060B2B60BC000000040F5236740000000C0FF3F8F4000000000C0D30BC0000000C0B31467400C00000013000000F20300003C0000000600000002000000000000C0FF3F8F4000000060B2B60BC000000040F5236740000000C0FF3F8F4000000040C0802AC0
310
000000C03E5067400C00000013000000FA0300003C0000000600000002000000000000C0FF3F8F4000000040C0802AC0000000C03E506740000000C0FF3F8F40000000C0DED32AC0000000402F7767400C00000013000000020400003C0000000600000002000000000000C0FF3F8F400000004063E109C0000000004D3167
310
40000000C0FF3F8F4000000060B2B60BC000000040F52367400C000000130000000A0400003C0000000600000002000000000000C0FF3F8F400000004063E109C0000000004D316740000000C0FF3F8F40000000C0DED32AC0000000402F7767400C00000013000000120400003C0000000600000002000000000000C0FF3F
310
8F4000000080F0CE2AC00000004060A06740000000C0FF3F8F40000000C0DED32AC0000000402F7767400C000000130000001A0400003C0000000600000002000000000000C0FF3F8F40000000207DBC06C000000000C2396740000000C0FF3F8F400000004063E109C0000000004D3167400C00000013000000220400003C
310
0000000600000002000000000000C0FF3F8F40000000207DBC06C000000000C2396740000000C0FF3F8F4000000080F0CE2AC00000004060A067400C000000130000002A0400003C0000000600000002000000000000C0FF3F8F4000000080F0CE2AC00000004060A06740000000C0FF3F8F400000004084722AC000000000
310
3BC767400C00000013000000320400003C0000000600000002000000000000C0FF3F8F40000000803E0EF5BF00000080B54B6740000000C0FF3F8F40000000207DBC06C000000000C23967400C000000130000003A0400003C0000000600000002000000000000C0FF3F8F40000000803E0EF5BF00000080B54B6740000000
310
C0FF3F8F400000004084722AC0000000003BC767400C00000013000000420400003C0000000600000002000000000000C0FF3F8F40000000405FB729C0000000C0B9EE6740000000C0FF3F8F400000004084722AC0000000003BC767400C000000130000004A0400003C0000000600000002000000000000C0FF3F8F400000
310
0000C114E4BF000000006F596740000000C0FF3F8F40000000803E0EF5BF00000080B54B67400C00000013000000520400003C0000000600000002000000000000C0FF3F8F4000000000C114E4BF000000006F596740000000C0FF3F8F40000000405FB729C0000000C0B9EE67400C000000130000005A0400003C00000006
310
00000002000000000000C0FF3F8F40000000405FB729C0000000C0B9EE6740000000C0FF3F8F40000000402EB328C000000040591268400C00000013000000620400003C0000000600000002000000000000C0FF3F8F400000000058F0C4BF00000040D96E6740000000C0FF3F8F4000000000C114E4BF000000006F596740
310
0C000000130000006A0400003C0000000600000002000000000000C0FF3F8F400000000058F0C4BF00000040D96E6740000000C0FF3F8F40000000402EB328C000000040591268400C00000013000000720400003C0000000600000002000000000000C0FF3F8F4000000040065027C0000000000B356840000000C0FF3F8F
310
40000000402EB328C000000040591268400C000000130000007A0400003C0000000600000002000000000000C0FF3F8F40000000000080F1BE0000008073886740000000C0FF3F8F400000000058F0C4BF00000040D96E67400C00000013000000820400003C0000000600000002000000000000C0FF3F8F40000000000080
310
F1BE0000008073886740000000C0FF3F8F4000000040065027C0000000000B3568400C000000130000008A0400003C0000000600000002000000000000C0FF3F8F40000000008816D2BF0000004033196840000000C0FF3F8F4000000040B5B925C000000040955268400C00000013000000920400003C0000000600000002
310
000000000000C0FF3F8F4000000000280EEDBF0000004058296840000000C0FF3F8F40000000008816D2BF00000040331968400C000000130000009A0400003C0000000600000002000000000000C0FF3F8F4000000000280EEDBF0000004058296840000000C0FF3F8F4000000040B5B925C000000040955268400C000000
310
13000000A20400003C0000000600000002000000000000C0FF3F8F40000000000000F1BE000000C0A50A6840000000C0FF3F8F4000000040B5B925C000000040955268400C00000013000000AA0400003C0000000600000002000000000000C0FF3F8F40000000000000F1BE000000C0A50A6840000000C0FF3F8F40000000
310
00E896B3BF000000003D1368400C00000013000000B20400003C0000000600000002000000000000C0FF3F8F4000000000E896B3BF000000003D136840000000C0FF3F8F4000000040B5B925C000000040955268400C00000013000000BA0400003C0000000600000002000000000000C0FF3F8F40000000008816D2BF0000
310
004033196840000000C0FF3F8F4000000000E896B3BF000000003D1368400C00000013000000C20400003C0000000600000002000000000000C0FF3F8F4000000040065027C0000000000B356840000000C0FF3F8F4000000040B5B925C000000040955268400C00000013000000CA0400003C000000060000000200000000
310
0000C0FF3F8F40000000000080F1BE0000008073886740000000C0FF3F8F40000000000000F1BE000000C0A50A68400C00000013000000D20400003C0000000600000002000000000000C0FF3F8F4000000040E6C923C000000080B56D6840000000C0FF3F8F4000000040B5B925C000000040955268400C00000013000000
310
DA0400003C0000000600000002000000000000C0FF3F8F40000000805614F4BF000000C0A7406840000000C0FF3F8F4000000000280EEDBF00000040582968400C00000013000000E20400003C0000000600000002000000000000C0FF3F8F40000000805614F4BF000000C0A7406840000000C0FF3F8F4000000040E6C923
310
C000000080B56D68400C00000013000000EA0400003C0000000600000002000000000000C0FF3F8F4000000040E6C923C000000080B56D6840000000C0FF3F8F4000000080C1AB20C000000000348E68400C00000013000000F20400003C0000000600000002000000000000C0FF3F8F40000000805614F4BF00000000865A
310
6840000000C0FF3F8F40000000805614F4BF000000C0A74068400C00000013000000FA0400003C0000000600000002000000000000C0FF3F8F40000000805614F4BF00000000865A6840000000C0FF3F8F4000000080C1AB20C000000000348E68400C00000013000000020500003C0000000600000002000000000000C0FF
310
3F8F4000000080C1AB20C000000000348E6840000000C0FF3F8F40000000E001551CC000000040D5A068400C000000130000000A0500003C0000000600000002000000000000C0FF3F8F40000000002B0EEDBF000000C0D5716840000000C0FF3F8F40000000805614F4BF00000000865A68400C0000001300000012050000
310
3C0000000600000002000000000000C0FF3F8F40000000002B0EEDBF000000C0D5716840000000C0FF3F8F40000000E001551CC000000040D5A068400C000000130000001A0500003C0000000600000002000000000000C0FF3F8F40000000E001551CC000000040D5A06840000000C0FF3F8F4000000000AA3117C0000000
310
8091BB68400C00000013000000220500003C0000000600000002000000000000C0FF3F8F40000000008C16D2BF000000C0FA816840000000C0FF3F8F40000000002B0EEDBF000000C0D57168400C000000130000002A0500003C0000000600000002000000000000C0FF3F8F40000000008C16D2BF000000C0FA8168400000
310
00C0FF3F8F4000000000AA3117C00000008091BB68400C00000013000000320500003C0000000600000002000000000000C0FF3F8F40000000608DE913C0000000007DD26840000000C0FF3F8F4000000000AA3117C00000008091BB68400C000000130000003A0500003C0000000600000002000000000000C0FF3F8F4000
310
000000F096B3BF00000000F1876840000000C0FF3F8F40000000008C16D2BF000000C0FA8168400C00000013000000420500003C0000000600000002000000000000C0FF3F8F4000000000F096B3BF00000000F1876840000000C0FF3F8F40000000608DE913C0000000007DD268400C000000130000004A0500003C000000
310
0600000002000000000000C0FF3F8F40000000608DE913C0000000007DD26840000000C0FF3F8F4000000040765411C0000000406CEA68400C00000013000000520500003C0000000600000002000000000000C0FF3F8F40000000000000F1BE0000004088906840000000C0FF3F8F4000000000F096B3BF00000000F18768
310
400C000000130000005A0500003C0000000600000002000000000000C0FF3F8F40000000000000F1BE0000004088906840000000C0FF3F8F4000000040765411C0000000406CEA68400C00000013000000620500003C0000000600000002000000000000C0FF3F8F4000000020CAF10DC0000000C0BB076940000000C0FF3F
310
8F4000000040765411C0000000406CEA68400C000000130000006A0500003C0000000600000002000000000000C0FF3F8F40000000000000F1BE0000004088906840000000C0FF3F8F4000000020CAF10DC0000000C0BB0769400C00000013000000720500003C0000000600000002000000000000C0FF3F8F4000000080BD
310
C708C00000008097346940000000C0FF3F8F40000000A02DF607C000000000843A69400C000000130000007A0500003C0000000600000002000000000000C0FF3F8F40000000000000F1BE0000004088906840000000C0FF3F8F4000000080BDC708C000000080973469400C00000013000000820500003C00000006000000
310
02000000000000C0FF3F8F40000000000000F1BE0000004088906840000000C0FF3F8F40000000A02DF607C000000000843A69400C000000130000008A0500003C0000000600000002000000000000C0FF3F8F4000000020CAF10DC0000000C0BB076940000000C0FF3F8F4000000080BDC708C000000080973469400C0000
310
0013000000920500003C0000000600000002000000000000C0FF3F8F400000002004F304C000000040FD3F6940000000C0FF3F8F4000000060689A06C0000000C08E3E69400C000000130000009A0500003C0000000600000002000000000000C0FF3F8F40000000000000F1BE0000004088906840000000C0FF3F8F400000
310
0060689A06C0000000C08E3E69400C00000013000000A20500003C0000000600000002000000000000C0FF3F8F40000000A02DF607C000000000843A6940000000C0FF3F8F4000000060689A06C0000000C08E3E69400C00000013000000AA0500003C0000000600000002000000000000C0FF3F8F40000000C001802FC000
310
0000000010B13F000000C0FF3F8FC000000000FF7F2FC0000000000010B13F0C00000013000000B20500003C0000000600000002000000000000C0FF3F8FC000000000FF7F2FC0000000000010B13F000000C0FF3F8FC000000000FFFF2EC000000000000036BF0C00000013000000BA0500003C0000000600000002000000
310
000000C0FF3F8F40000000C001002FC000000000000036BF000000C0FF3F8FC000000000FFFF2EC000000000000036BF0C00000013000000C20500003C0000000600000002000000000000C0FF3F8F40000000C0B5DD2FC00000000000F5CF3F000000C0FF3F8FC000000000B3DD2FC00000000000F5CF3F0C000000130000
310
00CA0500003C0000000600000002000000000000C0FF3F8FC000000000FF7F2FC0000000000010B13F000000C0FF3F8FC000000000B3DD2FC00000000000F5CF3F0C00000013000000D20500003C0000000600000002000000000000C0FF3F8F40000000C0000030C00000000080FADF3F000000C0FF3F8FC000000000FFFF
310
2FC00000000080FADF3F0C00000013000000DA0500003C0000000600000002000000000000C0FF3F8FC000000000FFFF2FC00000000080FADF3F000000C0FF3F8FC000000000B3DD2FC00000000000F5CF3F0C00000013000000E20500003C0000000600000002000000000000C0FF3F8F4000000000010030C000000040C7
310
5D6140000000C0FF3F8FC000000040FFFF2FC000000040C75D61400C00000013000000EA0500003C0000000600000002000000000000C0FF3F8FC000000040FFFF2FC000000040C75D6140000000C0FF3F8FC000000000FFFF2FC00000000080FADF3F0C00000013000000F20500003C0000000600000002000000000000C0
310
FF3F8F40000000404CC12FC000000080A0676140000000C0FF3F8FC00000008049C12FC000000080A06761400C00000013000000FA0500003C0000000600000002000000000000C0FF3F8FC000000040FFFF2FC000000040C75D6140000000C0FF3F8FC00000008049C12FC000000080A06761400C00000013000000020600
310
003C0000000600000002000000000000C0FF3F8F40000000C099332FC000000040736D6140000000C0FF3F8FC00000000097332FC000000040736D61400C000000130000000A0600003C0000000600000002000000000000C0FF3F8FC00000000097332FC000000040736D6140000000C0FF3F8FC00000008049C12FC00000
310
0080A06761400C00000013000000120600003C0000000600000002000000000000C0FF3F8F40000000C087EE2DC00000000076756140000000C0FF3F8FC00000000085EE2DC000000000767561400C000000130000001A0600003C0000000600000002000000000000C0FF3F8FC00000000085EE2DC0000000007675614000
310
0000C0FF3F8FC00000000097332FC000000040736D61400C00000013000000220600003C0000000600000002000000000000C0FF3F8F4000000040F3E62CC0000000C0E5836140000000C0FF3F8FC000000080F0E62CC0000000C0E58361400C000000130000002A0600003C0000000600000002000000000000C0FF3F8FC0
310
0000000085EE2DC00000000076756140000000C0FF3F8FC000000080F0E62CC0000000C0E58361400C00000013000000320600003C0000000600000002000000000000C0FF3F8F4000000040783B2CC00000004015976140000000C0FF3F8FC000000080753B2CC000000040159761400C000000130000003A0600003C0000
310
000600000002000000000000C0FF3F8FC000000080753B2CC00000004015976140000000C0FF3F8FC000000080F0E62CC0000000C0E58361400C00000013000000420600003C0000000600000002000000000000C0FF3F8F400000000002002CC000000000CAAC6140000000C0FF3F8FC000000040FFFF2BC000000000CAAC
310
61400C000000130000004A0600003C0000000600000002000000000000C0FF3F8FC000000080753B2CC00000004015976140000000C0FF3F8FC000000040FFFF2BC000000000CAAC61400C00000013000000520600003C0000000600000002000000000000C0FF3F8F400000000002002CC00000008030916640000000C0FF
310
3F8FC000000040FFFF2BC000000080309166400C000000130000005A0600003C0000000600000002000000000000C0FF3F8FC000000040FFFF2BC000000000CAAC6140000000C0FF3F8FC000000040FFFF2BC000000080309166400C00000013000000620600003C0000000600000002000000000000C0FF3F8F4000000000
310
B6DD2BC00000000045996640000000C0FF3F8FC000000000B3DD2BC000000000459966400C000000130000006A0600003C0000000600000002000000000000C0FF3F8FC000000040FFFF2BC00000008030916640000000C0FF3F8FC000000000B3DD2BC000000000459966400C00000013000000720600003C000000060000
310
0002000000000000C0FF3F8F400000004002802BC0000000002F9F6640000000C0FF3F8FC000000040FF7F2BC0000000002F9F66400C000000130000007A0600003C0000000600000002000000000000C0FF3F8FC000000000B3DD2BC00000000045996640000000C0FF3F8FC000000040FF7F2BC0000000002F9F66400C00
310
000013000000820600003C0000000600000002000000000000C0FF3F8F400000004002002BC00000004059A16640000000C0FF3F8FC000000040FFFF2AC00000004059A166400C000000130000008A0600003C0000000600000002000000000000C0FF3F8FC000000040FF7F2BC0000000002F9F6640000000C0FF3F8FC000
310
000040FFFF2AC00000004059A166400C00000013000000920600003C0000000600000002000000000000C0FF3F8F4000000040020029C00000004059A16640000000C0FF3F8FC000000040FFFF28C00000004059A166400C000000130000009A0600003C0000000600000002000000000000C0FF3F8FC000000040FFFF2AC0
310
0000004059A16640000000C0FF3F8FC000000040FFFF28C00000004059A166400C00000013000000A20600003C0000000600000002000000000000C0FF3F8F4000000040028028C0000000407EA36640000000C0FF3F8FC000000040FF7F28C0000000407EA366400C00000013000000AA0600003C00000006000000020000
310
00000000C0FF3F8FC000000040FF7F28C0000000407EA36640000000C0FF3F8FC000000040FFFF28C00000004059A166400C00000013000000B20600003C0000000600000002000000000000C0FF3F8F40000000404E2228C00000004059A96640000000C0FF3F8FC0000000404B2228C00000004059A966400C0000001300
310
0000BA0600003C0000000600000002000000000000C0FF3F8FC000000040FF7F28C0000000407EA36640000000C0FF3F8FC0000000404B2228C00000004059A966400C00000013000000C20600003C0000000600000002000000000000C0FF3F8F4000000040020028C00000004059B16640000000C0FF3F8FC000000040FF
310
FF27C00000004059B166400C00000013000000CA0600003C0000000600000002000000000000C0FF3F8FC000000040FFFF27C00000004059B16640000000C0FF3F8FC0000000404B2228C00000004059A966400C00000013000000D20600003C0000000600000002000000000000C0FF3F8F4000000040020028C000000000
310
89E06640000000C0FF3F8FC000000040FFFF27C00000000089E066400C00000013000000DA0600003C0000000600000002000000000000C0FF3F8FC000000040FFFF27C00000000089E06640000000C0FF3F8FC000000040FFFF27C00000004059B166400C00000013000000E20600003C0000000600000002000000000000
310
C0FF3F8F4000000000D61328C00000004071E96640000000C0FF3F8FC000000000D31328C00000004071E966400C00000013000000EA0600003C0000000600000002000000000000C0FF3F8FC000000040FFFF27C00000000089E06640000000C0FF3F8FC000000000D31328C00000004071E966400C00000013000000F206
310
00003C0000000600000002000000000000C0FF3F8F4000000000C84D28C0000000C0A8F16640000000C0FF3F8FC000000000C54D28C0000000C0A8F166400C00000013000000FA0600003C0000000600000002000000000000C0FF3F8FC000000000C54D28C0000000C0A8F16640000000C0FF3F8FC000000000D31328C000
310
00004071E966400C00000013000000020700003C0000000600000002000000000000C0FF3F8F40000000E018CF29C00000004094286740000000C0FF3F8FC0000000A015CF29C000000040942867400C000000130000000A0700003C0000000600000002000000000000C0FF3F8FC000000000C54D28C0000000C0A8F16640
310
000000C0FF3F8FC0000000A015CF29C000000040942867400C00000013000000120700003C0000000600000002000000000000C0FF3F8F4000000040C0802AC0000000C03E506740000000C0FF3F8FC000000020BD802AC0000000C03E5067400C000000130000001A0700003C0000000600000002000000000000C0FF3F8F
310
C000000020BD802AC0000000C03E506740000000C0FF3F8FC0000000A015CF29C000000040942867400C00000013000000220700003C0000000600000002000000000000C0FF3F8F40000000C0DED32AC0000000402F776740000000C0FF3F8FC0000000A0DBD32AC0000000402F7767400C000000130000002A0700003C00
310
00000600000002000000000000C0FF3F8FC000000020BD802AC0000000C03E506740000000C0FF3F8FC0000000A0DBD32AC0000000402F7767400C00000013000000320700003C0000000600000002000000000000C0FF3F8F4000000080F0CE2AC00000004060A06740000000C0FF3F8FC000000060EDCE2AC00000004060
310
A067400C000000130000003A0700003C0000000600000002000000000000C0FF3F8FC000000060EDCE2AC00000004060A06740000000C0FF3F8FC0000000A0DBD32AC0000000402F7767400C00000013000000420700003C0000000600000002000000000000C0FF3F8F400000004084722AC0000000003BC76740000000C0
310
FF3F8FC00000002081722AC0000000003BC767400C000000130000004A0700003C0000000600000002000000000000C0FF3F8FC000000060EDCE2AC00000004060A06740000000C0FF3F8FC00000002081722AC0000000003BC767400C00000013000000520700003C0000000600000002000000000000C0FF3F8F40000000
310
405FB729C0000000C0B9EE6740000000C0FF3F8FC0000000E05BB729C0000000C0B9EE67400C000000130000005A0700003C0000000600000002000000000000C0FF3F8FC00000002081722AC0000000003BC76740000000C0FF3F8FC0000000E05BB729C0000000C0B9EE67400C00000013000000620700003C0000000600
310
000002000000000000C0FF3F8F40000000402EB328C00000004059126840000000C0FF3F8FC0000000E02AB328C000000040591268400C000000130000006A0700003C0000000600000002000000000000C0FF3F8FC0000000E02AB328C00000004059126840000000C0FF3F8FC0000000E05BB729C0000000C0B9EE67400C
310
00000013000000720700003C0000000600000002000000000000C0FF3F8F4000000040065027C0000000000B356840000000C0FF3F8FC0000000E0025027C0000000000B3568400C000000130000007A0700003C0000000600000002000000000000C0FF3F8FC0000000E0025027C0000000000B356840000000C0FF3F8FC0
310
000000E02AB328C000000040591268400C00000013000000820700003C0000000600000002000000000000C0FF3F8F4000000040B5B925C00000004095526840000000C0FF3F8FC0000000E0B1B925C000000040955268400C000000130000008A0700003C0000000600000002000000000000C0FF3F8FC0000000E0025027
310
C0000000000B356840000000C0FF3F8FC0000000E0B1B925C000000040955268400C00000013000000920700003C0000000600000002000000000000C0FF3F8F4000000040E6C923C000000080B56D6840000000C0FF3F8FC000000080E3C923C000000080B56D68400C000000130000009A0700003C000000060000000200
310
0000000000C0FF3F8FC000000080E3C923C000000080B56D6840000000C0FF3F8FC0000000E0B1B925C000000040955268400C00000013000000A20700003C0000000600000002000000000000C0FF3F8F4000000080C1AB20C000000000348E6840000000C0FF3F8FC000000080BEAB20C000000000348E68400C00000013
310
000000AA0700003C0000000600000002000000000000C0FF3F8FC000000080E3C923C000000080B56D6840000000C0FF3F8FC000000080BEAB20C000000000348E68400C00000013000000B20700003C0000000600000002000000000000C0FF3F8F40000000E001551CC000000040D5A06840000000C0FF3F8FC0000000A0
310
FC541CC000000040D5A068400C00000013000000BA0700003C0000000600000002000000000000C0FF3F8FC000000080BEAB20C000000000348E6840000000C0FF3F8FC0000000A0FC541CC000000040D5A068400C00000013000000C20700003C0000000600000002000000000000C0FF3F8F4000000000AA3117C0000000
310
8091BB6840000000C0FF3F8FC0000000C0A43117C00000008091BB68400C00000013000000CA0700003C0000000600000002000000000000C0FF3F8FC0000000A0FC541CC000000040D5A06840000000C0FF3F8FC0000000C0A43117C00000008091BB68400C00000013000000D20700003C00000006000000020000000000
310
00C0FF3F8F40000000608DE913C0000000007DD26840000000C0FF3F8FC00000002088E913C0000000007DD268400C00000013000000DA0700003C0000000600000002000000000000C0FF3F8FC0000000C0A43117C00000008091BB6840000000C0FF3F8FC00000002088E913C0000000007DD268400C00000013000000E2
310
0700003C0000000600000002000000000000C0FF3F8F4000000040765411C0000000406CEA6840000000C0FF3F8FC000000000715411C0000000406CEA68400C00000013000000EA0700003C0000000600000002000000000000C0FF3F8FC000000000715411C0000000406CEA6840000000C0FF3F8FC00000002088E913C0
310
000000007DD268400C00000013000000F20700003C0000000600000002000000000000C0FF3F8F4000000020CAF10DC0000000C0BB076940000000C0FF3F8FC0000000E0BEF10DC0000000C0BB0769400C00000013000000FA0700003C0000000600000002000000000000C0FF3F8FC000000000715411C0000000406CEA68
310
40000000C0FF3F8FC0000000E0BEF10DC0000000C0BB0769400C00000013000000020800003C0000000600000002000000000000C0FF3F8F4000000080BDC708C00000008097346940000000C0FF3F8FC000000040B2C708C000000080973469400C000000130000000A0800003C0000000600000002000000000000C0FF3F
310
8FC0000000E0BEF10DC0000000C0BB076940000000C0FF3F8FC000000040B2C708C000000080973469400C00000013000000120800003C0000000600000002000000000000C0FF3F8F40000000A02DF607C000000000843A6940000000C0FF3F8FC00000006022F607C000000000843A69400C000000130000001A0800003C
310
0000000600000002000000000000C0FF3F8FC00000006022F607C000000000843A6940000000C0FF3F8FC000000040B2C708C000000080973469400C00000013000000220800003C0000000600000002000000000000C0FF3F8F4000000060689A06C0000000C08E3E6940000000C0FF3F8FC0000000205D9A06C0000000C0
310
8E3E69400C000000130000002A0800003C0000000600000002000000000000C0FF3F8FC0000000205D9A06C0000000C08E3E6940000000C0FF3F8FC00000006022F607C000000000843A69400C00000013000000320800003C0000000600000002000000000000C0FF3F8F400000002004F304C000000040FD3F6940000000
310
C0FF3F8FC0000000E0F8F204C000000040FD3F69400C000000130000003A0800003C0000000600000002000000000000C0FF3F8FC0000000205D9A06C0000000C08E3E6940000000C0FF3F8FC0000000E0F8F204C000000040FD3F69400C00000013000000420800003C0000000600000002000000000000C0FF3F8F400000
310
00000000F1BE00000040FD3F6940000000C0FF3F8FC0000000000000DE3E00000040FD3F69400C000000130000004A0800003C0000000600000002000000000000C0FF3F8FC0000000000000DE3E00000040FD3F6940000000C0FF3F8FC0000000E0F8F204C000000040FD3F69400C00000013000000520800003C00000006
310
00000002000000000000C0FF3F8F40000000000000F1BE0000004088906840000000C0FF3F8FC0000000000000D83E00000040889068400C000000130000005A0800003C0000000600000002000000000000C0FF3F8FC0000000000000DE3E00000040FD3F6940000000C0FF3F8FC0000000000000D83E0000004088906840
310
0C00000013000000620800003C0000000600000002000000000000C0FF3F8F4000000000F096B3BF00000000F1876840000000C0FF3F8FC0000000007895B3BF00000000F18768400C000000130000006A0800003C0000000600000002000000000000C0FF3F8FC0000000007895B3BF00000000F1876840000000C0FF3F8F
310
C0000000000000D83E00000040889068400C00000013000000720800003C0000000600000002000000000000C0FF3F8F40000000008C16D2BF000000C0FA816840000000C0FF3F8FC0000000002816D2BF000000C0FA8168400C000000130000007A0800003C0000000600000002000000000000C0FF3F8FC0000000007895
310
B3BF00000000F1876840000000C0FF3F8FC0000000002816D2BF000000C0FA8168400C00000013000000820800003C0000000600000002000000000000C0FF3F8F40000000002B0EEDBF000000C0D5716840000000C0FF3F8FC000000000FA0DEDBF000000C0D57168400C000000130000008A0800003C0000000600000002
310
000000000000C0FF3F8FC000000000FA0DEDBF000000C0D5716840000000C0FF3F8FC0000000002816D2BF000000C0FA8168400C00000013000000920800003C0000000600000002000000000000C0FF3F8F40000000805614F4BF00000000865A6840000000C0FF3F8FC0000000003E14F4BF00000000865A68400C000000
310
130000009A0800003C0000000600000002000000000000C0FF3F8FC0000000003E14F4BF00000000865A6840000000C0FF3F8FC000000000FA0DEDBF000000C0D57168400C00000013000000A20800003C0000000600000002000000000000C0FF3F8F40000000805614F4BF000000C0A7406840000000C0FF3F8FC0000000
310
003E14F4BF000000C0A74068400C00000013000000AA0800003C0000000600000002000000000000C0FF3F8FC0000000003E14F4BF000000C0A7406840000000C0FF3F8FC0000000003E14F4BF00000000865A68400C00000013000000B20800003C0000000600000002000000000000C0FF3F8F4000000000280EEDBF0000
310
004058296840000000C0FF3F8FC000000000F70DEDBF00000040582968400C00000013000000BA0800003C0000000600000002000000000000C0FF3F8FC0000000003E14F4BF000000C0A7406840000000C0FF3F8FC000000000F70DEDBF00000040582968400C00000013000000C20800003C000000060000000200000000
310
0000C0FF3F8F40000000008816D2BF0000004033196840000000C0FF3F8FC0000000002616D2BF00000040331968400C00000013000000CA0800003C0000000600000002000000000000C0FF3F8FC0000000002616D2BF0000004033196840000000C0FF3F8FC000000000F70DEDBF00000040582968400C00000013000000
310
D20800003C0000000600000002000000000000C0FF3F8F4000000000E896B3BF000000003D136840000000C0FF3F8FC0000000006095B3BF000000003D1368400C00000013000000DA0800003C0000000600000002000000000000C0FF3F8FC0000000002616D2BF0000004033196840000000C0FF3F8FC0000000006095B3
310
BF000000003D1368400C00000013000000E20800003C0000000600000002000000000000C0FF3F8F40000000000000F1BE000000C0A50A6840000000C0FF3F8FC0000000000000DE3E000000C0A50A68400C00000013000000EA0800003C0000000600000002000000000000C0FF3F8FC0000000006095B3BF000000003D13
310
6840000000C0FF3F8FC0000000000000DE3E000000C0A50A68400C00000013000000F20800003C0000000600000002000000000000C0FF3F8F40000000000080F1BE0000008073886740000000C0FF3F8FC0000000000000DC3E00000080738867400C00000013000000FA0800003C0000000600000002000000000000C0FF
310
3F8FC0000000000000DC3E0000008073886740000000C0FF3F8FC0000000000000DE3E000000C0A50A68400C00000013000000020900003C0000000600000002000000000000C0FF3F8F400000000058F0C4BF00000040D96E6740000000C0FF3F8FC00000000094EFC4BF00000040D96E67400C000000130000000A090000
310
3C0000000600000002000000000000C0FF3F8FC00000000094EFC4BF00000040D96E6740000000C0FF3F8FC0000000000000DC3E00000080738867400C00000013000000120900003C0000000600000002000000000000C0FF3F8F4000000000C114E4BF000000006F596740000000C0FF3F8FC0000000009014E4BF000000
310
006F5967400C000000130000001A0900003C0000000600000002000000000000C0FF3F8FC0000000009014E4BF000000006F596740000000C0FF3F8FC00000000094EFC4BF00000040D96E67400C00000013000000220900003C0000000600000002000000000000C0FF3F8F40000000803E0EF5BF00000080B54B67400000
310
00C0FF3F8FC000000080250EF5BF00000080B54B67400C000000130000002A0900003C0000000600000002000000000000C0FF3F8FC000000080250EF5BF00000080B54B6740000000C0FF3F8FC0000000009014E4BF000000006F5967400C00000013000000320900003C0000000600000002000000000000C0FF3F8F4000
310
0000207DBC06C000000000C2396740000000C0FF3F8FC0000000E071BC06C000000000C23967400C000000130000003A0900003C0000000600000002000000000000C0FF3F8FC000000080250EF5BF00000080B54B6740000000C0FF3F8FC0000000E071BC06C000000000C23967400C00000013000000420900003C000000
310
0600000002000000000000C0FF3F8F400000004063E109C0000000004D316740000000C0FF3F8FC00000000058E109C0000000004D3167400C000000130000004A0900003C0000000600000002000000000000C0FF3F8FC00000000058E109C0000000004D316740000000C0FF3F8FC0000000E071BC06C000000000C23967
310
400C00000013000000520900003C0000000600000002000000000000C0FF3F8F4000000060B2B60BC000000040F5236740000000C0FF3F8FC000000020A7B60BC000000040F52367400C000000130000005A0900003C0000000600000002000000000000C0FF3F8FC00000000058E109C0000000004D316740000000C0FF3F
310
8FC000000020A7B60BC000000040F52367400C00000013000000620900003C0000000600000002000000000000C0FF3F8F4000000000C0D30BC0000000C0B3146740000000C0FF3F8FC0000000C0B4D30BC0000000C0B31467400C000000130000006A0900003C0000000600000002000000000000C0FF3F8FC0000000C0B4
310
D30BC0000000C0B3146740000000C0FF3F8FC000000020A7B60BC000000040F52367400C00000013000000720900003C0000000600000002000000000000C0FF3F8F40000000C0C7800AC000000080ABCE6640000000C0FF3F8FC000000080BC800AC000000080ABCE66400C000000130000007A0900003C00000006000000
310
02000000000000C0FF3F8FC000000080BC800AC000000080ABCE6640000000C0FF3F8FC0000000C0B4D30BC0000000C0B31467400C00000013000000820900003C0000000600000002000000000000C0FF3F8F40000000A053C00DC000000080AB896640000000C0FF3F8FC00000006048C00DC000000080AB8966400C0000
310
00130000008A0900003C0000000600000002000000000000C0FF3F8FC00000006048C00DC000000080AB896640000000C0FF3F8FC000000080BC800AC000000080ABCE66400C00000013000000920900003C0000000600000002000000000000C0FF3F8F400000004059AC12C0000000C07D4A6640000000C0FF3F8FC00000
310
00C053AC12C0000000C07D4A66400C000000130000009A0900003C0000000600000002000000000000C0FF3F8FC00000006048C00DC000000080AB896640000000C0FF3F8FC0000000C053AC12C0000000C07D4A66400C00000013000000A20900003C0000000600000002000000000000C0FF3F8F400000000043A913C000
310
00004074396640000000C0FF3F8FC0000000803DA913C000000040743966400C00000013000000AA0900003C0000000600000002000000000000C0FF3F8FC0000000803DA913C00000004074396640000000C0FF3F8FC0000000C053AC12C0000000C07D4A66400C00000013000000B20900003C0000000600000002000000
310
000000C0FF3F8F40000000E0030014C000000000D7266640000000C0FF3F8FC0000000A0FEFF13C000000000D72666400C00000013000000BA0900003C0000000600000002000000000000C0FF3F8FC0000000A0FEFF13C000000000D7266640000000C0FF3F8FC0000000803DA913C000000040743966400C000000130000
310
00C20900003C0000000600000002000000000000C0FF3F8F40000000E0030014C000000040D50C6240000000C0FF3F8FC0000000A0FEFF13C000000040D50C62400C00000013000000CA0900003C0000000600000002000000000000C0FF3F8FC0000000A0FEFF13C000000040D50C6240000000C0FF3F8FC0000000A0FEFF
310
13C000000000D72666400C00000013000000D20900003C0000000600000002000000000000C0FF3F8F40000000C07D8413C000000040B9F66140000000C0FF3F8FC000000080788413C000000040B9F661400C00000013000000DA0900003C0000000600000002000000000000C0FF3F8FC000000080788413C000000040B9
310
F66140000000C0FF3F8FC0000000A0FEFF13C000000040D50C62400C00000013000000E20900003C0000000600000002000000000000C0FF3F8F40000000E0DF2012C00000008048E36140000000C0FF3F8FC0000000A0DA2012C00000008048E361400C00000013000000EA0900003C0000000600000002000000000000C0
310
FF3F8FC0000000A0DA2012C00000008048E36140000000C0FF3F8FC000000080788413C000000040B9F661400C00000013000000F20900003C0000000600000002000000000000C0FF3F8F40000000A00D0010C0000000C0DAD46140000000C0FF3F8FC000000060080010C0000000C0DAD461400C00000013000000FA0900
310
003C0000000600000002000000000000C0FF3F8FC0000000A0DA2012C00000008048E36140000000C0FF3F8FC000000060080010C0000000C0DAD461400C00000013000000020A00003C0000000600000002000000000000C0FF3F8F40000000404BC70AC0000000002DCD6140000000C0FF3F8FC00000000040C70AC00000
310
00002DCD61400C000000130000000A0A00003C0000000600000002000000000000C0FF3F8FC000000060080010C0000000C0DAD46140000000C0FF3F8FC00000000040C70AC0000000002DCD61400C00000013000000120A00003C0000000600000002000000000000C0FF3F8F4000000080CF38F5BF000000C0A8C1614000
310
0000C0FF3F8FC000000080B538F5BF000000C0A8C161400C000000130000001A0A00003C0000000600000002000000000000C0FF3F8FC000000080B538F5BF000000C0A8C16140000000C0FF3F8FC00000000040C70AC0000000002DCD61400C00000013000000220A00003C0000000600000002000000000000C0FF3F8F40
310
0000000037E4ECBF00000000C1BB6140000000C0FF3F8FC00000000005E4ECBF00000000C1BB61400C000000130000002A0A00003C0000000600000002000000000000C0FF3F8FC000000080B538F5BF000000C0A8C16140000000C0FF3F8FC00000000005E4ECBF00000000C1BB61400C00000013000000320A00003C0000
310
000600000002000000000000C0FF3F8F40000000008167E3BF000000C055B06140000000C0FF3F8FC0000000004D67E3BF000000C055B061400C000000130000003A0A00003C0000000600000002000000000000C0FF3F8FC0000000004D67E3BF000000C055B06140000000C0FF3F8FC00000000005E4ECBF00000000C1BB
310
61400C00000013000000420A00003C0000000600000002000000000000C0FF3F8F40000000002500E0BF00000080D4A16140000000C0FF3F8FC000000000E8FFDFBF00000080D4A161400C000000130000004A0A00003C0000000600000002000000000000C0FF3F8FC0000000004D67E3BF000000C055B06140000000C0FF
310
3F8FC000000000E8FFDFBF00000080D4A161400C00000013000000520A00003C0000000600000002000000000000C0FF3F8F40000000002200E0BF0000004026166140000000C0FF3F8FC000000000E2FFDFBF00000040261661400C000000130000005A0A00003C0000000600000002000000000000C0FF3F8FC000000000
310
E2FFDFBF0000004026166140000000C0FF3F8FC000000000E8FFDFBF00000080D4A161400C00000013000000620A00003C0000000600000002000000000000C0FF3F8F40000000007E67E3BF000000C0A4076140000000C0FF3F8FC0000000004D67E3BF000000C0A40761400C000000130000006A0A00003C000000060000
310
0002000000000000C0FF3F8FC0000000004D67E3BF000000C0A4076140000000C0FF3F8FC000000000E2FFDFBF00000040261661400C00000013000000720A00003C0000000600000002000000000000C0FF3F8F400000000036E4ECBF0000008039FC6040000000C0FF3F8FC00000000005E4ECBF0000008039FC60400C00
310
0000130000007A0A00003C0000000600000002000000000000C0FF3F8FC0000000004D67E3BF000000C0A4076140000000C0FF3F8FC00000000005E4ECBF0000008039FC60400C00000013000000820A00003C0000000600000002000000000000C0FF3F8F4000000000CE38F5BF0000000052F66040000000C0FF3F8FC000
310
000080B538F5BF0000000052F660400C000000130000008A0A00003C0000000600000002000000000000C0FF3F8FC000000080B538F5BF0000000052F66040000000C0FF3F8FC00000000005E4ECBF0000008039FC60400C00000013000000920A00003C0000000600000002000000000000C0FF3F8F40000000C0A56315C0
310
000000C067DF6040000000C0FF3F8FC000000040A06315C0000000C067DF60400C000000130000009A0A00003C0000000600000002000000000000C0FF3F8FC000000040A06315C0000000C067DF6040000000C0FF3F8FC000000080B538F5BF0000000052F660400C00000013000000A20A00003C00000006000000020000
310
00000000C0FF3F8F40000000A00D0018C000000000BAD76040000000C0FF3F8FC000000060080018C000000000BAD760400C00000013000000AA0A00003C0000000600000002000000000000C0FF3F8FC000000040A06315C0000000C067DF6040000000C0FF3F8FC000000060080018C000000000BAD760400C0000001300
310
0000B20A00003C0000000600000002000000000000C0FF3F8F40000000E0DF201AC0000000004CC96040000000C0FF3F8FC0000000A0DA201AC0000000004CC960400C00000013000000BA0A00003C0000000600000002000000000000C0FF3F8FC0000000A0DA201AC0000000004CC96040000000C0FF3F8FC00000006008
310
0018C000000000BAD760400C00000013000000C20A00003C0000000600000002000000000000C0FF3F8F40000000C07D841BC000000040DBB56040000000C0FF3F8FC00000008078841BC000000040DBB560400C00000013000000CA0A00003C0000000600000002000000000000C0FF3F8FC00000008078841BC000000040
310
DBB56040000000C0FF3F8FC0000000A0DA201AC0000000004CC960400C00000013000000D20A00003C0000000600000002000000000000C0FF3F8F40000000E003001CC000000040BF9F6040000000C0FF3F8FC0000000A0FEFF1BC000000040BF9F60400C00000013000000DA0A00003C0000000600000002000000000000
310
C0FF3F8FC0000000A0FEFF1BC000000040BF9F6040000000C0FF3F8FC00000008078841BC000000040DBB560400C00000013000000E20A00003C0000000600000002000000000000C0FF3F8F40000000E003001CC0000000002B243740000000C0FF3F8FC0000000A0FEFF1BC0000000002B2437400C00000013000000EA0A
310
00003C0000000600000002000000000000C0FF3F8FC0000000A0FEFF1BC0000000002B243740000000C0FF3F8FC0000000A0FEFF1BC000000040BF9F60400C00000013000000F20A00003C0000000600000002000000000000C0FF3F8F40000000C07D841BC0000000004B733640000000C0FF3F8FC00000008078841BC000
310
0000004B7336400C00000013000000FA0A00003C0000000600000002000000000000C0FF3F8FC0000000A0FEFF1BC0000000002B243740000000C0FF3F8FC00000008078841BC0000000004B7336400C00000013000000020B00003C0000000600000002000000000000C0FF3F8F40000000E0DF201AC000000000C5D73540
310
000000C0FF3F8FC0000000A0DA201AC000000000C5D735400C000000130000000A0B00003C0000000600000002000000000000C0FF3F8FC00000008078841BC0000000004B733640000000C0FF3F8FC0000000A0DA201AC000000000C5D735400C00000013000000120B00003C0000000600000002000000000000C0FF3F8F
310
40000000A00D0018C00000000055643540000000C0FF3F8FC000000060080018C000000000556435400C000000130000001A0B00003C0000000600000002000000000000C0FF3F8FC000000060080018C00000000055643540000000C0FF3F8FC0000000A0DA201AC000000000C5D735400C00000013000000220B00003C00
310
00000600000002000000000000C0FF3F8F4000000080A56315C000000000E7263540000000C0FF3F8FC000000040A06315C000000000E72635400C000000130000002A0B00003C0000000600000002000000000000C0FF3F8FC000000060080018C00000000055643540000000C0FF3F8FC000000040A06315C000000000E7
310
2635400C00000013000000320B00003C0000000600000002000000000000C0FF3F8F40000000009C71EABF00000000CA583440000000C0FF3F8FC0000000006B71EABF00000000CA5834400C000000130000003A0B00003C0000000600000002000000000000C0FF3F8FC0000000006B71EABF00000000CA583440000000C0
310
FF3F8FC000000040A06315C000000000E72635400C00000013000000420B00003C0000000600000002000000000000C0FF3F8F40000000006AC8D9BF000000008E293440000000C0FF3F8FC00000000008C8D9BF000000008E2934400C000000130000004A0B00003C0000000600000002000000000000C0FF3F8FC0000000
310
006B71EABF00000000CA583440000000C0FF3F8FC00000000008C8D9BF000000008E2934400C00000013000000520B00003C0000000600000002000000000000C0FF3F8F4000000000F03BBBBF0000000033CE3340000000C0FF3F8FC000000000683ABBBF0000000033CE33400C000000130000005A0B00003C0000000600
310
000002000000000000C0FF3F8FC000000000683ABBBF0000000033CE3340000000C0FF3F8FC00000000008C8D9BF000000008E2934400C00000013000000620B00003C0000000600000002000000000000C0FF3F8F40000000000000F1BE00000000285A3340000000C0FF3F8FC0000000000000DE3E00000000285A33400C
310
000000130000006A0B00003C0000000600000002000000000000C0FF3F8FC0000000000000DE3E00000000285A3340000000C0FF3F8FC000000000683ABBBF0000000033CE33400C00000013000000720B00003C0000000600000002000000000000C0FF3F8F40000000000000F1BE00000000DA3D3140000000C0FF3F8FC0
310
000000000000DE3E00000000DA3D31400C000000130000007A0B00003C0000000600000002000000000000C0FF3F8FC0000000000000DE3E00000000285A3340000000C0FF3F8FC0000000000000DE3E00000000DA3D31400C00000013000000820B00003C0000000600000002000000000000C0FF3F8F4000000000E896B3
310
BF0000000020F93040000000C0FF3F8FC0000000006095B3BF0000000020F930400C000000130000008A0B00003C0000000600000002000000000000C0FF3F8FC0000000000000DE3E00000000DA3D3140000000C0FF3F8FC0000000006095B3BF0000000020F930400C00000013000000920B00003C000000060000000200
310
0000000000C0FF3F8F40000000008816D2BF000000006EC93040000000C0FF3F8FC0000000002616D2BF000000006EC930400C000000130000009A0B00003C0000000600000002000000000000C0FF3F8FC0000000002616D2BF000000006EC93040000000C0FF3F8FC0000000006095B3BF0000000020F930400C00000013
310
000000A20B00003C0000000600000002000000000000C0FF3F8F4000000000280EEDBF0000000046483040000000C0FF3F8FC000000000F70DEDBF00000000464830400C00000013000000AA0B00003C0000000600000002000000000000C0FF3F8FC0000000002616D2BF000000006EC93040000000C0FF3F8FC000000000
310
F70DEDBF00000000464830400C00000013000000B20B00003C0000000600000002000000000000C0FF3F8F40000000805614F4BF00000000941B2F40000000C0FF3F8FC0000000003E14F4BF00000000941B2F400C00000013000000BA0B00003C0000000600000002000000000000C0FF3F8FC0000000003E14F4BF000000
310
00941B2F40000000C0FF3F8FC000000000F70DEDBF00000000464830400C00000013000000C20B00003C0000000600000002000000000000C0FF3F8F40000000805614F4BF00000000AE7D2D40000000C0FF3F8FC0000000003E14F4BF00000000AE7D2D400C00000013000000CA0B00003C00000006000000020000000000
310
00C0FF3F8FC0000000003E14F4BF00000000AE7D2D40000000C0FF3F8FC0000000003E14F4BF00000000941B2F400C00000013000000D20B00003C0000000600000002000000000000C0FF3F8F4000000000290EEDBF00000000B4082C40000000C0FF3F8FC000000000F80DEDBF00000000B4082C400C00000013000000DA
310
0B00003C0000000600000002000000000000C0FF3F8FC0000000003E14F4BF00000000AE7D2D40000000C0FF3F8FC000000000F80DEDBF00000000B4082C400C00000013000000E20B00003C0000000600000002000000000000C0FF3F8F40000000008A16D2BF0000000066062B40000000C0FF3F8FC0000000002816D2BF
310
0000000066062B400C00000013000000EA0B00003C0000000600000002000000000000C0FF3F8FC0000000002816D2BF0000000066062B40000000C0FF3F8FC000000000F80DEDBF00000000B4082C400C00000013000000F20B00003C0000000600000002000000000000C0FF3F8F4000000000F096B3BF0000000002A72A
310
40000000C0FF3F8FC0000000006895B3BF0000000002A72A400C00000013000000FA0B00003C0000000600000002000000000000C0FF3F8FC0000000002816D2BF0000000066062B40000000C0FF3F8FC0000000006895B3BF0000000002A72A400C00000013000000020C00003C0000000600000002000000000000C0FF3F
310
8F40000000000080F1BE000000008E1D2A40000000C0FF3F8FC0000000000000DC3E000000008E1D2A400C000000130000000A0C00003C0000000600000002000000000000C0FF3F8FC0000000000000DC3E000000008E1D2A40000000C0FF3F8FC0000000006895B3BF0000000002A72A400C00000013000000120C00003C
310
0000000600000002000000000000C0FF3F8F40000000000080F1BE00000000F2E42540000000C0FF3F8FC0000000000000D83E00000000F2E425400C000000130000001A0C00003C0000000600000002000000000000C0FF3F8FC0000000000000D83E00000000F2E42540000000C0FF3F8FC0000000000000DC3E00000000
310
8E1D2A400C00000013000000220C00003C0000000600000002000000000000C0FF3F8F4000000000083CBBBF00000000DCFC2440000000C0FF3F8FC000000000803ABBBF00000000DCFC24400C000000130000002A0C00003C0000000600000002000000000000C0FF3F8FC0000000000000D83E00000000F2E42540000000
310
C0FF3F8FC000000000803ABBBF00000000DCFC24400C00000013000000320C00003C0000000600000002000000000000C0FF3F8F400000000070C8D9BF0000000026462440000000C0FF3F8FC0000000000EC8D9BF00000000264624400C000000130000003A0C00003C0000000600000002000000000000C0FF3F8FC00000
310
00000EC8D9BF0000000026462440000000C0FF3F8FC000000000803ABBBF00000000DCFC24400C00000013000000420C00003C0000000600000002000000000000C0FF3F8F40000000009D71EABF00000000AEE72340000000C0FF3F8FC0000000006C71EABF00000000AEE723400C000000130000004A0C00003C00000006
310
00000002000000000000C0FF3F8FC0000000006C71EABF00000000AEE72340000000C0FF3F8FC0000000000EC8D9BF00000000264624400C00000013000000520C00003C0000000600000002000000000000C0FF3F8F40000000200DB719C000000000D8E82140000000C0FF3F8FC0000000E007B719C000000000D8E82140
310
0C000000130000005A0C00003C0000000600000002000000000000C0FF3F8FC0000000E007B719C000000000D8E82140000000C0FF3F8FC0000000006C71EABF00000000AEE723400C00000013000000620C00003C0000000600000002000000000000C0FF3F8F400000006092861CC000000000925E2140000000C0FF3F8F
310
C0000000208D861CC000000000925E21400C000000130000006A0C00003C0000000600000002000000000000C0FF3F8FC0000000E007B719C000000000D8E82140000000C0FF3F8FC0000000208D861CC000000000925E21400C00000013000000720C00003C0000000600000002000000000000C0FF3F8F40000000002BBE
310
1EC000000000EC572040000000C0FF3F8FC0000000C025BE1EC000000000EC5720400C000000130000007A0C00003C0000000600000002000000000000C0FF3F8FC0000000C025BE1EC000000000EC572040000000C0FF3F8FC0000000208D861CC000000000925E21400C00000013000000820C00003C0000000600000002
310
000000000000C0FF3F8F4000000080D10620C000000000FCF31D40000000C0FF3F8FC0000000A0CE0620C000000000FCF31D400C000000130000008A0C00003C0000000600000002000000000000C0FF3F8FC0000000C025BE1EC000000000EC572040000000C0FF3F8FC0000000A0CE0620C000000000FCF31D400C000000
310
13000000920C00003C0000000600000002000000000000C0FF3F8F40000000C02ACD23C00000000000EFD73F000000C0FF3F8FC0000000C027CD23C00000000000EFD73F0C000000130000009A0C00003C0000000600000002000000000000C0FF3F8FC0000000A0CE0620C000000000FCF31D40000000C0FF3F8FC0000000
310
C027CD23C00000000000EFD73F0C00000013000000A20C00003C0000000600000002000000000000C0FF3F8F4000000000560024C000000000000CC73F000000C0FF3F8FC000000040530024C000000000000CC73F0C00000013000000AA0C00003C0000000600000002000000000000C0FF3F8FC000000040530024C00000
310
0000000CC73F000000C0FF3F8FC0000000C027CD23C00000000000EFD73F0C00000013000000B20C00003C0000000600000002000000000000C0FF3F8F4000000000415824C000000000000EA83F000000C0FF3F8FC0000000003E5824C000000000000EA83F0C00000013000000BA0C00003C000000060000000200000000
310
0000C0FF3F8FC000000040530024C000000000000CC73F000000C0FF3F8FC0000000003E5824C000000000000EA83F0C00000013000000C20C00003C0000000600000002000000000000C0FF3F8F400000008071C424C000000000000036BF000000C0FF3F8FC0000000C06EC424C000000000000036BF0C00000013000000
310
CA0C00003C0000000600000002000000000000C0FF3F8FC0000000C06EC424C000000000000036BF000000C0FF3F8FC0000000003E5824C000000000000EA83F0C00000013000000D20C00003C0000000600000002000000000000C0FF3F8FC0000000C06EC424C000000000000036BF000000C0FF3F8FC000000000FFFF2E
310
C000000000000036BF0C00000013000000DA0C00003C0000000600000002000000000000C0FF3F8FC0000000E0F8F204C000000040FD3F6940000000C0FF3F8FC0000000000000D83E00000040889068400C00000013000000E20C00003C0000000600000002000000000000C0FF3F8FC0000000E007B719C000000000D8E8
310
2140000000C0FF3F8FC000000040A06315C000000000E72635400C00000013000000EA0C00003C0000000600000002000000000000C0FF3F8FC0000000003E14F4BF00000000941B2F40000000C0FF3F8FC000000040A06315C000000000E72635400C00000013000000F20C00003C0000000600000002000000000000C0FF
310
3F8FC0000000E007B719C000000000D8E82140000000C0FF3F8FC0000000003E14F4BF00000000AE7D2D400C00000013000000FA0C00003C0000000600000002000000000000C0FF3F8FC000000060080018C00000000055643540000000C0FF3F8FC0000000208D861CC000000000925E21400C00000013000000020D0000
310
3C0000000600000002000000000000C0FF3F8FC0000000C025BE1EC000000000EC572040000000C0FF3F8FC0000000A0DA201AC000000000C5D735400C000000130000000A0D00003C0000000600000002000000000000C0FF3F8FC0000000A0CE0620C000000000FCF31D40000000C0FF3F8FC00000008078841BC0000000
310
004B7336400C00000013000000120D00003C0000000600000002000000000000C0FF3F8FC0000000A0FEFF1BC0000000002B243740000000C0FF3F8FC0000000A0CE0620C000000000FCF31D400C000000130000001A0D00003C0000000600000002000000000000C0FF3F8FC000000000FF7F2FC0000000000010B13F0000
310
00C0FF3F8FC0000000003E5824C000000000000EA83F0C00000013000000220D00003C0000000600000002000000000000C0FF3F8FC000000040530024C000000000000CC73F000000C0FF3F8FC000000000B3DD2FC00000000000F5CF3F0C000000130000002A0D00003C0000000600000002000000000000C0FF3F8FC000
310
000000FFFF2FC00000000080FADF3F000000C0FF3F8FC0000000C027CD23C00000000000EFD73F0C00000013000000320D00003C0000000600000002000000000000C0FF3F8FC000000000803ABBBF00000000DCFC2440000000C0FF3F8FC0000000006895B3BF0000000002A72A400C000000130000003A0D00003C000000
310
0600000002000000000000C0FF3F8FC0000000000EC8D9BF0000000026462440000000C0FF3F8FC0000000002816D2BF0000000066062B400C00000013000000420D00003C0000000600000002000000000000C0FF3F8FC0000000006C71EABF00000000AEE72340000000C0FF3F8FC000000000F80DEDBF00000000B4082C
310
400C000000130000004A0D00003C0000000600000002000000000000C0FF3F8FC0000000006B71EABF00000000CA583440000000C0FF3F8FC000000000F70DEDBF00000000464830400C00000013000000520D00003C0000000600000002000000000000C0FF3F8FC0000000006095B3BF0000000020F93040000000C0FF3F
310
8FC000000000683ABBBF0000000033CE33400C000000130000005A0D00003C0000000600000002000000000000C0FF3F8FC0000000002616D2BF000000006EC93040000000C0FF3F8FC00000000008C8D9BF000000008E2934400C00000013000000620D00003C0000000600000002000000000000C0FF3F8FC0000000A0FE
310
FF1BC0000000002B243740000000C0FF3F8FC000000000FFFF2FC00000000080FADF3F0C000000130000006A0D00003C0000000600000002000000000000C0FF3F8FC0000000A0FEFF1BC000000040BF9F6040000000C0FF3F8FC000000040FFFF2FC000000040C75D61400C00000013000000720D00003C00000006000000
310
02000000000000C0FF3F8FC00000008078841BC000000040DBB56040000000C0FF3F8FC00000000097332FC000000040736D61400C000000130000007A0D00003C0000000600000002000000000000C0FF3F8FC00000008078841BC000000040DBB56040000000C0FF3F8FC00000008049C12FC000000080A06761400C0000
310
0013000000820D00003C0000000600000002000000000000C0FF3F8FC00000000085EE2DC00000000076756140000000C0FF3F8FC0000000A0DA201AC0000000004CC960400C000000130000008A0D00003C0000000600000002000000000000C0FF3F8FC000000080F0E62CC0000000C0E5836140000000C0FF3F8FC00000
310
0060080018C000000000BAD760400C00000013000000920D00003C0000000600000002000000000000C0FF3F8FC000000080753B2CC00000004015976140000000C0FF3F8FC000000040A06315C0000000C067DF60400C000000130000009A0D00003C0000000600000002000000000000C0FF3F8FC000000040FFFF2BC000
310
000000CAAC6140000000C0FF3F8FC000000080B538F5BF0000000052F660400C00000013000000A20D00003C0000000600000002000000000000C0FF3F8FC000000080B538F5BF000000C0A8C16140000000C0FF3F8FC000000080B538F5BF0000000052F660400C00000013000000AA0D00003C0000000600000002000000
310
000000C0FF3F8FC00000000005E4ECBF0000008039FC6040000000C0FF3F8FC00000000005E4ECBF00000000C1BB61400C00000013000000B20D00003C0000000600000002000000000000C0FF3F8FC0000000004D67E3BF000000C0A4076140000000C0FF3F8FC0000000004D67E3BF000000C055B061400C000000130000
310
00BA0D00003C0000000600000002000000000000C0FF3F8FC000000040FFFF2BC000000000CAAC6140000000C0FF3F8FC00000000040C70AC0000000002DCD61400C00000013000000C20D00003C0000000600000002000000000000C0FF3F8FC000000040FFFF2BC000000000CAAC6140000000C0FF3F8FC0000000600800
310
10C0000000C0DAD461400C00000013000000CA0D00003C0000000600000002000000000000C0FF3F8FC000000040FFFF2BC000000000CAAC6140000000C0FF3F8FC0000000A0DA2012C00000008048E361400C00000013000000D20D00003C0000000600000002000000000000C0FF3F8FC000000040FFFF2BC000000000CA
310
AC6140000000C0FF3F8FC000000080788413C000000040B9F661400C00000013000000DA0D00003C0000000600000002000000000000C0FF3F8FC000000040FFFF2BC000000000CAAC6140000000C0FF3F8FC0000000A0FEFF13C000000040D50C62400C00000013000000E20D00003C0000000600000002000000000000C0
310
FF3F8FC000000040FFFF2BC00000008030916640000000C0FF3F8FC0000000A0FEFF13C000000000D72666400C00000013000000EA0D00003C0000000600000002000000000000C0FF3F8FC0000000A0FEFF13C000000000D7266640000000C0FF3F8FC000000040FF7F2BC0000000002F9F66400C00000013000000F20D00
310
003C0000000600000002000000000000C0FF3F8FC000000000B3DD2BC00000000045996640000000C0FF3F8FC0000000A0FEFF13C000000000D72666400C00000013000000FA0D00003C0000000600000002000000000000C0FF3F8FC0000000A0FEFF13C000000000D7266640000000C0FF3F8FC000000040FFFF2AC00000
310
004059A166400C00000013000000020E00003C0000000600000002000000000000C0FF3F8FC000000040FF7F28C0000000407EA36640000000C0FF3F8FC0000000803DA913C000000040743966400C000000130000000A0E00003C0000000600000002000000000000C0FF3F8FC0000000803DA913C0000000407439664000
310
0000C0FF3F8FC000000040FFFF28C00000004059A166400C00000013000000120E00003C0000000600000002000000000000C0FF3F8FC000000040FFFF27C00000004059B16640000000C0FF3F8FC0000000C053AC12C0000000C07D4A66400C000000130000001A0E00003C0000000600000002000000000000C0FF3F8FC0
310
000000404B2228C00000004059A96640000000C0FF3F8FC0000000C053AC12C0000000C07D4A66400C00000013000000220E00003C0000000600000002000000000000C0FF3F8FC000000040FFFF27C00000000089E06640000000C0FF3F8FC00000006048C00DC000000080AB8966400C000000130000002A0E00003C0000
310
000600000002000000000000C0FF3F8FC000000000C54D28C0000000C0A8F16640000000C0FF3F8FC000000080BC800AC000000080ABCE66400C00000013000000320E00003C0000000600000002000000000000C0FF3F8FC000000080BC800AC000000080ABCE6640000000C0FF3F8FC000000000D31328C00000004071E9
310
66400C000000130000003A0E00003C0000000600000002000000000000C0FF3F8FC0000000A015CF29C00000004094286740000000C0FF3F8FC0000000C0B4D30BC0000000C0B31467400C00000013000000420E00003C0000000600000002000000000000C0FF3F8FC000000020BD802AC0000000C03E506740000000C0FF
310
3F8FC000000020A7B60BC000000040F52367400C000000130000004A0E00003C0000000600000002000000000000C0FF3F8FC00000000058E109C0000000004D316740000000C0FF3F8FC0000000A0DBD32AC0000000402F7767400C00000013000000520E00003C0000000600000002000000000000C0FF3F8FC000000060
310
EDCE2AC00000004060A06740000000C0FF3F8FC0000000E071BC06C000000000C23967400C000000130000005A0E00003C0000000600000002000000000000C0FF3F8FC000000080250EF5BF00000080B54B6740000000C0FF3F8FC00000002081722AC0000000003BC767400C00000013000000620E00003C000000060000
310
0002000000000000C0FF3F8FC0000000009014E4BF000000006F596740000000C0FF3F8FC0000000E05BB729C0000000C0B9EE67400C000000130000006A0E00003C0000000600000002000000000000C0FF3F8FC0000000E02AB328C00000004059126840000000C0FF3F8FC00000000094EFC4BF00000040D96E67400C00
310
000013000000720E00003C0000000600000002000000000000C0FF3F8FC0000000E0025027C0000000000B356840000000C0FF3F8FC0000000000000DC3E00000080738867400C000000130000007A0E00003C0000000600000002000000000000C0FF3F8FC0000000E0B1B925C00000004095526840000000C0FF3F8FC000
310
000000F70DEDBF00000040582968400C00000013000000820E00003C0000000600000002000000000000C0FF3F8FC0000000002616D2BF0000004033196840000000C0FF3F8FC0000000E0B1B925C000000040955268400C000000130000008A0E00003C0000000600000002000000000000C0FF3F8FC0000000006095B3BF
310
000000003D136840000000C0FF3F8FC0000000E0B1B925C000000040955268400C00000013000000920E00003C0000000600000002000000000000C0FF3F8FC0000000E0B1B925C00000004095526840000000C0FF3F8FC0000000000000DE3E000000C0A50A68400C000000130000009A0E00003C00000006000000020000
310
00000000C0FF3F8FC000000080E3C923C000000080B56D6840000000C0FF3F8FC0000000003E14F4BF000000C0A74068400C00000013000000A20E00003C0000000600000002000000000000C0FF3F8FC000000080BEAB20C000000000348E6840000000C0FF3F8FC0000000003E14F4BF00000000865A68400C0000001300
310
0000AA0E00003C0000000600000002000000000000C0FF3F8FC000000000FA0DEDBF000000C0D5716840000000C0FF3F8FC0000000A0FC541CC000000040D5A068400C00000013000000B20E00003C0000000600000002000000000000C0FF3F8FC0000000C0A43117C00000008091BB6840000000C0FF3F8FC00000000028
310
16D2BF000000C0FA8168400C00000013000000BA0E00003C0000000600000002000000000000C0FF3F8FC0000000007895B3BF00000000F1876840000000C0FF3F8FC00000002088E913C0000000007DD268400C00000013000000C20E00003C0000000600000002000000000000C0FF3F8FC000000000715411C000000040
310
6CEA6840000000C0FF3F8FC0000000000000D83E00000040889068400C00000013000000CA0E00003C0000000600000002000000000000C0FF3F8FC0000000E0BEF10DC0000000C0BB076940000000C0FF3F8FC0000000000000D83E00000040889068400C00000013000000D20E00003C0000000600000002000000000000
310
C0FF3F8FC00000006022F607C000000000843A6940000000C0FF3F8FC0000000000000D83E00000040889068400C00000013000000DA0E00003C0000000600000002000000000000C0FF3F8FC000000040B2C708C00000008097346940000000C0FF3F8FC0000000000000D83E00000040889068400C00000013000000E20E
310
00003C0000000600000002000000000000C0FF3F8FC0000000205D9A06C0000000C08E3E6940000000C0FF3F8FC0000000000000D83E0000004088906840
100
AcDbSubDMesh
 71
     2
 72
     0
 91
        0
 92
      230
 10
999.9998779296875
 20
-0.0000162124633789
 30
196.5166320800781
 10
999.9998779296875
 20
-0.0000162124633789
 30
201.9996643066406
 10
999.9998779296875
 20
-0.0000166893005371
 30
188.2640991210937
 10
999.9998779296875
 20
-0.0000162124633789
 30
192.3327331542969
 10
999.9998779296875
 20
-0.0000162124633789
 30
17.24160766601562
 10
999.9998779296875
 20
-0.0000162124633789
 30
19.3521728515625
 10
999.9998779296875
 20
-0.0000166893005371
 30
10.94715881347656
 10
999.9998779296875
 20
-0.0000166893005371
 30
13.05772399902344
 10
999.9998779296875
 20
-15.50001335144043
 30
-0.000335693359375
 10
999.9998779296875
 20
-10.38367843627929
 30
-0.000335693359375
 10
999.9998779296875
 20
-16.00001525878906
 30
138.9305725097656
 10
999.9998779296875
 20
-16.00001144409179
 30
0.499664306640625
 10
999.9998779296875
 20
-14.00001525878906
 30
180.5371704101562
 10
999.9998779296875
 20
-14.00001525878906
 30
141.399658203125
 10
999.9998779296875
 20
-2.61866021156311
 30
201.9996643066406
 10
999.9998779296875
 20
-0.0765218734741211
 30
196.2481689453125
 10
999.9998779296875
 20
-0.2826261520385742
 30
196.0618591308594
 10
999.9998779296875
 20
-0.9079794883728027
 30
195.5573425292969
 10
999.9998779296875
 20
-1.254965305328369
 30
194.828857421875
 10
999.9998779296875
 20
-1.254965305328369
 30
194.0204772949219
 10
999.9998779296875
 20
-0.9079780578613281
 30
193.2920227050781
 10
999.9998779296875
 20
-0.2826251983642578
 30
192.7875061035156
 10
999.9998779296875
 20
-0.0765213966369629
 30
192.6011962890625
 10
999.9998779296875
 20
-0.1635847091674805
 30
187.4640197753906
 10
999.9998779296875
 20
-0.6275334358215332
 30
186.7947998046875
 10
999.9998779296875
 20
-1.315977573394775
 30
186.3659057617187
 10
999.9998779296875
 20
-2.84203553199768
 30
185.804931640625
 10
999.9998779296875
 20
-3.235052585601806
 30
185.5406494140625
 10
999.9998779296875
 20
-3.464207410812377
 30
185.1236877441406
 10
999.9998779296875
 20
-3.4783935546875
 30
184.6469421386719
 10
999.9998779296875
 20
-3.312880992889404
 30
182.4584350585937
 10
999.9998779296875
 20
-3.718909502029418
 30
180.3021850585937
 10
999.9998779296875
 20
-4.668309211730957
 30
178.3278503417968
 10
999.9998779296875
 20
-4.915294647216796
 30
177.7954406738281
 10
999.9998779296875
 20
-5.000014781951904
 30
177.2137451171875
 10
999.9998779296875
 20
-5.000014781951904
 30
144.4010314941406
 10
999.9998779296875
 20
-4.879385948181152
 30
143.7101135253906
 10
999.9998779296875
 20
-4.532104015350341
 30
143.1026000976562
 10
999.9998779296875
 20
-4.000051975250244
 30
142.6517028808594
 10
999.9998779296875
 20
-3.347311496734619
 30
142.4117431640625
 10
999.9998779296875
 20
-1.326369762420654
 30
142.0518493652344
 10
999.9998779296875
 20
-0.9028582572937011
 30
141.8673095703125
 10
999.9998779296875
 20
-0.6063847541809082
 30
141.5104675292969
 10
999.9998779296875
 20
-0.5000176429748536
 30
141.0571899414062
 10
999.9998779296875
 20
-0.5000162124633789
 30
136.6921691894531
 10
999.9998779296875
 20
-0.6063833236694336
 30
136.2388610839843
 10
999.9998779296875
 20
-0.9028577804565429
 30
135.8820190429687
 10
999.9998779296875
 20
-1.326368331909179
 30
135.697509765625
 10
999.9998779296875
 20
-5.347311973571777
 30
134.9814147949218
 10
999.9998779296875
 20
-6.000051975250244
 30
134.741455078125
 10
999.9998779296875
 20
-6.532104015350341
 30
134.29052734375
 10
999.9998779296875
 20
-6.879385948181152
 30
133.6830139160156
 10
999.9998779296875
 20
-7.000014781951904
 30
132.9920959472656
 10
999.9998779296875
 20
-7.000014781951904
 30
23.14128112792969
 10
999.9998779296875
 20
-6.879385948181152
 30
22.45036315917969
 10
999.9998779296875
 20
-6.532104015350341
 30
21.84284973144531
 10
999.9998779296875
 20
-6.000051975250244
 30
21.39192199707031
 10
999.9998779296875
 20
-5.34731101989746
 30
21.15196228027344
 10
999.9998779296875
 20
-0.8263683319091796
 30
20.34683227539062
 10
999.9998779296875
 20
-0.4028573036193848
 30
20.16232299804688
 10
999.9998779296875
 20
-0.1063833236694336
 30
19.80546569824219
 10
999.9998779296875
 20
-0.0765213966369629
 30
16.97314453125
 10
999.9998779296875
 20
-0.2826251983642578
 30
16.78683471679687
 10
999.9998779296875
 20
-0.9079780578613281
 30
16.28231811523437
 10
999.9998779296875
 20
-1.254965305328369
 30
15.55386352539062
 10
999.9998779296875
 20
-1.254965305328369
 30
14.74546813964844
 10
999.9998779296875
 20
-0.9079785346984863
 30
14.01699829101562
 10
999.9998779296875
 20
-0.282625675201416
 30
13.51249694824218
 10
999.9998779296875
 20
-0.0765218734741211
 30
13.32618713378906
 10
999.9998779296875
 20
-0.1063847541809082
 30
10.49386596679687
 10
999.9998779296875
 20
-0.4028587341308594
 30
10.13700866699219
 10
999.9998779296875
 20
-0.8263688087463378
 30
9.952499389648437
 10
999.9998779296875
 20
-6.428761005401611
 30
8.95477294921875
 10
999.9998779296875
 20
-7.131417751312255
 30
8.684707641601562
 10
999.9998779296875
 20
-7.685710906982421
 30
8.171722412109375
 10
999.9998779296875
 20
-8.013317108154296
 30
7.488265991210937
 10
999.9998779296875
 20
-9.90071678161621
 30
0.37396240234375
 10
999.9998779296875
 20
-10.00065612792969
 30
0.1800537109375
 10
999.9998779296875
 20
-10.17237091064453
 30
0.0469818115234375
 10
999.9998779296875
 20
-15.75001335144043
 30
0.066650390625
 10
999.9998779296875
 20
-15.93302726745605
 30
0.249664306640625
 10
999.9998779296875
 20
-15.87753486633301
 30
139.2383422851562
 10
999.9998779296875
 20
-15.60078239440918
 30
139.4203186035156
 10
999.9998779296875
 20
-14.96587944030762
 30
139.670654296875
 10
999.9998779296875
 20
-14.45107460021972
 30
140.1217956542969
 10
999.9998779296875
 20
-14.11615180969238
 30
140.7213439941406
 10
999.9998779296875
 20
-13.93302917480468
 30
180.7896728515625
 10
999.9998779296875
 20
-13.75001716613769
 30
180.9744873046875
 10
999.9998779296875
 20
-13.50001716613769
 30
181.0421447753906
 10
999.9998779296875
 20
-12.50001716613769
 30
181.0421447753906
 10
999.9998779296875
 20
-12.25001716613769
 30
181.1091613769531
 10
999.9998779296875
 20
-12.06700325012207
 30
181.2921447753906
 10
999.9998779296875
 20
-12.00001716613769
 30
181.5421447753906
 10
999.9998779296875
 20
-12.00001716613769
 30
183.0167236328125
 10
999.9998779296875
 20
-12.03874206542969
 30
183.2950744628906
 10
999.9998779296875
 20
-12.15191650390625
 30
183.5518493652344
 10
999.9998779296875
 20
-13.25146675109863
 30
186.5076599121094
 10
999.9998779296875
 20
-13.40417861938476
 30
189.0117492675781
 10
999.9998779296875
 20
-12.8581485748291
 30
191.4601745605468
 10
999.9998779296875
 20
-11.65629768371582
 30
193.6575927734375
 10
999.9998779296875
 20
-9.89433479309082
 30
195.4284057617187
 10
999.9998779296875
 20
-8.335460662841796
 30
196.44384765625
 10
999.9998779296875
 20
-7.083014965057373
 30
197.0260314941406
 10
999.9998779296875
 20
-4.978078365325927
 30
198.5777587890625
 10
999.9998779296875
 20
-3.743061304092407
 30
200.2416687011719
 10
999.9998779296875
 20
-3.097529411315917
 30
201.6434936523438
 10
999.9998779296875
 20
-2.995204210281372
 30
201.82861328125
 10
999.9998779296875
 20
-2.825394392013549
 30
201.9549255371094
 10
999.9998779296875
 20
-12.90448665618896
 30
185.2680969238281
 10
999.9998779296875
 20
-13.41380882263183
 30
187.7245178222656
 10
999.9998779296875
 20
-13.22366523742676
 30
190.2259521484375
 10
999.9998779296875
 20
-12.34996223449707
 30
192.5733947753906
 10
999.9998779296875
 20
-10.86271095275879
 30
194.5807189941406
 10
999.9998779296875
 20
-5.798500061035156
 30
197.8615112304687
 10
999.9998779296875
 20
-4.33248233795166
 30
199.3257141113281
 10
-999.9998779296875
 20
-6.428740978240966
 30
8.95477294921875
 10
-999.9998779296875
 20
-6.000031948089599
 30
21.39192199707031
 10
-999.9998779296875
 20
-6.999994754791259
 30
23.14128112792969
 10
-999.9998779296875
 20
-10.38365745544433
 30
-0.000335693359375
 10
-999.9998779296875
 20
0.0000057220458984
 30
10.94715881347656
 10
-999.9998779296875
 20
0.0000066757202148
 30
13.05772399902344
 10
-999.9998779296875
 20
0.000007152557373
 30
19.3521728515625
 10
-999.9998779296875
 20
-6.999994754791259
 30
132.9920959472656
 10
-999.9998779296875
 20
-6.879365921020507
 30
133.6830139160156
 10
-999.9998779296875
 20
-14.11613082885742
 30
140.7213439941406
 10
-999.9998779296875
 20
-13.9999942779541
 30
141.399658203125
 10
-999.9998779296875
 20
-1.326344966888427
 30
142.0518493652344
 10
-999.9998779296875
 20
-0.6063599586486817
 30
136.2388610839843
 10
-999.9998779296875
 20
-0.499992847442627
 30
136.6921691894531
 10
-999.9998779296875
 20
-13.9999942779541
 30
180.5371704101562
 10
-999.9998779296875
 20
-13.93300628662109
 30
180.7896728515625
 10
-999.9998779296875
 20
-12.2499942779541
 30
181.1091613769531
 10
-999.9998779296875
 20
-11.9999942779541
 30
183.0167236328125
 10
-999.9998779296875
 20
-12.15189361572265
 30
183.5518493652344
 10
-999.9998779296875
 20
-13.25144290924072
 30
186.5076599121094
 10
-999.9998779296875
 20
-3.235031127929687
 30
185.5406494140625
 10
-999.9998779296875
 20
-1.315953731536865
 30
186.3659057617187
 10
-999.9998779296875
 20
-0.6275100708007813
 30
186.7947998046875
 10
-999.9998779296875
 20
-11.65627193450927
 30
193.6575927734375
 10
-999.9998779296875
 20
-0.2826018333435058
 30
192.7875061035156
 10
-999.9998779296875
 20
-9.894313812255859
 30
195.4284057617187
 10
-999.9998779296875
 20
-8.335437774658203
 30
196.44384765625
 10
-999.9998779296875
 20
-2.82537293434143
 30
201.9549255371094
 10
-999.9998779296875
 20
0.000007152557373
 30
201.9996643066406
 10
-999.9998779296875
 20
-1.254941940307617
 30
14.74546813964844
 10
-999.9998779296875
 20
-7.685690879821777
 30
8.171722412109375
 10
-999.9998779296875
 20
-8.013295173645019
 30
7.488265991210937
 10
-999.9998779296875
 20
-10.00063514709472
 30
0.1800537109375
 10
-999.9998779296875
 20
-0.8263454437255859
 30
9.952499389648437
 10
-999.9998779296875
 20
-0.8263449668884277
 30
20.34683227539062
 10
-999.9998779296875
 20
0.000007152557373
 30
17.24160766601562
 10
-999.9998779296875
 20
-0.2826018333435058
 30
16.78683471679687
 10
-999.9998779296875
 20
-15.9999942779541
 30
138.9305725097656
 10
-999.9998779296875
 20
-14.96585845947265
 30
139.670654296875
 10
-999.9998779296875
 20
-6.532083988189697
 30
134.29052734375
 10
-999.9998779296875
 20
-14.45105361938476
 30
140.1217956542969
 10
-999.9998779296875
 20
-0.6063599586486817
 30
141.5104675292969
 10
-999.9998779296875
 20
-4.532083988189697
 30
143.1026000976562
 10
-999.9998779296875
 20
-4.879365921020507
 30
143.7101135253906
 10
-999.9998779296875
 20
-4.999994754791259
 30
144.4010314941406
 10
-999.9998779296875
 20
-4.999994754791259
 30
177.2137451171875
 10
-999.9998779296875
 20
-13.7499942779541
 30
180.9744873046875
 10
-999.9998779296875
 20
-11.9999942779541
 30
181.5421447753906
 10
-999.9998779296875
 20
-12.06698036193847
 30
181.2921447753906
 10
-999.9998779296875
 20
-3.718888044357299
 30
180.3021850585937
 10
-999.9998779296875
 20
-12.90446186065674
 30
185.2680969238281
 10
-999.9998779296875
 20
-13.40415477752685
 30
189.0117492675781
 10
-999.9998779296875
 20
-12.34993648529053
 30
192.5733947753906
 10
-999.9998779296875
 20
-0.0764980316162109
 30
192.6011962890625
 10
-999.9998779296875
 20
-1.254941940307617
 30
194.0204772949219
 10
-999.9998779296875
 20
-1.254941940307617
 30
194.828857421875
 10
-999.9998779296875
 20
-0.9079561233520507
 30
195.5573425292969
 10
-999.9998779296875
 20
-0.0764994621276856
 30
196.2481689453125
 10
-999.9998779296875
 20
-4.332462310791015
 30
199.3257141113281
 10
-999.9998779296875
 20
-3.743039846420288
 30
200.2416687011719
 10
-999.9998779296875
 20
-2.995182752609252
 30
201.82861328125
 10
-999.9998779296875
 20
-3.097507953643798
 30
201.6434936523438
 10
-999.9998779296875
 20
-2.618638753890991
 30
201.9996643066406
 10
-999.9998779296875
 20
0.0000057220458984
 30
196.5166320800781
 10
-999.9998779296875
 20
-1.254941940307617
 30
15.55386352539062
 10
-999.9998779296875
 20
-5.347290992736816
 30
21.15196228027344
 10
-999.9998779296875
 20
-7.131397724151611
 30
8.684707641601562
 10
-999.9998779296875
 20
-6.879365921020507
 30
22.45036315917969
 10
-999.9998779296875
 20
-15.74999237060547
 30
0.066650390625
 10
-999.9998779296875
 20
-15.99999237060547
 30
0.499664306640625
 10
-999.9998779296875
 20
-0.4028353691101075
 30
10.13700866699219
 10
-999.9998779296875
 20
-0.282602310180664
 30
13.51249694824218
 10
-999.9998779296875
 20
-0.9079551696777343
 30
14.01699829101562
 10
-999.9998779296875
 20
-0.0764980316162109
 30
16.97314453125
 10
-999.9998779296875
 20
-15.60076141357422
 30
139.4203186035156
 10
-999.9998779296875
 20
-5.347290992736816
 30
134.9814147949218
 10
-999.9998779296875
 20
-1.326344966888427
 30
135.697509765625
 10
-999.9998779296875
 20
-0.902834415435791
 30
135.8820190429687
 10
-999.9998779296875
 20
-4.000031948089599
 30
142.6517028808594
 10
-999.9998779296875
 20
-13.4999942779541
 30
181.0421447753906
 10
-999.9998779296875
 20
-4.915273666381835
 30
177.7954406738281
 10
-999.9998779296875
 20
-4.668288230895996
 30
178.3278503417968
 10
-999.9998779296875
 20
-3.312859535217285
 30
182.4584350585937
 10
-999.9998779296875
 20
-13.41378498077392
 30
187.7245178222656
 10
-999.9998779296875
 20
-2.842014074325561
 30
185.804931640625
 10
-999.9998779296875
 20
-13.22364139556885
 30
190.2259521484375
 10
-999.9998779296875
 20
-12.85812282562256
 30
191.4601745605468
 10
-999.9998779296875
 20
-0.1635613441467285
 30
187.4640197753906
 10
-999.9998779296875
 20
0.0000066757202148
 30
188.2640991210937
 10
-999.9998779296875
 20
-6.532083988189697
 30
21.84284973144531
 10
-999.9998779296875
 20
-15.49999237060547
 30
-0.000335693359375
 10
-999.9998779296875
 20
-10.17234802246093
 30
0.0469818115234375
 10
-999.9998779296875
 20
-15.93300628662109
 30
0.249664306640625
 10
-999.9998779296875
 20
-9.900693893432617
 30
0.37396240234375
 10
-999.9998779296875
 20
-0.1063613891601562
 30
10.49386596679687
 10
-999.9998779296875
 20
-0.0764985084533692
 30
13.32618713378906
 10
-999.9998779296875
 20
-0.9079546928405761
 30
16.28231811523437
 10
-999.9998779296875
 20
-0.1063599586486816
 30
19.80546569824219
 10
-999.9998779296875
 20
-0.4028339385986329
 30
20.16232299804688
 10
-999.9998779296875
 20
-15.87751388549804
 30
139.2383422851562
 10
-999.9998779296875
 20
-6.000031948089599
 30
134.741455078125
 10
-999.9998779296875
 20
-0.902834415435791
 30
141.8673095703125
 10
-999.9998779296875
 20
-0.4999942779541016
 30
141.0571899414062
 10
-999.9998779296875
 20
-3.3472900390625
 30
142.4117431640625
 10
-999.9998779296875
 20
-12.4999942779541
 30
181.0421447753906
 10
-999.9998779296875
 20
-12.03871917724609
 30
183.2950744628906
 10
-999.9998779296875
 20
-3.47837209701538
 30
184.6469421386719
 10
-999.9998779296875
 20
-3.464185953140258
 30
185.1236877441406
 10
-999.9998779296875
 20
-10.86268520355224
 30
194.5807189941406
 10
-999.9998779296875
 20
-0.9079546928405761
 30
193.2920227050781
 10
-999.9998779296875
 20
0.000007152557373
 30
192.3327331542969
 10
-999.9998779296875
 20
-7.082994937896728
 30
197.0260314941406
 10
-999.9998779296875
 20
-5.798480033874511
 30
197.8615112304687
 10
-999.9998779296875
 20
-0.282602310180664
 30
196.0618591308594
 10
-999.9998779296875
 20
-4.978058338165283
 30
198.5777587890625
 93
     1203
 90
        3
 90
        1
 90
       14
 90
        0
 90
        4
 90
       72
 90
       65
 90
       64
 90
       57
 90
        4
 90
       73
 90
       72
 90
       57
 90
       56
 90
        4
 90
       74
 90
       73
 90
       56
 90
       55
 90
        4
 90
       75
 90
       74
 90
       55
 90
       54
 90
        3
 90
       75
 90
       54
 90
       53
 90
        4
 90
       79
 90
        8
 90
        9
 90
       78
 90
        4
 90
       80
 90
       79
 90
       78
 90
       77
 90
        4
 90
       11
 90
       80
 90
       77
 90
       76
 90
        4
 90
       69
 90
        6
 90
        7
 90
       68
 90
        4
 90
       70
 90
       69
 90
       68
 90
       67
 90
        4
 90
       71
 90
       70
 90
       67
 90
       66
 90
        4
 90
       72
 90
       71
 90
       66
 90
       65
 90
        4
 90
       64
 90
       63
 90
       58
 90
       57
 90
        4
 90
       61
 90
        4
 90
        5
 90
       60
 90
        4
 90
       62
 90
       61
 90
       60
 90
       59
 90
        4
 90
       63
 90
       62
 90
       59
 90
       58
 90
        4
 90
       11
 90
       76
 90
       75
 90
       53
 90
        4
 90
       10
 90
       11
 90
       53
 90
       52
 90
        3
 90
       82
 90
       81
 90
       51
 90
        4
 90
       81
 90
       10
 90
       52
 90
       51
 90
        4
 90
       83
 90
       82
 90
       51
 90
       50
 90
        4
 90
       84
 90
       83
 90
       50
 90
       49
 90
        4
 90
       85
 90
       84
 90
       49
 90
       48
 90
        4
 90
       13
 90
       85
 90
       48
 90
       47
 90
        4
 90
       47
 90
       46
 90
       41
 90
       40
 90
        4
 90
       46
 90
       45
 90
       42
 90
       41
 90
        4
 90
       45
 90
       44
 90
       43
 90
       42
 90
        4
 90
       13
 90
       47
 90
       40
 90
       39
 90
        3
 90
       13
 90
       39
 90
       38
 90
        3
 90
       13
 90
       38
 90
       37
 90
        3
 90
       13
 90
       37
 90
       36
 90
        3
 90
       13
 90
       36
 90
       35
 90
        4
 90
       12
 90
       13
 90
       35
 90
       34
 90
        3
 90
       87
 90
       86
 90
       34
 90
        3
 90
       86
 90
       12
 90
       34
 90
        3
 90
       88
 90
       87
 90
       34
 90
        3
 90
       90
 90
       89
 90
       33
 90
        4
 90
       89
 90
       88
 90
       34
 90
       33
 90
        3
 90
       92
 90
       91
 90
       32
 90
        4
 90
       91
 90
       90
 90
       33
 90
       32
 90
        4
 90
       93
 90
       92
 90
       32
 90
       31
 90
        3
 90
       95
 90
       94
 90
       30
 90
        4
 90
       94
 90
       93
 90
       31
 90
       30
 90
        4
 90
      108
 90
       95
 90
       30
 90
       29
 90
        4
 90
       96
 90
      108
 90
       29
 90
       28
 90
        4
 90
      109
 90
       96
 90
       28
 90
       27
 90
        4
 90
       97
 90
      109
 90
       27
 90
       26
 90
        4
 90
      110
 90
       97
 90
       26
 90
       25
 90
        4
 90
       98
 90
      110
 90
       25
 90
       24
 90
        4
 90
      111
 90
       98
 90
       24
 90
       23
 90
        4
 90
       99
 90
      111
 90
       23
 90
        2
 90
        3
 90
      112
 90
       21
 90
       20
 90
        3
 90
      112
 90
        3
 90
       22
 90
        3
 90
      112
 90
       22
 90
       21
 90
        4
 90
      112
 90
       99
 90
        2
 90
        3
 90
        4
 90
      100
 90
      112
 90
       20
 90
       19
 90
        4
 90
      101
 90
      100
 90
       19
 90
       18
 90
        4
 90
      102
 90
      101
 90
       18
 90
       17
 90
        4
 90
      113
 90
      102
 90
       17
 90
       16
 90
        4
 90
      103
 90
      113
 90
       16
 90
       15
 90
        4
 90
      114
 90
      103
 90
       15
 90
        0
 90
        3
 90
      104
 90
      114
 90
        0
 90
        3
 90
      106
 90
      105
 90
        0
 90
        3
 90
      105
 90
      104
 90
        0
 90
        3
 90
       14
 90
      107
 90
        0
 90
        3
 90
      107
 90
      106
 90
        0
 90
        4
 90
        8
 90
       79
 90
      183
 90
      205
 90
        4
 90
       79
 90
       80
 90
      207
 90
      183
 90
        4
 90
       80
 90
       11
 90
      184
 90
      207
 90
        4
 90
       11
 90
       10
 90
      152
 90
      184
 90
        4
 90
       10
 90
       81
 90
      214
 90
      152
 90
        4
 90
       81
 90
       82
 90
      189
 90
      214
 90
        4
 90
       82
 90
       83
 90
      153
 90
      189
 90
        4
 90
       83
 90
       84
 90
      155
 90
      153
 90
        4
 90
       84
 90
       85
 90
      124
 90
      155
 90
        4
 90
       85
 90
       13
 90
      125
 90
      124
 90
        4
 90
       13
 90
       12
 90
      129
 90
      125
 90
        4
 90
       12
 90
       86
 90
      130
 90
      129
 90
        4
 90
       86
 90
       87
 90
      161
 90
      130
 90
        4
 90
       87
 90
       88
 90
      194
 90
      161
 90
        4
 90
       88
 90
       89
 90
      219
 90
      194
 90
        4
 90
       89
 90
       90
 90
      131
 90
      219
 90
        4
 90
       90
 90
       91
 90
      163
 90
      131
 90
        4
 90
       91
 90
       92
 90
      162
 90
      163
 90
        4
 90
       92
 90
       93
 90
      132
 90
      162
 90
        4
 90
       93
 90
       94
 90
      220
 90
      132
 90
        4
 90
       94
 90
       95
 90
      133
 90
      220
 90
        4
 90
       95
 90
      108
 90
      165
 90
      133
 90
        4
 90
      108
 90
       96
 90
      134
 90
      165
 90
        4
 90
       96
 90
      109
 90
      198
 90
      134
 90
        4
 90
      109
 90
       97
 90
      166
 90
      198
 90
        4
 90
       97
 90
      110
 90
      200
 90
      166
 90
        4
 90
      110
 90
       98
 90
      201
 90
      200
 90
        4
 90
       98
 90
      111
 90
      167
 90
      201
 90
        4
 90
      111
 90
       99
 90
      138
 90
      167
 90
        4
 90
       99
 90
      112
 90
      223
 90
      138
 90
        4
 90
      112
 90
      100
 90
      140
 90
      223
 90
        4
 90
      100
 90
      101
 90
      141
 90
      140
 90
        4
 90
      101
 90
      102
 90
      226
 90
      141
 90
        4
 90
      102
 90
      113
 90
      227
 90
      226
 90
        4
 90
      113
 90
      103
 90
      229
 90
      227
 90
        4
 90
      103
 90
      114
 90
      173
 90
      229
 90
        4
 90
      114
 90
      104
 90
      174
 90
      173
 90
        4
 90
      104
 90
      105
 90
      176
 90
      174
 90
        4
 90
      105
 90
      106
 90
      175
 90
      176
 90
        4
 90
      106
 90
      107
 90
      142
 90
      175
 90
        4
 90
      107
 90
       14
 90
      177
 90
      142
 90
        4
 90
       14
 90
        1
 90
      143
 90
      177
 90
        4
 90
        1
 90
        0
 90
      178
 90
      143
 90
        4
 90
        0
 90
       15
 90
      172
 90
      178
 90
        4
 90
       15
 90
       16
 90
      228
 90
      172
 90
        4
 90
       16
 90
       17
 90
      171
 90
      228
 90
        4
 90
       17
 90
       18
 90
      170
 90
      171
 90
        4
 90
       18
 90
       19
 90
      169
 90
      170
 90
        4
 90
       19
 90
       20
 90
      224
 90
      169
 90
        4
 90
       20
 90
       21
 90
      139
 90
      224
 90
        4
 90
       21
 90
       22
 90
      168
 90
      139
 90
        4
 90
       22
 90
        3
 90
      225
 90
      168
 90
        4
 90
        3
 90
        2
 90
      203
 90
      225
 90
        4
 90
        2
 90
       23
 90
      202
 90
      203
 90
        4
 90
       23
 90
       24
 90
      137
 90
      202
 90
        4
 90
       24
 90
       25
 90
      136
 90
      137
 90
        4
 90
       25
 90
       26
 90
      199
 90
      136
 90
        4
 90
       26
 90
       27
 90
      135
 90
      199
 90
        4
 90
       27
 90
       28
 90
      222
 90
      135
 90
        4
 90
       28
 90
       29
 90
      221
 90
      222
 90
        4
 90
       29
 90
       30
 90
      197
 90
      221
 90
        4
 90
       30
 90
       31
 90
      164
 90
      197
 90
        4
 90
       31
 90
       32
 90
      196
 90
      164
 90
        4
 90
       32
 90
       33
 90
      195
 90
      196
 90
        4
 90
       33
 90
       34
 90
      160
 90
      195
 90
        4
 90
       34
 90
       35
 90
      159
 90
      160
 90
        4
 90
       35
 90
       36
 90
      158
 90
      159
 90
        4
 90
       36
 90
       37
 90
      157
 90
      158
 90
        4
 90
       37
 90
       38
 90
      193
 90
      157
 90
        4
 90
       38
 90
       39
 90
      218
 90
      193
 90
        4
 90
       39
 90
       40
 90
      126
 90
      218
 90
        4
 90
       40
 90
       41
 90
      216
 90
      126
 90
        4
 90
       41
 90
       42
 90
      156
 90
      216
 90
        4
 90
       42
 90
       43
 90
      217
 90
      156
 90
        4
 90
       43
 90
       44
 90
      128
 90
      217
 90
        4
 90
       44
 90
       45
 90
      127
 90
      128
 90
        4
 90
       45
 90
       46
 90
      192
 90
      127
 90
        4
 90
       46
 90
       47
 90
      191
 90
      192
 90
        4
 90
       47
 90
       48
 90
      190
 90
      191
 90
        4
 90
       48
 90
       49
 90
      215
 90
      190
 90
        4
 90
       49
 90
       50
 90
      154
 90
      215
 90
        4
 90
       50
 90
       51
 90
      123
 90
      154
 90
        4
 90
       51
 90
       52
 90
      122
 90
      123
 90
        4
 90
       52
 90
       53
 90
      117
 90
      122
 90
        4
 90
       53
 90
       54
 90
      182
 90
      117
 90
        4
 90
       54
 90
       55
 90
      204
 90
      182
 90
        4
 90
       55
 90
       56
 90
      116
 90
      204
 90
        4
 90
       56
 90
       57
 90
      180
 90
      116
 90
        4
 90
       57
 90
       58
 90
      149
 90
      180
 90
        4
 90
       58
 90
       59
 90
      213
 90
      149
 90
        4
 90
       59
 90
       60
 90
      212
 90
      213
 90
        4
 90
       60
 90
        5
 90
      121
 90
      212
 90
        4
 90
        5
 90
        4
 90
      150
 90
      121
 90
        4
 90
        4
 90
       61
 90
      188
 90
      150
 90
        4
 90
       61
 90
       62
 90
      151
 90
      188
 90
        4
 90
       62
 90
       63
 90
      211
 90
      151
 90
        4
 90
       63
 90
       64
 90
      179
 90
      211
 90
        4
 90
       64
 90
       65
 90
      144
 90
      179
 90
        4
 90
       65
 90
       66
 90
      187
 90
      144
 90
        4
 90
       66
 90
       67
 90
      186
 90
      187
 90
        4
 90
       67
 90
       68
 90
      210
 90
      186
 90
        4
 90
       68
 90
        7
 90
      120
 90
      210
 90
        4
 90
        7
 90
        6
 90
      119
 90
      120
 90
        4
 90
        6
 90
       69
 90
      209
 90
      119
 90
        4
 90
       69
 90
       70
 90
      185
 90
      209
 90
        4
 90
       70
 90
       71
 90
      148
 90
      185
 90
        4
 90
       71
 90
       72
 90
      115
 90
      148
 90
        4
 90
       72
 90
       73
 90
      181
 90
      115
 90
        4
 90
       73
 90
       74
 90
      145
 90
      181
 90
        4
 90
       74
 90
       75
 90
      146
 90
      145
 90
        4
 90
       75
 90
       76
 90
      208
 90
      146
 90
        4
 90
       76
 90
       77
 90
      147
 90
      208
 90
        4
 90
       77
 90
       78
 90
      206
 90
      147
 90
        4
 90
       78
 90
        9
 90
      118
 90
      206
 90
        4
 90
        9
 90
        8
 90
      205
 90
      118
 90
        3
 90
      143
 90
      178
 90
      177
 90
        4
 90
      115
 90
      180
 90
      179
 90
      144
 90
        4
 90
      181
 90
      116
 90
      180
 90
      115
 90
        4
 90
      145
 90
      204
 90
      116
 90
      181
 90
        4
 90
      146
 90
      182
 90
      204
 90
      145
 90
        3
 90
      146
 90
      117
 90
      182
 90
        4
 90
      183
 90
      206
 90
      118
 90
      205
 90
        4
 90
      207
 90
      147
 90
      206
 90
      183
 90
        4
 90
      184
 90
      208
 90
      147
 90
      207
 90
        4
 90
      209
 90
      210
 90
      120
 90
      119
 90
        4
 90
      185
 90
      186
 90
      210
 90
      209
 90
        4
 90
      148
 90
      187
 90
      186
 90
      185
 90
        4
 90
      115
 90
      144
 90
      187
 90
      148
 90
        4
 90
      179
 90
      180
 90
      149
 90
      211
 90
        4
 90
      188
 90
      212
 90
      121
 90
      150
 90
        4
 90
      151
 90
      213
 90
      212
 90
      188
 90
        4
 90
      211
 90
      149
 90
      213
 90
      151
 90
        4
 90
      184
 90
      117
 90
      146
 90
      208
 90
        4
 90
      152
 90
      122
 90
      117
 90
      184
 90
        3
 90
      189
 90
      123
 90
      214
 90
        4
 90
      214
 90
      123
 90
      122
 90
      152
 90
        4
 90
      153
 90
      154
 90
      123
 90
      189
 90
        4
 90
      155
 90
      215
 90
      154
 90
      153
 90
        4
 90
      124
 90
      190
 90
      215
 90
      155
 90
        4
 90
      125
 90
      191
 90
      190
 90
      124
 90
        4
 90
      191
 90
      126
 90
      216
 90
      192
 90
        4
 90
      192
 90
      216
 90
      156
 90
      127
 90
        4
 90
      127
 90
      156
 90
      217
 90
      128
 90
        4
 90
      125
 90
      218
 90
      126
 90
      191
 90
        3
 90
      125
 90
      193
 90
      218
 90
        3
 90
      125
 90
      157
 90
      193
 90
        3
 90
      125
 90
      158
 90
      157
 90
        3
 90
      125
 90
      159
 90
      158
 90
        4
 90
      129
 90
      160
 90
      159
 90
      125
 90
        3
 90
      161
 90
      160
 90
      130
 90
        3
 90
      130
 90
      160
 90
      129
 90
        3
 90
      194
 90
      160
 90
      161
 90
        3
 90
      131
 90
      195
 90
      219
 90
        4
 90
      219
 90
      195
 90
      160
 90
      194
 90
        3
 90
      162
 90
      196
 90
      163
 90
        4
 90
      163
 90
      196
 90
      195
 90
      131
 90
        4
 90
      132
 90
      164
 90
      196
 90
      162
 90
        3
 90
      133
 90
      197
 90
      220
 90
        4
 90
      220
 90
      197
 90
      164
 90
      132
 90
        4
 90
      165
 90
      221
 90
      197
 90
      133
 90
        4
 90
      134
 90
      222
 90
      221
 90
      165
 90
        4
 90
      198
 90
      135
 90
      222
 90
      134
 90
        4
 90
      166
 90
      199
 90
      135
 90
      198
 90
        4
 90
      200
 90
      136
 90
      199
 90
      166
 90
        4
 90
      201
 90
      137
 90
      136
 90
      200
 90
        4
 90
      167
 90
      202
 90
      137
 90
      201
 90
        4
 90
      138
 90
      203
 90
      202
 90
      167
 90
        3
 90
      223
 90
      224
 90
      139
 90
        3
 90
      223
 90
      168
 90
      225
 90
        3
 90
      223
 90
      139
 90
      168
 90
        4
 90
      223
 90
      225
 90
      203
 90
      138
 90
        4
 90
      140
 90
      169
 90
      224
 90
      223
 90
        4
 90
      141
 90
      170
 90
      169
 90
      140
 90
        4
 90
      226
 90
      171
 90
      170
 90
      141
 90
        4
 90
      227
 90
      228
 90
      171
 90
      226
 90
        4
 90
      229
 90
      172
 90
      228
 90
      227
 90
        4
 90
      173
 90
      178
 90
      172
 90
      229
 90
        3
 90
      174
 90
      178
 90
      173
 90
        3
 90
      175
 90
      178
 90
      176
 90
        3
 90
      176
 90
      178
 90
      174
 90
        3
 90
      177
 90
      178
 90
      142
 90
        3
 90
      142
 90
      178
 90
      175
 94
      477
 90
        1
 90
       14
 90
        0
 90
       14
 90
        0
 90
        1
 90
       65
 90
       72
 90
       64
 90
       65
 90
       57
 90
       64
 90
       57
 90
       72
 90
       72
 90
       73
 90
       56
 90
       57
 90
       56
 90
       73
 90
       73
 90
       74
 90
       55
 90
       56
 90
       55
 90
       74
 90
       74
 90
       75
 90
       54
 90
       55
 90
       54
 90
       75
 90
       53
 90
       54
 90
       53
 90
       75
 90
        8
 90
       79
 90
        8
 90
        9
 90
        9
 90
       78
 90
       78
 90
       79
 90
       79
 90
       80
 90
       77
 90
       78
 90
       77
 90
       80
 90
       11
 90
       80
 90
       76
 90
       77
 90
       11
 90
       76
 90
        6
 90
       69
 90
        6
 90
        7
 90
        7
 90
       68
 90
       68
 90
       69
 90
       69
 90
       70
 90
       67
 90
       68
 90
       67
 90
       70
 90
       70
 90
       71
 90
       66
 90
       67
 90
       66
 90
       71
 90
       71
 90
       72
 90
       65
 90
       66
 90
       63
 90
       64
 90
       58
 90
       63
 90
       57
 90
       58
 90
        4
 90
       61
 90
        4
 90
        5
 90
        5
 90
       60
 90
       60
 90
       61
 90
       61
 90
       62
 90
       59
 90
       60
 90
       59
 90
       62
 90
       62
 90
       63
 90
       58
 90
       59
 90
       75
 90
       76
 90
       11
 90
       53
 90
       10
 90
       11
 90
       52
 90
       53
 90
       10
 90
       52
 90
       81
 90
       82
 90
       51
 90
       81
 90
       51
 90
       82
 90
       10
 90
       81
 90
       51
 90
       52
 90
       82
 90
       83
 90
       50
 90
       51
 90
       50
 90
       83
 90
       83
 90
       84
 90
       49
 90
       50
 90
       49
 90
       84
 90
       84
 90
       85
 90
       48
 90
       49
 90
       48
 90
       85
 90
       13
 90
       85
 90
       47
 90
       48
 90
       13
 90
       47
 90
       46
 90
       47
 90
       41
 90
       46
 90
       40
 90
       41
 90
       40
 90
       47
 90
       45
 90
       46
 90
       42
 90
       45
 90
       41
 90
       42
 90
       44
 90
       45
 90
       43
 90
       44
 90
       42
 90
       43
 90
       39
 90
       40
 90
       13
 90
       39
 90
       38
 90
       39
 90
       13
 90
       38
 90
       37
 90
       38
 90
       13
 90
       37
 90
       36
 90
       37
 90
       13
 90
       36
 90
       35
 90
       36
 90
       13
 90
       35
 90
       12
 90
       13
 90
       34
 90
       35
 90
       12
 90
       34
 90
       86
 90
       87
 90
       34
 90
       86
 90
       34
 90
       87
 90
       12
 90
       86
 90
       87
 90
       88
 90
       34
 90
       88
 90
       89
 90
       90
 90
       33
 90
       89
 90
       33
 90
       90
 90
       88
 90
       89
 90
       33
 90
       34
 90
       91
 90
       92
 90
       32
 90
       91
 90
       32
 90
       92
 90
       90
 90
       91
 90
       32
 90
       33
 90
       92
 90
       93
 90
       31
 90
       32
 90
       31
 90
       93
 90
       94
 90
       95
 90
       30
 90
       94
 90
       30
 90
       95
 90
       93
 90
       94
 90
       30
 90
       31
 90
       95
 90
      108
 90
       29
 90
       30
 90
       29
 90
      108
 90
       96
 90
      108
 90
       28
 90
       29
 90
       28
 90
       96
 90
       96
 90
      109
 90
       27
 90
       28
 90
       27
 90
      109
 90
       97
 90
      109
 90
       26
 90
       27
 90
       26
 90
       97
 90
       97
 90
      110
 90
       25
 90
       26
 90
       25
 90
      110
 90
       98
 90
      110
 90
       24
 90
       25
 90
       24
 90
       98
 90
       98
 90
      111
 90
       23
 90
       24
 90
       23
 90
      111
 90
       99
 90
      111
 90
        2
 90
       23
 90
        2
 90
       99
 90
       21
 90
      112
 90
       20
 90
       21
 90
       20
 90
      112
 90
        3
 90
      112
 90
        3
 90
       22
 90
       22
 90
      112
 90
       21
 90
       22
 90
       99
 90
      112
 90
        2
 90
        3
 90
      100
 90
      112
 90
       19
 90
       20
 90
       19
 90
      100
 90
      100
 90
      101
 90
       18
 90
       19
 90
       18
 90
      101
 90
      101
 90
      102
 90
       17
 90
       18
 90
       17
 90
      102
 90
      102
 90
      113
 90
       16
 90
       17
 90
       16
 90
      113
 90
      103
 90
      113
 90
       15
 90
       16
 90
       15
 90
      103
 90
      103
 90
      114
 90
        0
 90
       15
 90
        0
 90
      114
 90
      104
 90
      114
 90
        0
 90
      104
 90
      105
 90
      106
 90
        0
 90
      105
 90
        0
 90
      106
 90
      104
 90
      105
 90
       14
 90
      107
 90
        0
 90
      107
 90
      106
 90
      107
 90
       79
 90
      183
 90
      183
 90
      205
 90
        8
 90
      205
 90
       80
 90
      207
 90
      183
 90
      207
 90
       11
 90
      184
 90
      184
 90
      207
 90
       10
 90
      152
 90
      152
 90
      184
 90
       81
 90
      214
 90
      152
 90
      214
 90
       82
 90
      189
 90
      189
 90
      214
 90
       83
 90
      153
 90
      153
 90
      189
 90
       84
 90
      155
 90
      153
 90
      155
 90
       85
 90
      124
 90
      124
 90
      155
 90
       13
 90
      125
 90
      124
 90
      125
 90
       12
 90
      129
 90
      125
 90
      129
 90
       86
 90
      130
 90
      129
 90
      130
 90
       87
 90
      161
 90
      130
 90
      161
 90
       88
 90
      194
 90
      161
 90
      194
 90
       89
 90
      219
 90
      194
 90
      219
 90
       90
 90
      131
 90
      131
 90
      219
 90
       91
 90
      163
 90
      131
 90
      163
 90
       92
 90
      162
 90
      162
 90
      163
 90
       93
 90
      132
 90
      132
 90
      162
 90
       94
 90
      220
 90
      132
 90
      220
 90
       95
 90
      133
 90
      133
 90
      220
 90
      108
 90
      165
 90
      133
 90
      165
 90
       96
 90
      134
 90
      134
 90
      165
 90
      109
 90
      198
 90
      134
 90
      198
 90
       97
 90
      166
 90
      166
 90
      198
 90
      110
 90
      200
 90
      166
 90
      200
 90
       98
 90
      201
 90
      200
 90
      201
 90
      111
 90
      167
 90
      167
 90
      201
 90
       99
 90
      138
 90
      138
 90
      167
 90
      112
 90
      223
 90
      138
 90
      223
 90
      100
 90
      140
 90
      140
 90
      223
 90
      101
 90
      141
 90
      140
 90
      141
 90
      102
 90
      226
 90
      141
 90
      226
 90
      113
 90
      227
 90
      226
 90
      227
 90
      103
 90
      229
 90
      227
 90
      229
 90
      114
 90
      173
 90
      173
 90
      229
 90
      104
 90
      174
 90
      173
 90
      174
 90
      105
 90
      176
 90
      174
 90
      176
 90
      106
 90
      175
 90
      175
 90
      176
 90
      107
 90
      142
 90
      142
 90
      175
 90
       14
 90
      177
 90
      142
 90
      177
 90
        1
 90
      143
 90
      143
 90
      177
 90
        0
 90
      178
 90
      143
 90
      178
 90
       15
 90
      172
 90
      172
 90
      178
 90
       16
 90
      228
 90
      172
 90
      228
 90
       17
 90
      171
 90
      171
 90
      228
 90
       18
 90
      170
 90
      170
 90
      171
 90
       19
 90
      169
 90
      169
 90
      170
 90
       20
 90
      224
 90
      169
 90
      224
 90
       21
 90
      139
 90
      139
 90
      224
 90
       22
 90
      168
 90
      139
 90
      168
 90
        3
 90
      225
 90
      168
 90
      225
 90
        2
 90
      203
 90
      203
 90
      225
 90
       23
 90
      202
 90
      202
 90
      203
 90
       24
 90
      137
 90
      137
 90
      202
 90
       25
 90
      136
 90
      136
 90
      137
 90
       26
 90
      199
 90
      136
 90
      199
 90
       27
 90
      135
 90
      135
 90
      199
 90
       28
 90
      222
 90
      135
 90
      222
 90
       29
 90
      221
 90
      221
 90
      222
 90
       30
 90
      197
 90
      197
 90
      221
 90
       31
 90
      164
 90
      164
 90
      197
 90
       32
 90
      196
 90
      164
 90
      196
 90
       33
 90
      195
 90
      195
 90
      196
 90
       34
 90
      160
 90
      160
 90
      195
 90
       35
 90
      159
 90
      159
 90
      160
 90
       36
 90
      158
 90
      158
 90
      159
 90
       37
 90
      157
 90
      157
 90
      158
 90
       38
 90
      193
 90
      157
 90
      193
 90
       39
 90
      218
 90
      193
 90
      218
 90
       40
 90
      126
 90
      126
 90
      218
 90
       41
 90
      216
 90
      126
 90
      216
 90
       42
 90
      156
 90
      156
 90
      216
 90
       43
 90
      217
 90
      156
 90
      217
 90
       44
 90
      128
 90
      128
 90
      217
 90
       45
 90
      127
 90
      127
 90
      128
 90
       46
 90
      192
 90
      127
 90
      192
 90
       47
 90
      191
 90
      191
 90
      192
 90
       48
 90
      190
 90
      190
 90
      191
 90
       49
 90
      215
 90
      190
 90
      215
 90
       50
 90
      154
 90
      154
 90
      215
 90
       51
 90
      123
 90
      123
 90
      154
 90
       52
 90
      122
 90
      122
 90
      123
 90
       53
 90
      117
 90
      117
 90
      122
 90
       54
 90
      182
 90
      117
 90
      182
 90
       55
 90
      204
 90
      182
 90
      204
 90
       56
 90
      116
 90
      116
 90
      204
 90
       57
 90
      180
 90
      116
 90
      180
 90
       58
 90
      149
 90
      149
 90
      180
 90
       59
 90
      213
 90
      149
 90
      213
 90
       60
 90
      212
 90
      212
 90
      213
 90
        5
 90
      121
 90
      121
 90
      212
 90
        4
 90
      150
 90
      121
 90
      150
 90
       61
 90
      188
 90
      150
 90
      188
 90
       62
 90
      151
 90
      151
 90
      188
 90
       63
 90
      211
 90
      151
 90
      211
 90
       64
 90
      179
 90
      179
 90
      211
 90
       65
 90
      144
 90
      144
 90
      179
 90
       66
 90
      187
 90
      144
 90
      187
 90
       67
 90
      186
 90
      186
 90
      187
 90
       68
 90
      210
 90
      186
 90
      210
 90
        7
 90
      120
 90
      120
 90
      210
 90
        6
 90
      119
 90
      119
 90
      120
 90
       69
 90
      209
 90
      119
 90
      209
 90
       70
 90
      185
 90
      185
 90
      209
 90
       71
 90
      148
 90
      148
 90
      185
 90
       72
 90
      115
 90
      115
 90
      148
 90
       73
 90
      181
 90
      115
 90
      181
 90
       74
 90
      145
 90
      145
 90
      181
 90
       75
 90
      146
 90
      145
 90
      146
 90
       76
 90
      208
 90
      146
 90
      208
 90
       77
 90
      147
 90
      147
 90
      208
 90
       78
 90
      206
 90
      147
 90
      206
 90
        9
 90
      118
 90
      118
 90
      206
 90
      118
 90
      205
 90
      177
 90
      178
 90
      115
 90
      180
 90
      179
 90
      180
 90
      115
 90
      144
 90
      116
 90
      181
 90
      145
 90
      204
 90
      146
 90
      182
 90
      117
 90
      146
 90
      183
 90
      206
 90
      147
 90
      207
 90
      184
 90
      208
 90
      209
 90
      210
 90
      185
 90
      186
 90
      148
 90
      187
 90
      149
 90
      211
 90
      188
 90
      212
 90
      151
 90
      213
 90
      117
 90
      184
 90
      122
 90
      152
 90
      123
 90
      189
 90
      123
 90
      214
 90
      153
 90
      154
 90
      155
 90
      215
 90
      124
 90
      190
 90
      125
 90
      191
 90
      126
 90
      191
 90
      192
 90
      216
 90
      127
 90
      156
 90
      125
 90
      218
 90
      125
 90
      193
 90
      125
 90
      157
 90
      125
 90
      158
 90
      125
 90
      159
 90
      129
 90
      160
 90
      160
 90
      161
 90
      130
 90
      160
 90
      160
 90
      194
 90
      131
 90
      195
 90
      195
 90
      219
 90
      162
 90
      196
 90
      163
 90
      196
 90
      132
 90
      164
 90
      133
 90
      197
 90
      197
 90
      220
 90
      165
 90
      221
 90
      134
 90
      222
 90
      135
 90
      198
 90
      166
 90
      199
 90
      136
 90
      200
 90
      137
 90
      201
 90
      167
 90
      202
 90
      138
 90
      203
 90
      223
 90
      224
 90
      139
 90
      223
 90
      168
 90
      223
 90
      223
 90
      225
 90
      140
 90
      169
 90
      141
 90
      170
 90
      171
 90
      226
 90
      227
 90
      228
 90
      172
 90
      229
 90
      173
 90
      178
 90
      174
 90
      178
 90
      175
 90
      178
 90
      176
 90
      178
 90
      142
 90
      178
 95
      477
140
0.0
140
0.0
140
0.0
140
0.0
140
0.0
140
0.0
140
0.0
140
0.0
140
0.0
140
0.0
140
0.0
140
0.0
140
0.0
140
0.0
140
0.0
140
0.0
140
0.0
140
0.0
140
0.0
140
0.0
140
0.0
140
0.0
140
0.0
140
0.0
140
0.0
140
0.0
140
0.0
140
0.0
140
0.0
140
0.0
140
0.0
140
0.0
140
0.0
140
0.0
140
0.0
140
0.0
140
0.0
140
0.0
140
0.0
140
0.0
140
0.0
140
0.0
140
0.0
140
0.0
140
0.0
140
0.0
140
0.0
140
0.0
140
0.0
140
0.0
140
0.0
140
0.0
140
0.0
140
0.0
140
0.0
140
0.0
140
0.0
140
0.0
140
0.0
140
0.0
140
0.0
140
0.0
140
0.0
140
0.0
140
0.0
140
0.0
140
0.0
140
0.0
140
0.0
140
0.0
140
0.0
140
0.0
140
0.0
140
0.0
140
0.0
140
0.0
140
0.0
140
0.0
140
0.0
140
0.0
140
0.0
140
0.0
140
0.0
140
0.0
140
0.0
140
0.0
140
0.0
140
0.0
140
0.0
140
0.0
140
0.0
140
0.0
140
0.0
140
0.0
140
0.0
140
0.0
140
0.0
140
0.0
140
0.0
140
0.0
140
0.0
140
0.0
140
0.0
140
0.0
140
0.0
140
0.0
140
0.0
140
0.0
140
0.0
140
0.0
140
0.0
140
0.0
140
0.0
140
0.0
140
0.0
140
0.0
140
0.0
140
0.0
140
0.0
140
0.0
140
0.0
140
0.0
140
0.0
140
0.0
140
0.0
140
0.0
140
0.0
140
0.0
140
0.0
140
0.0
140
0.0
140
0.0
140
0.0
140
0.0
140
0.0
140
0.0
140
0.0
140
0.0
140
0.0
140
0.0
140
0.0
140
0.0
140
0.0
140
0.0
140
0.0
140
0.0
140
0.0
140
0.0
140
0.0
140
0.0
140
0.0
140
0.0
140
0.0
140
0.0
140
0.0
140
0.0
140
0.0
140
0.0
140
0.0
140
0.0
140
0.0
140
0.0
140
0.0
140
0.0
140
0.0
140
0.0
140
0.0
140
0.0
140
0.0
140
0.0
140
0.0
140
0.0
140
0.0
140
0.0
140
0.0
140
0.0
140
0.0
140
0.0
140
0.0
140
0.0
140
0.0
140
0.0
140
0.0
140
0.0
140
0.0
140
0.0
140
0.0
140
0.0
140
0.0
140
0.0
140
0.0
140
0.0
140
0.0
140
0.0
140
0.0
140
0.0
140
0.0
140
0.0
140
0.0
140
0.0
140
0.0
140
0.0
140
0.0
140
0.0
140
0.0
140
0.0
140
0.0
140
0.0
140
0.0
140
0.0
140
0.0
140
0.0
140
0.0
140
0.0
140
0.0
140
0.0
140
0.0
140
0.0
140
0.0
140
0.0
140
0.0
140
0.0
140
0.0
140
0.0
140
0.0
140
0.0
140
0.0
140
0.0
140
0.0
140
0.0
140
0.0
140
0.0
140
0.0
140
0.0
140
0.0
140
0.0
140
0.0
140
0.0
140
0.0
140
0.0
140
0.0
140
0.0
140
0.0
140
0.0
140
0.0
140
0.0
140
0.0
140
0.0
140
0.0
140
0.0
140
0.0
140
0.0
140
0.0
140
0.0
140
0.0
140
0.0
140
0.0
140
0.0
140
0.0
140
0.0
140
0.0
140
0.0
140
0.0
140
0.0
140
0.0
140
0.0
140
0.0
140
0.0
140
0.0
140
0.0
140
0.0
140
0.0
140
0.0
140
0.0
140
0.0
140
0.0
140
0.0
140
0.0
140
0.0
140
0.0
140
0.0
140
0.0
140
0.0
140
0.0
140
0.0
140
0.0
140
0.0
140
0.0
140
0.0
140
0.0
140
0.0
140
0.0
140
0.0
140
0.0
140
0.0
140
0.0
140
0.0
140
0.0
140
0.0
140
0.0
140
0.0
140
0.0
140
0.0
140
0.0
140
0.0
140
0.0
140
0.0
140
0.0
140
0.0
140
0.0
140
0.0
140
0.0
140
0.0
140
0.0
140
0.0
140
0.0
140
0.0
140
0.0
140
0.0
140
0.0
140
0.0
140
0.0
140
0.0
140
0.0
140
0.0
140
0.0
140
0.0
140
0.0
140
0.0
140
0.0
140
0.0
140
0.0
140
0.0
140
0.0
140
0.0
140
0.0
140
0.0
140
0.0
140
0.0
140
0.0
140
0.0
140
0.0
140
0.0
140
0.0
140
0.0
140
0.0
140
0.0
140
0.0
140
0.0
140
0.0
140
0.0
140
0.0
140
0.0
140
0.0
140
0.0
140
0.0
140
0.0
140
0.0
140
0.0
140
0.0
140
0.0
140
0.0
140
0.0
140
0.0
140
0.0
140
0.0
140
0.0
140
0.0
140
0.0
140
0.0
140
0.0
140
0.0
140
0.0
140
0.0
140
0.0
140
0.0
140
0.0
140
0.0
140
0.0
140
0.0
140
0.0
140
0.0
140
0.0
140
0.0
140
0.0
140
0.0
140
0.0
140
0.0
140
0.0
140
0.0
140
0.0
140
0.0
140
0.0
140
0.0
140
0.0
140
0.0
140
0.0
140
0.0
140
0.0
140
0.0
140
0.0
140
0.0
140
0.0
140
0.0
140
0.0
140
0.0
140
0.0
140
0.0
140
0.0
140
0.0
140
0.0
140
0.0
140
0.0
140
0.0
140
0.0
140
0.0
140
0.0
140
0.0
140
0.0
140
0.0
140
0.0
140
0.0
140
0.0
140
0.0
140
0.0
140
0.0
140
0.0
140
0.0
140
0.0
140
0.0
140
0.0
140
0.0
140
0.0
140
0.0
140
0.0
140
0.0
140
0.0
140
0.0
140
0.0
140
0.0
140
0.0
140
0.0
140
0.0
140
0.0
140
0.0
140
0.0
140
0.0
140
0.0
140
0.0
140
0.0
140
0.0
140
0.0
140
0.0
140
0.0
140
0.0
140
0.0
140
0.0
140
0.0
140
0.0
140
0.0
140
0.0
140
0.0
140
0.0
140
0.0
140
0.0
140
0.0
140
0.0
140
0.0
140
0.0
140
0.0
140
0.0
140
0.0
140
0.0
140
0.0
140
0.0
140
0.0
140
0.0
 90
        0
  0
POLYLINE
  5
FA
330
1F
100
AcDbEntity
  8
OracDecor_skirtings
 62
   136
420
   427889
100
AcDb3dPolyline
 66
     1
 10
0.0
 20
0.0
 30
0.0
 70
     9
  0
VERTEX
  5
FB
330
FA
100
AcDbEntity
  8
OracDecor_skirtings
 62
   136
420
   427889
100
AcDbVertex
100
AcDb3dPolylineVertex
 10
-0.0000004400889111
 20
1.254941940307617
 30
14.74546813964844
 70
    32
  0
VERTEX
  5
FC
330
FA
100
AcDbEntity
  8
OracDecor_skirtings
 62
   136
420
   427889
100
AcDbVertex
100
AcDb3dPolylineVertex
 10
-0.0000004754249403
 20
1.254941940307617
 30
15.55386352539062
 70
    32
  0
VERTEX
  5
FD
330
FA
100
AcDbEntity
  8
OracDecor_skirtings
 62
   136
420
   427889
100
AcDbVertex
100
AcDb3dPolylineVertex
 10
-0.0000005637981531
 20
0.9079546928405761
 30
16.28231811523437
 70
    32
  0
VERTEX
  5
FE
330
FA
100
AcDbEntity
  8
OracDecor_skirtings
 62
   136
420
   427889
100
AcDbVertex
100
AcDb3dPolylineVertex
 10
-0.0000006877341434
 20
0.2826018333435058
 30
16.78683471679687
 70
    32
  0
VERTEX
  5
FF
330
FA
100
AcDbEntity
  8
OracDecor_skirtings
 62
   136
420
   427889
100
AcDbVertex
100
AcDb3dPolylineVertex
 10
-0.0000007294566444
 20
0.0764980316162109
 30
16.97314453125
 70
    32
  0
VERTEX
  5
100
330
FA
100
AcDbEntity
  8
OracDecor_skirtings
 62
   136
420
   427889
100
AcDbVertex
100
AcDb3dPolylineVertex
 10
-0.0000007536557973
 20
-0.000007152557373
 30
17.24160766601562
 70
    32
  0
VERTEX
  5
101
330
FA
100
AcDbEntity
  8
OracDecor_skirtings
 62
   136
420
   427889
100
AcDbVertex
100
AcDb3dPolylineVertex
 10
-0.0000008459115293
 20
-0.000007152557373
 30
19.3521728515625
 70
    32
  0
VERTEX
  5
102
330
FA
100
AcDbEntity
  8
OracDecor_skirtings
 62
   136
420
   427889
100
AcDbVertex
100
AcDb3dPolylineVertex
 10
-0.0000008483961551
 20
0.1063599586486816
 30
19.80546569824219
 70
    32
  0
VERTEX
  5
103
330
FA
100
AcDbEntity
  8
OracDecor_skirtings
 62
   136
420
   427889
100
AcDbVertex
100
AcDb3dPolylineVertex
 10
-0.0000008156931131
 20
0.4028339385986329
 30
20.16232299804688
 70
    32
  0
VERTEX
  5
104
330
FA
100
AcDbEntity
  8
OracDecor_skirtings
 62
   136
420
   427889
100
AcDbVertex
100
AcDb3dPolylineVertex
 10
-0.0000007547595828
 20
0.8263449668884277
 30
20.34683227539062
 70
    32
  0
VERTEX
  5
105
330
FA
100
AcDbEntity
  8
OracDecor_skirtings
 62
   136
420
   427889
100
AcDbVertex
100
AcDb3dPolylineVertex
 10
-0.0000000533973434
 20
5.347290992736816
 30
21.15196228027344
 70
    32
  0
VERTEX
  5
106
330
FA
100
AcDbEntity
  8
OracDecor_skirtings
 62
   136
420
   427889
100
AcDbVertex
100
AcDb3dPolylineVertex
 10
0.000000042458737
 20
6.000031948089599
 30
21.39192199707031
 70
    32
  0
VERTEX
  5
107
330
FA
100
AcDbEntity
  8
OracDecor_skirtings
 62
   136
420
   427889
100
AcDbVertex
100
AcDb3dPolylineVertex
 10
0.0000001094302888
 20
6.532083988189697
 30
21.84284973144531
 70
    32
  0
VERTEX
  5
108
330
FA
100
AcDbEntity
  8
OracDecor_skirtings
 62
   136
420
   427889
100
AcDbVertex
100
AcDb3dPolylineVertex
 10
0.0000001394544142
 20
6.879365921020507
 30
22.45036315917969
 70
    32
  0
VERTEX
  5
109
330
FA
100
AcDbEntity
  8
OracDecor_skirtings
 62
   136
420
   427889
100
AcDbVertex
100
AcDb3dPolylineVertex
 10
0.0000001289064357
 20
6.999994754791259
 30
23.14128112792969
 70
    32
  0
VERTEX
  5
10A
330
FA
100
AcDbEntity
  8
OracDecor_skirtings
 62
   136
420
   427889
100
AcDbVertex
100
AcDb3dPolylineVertex
 10
0.0000029565694604
 20
6.999994754791259
 30
132.9920959472656
 70
    32
  0
VERTEX
  5
10B
330
FA
100
AcDbEntity
  8
OracDecor_skirtings
 62
   136
420
   427889
100
AcDbVertex
100
AcDb3dPolylineVertex
 10
0.0000029067150535
 20
6.879365921020507
 30
133.6830139160156
 70
    32
  0
VERTEX
  5
10C
330
FA
100
AcDbEntity
  8
OracDecor_skirtings
 62
   136
420
   427889
100
AcDbVertex
100
AcDb3dPolylineVertex
 10
0.0000028235808713
 20
6.532083988189697
 30
134.29052734375
 70
    32
  0
VERTEX
  5
10D
330
FA
100
AcDbEntity
  8
OracDecor_skirtings
 62
   136
420
   427889
100
AcDbVertex
100
AcDb3dPolylineVertex
 10
0.0000027171877264
 20
6.000031948089599
 30
134.741455078125
 70
    32
  0
VERTEX
  5
10E
330
FA
100
AcDbEntity
  8
OracDecor_skirtings
 62
   136
420
   427889
100
AcDbVertex
100
AcDb3dPolylineVertex
 10
0.0000026003535822
 20
5.347290992736816
 30
134.9814147949218
 70
    32
  0
VERTEX
  5
10F
330
FA
100
AcDbEntity
  8
OracDecor_skirtings
 62
   136
420
   427889
100
AcDbVertex
100
AcDb3dPolylineVertex
 10
0.0000019139570213
 20
1.326344966888427
 30
135.697509765625
 70
    32
  0
VERTEX
  5
110
330
FA
100
AcDbEntity
  8
OracDecor_skirtings
 62
   136
420
   427889
100
AcDbVertex
100
AcDb3dPolylineVertex
 10
0.0000018368932615
 20
0.902834415435791
 30
135.8820190429687
 70
    32
  0
VERTEX
  5
111
330
FA
100
AcDbEntity
  8
OracDecor_skirtings
 62
   136
420
   427889
100
AcDbVertex
100
AcDb3dPolylineVertex
 10
0.0000017729930732
 20
0.6063599586486817
 30
136.2388610839843
 70
    32
  0
VERTEX
  5
112
330
FA
100
AcDbEntity
  8
OracDecor_skirtings
 62
   136
420
   427889
100
AcDbVertex
100
AcDb3dPolylineVertex
 10
0.0000017358493096
 20
0.499992847442627
 30
136.6921691894531
 70
    32
  0
VERTEX
  5
113
330
FA
100
AcDbEntity
  8
OracDecor_skirtings
 62
   136
420
   427889
100
AcDbVertex
100
AcDb3dPolylineVertex
 10
0.0000015450482351
 20
0.4999942779541016
 30
141.0571899414062
 70
    32
  0
VERTEX
  5
114
330
FA
100
AcDbEntity
  8
OracDecor_skirtings
 62
   136
420
   427889
100
AcDbVertex
100
AcDb3dPolylineVertex
 10
0.0000015425639504
 20
0.6063599586486817
 30
141.5104675292969
 70
    32
  0
VERTEX
  5
115
330
FA
100
AcDbEntity
  8
OracDecor_skirtings
 62
   136
420
   427889
100
AcDbVertex
100
AcDb3dPolylineVertex
 10
0.0000015752675608
 20
0.902834415435791
 30
141.8673095703125
 70
    32
  0
VERTEX
  5
116
330
FA
100
AcDbEntity
  8
OracDecor_skirtings
 62
   136
420
   427889
100
AcDbVertex
100
AcDb3dPolylineVertex
 10
0.0000016362000679
 20
1.326344966888427
 30
142.0518493652344
 70
    32
  0
VERTEX
  5
117
330
FA
100
AcDbEntity
  8
OracDecor_skirtings
 62
   136
420
   427889
100
AcDbVertex
100
AcDb3dPolylineVertex
 10
0.000001949721991
 20
3.3472900390625
 30
142.4117431640625
 70
    32
  0
VERTEX
  5
118
330
FA
100
AcDbEntity
  8
OracDecor_skirtings
 62
   136
420
   427889
100
AcDbVertex
100
AcDb3dPolylineVertex
 10
0.0000020455786398
 20
4.000031948089599
 30
142.6517028808594
 70
    32
  0
VERTEX
  5
119
330
FA
100
AcDbEntity
  8
OracDecor_skirtings
 62
   136
420
   427889
100
AcDbVertex
100
AcDb3dPolylineVertex
 10
0.0000021125511012
 20
4.532083988189697
 30
143.1026000976562
 70
    32
  0
VERTEX
  5
11A
330
FA
100
AcDbEntity
  8
OracDecor_skirtings
 62
   136
420
   427889
100
AcDbVertex
100
AcDb3dPolylineVertex
 10
0.000002142575795
 20
4.879365921020507
 30
143.7101135253906
 70
    32
  0
VERTEX
  5
11B
330
FA
100
AcDbEntity
  8
OracDecor_skirtings
 62
   136
420
   427889
100
AcDbVertex
100
AcDb3dPolylineVertex
 10
0.0000021320274755
 20
4.999994754791259
 30
144.4010314941406
 70
    32
  0
VERTEX
  5
11C
330
FA
100
AcDbEntity
  8
OracDecor_skirtings
 62
   136
420
   427889
100
AcDbVertex
100
AcDb3dPolylineVertex
 10
0.0000006977379599
 20
4.999994754791259
 30
177.2137451171875
 70
    32
  0
VERTEX
  5
11D
330
FA
100
AcDbEntity
  8
OracDecor_skirtings
 62
   136
420
   427889
100
AcDbVertex
100
AcDb3dPolylineVertex
 10
0.0000006585082701
 20
4.915273666381835
 30
177.7954406738281
 70
    32
  0
VERTEX
  5
11E
330
FA
100
AcDbEntity
  8
OracDecor_skirtings
 62
   136
420
   427889
100
AcDbVertex
100
AcDb3dPolylineVertex
 10
0.0000005949973456
 20
4.668288230895996
 30
178.3278503417968
 70
    32
  0
VERTEX
  5
11F
330
FA
100
AcDbEntity
  8
OracDecor_skirtings
 62
   136
420
   427889
100
AcDbVertex
100
AcDb3dPolylineVertex
 10
0.0000003540189937
 20
3.718888044357299
 30
180.3021850585937
 70
    32
  0
VERTEX
  5
120
330
FA
100
AcDbEntity
  8
OracDecor_skirtings
 62
   136
420
   427889
100
AcDbVertex
100
AcDb3dPolylineVertex
 10
0.0000001936159606
 20
3.312859535217285
 30
182.4584350585937
 70
    32
  0
VERTEX
  5
121
330
FA
100
AcDbEntity
  8
OracDecor_skirtings
 62
   136
420
   427889
100
AcDbVertex
100
AcDb3dPolylineVertex
 10
0.0000001249190973
 20
3.47837209701538
 30
184.6469421386719
 70
    32
  0
VERTEX
  5
122
330
FA
100
AcDbEntity
  8
OracDecor_skirtings
 62
   136
420
   427889
100
AcDbVertex
100
AcDb3dPolylineVertex
 10
0.0000001017683644
 20
3.464185953140258
 30
185.1236877441406
 70
    32
  0
VERTEX
  5
123
330
FA
100
AcDbEntity
  8
OracDecor_skirtings
 62
   136
420
   427889
100
AcDbVertex
100
AcDb3dPolylineVertex
 10
0.0000000462091521
 20
3.235031127929687
 30
185.5406494140625
 70
    32
  0
VERTEX
  5
124
330
FA
100
AcDbEntity
  8
OracDecor_skirtings
 62
   136
420
   427889
100
AcDbVertex
100
AcDb3dPolylineVertex
 10
-0.0000000293739504
 20
2.842014074325561
 30
185.804931640625
 70
    32
  0
VERTEX
  5
125
330
FA
100
AcDbEntity
  8
OracDecor_skirtings
 62
   136
420
   427889
100
AcDbVertex
100
AcDb3dPolylineVertex
 10
-0.0000003025215847
 20
1.315953731536865
 30
186.3659057617187
 70
    32
  0
VERTEX
  5
126
330
FA
100
AcDbEntity
  8
OracDecor_skirtings
 62
   136
420
   427889
100
AcDbVertex
100
AcDb3dPolylineVertex
 10
-0.0000004334306141
 20
0.6275100708007813
 30
186.7947998046875
 70
    32
  0
VERTEX
  5
127
330
FA
100
AcDbEntity
  8
OracDecor_skirtings
 62
   136
420
   427889
100
AcDbVertex
100
AcDb3dPolylineVertex
 10
-0.0000005382707968
 20
0.1635613441467285
 30
187.4640197753906
 70
    32
  0
VERTEX
  5
128
330
FA
100
AcDbEntity
  8
OracDecor_skirtings
 62
   136
420
   427889
100
AcDbVertex
100
AcDb3dPolylineVertex
 10
-0.0000005998917914
 20
-0.0000066757202148
 30
188.2640991210937
 70
    32
  0
VERTEX
  5
129
330
FA
100
AcDbEntity
  8
OracDecor_skirtings
 62
   136
420
   427889
100
AcDbVertex
100
AcDb3dPolylineVertex
 10
-0.0000007777371138
 20
-0.000007152557373
 30
192.3327331542969
 70
    32
  0
VERTEX
  5
12A
330
FA
100
AcDbEntity
  8
OracDecor_skirtings
 62
   136
420
   427889
100
AcDbVertex
100
AcDb3dPolylineVertex
 10
-0.0000007770086086
 20
0.0764980316162109
 30
192.6011962890625
 70
    32
  0
VERTEX
  5
12B
330
FA
100
AcDbEntity
  8
OracDecor_skirtings
 62
   136
420
   427889
100
AcDbVertex
100
AcDb3dPolylineVertex
 10
-0.0000007515736797
 20
0.2826018333435058
 30
192.7875061035156
 70
    32
  0
VERTEX
  5
12C
330
FA
100
AcDbEntity
  8
OracDecor_skirtings
 62
   136
420
   427889
100
AcDbVertex
100
AcDb3dPolylineVertex
 10
-0.0000006717436918
 20
0.9079546928405761
 30
193.2920227050781
 70
    32
  0
VERTEX
  5
12D
330
FA
100
AcDbEntity
  8
OracDecor_skirtings
 62
   136
420
   427889
100
AcDbVertex
100
AcDb3dPolylineVertex
 10
-0.0000006470536391
 20
1.254941940307617
 30
194.0204772949219
 70
    32
  0
VERTEX
  5
12E
330
FA
100
AcDbEntity
  8
OracDecor_skirtings
 62
   136
420
   427889
100
AcDbVertex
100
AcDb3dPolylineVertex
 10
-0.0000006823893273
 20
1.254941940307617
 30
194.828857421875
 70
    32
  0
VERTEX
  5
12F
330
FA
100
AcDbEntity
  8
OracDecor_skirtings
 62
   136
420
   427889
100
AcDbVertex
100
AcDb3dPolylineVertex
 10
-0.0000007707640179
 20
0.9079561233520507
 30
195.5573425292969
 70
    32
  0
VERTEX
  5
130
330
FA
100
AcDbEntity
  8
OracDecor_skirtings
 62
   136
420
   427889
100
AcDbVertex
100
AcDb3dPolylineVertex
 10
-0.0000008946999515
 20
0.282602310180664
 30
196.0618591308594
 70
    32
  0
VERTEX
  5
131
330
FA
100
AcDbEntity
  8
OracDecor_skirtings
 62
   136
420
   427889
100
AcDbVertex
100
AcDb3dPolylineVertex
 10
-0.0000009364221114
 20
0.0764994621276856
 30
196.2481689453125
 70
    32
  0
VERTEX
  5
132
330
FA
100
AcDbEntity
  8
OracDecor_skirtings
 62
   136
420
   427889
100
AcDbVertex
100
AcDb3dPolylineVertex
 10
-0.0000009606210369
 20
-0.0000057220458984
 30
196.5166320800781
 70
    32
  0
VERTEX
  5
133
330
FA
100
AcDbEntity
  8
OracDecor_skirtings
 62
   136
420
   427889
100
AcDbVertex
100
AcDb3dPolylineVertex
 10
-0.0000012002919902
 20
-0.000007152557373
 30
201.9996643066406
 70
    32
  0
VERTEX
  5
134
330
FA
100
AcDbEntity
  8
OracDecor_skirtings
 62
   136
420
   427889
100
AcDbVertex
100
AcDb3dPolylineVertex
 10
-0.0000007736607586
 20
2.618638753890991
 30
201.9996643066406
 70
    32
  0
VERTEX
  5
135
330
FA
100
AcDbEntity
  8
OracDecor_skirtings
 62
   136
420
   427889
100
AcDbVertex
100
AcDb3dPolylineVertex
 10
-0.0000007380240277
 20
2.82537293434143
 30
201.9549255371094
 70
    32
  0
VERTEX
  5
136
330
FA
100
AcDbEntity
  8
OracDecor_skirtings
 62
   136
420
   427889
100
AcDbVertex
100
AcDb3dPolylineVertex
 10
-0.000000704836566
 20
2.995182752609252
 30
201.82861328125
 70
    32
  0
VERTEX
  5
137
330
FA
100
AcDbEntity
  8
OracDecor_skirtings
 62
   136
420
   427889
100
AcDbVertex
100
AcDb3dPolylineVertex
 10
-0.0000006800746633
 20
3.097507953643798
 30
201.6434936523438
 70
    32
  0
VERTEX
  5
138
330
FA
100
AcDbEntity
  8
OracDecor_skirtings
 62
   136
420
   427889
100
AcDbVertex
100
AcDb3dPolylineVertex
 10
-0.0000005136280379
 20
3.743039846420288
 30
200.2416687011719
 70
    32
  0
VERTEX
  5
139
330
FA
100
AcDbEntity
  8
OracDecor_skirtings
 62
   136
420
   427889
100
AcDbVertex
100
AcDb3dPolylineVertex
 10
-0.000000377561264
 20
4.332462310791015
 30
199.3257141113281
 70
    32
  0
VERTEX
  5
13A
330
FA
100
AcDbEntity
  8
OracDecor_skirtings
 62
   136
420
   427889
100
AcDbVertex
100
AcDb3dPolylineVertex
 10
-0.0000002396864147
 20
4.978058338165283
 30
198.5777587890625
 70
    32
  0
VERTEX
  5
13B
330
FA
100
AcDbEntity
  8
OracDecor_skirtings
 62
   136
420
   427889
100
AcDbVertex
100
AcDb3dPolylineVertex
 10
-0.0000000747149898
 20
5.798480033874511
 30
197.8615112304687
 70
    32
  0
VERTEX
  5
13C
330
FA
100
AcDbEntity
  8
OracDecor_skirtings
 62
   136
420
   427889
100
AcDbVertex
100
AcDb3dPolylineVertex
 10
0.0000001710791366
 20
7.082994937896728
 30
197.0260314941406
 70
    32
  0
VERTEX
  5
13D
330
FA
100
AcDbEntity
  8
OracDecor_skirtings
 62
   136
420
   427889
100
AcDbVertex
100
AcDb3dPolylineVertex
 10
0.0000004005764822
 20
8.335437774658203
 30
196.44384765625
 70
    32
  0
VERTEX
  5
13E
330
FA
100
AcDbEntity
  8
OracDecor_skirtings
 62
   136
420
   427889
100
AcDbVertex
100
AcDb3dPolylineVertex
 10
0.0000006989357644
 20
9.894313812255859
 30
195.4284057617187
 70
    32
  0
VERTEX
  5
13F
330
FA
100
AcDbEntity
  8
OracDecor_skirtings
 62
   136
420
   427889
100
AcDbVertex
100
AcDb3dPolylineVertex
 10
0.0000008937572602
 20
10.86268520355224
 30
194.5807189941406
 70
    32
  0
VERTEX
  5
140
330
FA
100
AcDbEntity
  8
OracDecor_skirtings
 62
   136
420
   427889
100
AcDbVertex
100
AcDb3dPolylineVertex
 10
0.0000010634003047
 20
11.65627193450927
 30
193.6575927734375
 70
    32
  0
VERTEX
  5
141
330
FA
100
AcDbEntity
  8
OracDecor_skirtings
 62
   136
420
   427889
100
AcDbVertex
100
AcDb3dPolylineVertex
 10
0.0000012238037925
 20
12.34993648529053
 30
192.5733947753906
 70
    32
  0
VERTEX
  5
142
330
FA
100
AcDbEntity
  8
OracDecor_skirtings
 62
   136
420
   427889
100
AcDbVertex
100
AcDb3dPolylineVertex
 10
0.0000013552585187
 20
12.85812282562256
 30
191.4601745605468
 70
    32
  0
VERTEX
  5
143
330
FA
100
AcDbEntity
  8
OracDecor_skirtings
 62
   136
420
   427889
100
AcDbVertex
100
AcDb3dPolylineVertex
 10
0.0000014687584553
 20
13.22364139556885
 30
190.2259521484375
 70
    32
  0
VERTEX
  5
144
330
FA
100
AcDbEntity
  8
OracDecor_skirtings
 62
   136
420
   427889
100
AcDbVertex
100
AcDb3dPolylineVertex
 10
0.0000015512423488
 20
13.40415477752685
 30
189.0117492675781
 70
    32
  0
VERTEX
  5
145
330
FA
100
AcDbEntity
  8
OracDecor_skirtings
 62
   136
420
   427889
100
AcDbVertex
100
AcDb3dPolylineVertex
 10
0.0000016090780264
 20
13.41378498077392
 30
187.7245178222656
 70
    32
  0
VERTEX
  5
146
330
FA
100
AcDbEntity
  8
OracDecor_skirtings
 62
   136
420
   427889
100
AcDbVertex
100
AcDb3dPolylineVertex
 10
0.0000016358198991
 20
13.25144290924072
 30
186.5076599121094
 70
    32
  0
VERTEX
  5
147
330
FA
100
AcDbEntity
  8
OracDecor_skirtings
 62
   136
420
   427889
100
AcDbVertex
100
AcDb3dPolylineVertex
 10
0.000001633472948
 20
12.90446186065674
 30
185.2680969238281
 70
    32
  0
VERTEX
  5
148
330
FA
100
AcDbEntity
  8
OracDecor_skirtings
 62
   136
420
   427889
100
AcDbVertex
100
AcDb3dPolylineVertex
 10
0.0000015858836377
 20
12.15189361572265
 30
183.5518493652344
 70
    32
  0
VERTEX
  5
149
330
FA
100
AcDbEntity
  8
OracDecor_skirtings
 62
   136
420
   427889
100
AcDbVertex
100
AcDb3dPolylineVertex
 10
0.0000015786681615
 20
12.03871917724609
 30
183.2950744628906
 70
    32
  0
VERTEX
  5
14A
330
FA
100
AcDbEntity
  8
OracDecor_skirtings
 62
   136
420
   427889
100
AcDbVertex
100
AcDb3dPolylineVertex
 10
0.0000015845262169
 20
11.9999942779541
 30
183.0167236328125
 70
    32
  0
VERTEX
  5
14B
330
FA
100
AcDbEntity
  8
OracDecor_skirtings
 62
   136
420
   427889
100
AcDbVertex
100
AcDb3dPolylineVertex
 10
0.0000016489821064
 20
11.9999942779541
 30
181.5421447753906
 70
    32
  0
VERTEX
  5
14C
330
FA
100
AcDbEntity
  8
OracDecor_skirtings
 62
   136
420
   427889
100
AcDbVertex
100
AcDb3dPolylineVertex
 10
0.0000016708245312
 20
12.06698036193847
 30
181.2921447753906
 70
    32
  0
VERTEX
  5
14D
330
FA
100
AcDbEntity
  8
OracDecor_skirtings
 62
   136
420
   427889
100
AcDbVertex
100
AcDb3dPolylineVertex
 10
0.0000017086390471
 20
12.2499942779541
 30
181.1091613769531
 70
    32
  0
VERTEX
  5
14E
330
FA
100
AcDbEntity
  8
OracDecor_skirtings
 62
   136
420
   427889
100
AcDbVertex
100
AcDb3dPolylineVertex
 10
0.0000017522988855
 20
12.4999942779541
 30
181.0421447753906
 70
    32
  0
VERTEX
  5
14F
330
FA
100
AcDbEntity
  8
OracDecor_skirtings
 62
   136
420
   427889
100
AcDbVertex
100
AcDb3dPolylineVertex
 10
0.0000019152194
 20
13.4999942779541
 30
181.0421447753906
 70
    32
  0
VERTEX
  5
150
330
FA
100
AcDbEntity
  8
OracDecor_skirtings
 62
   136
420
   427889
100
AcDbVertex
100
AcDb3dPolylineVertex
 10
0.000001958906978
 20
13.7499942779541
 30
180.9744873046875
 70
    32
  0
VERTEX
  5
151
330
FA
100
AcDbEntity
  8
OracDecor_skirtings
 62
   136
420
   427889
100
AcDbVertex
100
AcDb3dPolylineVertex
 10
0.0000019968019842
 20
13.93300628662109
 30
180.7896728515625
 70
    32
  0
VERTEX
  5
152
330
FA
100
AcDbEntity
  8
OracDecor_skirtings
 62
   136
420
   427889
100
AcDbVertex
100
AcDb3dPolylineVertex
 10
0.0000020187535483
 20
13.99999523162842
 30
180.5371704101562
 70
    32
  0
VERTEX
  5
153
330
FA
100
AcDbEntity
  8
OracDecor_skirtings
 62
   136
420
   427889
100
AcDbVertex
100
AcDb3dPolylineVertex
 10
0.0000037295076254
 20
13.99999523162842
 30
141.399658203125
 70
    32
  0
VERTEX
  5
154
330
FA
100
AcDbEntity
  8
OracDecor_skirtings
 62
   136
420
   427889
100
AcDbVertex
100
AcDb3dPolylineVertex
 10
0.0000037780791899
 20
14.11613178253174
 30
140.7213439941406
 70
    32
  0
VERTEX
  5
155
330
FA
100
AcDbEntity
  8
OracDecor_skirtings
 62
   136
420
   427889
100
AcDbVertex
100
AcDb3dPolylineVertex
 10
0.0000038588518692
 20
14.45105457305908
 30
140.1217956542969
 70
    32
  0
VERTEX
  5
156
330
FA
100
AcDbEntity
  8
OracDecor_skirtings
 62
   136
420
   427889
100
AcDbVertex
100
AcDb3dPolylineVertex
 10
0.0000039624442252
 20
14.96585941314697
 30
139.670654296875
 70
    32
  0
VERTEX
  5
157
330
FA
100
AcDbEntity
  8
OracDecor_skirtings
 62
   136
420
   427889
100
AcDbVertex
100
AcDb3dPolylineVertex
 10
0.0000040768254621
 20
15.60076236724853
 30
139.4203186035156
 70
    32
  0
VERTEX
  5
158
330
FA
100
AcDbEntity
  8
OracDecor_skirtings
 62
   136
420
   427889
100
AcDbVertex
100
AcDb3dPolylineVertex
 10
0.0000041298690121
 20
15.87751483917236
 30
139.2383422851562
 70
    32
  0
VERTEX
  5
159
330
FA
100
AcDbEntity
  8
OracDecor_skirtings
 62
   136
420
   427889
100
AcDbVertex
100
AcDb3dPolylineVertex
 10
0.0000041632765715
 20
15.99999523162842
 30
138.9305725097656
 70
    32
  0
VERTEX
  5
15A
330
FA
100
AcDbEntity
  8
OracDecor_skirtings
 62
   136
420
   427889
100
AcDbVertex
100
AcDb3dPolylineVertex
 10
0.0000025848887617
 20
15.99999237060547
 30
0.499664306640625
 70
    32
  0
VERTEX
  5
15B
330
FA
100
AcDbEntity
  8
OracDecor_skirtings
 62
   136
420
   427889
100
AcDbVertex
100
AcDb3dPolylineVertex
 10
0.0000025849030862
 20
15.93300628662109
 30
0.249664306640625
 70
    32
  0
VERTEX
  5
15C
330
FA
100
AcDbEntity
  8
OracDecor_skirtings
 62
   136
420
   427889
100
AcDbVertex
100
AcDb3dPolylineVertex
 10
0.0000025630861273
 20
15.74999237060547
 30
0.066650390625
 70
    32
  0
VERTEX
  5
15D
330
FA
100
AcDbEntity
  8
OracDecor_skirtings
 62
   136
420
   427889
100
AcDbVertex
100
AcDb3dPolylineVertex
 10
0.0000025252841169
 20
15.49999237060547
 30
-0.000335693359375
 70
    32
  0
VERTEX
  5
15E
330
FA
100
AcDbEntity
  8
OracDecor_skirtings
 62
   136
420
   427889
100
AcDbVertex
100
AcDb3dPolylineVertex
 10
0.0000016917272205
 20
10.38365745544433
 30
-0.000335693359375
 70
    32
  0
VERTEX
  5
15F
330
FA
100
AcDbEntity
  8
OracDecor_skirtings
 62
   136
420
   427889
100
AcDbVertex
100
AcDb3dPolylineVertex
 10
0.0000016552322677
 20
10.17234802246093
 30
0.0469818115234375
 70
    32
  0
VERTEX
  5
160
330
FA
100
AcDbEntity
  8
OracDecor_skirtings
 62
   136
420
   427889
100
AcDbVertex
100
AcDb3dPolylineVertex
 10
0.0000016214398784
 20
10.00063514709472
 30
0.1800537109375
 70
    32
  0
VERTEX
  5
161
330
FA
100
AcDbEntity
  8
OracDecor_skirtings
 62
   136
420
   427889
100
AcDbVertex
100
AcDb3dPolylineVertex
 10
0.0000015966813862
 20
9.900693893432617
 30
0.37396240234375
 70
    32
  0
VERTEX
  5
162
330
FA
100
AcDbEntity
  8
OracDecor_skirtings
 62
   136
420
   427889
100
AcDbVertex
100
AcDb3dPolylineVertex
 10
0.0000009782090729
 20
8.013295173645019
 30
7.488265991210937
 70
    32
  0
VERTEX
  5
163
330
FA
100
AcDbEntity
  8
OracDecor_skirtings
 62
   136
420
   427889
100
AcDbVertex
100
AcDb3dPolylineVertex
 10
0.0000008949606354
 20
7.685690879821777
 30
8.171722412109375
 70
    32
  0
VERTEX
  5
164
330
FA
100
AcDbEntity
  8
OracDecor_skirtings
 62
   136
420
   427889
100
AcDbVertex
100
AcDb3dPolylineVertex
 10
0.0000007822316093
 20
7.131397724151611
 30
8.684707641601562
 70
    32
  0
VERTEX
  5
165
330
FA
100
AcDbEntity
  8
OracDecor_skirtings
 62
   136
420
   427889
100
AcDbVertex
100
AcDb3dPolylineVertex
 10
0.0000006559493499
 20
6.428740978240966
 30
8.95477294921875
 70
    32
  0
VERTEX
  5
166
330
FA
100
AcDbEntity
  8
OracDecor_skirtings
 62
   136
420
   427889
100
AcDbVertex
100
AcDb3dPolylineVertex
 10
-0.0000003004088285
 20
0.8263454437255859
 30
9.952499389648437
 70
    32
  0
VERTEX
  5
167
330
FA
100
AcDbEntity
  8
OracDecor_skirtings
 62
   136
420
   427889
100
AcDbVertex
100
AcDb3dPolylineVertex
 10
-0.000000377472503
 20
0.4028353691101075
 30
10.13700866699219
 70
    32
  0
VERTEX
  5
168
330
FA
100
AcDbEntity
  8
OracDecor_skirtings
 62
   136
420
   427889
100
AcDbVertex
100
AcDb3dPolylineVertex
 10
-0.0000004413729755
 20
0.1063613891601562
 30
10.49386596679687
 70
    32
  0
VERTEX
  5
169
330
FA
100
AcDbEntity
  8
OracDecor_skirtings
 62
   136
420
   427889
100
AcDbVertex
100
AcDb3dPolylineVertex
 10
-0.0000004785164265
 20
-0.0000057220458984
 30
10.94715881347656
 70
    32
  0
VERTEX
  5
16A
330
FA
100
AcDbEntity
  8
OracDecor_skirtings
 62
   136
420
   427889
100
AcDbVertex
100
AcDb3dPolylineVertex
 10
-0.000000570772329
 20
-0.0000066757202148
 30
13.05772399902344
 70
    32
  0
VERTEX
  5
16B
330
FA
100
AcDbEntity
  8
OracDecor_skirtings
 62
   136
420
   427889
100
AcDbVertex
100
AcDb3dPolylineVertex
 10
-0.0000005700429142
 20
0.0764985084533692
 30
13.32618713378906
 70
    32
  0
VERTEX
  5
16C
330
FA
100
AcDbEntity
  8
OracDecor_skirtings
 62
   136
420
   427889
100
AcDbVertex
100
AcDb3dPolylineVertex
 10
-0.0000005446082696
 20
0.282602310180664
 30
13.51249694824218
 70
    32
  0
VERTEX
  5
16D
330
FA
100
AcDbEntity
  8
OracDecor_skirtings
 62
   136
420
   427889
100
AcDbVertex
100
AcDb3dPolylineVertex
 10
-0.0000004647777985
 20
0.9079551696777343
 30
14.01699829101562
 70
    32
  0
SEQEND
  5
16E
330
FA
100
AcDbEntity
  8
OracDecor_skirtings
 62
   136
420
   427889
  0
ENDSEC
  0
SECTION
  2
OBJECTS
  0
DICTIONARY
  5
C
330
0
100
AcDbDictionary
281
     1
  3
ACAD_COLOR
350
DC
  3
ACAD_DETAILVIEWSTYLE
350
F5
  3
ACAD_GROUP
350
D
  3
ACAD_LAYOUT
350
1A
  3
ACAD_MATERIAL
350
AA
  3
ACAD_MLEADERSTYLE
350
F1
  3
ACAD_MLINESTYLE
350
17
  3
ACAD_PLOTSETTINGS
350
19
  3
ACAD_PLOTSTYLENAME
350
E
  3
ACAD_SCALELIST
350
DF
  3
ACAD_SECTIONVIEWSTYLE
350
F3
  3
ACAD_TABLESTYLE
350
DD
  3
ACAD_VISUALSTYLE
350
C3
  3
ACDB_RECOMPOSE_DATA
350
17B
  3
AcDbVariableDictionary
350
16F
  0
DICTIONARY
  5
DC
102
{ACAD_REACTORS
330
C
102
}
330
C
100
AcDbDictionary
281
     1
  0
DICTIONARY
  5
F5
102
{ACAD_REACTORS
330
C
102
}
330
C
100
AcDbDictionary
281
     1
  3
Imperial24
350
F6
  0
DICTIONARY
  5
D
102
{ACAD_REACTORS
330
C
102
}
330
C
100
AcDbDictionary
281
     1
  0
DICTIONARY
  5
1A
102
{ACAD_REACTORS
330
C
102
}
330
C
100
AcDbDictionary
281
     1
  3
Layout1
350
1E
  3
Layout2
350
26
  3
Model
350
22
  0
DICTIONARY
  5
AA
102
{ACAD_REACTORS
330
C
102
}
330
C
100
AcDbDictionary
281
     1
  3
ByBlock
350
B3
  3
ByLayer
350
AB
  3
Global
350
BB
  0
DICTIONARY
  5
F1
102
{ACAD_REACTORS
330
C
102
}
330
C
100
AcDbDictionary
281
     1
  3
Standard
350
F2
  0
DICTIONARY
  5
17
102
{ACAD_REACTORS
330
C
102
}
330
C
100
AcDbDictionary
281
     1
  3
Standard
350
18
  0
DICTIONARY
  5
19
102
{ACAD_REACTORS
330
C
102
}
330
C
100
AcDbDictionary
281
     1
  0
ACDBDICTIONARYWDFLT
  5
E
102
{ACAD_REACTORS
330
C
102
}
330
C
100
AcDbDictionary
281
     1
  3
ByLayer
350
2D
  3
Normal
350
F
100
AcDbDictionaryWithDefault
340
F
  0
DICTIONARY
  5
DF
102
{ACAD_REACTORS
330
C
102
}
330
C
100
AcDbDictionary
281
     1
  3
A0
350
E0
  3
A1
350
E1
  3
A2
350
E2
  3
A3
350
E3
  3
A4
350
E4
  3
A5
350
E5
  3
A6
350
E6
  3
A7
350
E7
  3
A8
350
E8
  3
A9
350
E9
  3
B0
350
EA
  3
B1
350
EB
  3
B2
350
EC
  3
B3
350
ED
  3
B4
350
EE
  3
B5
350
EF
  3
B6
350
F0
  0
DICTIONARY
  5
F3
102
{ACAD_REACTORS
330
C
102
}
330
C
100
AcDbDictionary
281
     1
  3
Imperial24
350
F4
  0
DICTIONARY
  5
DD
102
{ACAD_REACTORS
330
C
102
}
330
C
100
AcDbDictionary
281
     1
  3
Standard
350
DE
  0
DICTIONARY
  5
C3
102
{ACAD_REACTORS
330
C
102
}
330
C
100
AcDbDictionary
281
     1
  3
2dWireframe
350
C9
  3
Basic
350
C8
  3
Brighten
350
CF
  3
ColorChange
350
D3
  3
Conceptual
350
CC
  3
Dim
350
CE
  3
EdgeColorOff
350
DB
  3
Facepattern
350
D2
  3
Flat
350
C4
  3
FlatWithEdges
350
C5
  3
Gouraud
350
C6
  3
GouraudWithEdges
350
C7
  3
Hidden
350
CB
  3
JitterOff
350
D9
  3
Linepattern
350
D1
  3
OverhangOff
350
DA
  3
Realistic
350
CD
  3
Shaded
350
D8
  3
Shaded with edges
350
D7
  3
Shades of Gray
350
D4
  3
Sketchy
350
D5
  3
Thicken
350
D0
  3
Wireframe
350
CA
  3
X-Ray
350
D6
  0
XRECORD
  5
17B
102
{ACAD_REACTORS
330
C
102
}
330
C
100
AcDbXrecord
280
     1
 90
        1
330
DE
  0
DICTIONARY
  5
16F
102
{ACAD_REACTORS
330
C
102
}
330
C
100
AcDbDictionary
281
     1
  3
CANNOSCALE
350
175
  3
CMLEADERSTYLE
350
171
  3
CTABLESTYLE
350
170
  3
CVIEWDETAILSTYLE
350
172
  3
CVIEWSECTIONSTYLE
350
173
  3
LAYEREVAL
350
177
  3
LAYERNOTIFY
350
178
  3
LIGHTINGUNITS
350
176
  3
MSLTSCALE
350
174
  0
ACDBDETAILVIEWSTYLE
  5
F6
102
{ACAD_XDICTIONARY
360
1B0
102
}
102
{ACAD_REACTORS
330
F5
102
}
330
F5
100
AcDbModelDocViewStyle
 70
     0
  3
Imperial24
290
     0
100
AcDbDetailViewStyle
 70
     0
 71
     0
 90
        3
 71
     1
340
11
 62
   256
 40
0.24
340
0
 62
   256
 40
0.24
300

 40
0.36
280
     3
 71
     2
340
16
 90
       25
 62
   256
 71
     3
340
11
 62
   256
 40
0.24
 90
        1
 40
0.75
 90
        1
300
%<\AcVar ViewType \f "%tc1">% %<\AcVar ViewDetailId>%\PSCALE %<\AcVar ViewScale \f "%sn">%
 71
     4
340
16
 90
       25
 62
   256
340
16
 90
       25
 62
   256
280
     0
  0
LAYOUT
  5
1E
102
{ACAD_REACTORS
330
1A
102
}
330
1A
100
AcDbPlotSettings
  1

  2
\\KTXNTBDC\CASF2PN1
  4

  6

 40
0.0
 41
0.0
 42
0.0
 43
0.0
 44
0.0
 45
0.0
 46
0.0
 47
0.0
 48
0.0
 49
0.0
140
0.0
141
0.0
142
1.0
143
1.0
 70
   688
 72
     0
 73
     0
 74
     5
  7

 75
    16
147
1.0
 76
     0
 77
     2
 78
   300
148
0.0
149
0.0
100
AcDbLayout
  1
Layout1
 70
     1
 71
     1
 10
0.0
 20
0.0
 11
12.0
 21
9.0
 12
0.0
 22
0.0
 32
0.0
 14
1.000000000000000E+20
 24
1.000000000000000E+20
 34
1.000000000000000E+20
 15
-1.000000000000000E+20
 25
-1.000000000000000E+20
 35
-1.000000000000000E+20
146
0.0
 13
0.0
 23
0.0
 33
0.0
 16
1.0
 26
0.0
 36
0.0
 17
0.0
 27
1.0
 37
0.0
 76
     0
330
1B
  0
LAYOUT
  5
26
102
{ACAD_REACTORS
330
1A
102
}
330
1A
100
AcDbPlotSettings
  1

  2
\\KTXNTBDC\CASF2PN1
  4

  6

 40
0.0
 41
0.0
 42
0.0
 43
0.0
 44
0.0
 45
0.0
 46
0.0
 47
0.0
 48
0.0
 49
0.0
140
0.0
141
0.0
142
1.0
143
1.0
 70
   688
 72
     0
 73
     0
 74
     5
  7

 75
    16
147
1.0
 76
     0
 77
     2
 78
   300
148
0.0
149
0.0
100
AcDbLayout
  1
Layout2
 70
     1
 71
     2
 10
0.0
 20
0.0
 11
12.0
 21
9.0
 12
0.0
 22
0.0
 32
0.0
 14
0.0
 24
0.0
 34
0.0
 15
0.0
 25
0.0
 35
0.0
146
0.0
 13
0.0
 23
0.0
 33
0.0
 16
1.0
 26
0.0
 36
0.0
 17
0.0
 27
1.0
 37
0.0
 76
     0
330
23
  0
LAYOUT
  5
22
102
{ACAD_REACTORS
330
1A
102
}
330
1A
100
AcDbPlotSettings
  1

  2
\\KTXNTBDC\CASF2PN1
  4

  6

 40
0.0
 41
0.0
 42
0.0
 43
0.0
 44
0.0
 45
0.0
 46
0.0
 47
0.0
 48
0.0
 49
0.0
140
0.0
141
0.0
142
1.0
143
1.0
 70
  1712
 72
     0
 73
     0
 74
     0
  7

 75
     0
147
1.0
 76
     0
 77
     2
 78
   300
148
0.0
149
0.0
100
AcDbLayout
  1
Model
 70
     1
 71
     0
 10
0.0
 20
0.0
 11
12.0
 21
9.0
 12
0.0
 22
0.0
 32
0.0
 14
0.0
 24
0.0
 34
0.0
 15
0.0
 25
0.0
 35
0.0
146
0.0
 13
0.0
 23
0.0
 33
0.0
 16
1.0
 26
0.0
 36
0.0
 17
0.0
 27
1.0
 37
0.0
 76
     0
330
1F
  0
MATERIAL
  5
B3
102
{ACAD_XDICTIONARY
360
B4
102
}
102
{ACAD_REACTORS
330
AA
102
}
330
AA
100
AcDbMaterial
  1
ByBlock
 72
     0
 43
0.0208333333333333
 43
0.0
 43
0.0
 43
0.0
 43
0.0
 43
0.0208333333333333
 43
0.0
 43
0.0
 43
0.0
 43
0.0
 43
1.0
 43
0.0
 43
0.0
 43
0.0
 43
0.0
 43
1.0
 77
     0
 47
0.0208333333333333
 47
0.0
 47
0.0
 47
0.0
 47
0.0
 47
0.0208333333333333
 47
0.0
 47
0.0
 47
0.0
 47
0.0
 47
1.0
 47
0.0
 47
0.0
 47
0.0
 47
0.0
 47
1.0
171
     0
 49
0.0208333333333333
 49
0.0
 49
0.0
 49
0.0
 49
0.0
 49
0.0208333333333333
 49
0.0
 49
0.0
 49
0.0
 49
0.0
 49
1.0
 49
0.0
 49
0.0
 49
0.0
 49
0.0
 49
1.0
175
     0
142
0.0208333333333333
142
0.0
142
0.0
142
0.0
142
0.0
142
0.0208333333333333
142
0.0
142
0.0
142
0.0
142
0.0
142
1.0
142
0.0
142
0.0
142
0.0
142
0.0
142
1.0
179
     0
144
0.0208333333333333
144
0.0
144
0.0
144
0.0
144
0.0
144
0.0208333333333333
144
0.0
144
0.0
144
0.0
144
0.0
144
1.0
144
0.0
144
0.0
144
0.0
144
0.0
144
1.0
147
0.0208333333333333
147
0.0
147
0.0
147
0.0
147
0.0
147
0.0208333333333333
147
0.0
147
0.0
147
0.0
147
0.0
147
1.0
147
0.0
147
0.0
147
0.0
147
0.0
147
1.0
  0
MATERIAL
  5
AB
102
{ACAD_XDICTIONARY
360
AC
102
}
102
{ACAD_REACTORS
330
AA
102
}
330
AA
100
AcDbMaterial
  1
ByLayer
 72
     0
 43
0.0208333333333333
 43
0.0
 43
0.0
 43
0.0
 43
0.0
 43
0.0208333333333333
 43
0.0
 43
0.0
 43
0.0
 43
0.0
 43
1.0
 43
0.0
 43
0.0
 43
0.0
 43
0.0
 43
1.0
 77
     0
 47
0.0208333333333333
 47
0.0
 47
0.0
 47
0.0
 47
0.0
 47
0.0208333333333333
 47
0.0
 47
0.0
 47
0.0
 47
0.0
 47
1.0
 47
0.0
 47
0.0
 47
0.0
 47
0.0
 47
1.0
171
     0
 49
0.0208333333333333
 49
0.0
 49
0.0
 49
0.0
 49
0.0
 49
0.0208333333333333
 49
0.0
 49
0.0
 49
0.0
 49
0.0
 49
1.0
 49
0.0
 49
0.0
 49
0.0
 49
0.0
 49
1.0
175
     0
142
0.0208333333333333
142
0.0
142
0.0
142
0.0
142
0.0
142
0.0208333333333333
142
0.0
142
0.0
142
0.0
142
0.0
142
1.0
142
0.0
142
0.0
142
0.0
142
0.0
142
1.0
179
     0
144
0.0208333333333333
144
0.0
144
0.0
144
0.0
144
0.0
144
0.0208333333333333
144
0.0
144
0.0
144
0.0
144
0.0
144
1.0
144
0.0
144
0.0
144
0.0
144
0.0
144
1.0
147
0.0208333333333333
147
0.0
147
0.0
147
0.0
147
0.0
147
0.0208333333333333
147
0.0
147
0.0
147
0.0
147
0.0
147
1.0
147
0.0
147
0.0
147
0.0
147
0.0
147
1.0
  0
MATERIAL
  5
BB
102
{ACAD_XDICTIONARY
360
BC
102
}
102
{ACAD_REACTORS
330
AA
102
}
330
AA
100
AcDbMaterial
  1
Global
 72
     0
 43
0.0208333333333333
 43
0.0
 43
0.0
 43
0.0
 43
0.0
 43
0.0208333333333333
 43
0.0
 43
0.0
 43
0.0
 43
0.0
 43
1.0
 43
0.0
 43
0.0
 43
0.0
 43
0.0
 43
1.0
 77
     0
 47
0.0208333333333333
 47
0.0
 47
0.0
 47
0.0
 47
0.0
 47
0.0208333333333333
 47
0.0
 47
0.0
 47
0.0
 47
0.0
 47
1.0
 47
0.0
 47
0.0
 47
0.0
 47
0.0
 47
1.0
171
     0
 49
0.0208333333333333
 49
0.0
 49
0.0
 49
0.0
 49
0.0
 49
0.0208333333333333
 49
0.0
 49
0.0
 49
0.0
 49
0.0
 49
1.0
 49
0.0
 49
0.0
 49
0.0
 49
0.0
 49
1.0
175
     0
142
0.0208333333333333
142
0.0
142
0.0
142
0.0
142
0.0
142
0.0208333333333333
142
0.0
142
0.0
142
0.0
142
0.0
142
1.0
142
0.0
142
0.0
142
0.0
142
0.0
142
1.0
179
     0
144
0.0208333333333333
144
0.0
144
0.0
144
0.0
144
0.0
144
0.0208333333333333
144
0.0
144
0.0
144
0.0
144
0.0
144
1.0
144
0.0
144
0.0
144
0.0
144
0.0
144
1.0
147
0.0208333333333333
147
0.0
147
0.0
147
0.0
147
0.0
147
0.0208333333333333
147
0.0
147
0.0
147
0.0
147
0.0
147
1.0
147
0.0
147
0.0
147
0.0
147
0.0
147
1.0
  0
MLEADERSTYLE
  5
F2
102
{ACAD_XDICTIONARY
360
1AC
102
}
102
{ACAD_REACTORS
330
F1
102
}
330
F1
100
AcDbMLeaderStyle
179
     2
170
     2
171
     1
172
     0
 90
        2
 40
0.0
 41
0.0
173
     1
 91
-1056964608
340
14
 92
       -2
290
     1
 42
0.09
291
     1
 43
0.36
  3
Standard
 44
0.18
300

342
11
174
     1
178
     6
175
     1
176
     0
 93
-1056964608
 45
0.18
292
     0
297
     0
 46
0.18
 94
-1056964608
 47
1.0
 49
1.0
140
1.0
293
     1
141
0.0
294
     1
177
     0
142
1.0
295
     0
296
     0
143
0.125
271
     0
272
     9
273
     9
  0
MLINESTYLE
  5
18
102
{ACAD_REACTORS
330
17
102
}
330
17
100
AcDbMlineStyle
  2
STANDARD
 70
     0
  3

 62
   256
 51
90.0
 52
90.0
 71
     2
 49
0.5
 62
   256
  6
BYLAYER
 49
-0.5
 62
   256
  6
BYLAYER
  0
ACDBPLACEHOLDER
  5
2D
102
{ACAD_REACTORS
330
E
102
}
330
E
  0
ACDBPLACEHOLDER
  5
F
102
{ACAD_REACTORS
330
E
102
}
330
E
  0
SCALE
  5
E0
102
{ACAD_REACTORS
330
DF
102
}
330
DF
100
AcDbScale
 70
     0
300
1:1
140
1.0
141
1.0
290
     1
  0
SCALE
  5
E1
102
{ACAD_REACTORS
330
DF
102
}
330
DF
100
AcDbScale
 70
     0
300
1/128" = 1'-0"
140
0.0078125
141
12.0
290
     0
  0
SCALE
  5
E2
102
{ACAD_REACTORS
330
DF
102
}
330
DF
100
AcDbScale
 70
     0
300
1/64" = 1'-0"
140
0.015625
141
12.0
290
     0
  0
SCALE
  5
E3
102
{ACAD_REACTORS
330
DF
102
}
330
DF
100
AcDbScale
 70
     0
300
1/32" = 1'-0"
140
0.03125
141
12.0
290
     0
  0
SCALE
  5
E4
102
{ACAD_REACTORS
330
DF
102
}
330
DF
100
AcDbScale
 70
     0
300
1/16" = 1'-0"
140
0.0625
141
12.0
290
     0
  0
SCALE
  5
E5
102
{ACAD_REACTORS
330
DF
102
}
330
DF
100
AcDbScale
 70
     0
300
3/32" = 1'-0"
140
0.09375
141
12.0
290
     0
  0
SCALE
  5
E6
102
{ACAD_REACTORS
330
DF
102
}
330
DF
100
AcDbScale
 70
     0
300
1/8" = 1'-0"
140
0.125
141
12.0
290
     0
  0
SCALE
  5
E7
102
{ACAD_REACTORS
330
DF
102
}
330
DF
100
AcDbScale
 70
     0
300
3/16" = 1'-0"
140
0.1875
141
12.0
290
     0
  0
SCALE
  5
E8
102
{ACAD_REACTORS
330
DF
102
}
330
DF
100
AcDbScale
 70
     0
300
1/4" = 1'-0"
140
0.25
141
12.0
290
     0
  0
SCALE
  5
E9
102
{ACAD_REACTORS
330
DF
102
}
330
DF
100
AcDbScale
 70
     0
300
3/8" = 1'-0"
140
0.375
141
12.0
290
     0
  0
SCALE
  5
EA
102
{ACAD_REACTORS
330
DF
102
}
330
DF
100
AcDbScale
 70
     0
300
1/2" = 1'-0"
140
0.5
141
12.0
290
     0
  0
SCALE
  5
EB
102
{ACAD_REACTORS
330
DF
102
}
330
DF
100
AcDbScale
 70
     0
300
3/4" = 1'-0"
140
0.75
141
12.0
290
     0
  0
SCALE
  5
EC
102
{ACAD_REACTORS
330
DF
102
}
330
DF
100
AcDbScale
 70
     0
300
1" = 1'-0"
140
1.0
141
12.0
290
     0
  0
SCALE
  5
ED
102
{ACAD_REACTORS
330
DF
102
}
330
DF
100
AcDbScale
 70
     0
300
1-1/2" = 1'-0"
140
1.5
141
12.0
290
     0
  0
SCALE
  5
EE
102
{ACAD_REACTORS
330
DF
102
}
330
DF
100
AcDbScale
 70
     0
300
3" = 1'-0"
140
3.0
141
12.0
290
     0
  0
SCALE
  5
EF
102
{ACAD_REACTORS
330
DF
102
}
330
DF
100
AcDbScale
 70
     0
300
6" = 1'-0"
140
6.0
141
12.0
290
     0
  0
SCALE
  5
F0
102
{ACAD_REACTORS
330
DF
102
}
330
DF
100
AcDbScale
 70
     0
300
1'-0" = 1'-0"
140
12.0
141
12.0
290
     0
  0
ACDBSECTIONVIEWSTYLE
  5
F4
102
{ACAD_XDICTIONARY
360
1AE
102
}
102
{ACAD_REACTORS
330
F3
102
}
330
F3
100
AcDbModelDocViewStyle
 70
     0
  3
Imperial24
290
     0
100
AcDbSectionViewStyle
 70
     0
 71
     0
 90
       78
 71
     1
340
11
 62
   256
 40
0.24
340
0
340
0
 62
   256
 40
0.24
300
I, O, Q, S, X, Z
 40
0.48
 90
        3
 40
0.18
 90
        1
 71
     2
340
16
 90
       25
 62
   256
340
16
 90
       50
 62
   256
 40
0.24
 40
0.0
 40
0.24
 71
     3
340
11
 62
   256
 40
0.24
 90
        1
 40
0.75
 90
        1
300
%<\AcVar ViewType \f "%tc1">% %<\AcVar ViewSectionStartId>%-%<\AcVar ViewSectionEndId>%\PSCALE %<\AcVar ViewScale \f "%sn">%
 71
     4
 62
   256
 62
   257
300
ANSI31
 40
1.0
 90
        0
290
     0
290
     0
 90
        6
 40
0.0
 40
1.570796326794896
 40
0.2617993877991494
 40
1.308996938995747
 40
-0.2617993877991494
 40
1.832595714594046
  0
TABLESTYLE
  5
DE
102
{ACAD_XDICTIONARY
360
179
102
}
102
{ACAD_REACTORS
330
DD
102
}
330
DD
100
AcDbTableStyle
280
     0
  3
Standard
 70
     0
 71
     0
 40
0.06
 41
0.06
280
     0
281
     0
  7
Standard
140
0.18
170
     2
 62
     0
 63
     7
283
     0
 90
      512
 91
        0
  1

274
    -2
284
     1
 64
     0
275
    -2
285
     1
 65
     0
276
    -2
286
     1
 66
     0
277
    -2
287
     1
 67
     0
278
    -2
288
     1
 68
     0
279
    -2
289
     1
 69
     0
  7
Standard
140
0.25
170
     5
 62
     0
 63
     7
283
     0
 90
      512
 91
        0
  1

274
    -2
284
     1
 64
     0
275
    -2
285
     1
 65
     0
276
    -2
286
     1
 66
     0
277
    -2
287
     1
 67
     0
278
    -2
288
     1
 68
     0
279
    -2
289
     1
 69
     0
  7
Standard
140
0.18
170
     5
 62
     0
 63
     7
283
     0
 90
      512
 91
        0
  1

274
    -2
284
     1
 64
     0
275
    -2
285
     1
 65
     0
276
    -2
286
     1
 66
     0
277
    -2
287
     1
 67
     0
278
    -2
288
     1
 68
     0
279
    -2
289
     1
 69
     0
  0
VISUALSTYLE
  5
C9
102
{ACAD_XDICTIONARY
360
186
102
}
102
{ACAD_REACTORS
330
C3
102
}
330
C3
100
AcDbVisualStyle
  2
2dWireframe
 70
     4
177
     2
291
     0
 71
     0
176
     1
 72
     2
176
     1
 73
     0
176
     1
 90
        0
176
     1
 40
0.6
176
     1
 41
30.0
176
     1
 63
     7
421
 16777215
176
     1
 74
     1
176
     1
 91
        4
176
     1
 64
     7
176
     1
 65
   257
176
     1
 75
     1
176
     1
175
     1
176
     1
 42
1.0
176
     1
 92
        0
176
     1
 66
   257
176
     1
 43
1.0
176
     1
 76
     1
176
     1
 77
     6
176
     1
 78
     2
176
     1
 67
     7
176
     1
 79
     5
176
     1
170
     0
176
     1
171
     0
176
     1
290
     0
176
     1
 93
        1
176
     1
 44
0.0
176
     1
173
     0
176
     1
1001
ACAD
1000
AcDbSavedByObjectVersion
1070
     0
  0
VISUALSTYLE
  5
C8
102
{ACAD_XDICTIONARY
360
184
102
}
102
{ACAD_REACTORS
330
C3
102
}
330
C3
100
AcDbVisualStyle
  2
Basic
 70
     7
177
     2
291
     1
 71
     1
176
     1
 72
     0
176
     1
 73
     1
176
     1
 90
        0
176
     1
 40
0.6
176
     1
 41
30.0
176
     1
 63
     7
421
 16777215
176
     1
 74
     0
176
     1
 91
        4
176
     1
 64
     7
176
     1
 65
   257
176
     1
 75
     1
176
     1
175
     1
176
     1
 42
1.0
176
     1
 92
        8
176
     1
 66
     7
176
     1
 43
1.0
176
     1
 76
     1
176
     1
 77
     6
176
     1
 78
     2
176
     1
 67
     7
176
     1
 79
     5
176
     1
170
     0
176
     1
171
     0
176
     1
290
     0
176
     1
 93
        1
176
     1
 44
0.0
176
     1
173
     0
176
     1
1001
ACAD
1000
AcDbSavedByObjectVersion
1070
     0
  0
VISUALSTYLE
  5
CF
102
{ACAD_XDICTIONARY
360
192
102
}
102
{ACAD_REACTORS
330
C3
102
}
330
C3
100
AcDbVisualStyle
  2
Brighten
 70
    12
177
     2
291
     1
 71
     2
176
     1
 72
     2
176
     1
 73
     0
176
     1
 90
        0
176
     1
 40
0.6
176
     1
 41
30.0
176
     1
 63
     7
421
 16777215
176
     1
 74
     1
176
     1
 91
        4
176
     1
 64
     7
176
     1
 65
   257
176
     1
 75
     1
176
     1
175
     1
176
     1
 42
1.0
176
     1
 92
        8
176
     1
 66
     7
176
     1
 43
1.0
176
     1
 76
     1
176
     1
 77
     6
176
     1
 78
     2
176
     1
 67
     7
176
     1
 79
     5
176
     1
170
     0
176
     1
171
     0
176
     1
290
     0
176
     1
 93
        1
176
     1
 44
50.0
176
     1
173
     0
176
     1
1001
ACAD
1000
AcDbSavedByObjectVersion
1070
     0
  0
VISUALSTYLE
  5
D3
102
{ACAD_XDICTIONARY
360
19A
102
}
102
{ACAD_REACTORS
330
C3
102
}
330
C3
100
AcDbVisualStyle
  2
ColorChange
 70
    16
177
     2
291
     1
 71
     2
176
     1
 72
     2
176
     1
 73
     3
176
     1
 90
        0
176
     1
 40
0.6
176
     1
 41
30.0
176
     1
 63
     8
421
  8421504
176
     1
 74
     1
176
     1
 91
        4
176
     1
 64
     7
176
     1
 65
   257
176
     1
 75
     1
176
     1
175
     1
176
     1
 42
1.0
176
     1
 92
        8
176
     1
 66
     8
424
  8421504
176
     1
 43
1.0
176
     1
 76
     1
176
     1
 77
     6
176
     1
 78
     2
176
     1
 67
     7
176
     1
 79
     5
176
     1
170
     0
176
     1
171
     0
176
     1
290
     0
176
     1
 93
        1
176
     1
 44
0.0
176
     1
173
     0
176
     1
1001
ACAD
1000
AcDbSavedByObjectVersion
1070
     0
  0
VISUALSTYLE
  5
CC
102
{ACAD_XDICTIONARY
360
18C
102
}
102
{ACAD_REACTORS
330
C3
102
}
330
C3
100
AcDbVisualStyle
  2
Conceptual
 70
     9
177
     2
291
     0
 71
     3
176
     1
 72
     2
176
     1
 73
     0
176
     1
 90
        0
176
     1
 40
0.6
176
     1
 41
30.0
176
     1
 63
     7
421
 16777215
176
     1
 74
     2
176
     1
 91
        2
176
     1
 64
     7
176
     1
 65
   257
176
     1
 75
     1
176
     1
175
     1
176
     1
 42
179.0
176
     1
 92
        8
176
     1
 66
     7
176
     1
 43
1.0
176
     1
 76
     1
176
     1
 77
     6
176
     1
 78
     2
176
     1
 67
     7
176
     1
 79
     3
176
     1
170
     0
176
     1
171
     0
176
     1
290
     0
176
     1
 93
        1
176
     1
 44
0.0
176
     1
173
     0
176
     1
1001
ACAD
1000
AcDbSavedByObjectVersion
1070
     0
  0
VISUALSTYLE
  5
CE
102
{ACAD_XDICTIONARY
360
190
102
}
102
{ACAD_REACTORS
330
C3
102
}
330
C3
100
AcDbVisualStyle
  2
Dim
 70
    11
177
     2
291
     1
 71
     2
176
     1
 72
     2
176
     1
 73
     0
176
     1
 90
        0
176
     1
 40
0.6
176
     1
 41
30.0
176
     1
 63
     7
421
 16777215
176
     1
 74
     1
176
     1
 91
        4
176
     1
 64
     7
176
     1
 65
   257
176
     1
 75
     1
176
     1
175
     1
176
     1
 42
1.0
176
     1
 92
        8
176
     1
 66
     7
176
     1
 43
1.0
176
     1
 76
     1
176
     1
 77
     6
176
     1
 78
     2
176
     1
 67
     7
176
     1
 79
     5
176
     1
170
     0
176
     1
171
     0
176
     1
290
     0
176
     1
 93
        1
176
     1
 44
-50.0
176
     1
173
     0
176
     1
1001
ACAD
1000
AcDbSavedByObjectVersion
1070
     0
  0
VISUALSTYLE
  5
DB
102
{ACAD_XDICTIONARY
360
1AA
102
}
102
{ACAD_REACTORS
330
C3
102
}
330
C3
100
AcDbVisualStyle
  2
EdgeColorOff
 70
    22
177
     2
291
     1
 71
     2
176
     0
 72
     2
176
     0
 73
     0
176
     0
 90
        0
176
     0
 40
0.6
176
     0
 41
30.0
176
     0
 63
     7
421
 16777215
176
     0
 74
     1
176
     0
 91
        4
176
     0
 64
     7
176
     0
 65
   257
176
     0
 75
     1
176
     0
175
     1
176
     0
 42
1.0
176
     0
 92
        8
176
     2
 66
     7
176
     0
 43
1.0
176
     0
 76
     1
176
     0
 77
     6
176
     0
 78
     2
176
     0
 67
     7
176
     0
 79
     5
176
     0
170
     0
176
     0
171
     0
176
     0
290
     0
176
     0
 93
        1
176
     0
 44
0.0
176
     0
173
     0
176
     0
1001
ACAD
1000
AcDbSavedByObjectVersion
1070
     0
  0
VISUALSTYLE
  5
D2
102
{ACAD_XDICTIONARY
360
198
102
}
102
{ACAD_REACTORS
330
C3
102
}
330
C3
100
AcDbVisualStyle
  2
Facepattern
 70
    15
177
     2
291
     1
 71
     2
176
     1
 72
     2
176
     1
 73
     0
176
     1
 90
        0
176
     1
 40
0.6
176
     1
 41
30.0
176
     1
 63
     7
421
 16777215
176
     1
 74
     1
176
     1
 91
        4
176
     1
 64
     7
176
     1
 65
   257
176
     1
 75
     1
176
     1
175
     1
176
     1
 42
1.0
176
     1
 92
        8
176
     1
 66
     7
176
     1
 43
1.0
176
     1
 76
     1
176
     1
 77
     6
176
     1
 78
     2
176
     1
 67
     7
176
     1
 79
     5
176
     1
170
     0
176
     1
171
     0
176
     1
290
     0
176
     1
 93
        1
176
     1
 44
0.0
176
     1
173
     0
176
     1
1001
ACAD
1000
AcDbSavedByObjectVersion
1070
     0
  0
VISUALSTYLE
  5
C4
102
{ACAD_XDICTIONARY
360
17C
102
}
102
{ACAD_REACTORS
330
C3
102
}
330
C3
100
AcDbVisualStyle
  2
Flat
 70
     0
177
     2
291
     1
 71
     2
176
     1
 72
     1
176
     1
 73
     1
176
     1
 90
        2
176
     1
 40
0.6
176
     1
 41
30.0
176
     1
 63
     7
421
 16777215
176
     1
 74
     0
176
     1
 91
        0
176
     1
 64
     7
176
     1
 65
   257
176
     1
 75
     1
176
     1
175
     1
176
     1
 42
1.0
176
     1
 92
        8
176
     1
 66
     7
176
     1
 43
1.0
176
     1
 76
     1
176
     1
 77
     6
176
     1
 78
     2
176
     1
 67
     7
176
     1
 79
     5
176
     1
170
     0
176
     1
171
     0
176
     1
290
     0
176
     1
 93
       13
176
     1
 44
0.0
176
     1
173
     0
176
     1
1001
ACAD
1000
AcDbSavedByObjectVersion
1070
     0
  0
VISUALSTYLE
  5
C5
102
{ACAD_XDICTIONARY
360
17E
102
}
102
{ACAD_REACTORS
330
C3
102
}
330
C3
100
AcDbVisualStyle
  2
FlatWithEdges
 70
     1
177
     2
291
     1
 71
     2
176
     1
 72
     1
176
     1
 73
     1
176
     1
 90
        2
176
     1
 40
0.6
176
     1
 41
30.0
176
     1
 63
     7
421
 16777215
176
     1
 74
     1
176
     1
 91
        0
176
     1
 64
     7
176
     1
 65
   257
176
     1
 75
     1
176
     1
175
     1
176
     1
 42
1.0
176
     1
 92
        0
176
     1
 66
   257
176
     1
 43
1.0
176
     1
 76
     1
176
     1
 77
     6
176
     1
 78
     2
176
     1
 67
     7
176
     1
 79
     5
176
     1
170
     0
176
     1
171
     0
176
     1
290
     0
176
     1
 93
       13
176
     1
 44
0.0
176
     1
173
     0
176
     1
1001
ACAD
1000
AcDbSavedByObjectVersion
1070
     0
  0
VISUALSTYLE
  5
C6
102
{ACAD_XDICTIONARY
360
180
102
}
102
{ACAD_REACTORS
330
C3
102
}
330
C3
100
AcDbVisualStyle
  2
Gouraud
 70
     2
177
     2
291
     1
 71
     2
176
     1
 72
     2
176
     1
 73
     1
176
     1
 90
        2
176
     1
 40
0.6
176
     1
 41
30.0
176
     1
 63
     7
421
 16777215
176
     1
 74
     0
176
     1
 91
        0
176
     1
 64
     7
176
     1
 65
   257
176
     1
 75
     1
176
     1
175
     1
176
     1
 42
1.0
176
     1
 92
        0
176
     1
 66
     7
176
     1
 43
1.0
176
     1
 76
     1
176
     1
 77
     6
176
     1
 78
     2
176
     1
 67
     7
176
     1
 79
     5
176
     1
170
     0
176
     1
171
     0
176
     1
290
     0
176
     1
 93
       13
176
     1
 44
0.0
176
     1
173
     0
176
     1
1001
ACAD
1000
AcDbSavedByObjectVersion
1070
     0
  0
VISUALSTYLE
  5
C7
102
{ACAD_XDICTIONARY
360
182
102
}
102
{ACAD_REACTORS
330
C3
102
}
330
C3
100
AcDbVisualStyle
  2
GouraudWithEdges
 70
     3
177
     2
291
     1
 71
     2
176
     1
 72
     2
176
     1
 73
     1
176
     1
 90
        2
176
     1
 40
0.6
176
     1
 41
30.0
176
     1
 63
     7
421
 16777215
176
     1
 74
     1
176
     1
 91
        0
176
     1
 64
     7
176
     1
 65
   257
176
     1
 75
     1
176
     1
175
     1
176
     1
 42
1.0
176
     1
 92
        0
176
     1
 66
   257
176
     1
 43
1.0
176
     1
 76
     1
176
     1
 77
     6
176
     1
 78
     2
176
     1
 67
     7
176
     1
 79
     5
176
     1
170
     0
176
     1
171
     0
176
     1
290
     0
176
     1
 93
       13
176
     1
 44
0.0
176
     1
173
     0
176
     1
1001
ACAD
1000
AcDbSavedByObjectVersion
1070
     0
  0
VISUALSTYLE
  5
CB
102
{ACAD_XDICTIONARY
360
18A
102
}
102
{ACAD_REACTORS
330
C3
102
}
330
C3
100
AcDbVisualStyle
  2
Hidden
 70
     6
177
     2
291
     0
 71
     1
176
     1
 72
     2
176
     1
 73
     2
176
     1
 90
        0
176
     1
 40
0.6
176
     1
 41
30.0
176
     1
 63
     7
421
 16777215
176
     1
 74
     2
176
     1
 91
        2
176
     1
 64
     7
176
     1
 65
   257
176
     1
 75
     2
176
     1
175
     1
176
     1
 42
40.0
176
     1
 92
        0
176
     1
 66
   257
176
     1
 43
1.0
176
     1
 76
     1
176
     1
 77
     6
176
     1
 78
     2
176
     1
 67
     7
176
     1
 79
     3
176
     1
170
     0
176
     1
171
     0
176
     1
290
     0
176
     1
 93
        1
176
     1
 44
0.0
176
     1
173
     0
176
     1
1001
ACAD
1000
AcDbSavedByObjectVersion
1070
     0
  0
VISUALSTYLE
  5
D9
102
{ACAD_XDICTIONARY
360
1A6
102
}
102
{ACAD_REACTORS
330
C3
102
}
330
C3
100
AcDbVisualStyle
  2
JitterOff
 70
    20
177
     2
291
     1
 71
     2
176
     0
 72
     2
176
     0
 73
     0
176
     0
 90
        0
176
     0
 40
0.6
176
     0
 41
30.0
176
     0
 63
     7
421
 16777215
176
     0
 74
     1
176
     0
 91
        4
176
     0
 64
     7
176
     0
 65
   257
176
     0
 75
     1
176
     0
175
     1
176
     0
 42
1.0
176
     0
 92
       10
176
     2
 66
     7
176
     0
 43
1.0
176
     0
 76
     1
176
     0
 77
     6
176
     0
 78
     2
176
     0
 67
     7
176
     0
 79
     5
176
     0
170
     0
176
     0
171
     0
176
     0
290
     0
176
     0
 93
        1
176
     0
 44
0.0
176
     0
173
     0
176
     0
1001
ACAD
1000
AcDbSavedByObjectVersion
1070
     0
  0
VISUALSTYLE
  5
D1
102
{ACAD_XDICTIONARY
360
196
102
}
102
{ACAD_REACTORS
330
C3
102
}
330
C3
100
AcDbVisualStyle
  2
Linepattern
 70
    14
177
     2
291
     1
 71
     2
176
     1
 72
     2
176
     1
 73
     0
176
     1
 90
        0
176
     1
 40
0.6
176
     1
 41
30.0
176
     1
 63
     7
421
 16777215
176
     1
 74
     1
176
     1
 91
        4
176
     1
 64
     7
176
     1
 65
   257
176
     1
 75
     7
176
     1
175
     7
176
     1
 42
1.0
176
     1
 92
        8
176
     1
 66
     7
176
     1
 43
1.0
176
     1
 76
     1
176
     1
 77
     6
176
     1
 78
     2
176
     1
 67
     7
176
     1
 79
     5
176
     1
170
     0
176
     1
171
     0
176
     1
290
     0
176
     1
 93
        1
176
     1
 44
0.0
176
     1
173
     0
176
     1
1001
ACAD
1000
AcDbSavedByObjectVersion
1070
     0
  0
VISUALSTYLE
  5
DA
102
{ACAD_XDICTIONARY
360
1A8
102
}
102
{ACAD_REACTORS
330
C3
102
}
330
C3
100
AcDbVisualStyle
  2
OverhangOff
 70
    21
177
     2
291
     1
 71
     2
176
     0
 72
     2
176
     0
 73
     0
176
     0
 90
        0
176
     0
 40
0.6
176
     0
 41
30.0
176
     0
 63
     7
421
 16777215
176
     0
 74
     1
176
     0
 91
        4
176
     0
 64
     7
176
     0
 65
   257
176
     0
 75
     1
176
     0
175
     1
176
     0
 42
1.0
176
     0
 92
        9
176
     2
 66
     7
176
     0
 43
1.0
176
     0
 76
     1
176
     0
 77
     6
176
     0
 78
     2
176
     0
 67
     7
176
     0
 79
     5
176
     0
170
     0
176
     0
171
     0
176
     0
290
     0
176
     0
 93
        1
176
     0
 44
0.0
176
     0
173
     0
176
     0
1001
ACAD
1000
AcDbSavedByObjectVersion
1070
     0
  0
VISUALSTYLE
  5
CD
102
{ACAD_XDICTIONARY
360
18E
102
}
102
{ACAD_REACTORS
330
C3
102
}
330
C3
100
AcDbVisualStyle
  2
Realistic
 70
     8
177
     2
291
     0
 71
     2
176
     1
 72
     3
176
     1
 73
     0
176
     1
 90
        2
176
     1
 40
0.6
176
     1
 41
30.0
176
     1
 63
     7
421
 16777215
176
     1
 74
     0
176
     1
 91
        0
176
     1
 64
     7
176
     1
 65
   257
176
     1
 75
     1
176
     1
175
     1
176
     1
 42
1.0
176
     1
 92
        8
176
     1
 66
   257
176
     1
 43
1.0
176
     1
 76
     1
176
     1
 77
     6
176
     1
 78
     2
176
     1
 67
     7
176
     1
 79
     3
176
     1
170
     0
176
     1
171
     0
176
     1
290
     0
176
     1
 93
       13
176
     1
 44
0.0
176
     1
173
     0
176
     1
1001
ACAD
1000
AcDbSavedByObjectVersion
1070
     0
  0
VISUALSTYLE
  5
D8
102
{ACAD_XDICTIONARY
360
1A4
102
}
102
{ACAD_REACTORS
330
C3
102
}
330
C3
100
AcDbVisualStyle
  2
Shaded
 70
    27
177
     2
291
     0
 71
     2
176
     1
 72
     2
176
     1
 73
     1
176
     1
 90
        2
176
     1
 40
0.6
176
     1
 41
30.0
176
     1
 63
     7
421
 16777215
176
     1
 74
     0
176
     1
 91
        4
176
     1
 64
     7
176
     1
 65
   257
176
     1
 75
     1
176
     1
175
     1
176
     1
 42
1.0
176
     1
 92
        8
176
     1
 66
   257
176
     1
 43
1.0
176
     1
 76
     1
176
     1
 77
     6
176
     1
 78
     2
176
     1
 67
     8
425
  7895160
176
     1
 79
     3
176
     1
170
     0
176
     1
171
     0
176
     1
290
     0
176
     1
 93
        5
176
     1
 44
0.0
176
     1
173
     0
176
     1
1001
ACAD
1000
AcDbSavedByObjectVersion
1070
     0
  0
VISUALSTYLE
  5
D7
102
{ACAD_XDICTIONARY
360
1A2
102
}
102
{ACAD_REACTORS
330
C3
102
}
330
C3
100
AcDbVisualStyle
  2
Shaded with edges
 70
    26
177
     2
291
     0
 71
     2
176
     1
 72
     2
176
     1
 73
     1
176
     1
 90
        2
176
     1
 40
0.6
176
     1
 41
30.0
176
     1
 63
     7
421
 16777215
176
     1
 74
     1
176
     1
 91
       10
176
     1
 64
     7
176
     1
 65
   257
176
     1
 75
     2
176
     1
175
     1
176
     1
 42
1.0
176
     1
 92
        8
176
     1
 66
   257
176
     1
 43
1.0
176
     1
 76
     1
176
     1
 77
     6
176
     1
 78
     2
176
     1
 67
     7
176
     1
 79
     3
176
     1
170
     0
176
     1
171
     0
176
     1
290
     0
176
     1
 93
        5
176
     1
 44
0.0
176
     1
173
     0
176
     1
1001
ACAD
1000
AcDbSavedByObjectVersion
1070
     0
  0
VISUALSTYLE
  5
D4
102
{ACAD_XDICTIONARY
360
19C
102
}
102
{ACAD_REACTORS
330
C3
102
}
330
C3
100
AcDbVisualStyle
  2
Shades of Gray
 70
    23
177
     2
291
     0
 71
     2
176
     1
 72
     2
176
     1
 73
     3
176
     1
 90
        0
176
     1
 40
0.6
176
     1
 41
30.0
176
     1
 63
     7
421
 16777215
176
     1
 74
     2
176
     1
 91
        2
176
     1
 64
     7
176
     1
 65
     7
176
     1
 75
     1
176
     1
175
     1
176
     1
 42
40.0
176
     1
 92
        8
176
     1
 66
     7
176
     1
 43
1.0
176
     1
 76
     1
176
     1
 77
     6
176
     1
 78
     2
176
     1
 67
     7
176
     1
 79
     3
176
     1
170
     0
176
     1
171
     0
176
     1
290
     0
176
     1
 93
        1
176
     1
 44
0.0
176
     1
173
     0
176
     1
1001
ACAD
1000
AcDbSavedByObjectVersion
1070
     0
  0
VISUALSTYLE
  5
D5
102
{ACAD_XDICTIONARY
360
19E
102
}
102
{ACAD_REACTORS
330
C3
102
}
330
C3
100
AcDbVisualStyle
  2
Sketchy
 70
    24
177
     2
291
     0
 71
     1
176
     1
 72
     2
176
     1
 73
     2
176
     1
 90
        0
176
     1
 40
0.6
176
     1
 41
30.0
176
     1
 63
     7
421
 16777215
176
     1
 74
     2
176
     1
 91
        2
176
     1
 64
     7
176
     1
 65
     7
176
     1
 75
     1
176
     1
175
     1
176
     1
 42
40.0
176
     1
 92
       11
176
     1
 66
     7
176
     1
 43
1.0
176
     1
 76
     1
176
     1
 77
     6
176
     1
 78
     2
176
     1
 67
     7
176
     1
 79
     6
176
     1
170
     0
176
     1
171
     0
176
     1
290
     0
176
     1
 93
        1
176
     1
 44
0.0
176
     1
173
     0
176
     1
1001
ACAD
1000
AcDbSavedByObjectVersion
1070
     0
  0
VISUALSTYLE
  5
D0
102
{ACAD_XDICTIONARY
360
194
102
}
102
{ACAD_REACTORS
330
C3
102
}
330
C3
100
AcDbVisualStyle
  2
Thicken
 70
    13
177
     2
291
     1
 71
     2
176
     1
 72
     2
176
     1
 73
     0
176
     1
 90
        0
176
     1
 40
0.6
176
     1
 41
30.0
176
     1
 63
     7
421
 16777215
176
     1
 74
     1
176
     1
 91
        4
176
     1
 64
     7
176
     1
 65
   257
176
     1
 75
     1
176
     1
175
     1
176
     1
 42
1.0
176
     1
 92
       12
176
     1
 66
     7
176
     1
 43
1.0
176
     1
 76
     1
176
     1
 77
     6
176
     1
 78
     2
176
     1
 67
     7
176
     1
 79
     5
176
     1
170
     0
176
     1
171
     0
176
     1
290
     0
176
     1
 93
        1
176
     1
 44
0.0
176
     1
173
     0
176
     1
1001
ACAD
1000
AcDbSavedByObjectVersion
1070
     0
  0
VISUALSTYLE
  5
CA
102
{ACAD_XDICTIONARY
360
188
102
}
102
{ACAD_REACTORS
330
C3
102
}
330
C3
100
AcDbVisualStyle
  2
Wireframe
 70
     5
177
     2
291
     0
 71
     0
176
     1
 72
     2
176
     1
 73
     0
176
     1
 90
        0
176
     1
 40
0.6
176
     1
 41
30.0
176
     1
 63
     7
421
 16777215
176
     1
 74
     1
176
     1
 91
        4
176
     1
 64
     7
176
     1
 65
   257
176
     1
 75
     1
176
     1
175
     1
176
     1
 42
1.0
176
     1
 92
        0
176
     1
 66
   257
176
     1
 43
1.0
176
     1
 76
     1
176
     1
 77
     6
176
     1
 78
     2
176
     1
 67
     7
176
     1
 79
     3
176
     1
170
     0
176
     1
171
     0
176
     1
290
     0
176
     1
 93
        1
176
     1
 44
0.0
176
     1
173
     0
176
     1
1001
ACAD
1000
AcDbSavedByObjectVersion
1070
     0
  0
VISUALSTYLE
  5
D6
102
{ACAD_XDICTIONARY
360
1A0
102
}
102
{ACAD_REACTORS
330
C3
102
}
330
C3
100
AcDbVisualStyle
  2
X-Ray
 70
    25
177
     2
291
     0
 71
     2
176
     1
 72
     2
176
     1
 73
     1
176
     1
 90
        1
176
     1
 40
0.5
176
     1
 41
30.0
176
     1
 63
     7
421
 16777215
176
     1
 74
     1
176
     1
 91
        0
176
     1
 64
     7
176
     1
 65
   257
176
     1
 75
     1
176
     1
175
     1
176
     1
 42
1.0
176
     1
 92
        8
176
     1
 66
     7
176
     1
 43
1.0
176
     1
 76
     1
176
     1
 77
     6
176
     1
 78
     2
176
     1
 67
     7
176
     1
 79
     3
176
     1
170
     0
176
     1
171
     0
176
     1
290
     0
176
     1
 93
       13
176
     1
 44
0.0
176
     1
173
     0
176
     1
1001
ACAD
1000
AcDbSavedByObjectVersion
1070
     0
  0
DICTIONARYVAR
  5
175
102
{ACAD_REACTORS
330
16F
102
}
330
16F
100
DictionaryVariables
280
     0
  1
1:1
  0
DICTIONARYVAR
  5
171
102
{ACAD_REACTORS
330
16F
102
}
330
16F
100
DictionaryVariables
280
     0
  1
STANDARD
  0
DICTIONARYVAR
  5
170
102
{ACAD_REACTORS
330
16F
102
}
330
16F
100
DictionaryVariables
280
     0
  1
STANDARD
  0
DICTIONARYVAR
  5
172
102
{ACAD_REACTORS
330
16F
102
}
330
16F
100
DictionaryVariables
280
     0
  1
Imperial24
  0
DICTIONARYVAR
  5
173
102
{ACAD_REACTORS
330
16F
102
}
330
16F
100
DictionaryVariables
280
     0
  1
Imperial24
  0
DICTIONARYVAR
  5
177
102
{ACAD_REACTORS
330
16F
102
}
330
16F
100
DictionaryVariables
280
     0
  1
1
  0
DICTIONARYVAR
  5
178
102
{ACAD_REACTORS
330
16F
102
}
330
16F
100
DictionaryVariables
280
     0
  1
15
  0
DICTIONARYVAR
  5
176
102
{ACAD_REACTORS
330
16F
102
}
330
16F
100
DictionaryVariables
280
     0
  1
0
  0
DICTIONARYVAR
  5
174
102
{ACAD_REACTORS
330
16F
102
}
330
16F
100
DictionaryVariables
280
     0
  1
0
  0
DICTIONARY
  5
1B0
330
F6
100
AcDbDictionary
280
     1
281
     1
  3
ACAD_XREC_ROUNDTRIP
360
1B1
  0
DICTIONARY
  5
B4
330
B3
100
AcDbDictionary
280
     1
281
     1
  3
BUMPTILE
360
B6
  3
DIFFUSETILE
360
B5
  3
OPACITYTILE
360
B9
  3
REFLECTIONTILE
360
B8
  3
REFRACTIONTILE
360
BA
  3
SPECULARTILE
360
B7
  0
DICTIONARY
  5
AC
330
AB
100
AcDbDictionary
280
     1
281
     1
  3
BUMPTILE
360
AE
  3
DIFFUSETILE
360
AD
  3
OPACITYTILE
360
B1
  3
REFLECTIONTILE
360
B0
  3
REFRACTIONTILE
360
B2
  3
SPECULARTILE
360
AF
  0
DICTIONARY
  5
BC
330
BB
100
AcDbDictionary
280
     1
281
     1
  3
BUMPTILE
360
BE
  3
DIFFUSETILE
360
BD
  3
OPACITYTILE
360
C1
  3
REFLECTIONTILE
360
C0
  3
REFRACTIONTILE
360
C2
  3
SPECULARTILE
360
BF
  0
DICTIONARY
  5
1AC
330
F2
100
AcDbDictionary
280
     1
281
     1
  3
ACAD_XREC_ROUNDTRIP
360
1AD
  0
DICTIONARY
  5
1AE
330
F4
100
AcDbDictionary
280
     1
281
     1
  3
ACAD_XREC_ROUNDTRIP
360
1AF
  0
DICTIONARY
  5
179
330
DE
100
AcDbDictionary
280
     1
281
     1
  3
ACAD_ROUNDTRIP_2008_TABLESTYLE_CELLSTYLEMAP
360
17A
  0
DICTIONARY
  5
186
330
C9
100
AcDbDictionary
280
     1
281
     1
  3
ACAD_XREC_ROUNDTRIP
360
187
  0
DICTIONARY
  5
184
330
C8
100
AcDbDictionary
280
     1
281
     1
  3
ACAD_XREC_ROUNDTRIP
360
185
  0
DICTIONARY
  5
192
330
CF
100
AcDbDictionary
280
     1
281
     1
  3
ACAD_XREC_ROUNDTRIP
360
193
  0
DICTIONARY
  5
19A
330
D3
100
AcDbDictionary
280
     1
281
     1
  3
ACAD_XREC_ROUNDTRIP
360
19B
  0
DICTIONARY
  5
18C
330
CC
100
AcDbDictionary
280
     1
281
     1
  3
ACAD_XREC_ROUNDTRIP
360
18D
  0
DICTIONARY
  5
190
330
CE
100
AcDbDictionary
280
     1
281
     1
  3
ACAD_XREC_ROUNDTRIP
360
191
  0
DICTIONARY
  5
1AA
330
DB
100
AcDbDictionary
280
     1
281
     1
  3
ACAD_XREC_ROUNDTRIP
360
1AB
  0
DICTIONARY
  5
198
330
D2
100
AcDbDictionary
280
     1
281
     1
  3
ACAD_XREC_ROUNDTRIP
360
199
  0
DICTIONARY
  5
17C
330
C4
100
AcDbDictionary
280
     1
281
     1
  3
ACAD_XREC_ROUNDTRIP
360
17D
  0
DICTIONARY
  5
17E
330
C5
100
AcDbDictionary
280
     1
281
     1
  3
ACAD_XREC_ROUNDTRIP
360
17F
  0
DICTIONARY
  5
180
330
C6
100
AcDbDictionary
280
     1
281
     1
  3
ACAD_XREC_ROUNDTRIP
360
181
  0
DICTIONARY
  5
182
330
C7
100
AcDbDictionary
280
     1
281
     1
  3
ACAD_XREC_ROUNDTRIP
360
183
  0
DICTIONARY
  5
18A
330
CB
100
AcDbDictionary
280
     1
281
     1
  3
ACAD_XREC_ROUNDTRIP
360
18B
  0
DICTIONARY
  5
1A6
330
D9
100
AcDbDictionary
280
     1
281
     1
  3
ACAD_XREC_ROUNDTRIP
360
1A7
  0
DICTIONARY
  5
196
330
D1
100
AcDbDictionary
280
     1
281
     1
  3
ACAD_XREC_ROUNDTRIP
360
197
  0
DICTIONARY
  5
1A8
330
DA
100
AcDbDictionary
280
     1
281
     1
  3
ACAD_XREC_ROUNDTRIP
360
1A9
  0
DICTIONARY
  5
18E
330
CD
100
AcDbDictionary
280
     1
281
     1
  3
ACAD_XREC_ROUNDTRIP
360
18F
  0
DICTIONARY
  5
1A4
330
D8
100
AcDbDictionary
280
     1
281
     1
  3
ACAD_XREC_ROUNDTRIP
360
1A5
  0
DICTIONARY
  5
1A2
330
D7
100
AcDbDictionary
280
     1
281
     1
  3
ACAD_XREC_ROUNDTRIP
360
1A3
  0
DICTIONARY
  5
19C
330
D4
100
AcDbDictionary
280
     1
281
     1
  3
ACAD_XREC_ROUNDTRIP
360
19D
  0
DICTIONARY
  5
19E
330
D5
100
AcDbDictionary
280
     1
281
     1
  3
ACAD_XREC_ROUNDTRIP
360
19F
  0
DICTIONARY
  5
194
330
D0
100
AcDbDictionary
280
     1
281
     1
  3
ACAD_XREC_ROUNDTRIP
360
195
  0
DICTIONARY
  5
188
330
CA
100
AcDbDictionary
280
     1
281
     1
  3
ACAD_XREC_ROUNDTRIP
360
189
  0
DICTIONARY
  5
1A0
330
D6
100
AcDbDictionary
280
     1
281
     1
  3
ACAD_XREC_ROUNDTRIP
360
1A1
  0
XRECORD
  5
1B1
102
{ACAD_REACTORS
330
1B0
102
}
330
1B0
100
AcDbXrecord
280
     1
102
DISPLAYNAME
  1
Imperial24
102
FLAGS
 90
        0
  0
XRECORD
  5
B6
102
{ACAD_REACTORS
330
B4
102
}
330
B4
100
AcDbXrecord
280
     1
270
     1
271
     1
  0
XRECORD
  5
B5
102
{ACAD_REACTORS
330
B4
102
}
330
B4
100
AcDbXrecord
280
     1
270
     1
271
     1
  0
XRECORD
  5
B9
102
{ACAD_REACTORS
330
B4
102
}
330
B4
100
AcDbXrecord
280
     1
270
     1
271
     1
  0
XRECORD
  5
B8
102
{ACAD_REACTORS
330
B4
102
}
330
B4
100
AcDbXrecord
280
     1
270
     1
271
     1
  0
XRECORD
  5
BA
102
{ACAD_REACTORS
330
B4
102
}
330
B4
100
AcDbXrecord
280
     1
270
     1
271
     1
  0
XRECORD
  5
B7
102
{ACAD_REACTORS
330
B4
102
}
330
B4
100
AcDbXrecord
280
     1
270
     1
271
     1
  0
XRECORD
  5
AE
102
{ACAD_REACTORS
330
AC
102
}
330
AC
100
AcDbXrecord
280
     1
270
     1
271
     1
  0
XRECORD
  5
AD
102
{ACAD_REACTORS
330
AC
102
}
330
AC
100
AcDbXrecord
280
     1
270
     1
271
     1
  0
XRECORD
  5
B1
102
{ACAD_REACTORS
330
AC
102
}
330
AC
100
AcDbXrecord
280
     1
270
     1
271
     1
  0
XRECORD
  5
B0
102
{ACAD_REACTORS
330
AC
102
}
330
AC
100
AcDbXrecord
280
     1
270
     1
271
     1
  0
XRECORD
  5
B2
102
{ACAD_REACTORS
330
AC
102
}
330
AC
100
AcDbXrecord
280
     1
270
     1
271
     1
  0
XRECORD
  5
AF
102
{ACAD_REACTORS
330
AC
102
}
330
AC
100
AcDbXrecord
280
     1
270
     1
271
     1
  0
XRECORD
  5
BE
102
{ACAD_REACTORS
330
BC
102
}
330
BC
100
AcDbXrecord
280
     1
270
     1
271
     1
  0
XRECORD
  5
BD
102
{ACAD_REACTORS
330
BC
102
}
330
BC
100
AcDbXrecord
280
     1
270
     1
271
     1
  0
XRECORD
  5
C1
102
{ACAD_REACTORS
330
BC
102
}
330
BC
100
AcDbXrecord
280
     1
270
     1
271
     1
  0
XRECORD
  5
C0
102
{ACAD_REACTORS
330
BC
102
}
330
BC
100
AcDbXrecord
280
     1
270
     1
271
     1
  0
XRECORD
  5
C2
102
{ACAD_REACTORS
330
BC
102
}
330
BC
100
AcDbXrecord
280
     1
270
     1
271
     1
  0
XRECORD
  5
BF
102
{ACAD_REACTORS
330
BC
102
}
330
BC
100
AcDbXrecord
280
     1
270
     1
271
     1
  0
XRECORD
  5
1AD
102
{ACAD_REACTORS
330
1AC
102
}
330
1AC
100
AcDbXrecord
280
     1
102
ACAD_ROUNDTRIP_2012_MLEADER_STYLE
298
     1
  0
XRECORD
  5
1AF
102
{ACAD_REACTORS
330
1AE
102
}
330
1AE
100
AcDbXrecord
280
     1
102
DISPLAYNAME
  1
Imperial24
102
FLAGS
 90
        0
  0
CELLSTYLEMAP
  5
17A
102
{ACAD_REACTORS
330
179
102
}
330
179
100
AcDbCellStyleMap
 90
        3
300
CELLSTYLE
  1
TABLEFORMAT_BEGIN
 90
        5
170
     1
 91
        0
 92
    32768
 62
   257
 93
        1
300
CONTENTFORMAT
  1
CONTENTFORMAT_BEGIN
 90
        0
 91
        0
 92
      512
 93
        0
300

 40
0.0
140
1.0
 94
        5
 62
     0
340
11
144
0.25
309
CONTENTFORMAT_END
171
     0
 94
        0
309
TABLEFORMAT_END
  1
CELLSTYLE_BEGIN
 90
        1
 91
        1
300
_TITLE
309
CELLSTYLE_END
300
CELLSTYLE
  1
TABLEFORMAT_BEGIN
 90
        5
170
     1
 91
        0
 92
        0
 62
   257
 93
        1
300
CONTENTFORMAT
  1
CONTENTFORMAT_BEGIN
 90
        0
 91
        0
 92
      512
 93
        0
300

 40
0.0
140
1.0
 94
        5
 62
     0
340
11
144
0.18
309
CONTENTFORMAT_END
171
     0
 94
        0
309
TABLEFORMAT_END
  1
CELLSTYLE_BEGIN
 90
        2
 91
        1
300
_HEADER
309
CELLSTYLE_END
300
CELLSTYLE
  1
TABLEFORMAT_BEGIN
 90
        5
170
     1
 91
        0
 92
        0
 62
   257
 93
        1
300
CONTENTFORMAT
  1
CONTENTFORMAT_BEGIN
 90
        0
 91
        0
 92
      512
 93
        0
300

 40
0.0
140
1.0
 94
        2
 62
     0
340
11
144
0.18
309
CONTENTFORMAT_END
171
     0
 94
        0
309
TABLEFORMAT_END
  1
CELLSTYLE_BEGIN
 90
        3
 91
        2
300
_DATA
309
CELLSTYLE_END
  0
XRECORD
  5
187
102
{ACAD_REACTORS
330
186
102
}
330
186
100
AcDbXrecord
280
     1
102
RTVSPost2010Prop28
280
     1
102
RTVSPost2010PropOp28
 70
     1
102
RTVSPost2010Prop29
280
     1
102
RTVSPost2010PropOp29
 70
     1
102
RTVSPost2010Prop30
280
     0
102
RTVSPost2010PropOp30
 70
     1
102
RTVSPost2010Prop31
280
     0
102
RTVSPost2010PropOp31
 70
     1
102
RTVSPost2010Prop32
280
     0
102
RTVSPost2010PropOp32
 70
     1
102
RTVSPost2010Prop33
280
     0
102
RTVSPost2010PropOp33
 70
     1
102
RTVSPost2010Prop34
280
     0
102
RTVSPost2010PropOp34
 70
     1
102
RTVSPost2010Prop35
280
     0
102
RTVSPost2010PropOp35
 70
     1
102
RTVSPost2010Prop36
280
     0
102
RTVSPost2010PropOp36
 70
     1
102
RTVSPost2010Prop37
 90
       50
102
RTVSPost2010PropOp37
 70
     1
102
RTVSPost2010Prop38
140
0.0
102
RTVSPost2010PropOp38
 70
     1
102
RTVSPost2010Prop39
140
1.0
102
RTVSPost2010PropOp39
 70
     1
102
RTVSPost2010Prop40
 90
        0
102
RTVSPost2010PropOp40
 70
     1
102
RTVSPost2010Prop41ColorIndex
 90
       18
102
RTVSPost2010Prop41ColorRGB
 90
        0
102
RTVSPost2010PropOp41
 70
     1
102
RTVSPost2010Prop42
 90
       50
102
RTVSPost2010PropOp42
 70
     1
102
RTVSPost2010Prop43
 90
        3
102
RTVSPost2010PropOp43
 70
     1
102
RTVSPost2010Prop44ColorIndex
 90
        5
102
RTVSPost2010Prop44ColorRGB
 90
      255
102
RTVSPost2010PropOp44
 70
     1
102
RTVSPost2010Prop45
280
     0
102
RTVSPost2010PropOp45
 70
     1
102
RTVSPost2010Prop46
 90
       50
102
RTVSPost2010PropOp46
 70
     1
102
RTVSPost2010Prop47
 90
       50
102
RTVSPost2010PropOp47
 70
     1
102
RTVSPost2010Prop48
 90
       50
102
RTVSPost2010PropOp48
 70
     1
102
RTVSPost2010Prop49
280
     0
102
RTVSPost2010PropOp49
 70
     1
102
RTVSPost2010Prop50
 90
       50
102
RTVSPost2010PropOp50
 70
     1
102
RTVSPost2010Prop51ColorIndex
 90
      256
102
RTVSPost2010Prop51ColorRGB
 90
-16777216
102
RTVSPost2010PropOp51
 70
     0
102
RTVSPost2010Prop52
140
1.0
102
RTVSPost2010PropOp52
 70
     0
102
RTVSPost2010Prop53
 90
        2
102
RTVSPost2010PropOp53
 70
     1
102
RTVSPost2010Prop54
  1
strokes_ogs.tif
102
RTVSPost2010PropOp54
 70
     1
102
RTVSPost2010Prop55
280
     0
102
RTVSPost2010PropOp55
 70
     1
102
RTVSPost2010Prop56
140
1.0
102
RTVSPost2010PropOp56
 70
     1
102
RTVSPost2010Prop57
140
1.0
102
RTVSPost2010PropOp57
 70
     1
  0
XRECORD
  5
185
102
{ACAD_REACTORS
330
184
102
}
330
184
100
AcDbXrecord
280
     1
102
RTVSPost2010Prop28
280
     0
102
RTVSPost2010PropOp28
 70
     1
102
RTVSPost2010Prop29
280
     1
102
RTVSPost2010PropOp29
 70
     1
102
RTVSPost2010Prop30
280
     1
102
RTVSPost2010PropOp30
 70
     1
102
RTVSPost2010Prop31
280
     0
102
RTVSPost2010PropOp31
 70
     1
102
RTVSPost2010Prop32
280
     0
102
RTVSPost2010PropOp32
 70
     1
102
RTVSPost2010Prop33
280
     0
102
RTVSPost2010PropOp33
 70
     1
102
RTVSPost2010Prop34
280
     0
102
RTVSPost2010PropOp34
 70
     1
102
RTVSPost2010Prop35
280
     0
102
RTVSPost2010PropOp35
 70
     1
102
RTVSPost2010Prop36
280
     0
102
RTVSPost2010PropOp36
 70
     1
102
RTVSPost2010Prop37
 90
       50
102
RTVSPost2010PropOp37
 70
     1
102
RTVSPost2010Prop38
140
0.0
102
RTVSPost2010PropOp38
 70
     1
102
RTVSPost2010Prop39
140
1.0
102
RTVSPost2010PropOp39
 70
     1
102
RTVSPost2010Prop40
 90
        0
102
RTVSPost2010PropOp40
 70
     1
102
RTVSPost2010Prop41ColorIndex
 90
       18
102
RTVSPost2010Prop41ColorRGB
 90
        0
102
RTVSPost2010PropOp41
 70
     1
102
RTVSPost2010Prop42
 90
       50
102
RTVSPost2010PropOp42
 70
     1
102
RTVSPost2010Prop43
 90
        3
102
RTVSPost2010PropOp43
 70
     1
102
RTVSPost2010Prop44ColorIndex
 90
        5
102
RTVSPost2010Prop44ColorRGB
 90
      255
102
RTVSPost2010PropOp44
 70
     1
102
RTVSPost2010Prop45
280
     0
102
RTVSPost2010PropOp45
 70
     1
102
RTVSPost2010Prop46
 90
       50
102
RTVSPost2010PropOp46
 70
     1
102
RTVSPost2010Prop47
 90
       50
102
RTVSPost2010PropOp47
 70
     1
102
RTVSPost2010Prop48
 90
       50
102
RTVSPost2010PropOp48
 70
     1
102
RTVSPost2010Prop49
280
     0
102
RTVSPost2010PropOp49
 70
     1
102
RTVSPost2010Prop50
 90
       50
102
RTVSPost2010PropOp50
 70
     1
102
RTVSPost2010Prop51ColorIndex
 90
      256
102
RTVSPost2010Prop51ColorRGB
 90
-16777216
102
RTVSPost2010PropOp51
 70
     0
102
RTVSPost2010Prop52
140
1.0
102
RTVSPost2010PropOp52
 70
     0
102
RTVSPost2010Prop53
 90
        2
102
RTVSPost2010PropOp53
 70
     1
102
RTVSPost2010Prop54
  1
strokes_ogs.tif
102
RTVSPost2010PropOp54
 70
     1
102
RTVSPost2010Prop55
280
     0
102
RTVSPost2010PropOp55
 70
     1
102
RTVSPost2010Prop56
140
1.0
102
RTVSPost2010PropOp56
 70
     1
102
RTVSPost2010Prop57
140
1.0
102
RTVSPost2010PropOp57
 70
     1
  0
XRECORD
  5
193
102
{ACAD_REACTORS
330
192
102
}
330
192
100
AcDbXrecord
280
     1
102
RTVSPost2010Prop28
280
     0
102
RTVSPost2010PropOp28
 70
     1
102
RTVSPost2010Prop29
280
     1
102
RTVSPost2010PropOp29
 70
     1
102
RTVSPost2010Prop30
280
     1
102
RTVSPost2010PropOp30
 70
     1
102
RTVSPost2010Prop31
280
     0
102
RTVSPost2010PropOp31
 70
     1
102
RTVSPost2010Prop32
280
     0
102
RTVSPost2010PropOp32
 70
     1
102
RTVSPost2010Prop33
280
     0
102
RTVSPost2010PropOp33
 70
     1
102
RTVSPost2010Prop34
280
     0
102
RTVSPost2010PropOp34
 70
     1
102
RTVSPost2010Prop35
280
     0
102
RTVSPost2010PropOp35
 70
     1
102
RTVSPost2010Prop36
280
     0
102
RTVSPost2010PropOp36
 70
     1
102
RTVSPost2010Prop37
 90
       50
102
RTVSPost2010PropOp37
 70
     1
102
RTVSPost2010Prop38
140
0.0
102
RTVSPost2010PropOp38
 70
     1
102
RTVSPost2010Prop39
140
1.0
102
RTVSPost2010PropOp39
 70
     1
102
RTVSPost2010Prop40
 90
        0
102
RTVSPost2010PropOp40
 70
     1
102
RTVSPost2010Prop41ColorIndex
 90
       18
102
RTVSPost2010Prop41ColorRGB
 90
        0
102
RTVSPost2010PropOp41
 70
     1
102
RTVSPost2010Prop42
 90
       50
102
RTVSPost2010PropOp42
 70
     1
102
RTVSPost2010Prop43
 90
        3
102
RTVSPost2010PropOp43
 70
     1
102
RTVSPost2010Prop44ColorIndex
 90
        5
102
RTVSPost2010Prop44ColorRGB
 90
      255
102
RTVSPost2010PropOp44
 70
     1
102
RTVSPost2010Prop45
280
     0
102
RTVSPost2010PropOp45
 70
     1
102
RTVSPost2010Prop46
 90
       50
102
RTVSPost2010PropOp46
 70
     1
102
RTVSPost2010Prop47
 90
       50
102
RTVSPost2010PropOp47
 70
     1
102
RTVSPost2010Prop48
 90
       50
102
RTVSPost2010PropOp48
 70
     1
102
RTVSPost2010Prop49
280
     0
102
RTVSPost2010PropOp49
 70
     1
102
RTVSPost2010Prop50
 90
       50
102
RTVSPost2010PropOp50
 70
     1
102
RTVSPost2010Prop51ColorIndex
 90
      256
102
RTVSPost2010Prop51ColorRGB
 90
-16777216
102
RTVSPost2010PropOp51
 70
     0
102
RTVSPost2010Prop52
140
1.0
102
RTVSPost2010PropOp52
 70
     0
102
RTVSPost2010Prop53
 90
        2
102
RTVSPost2010PropOp53
 70
     1
102
RTVSPost2010Prop54
  1
strokes_ogs.tif
102
RTVSPost2010PropOp54
 70
     1
102
RTVSPost2010Prop55
280
     0
102
RTVSPost2010PropOp55
 70
     1
102
RTVSPost2010Prop56
140
1.0
102
RTVSPost2010PropOp56
 70
     1
102
RTVSPost2010Prop57
140
1.0
102
RTVSPost2010PropOp57
 70
     1
  0
XRECORD
  5
19B
102
{ACAD_REACTORS
330
19A
102
}
330
19A
100
AcDbXrecord
280
     1
102
RTVSPost2010Prop28
280
     0
102
RTVSPost2010PropOp28
 70
     1
102
RTVSPost2010Prop29
280
     1
102
RTVSPost2010PropOp29
 70
     1
102
RTVSPost2010Prop30
280
     1
102
RTVSPost2010PropOp30
 70
     1
102
RTVSPost2010Prop31
280
     0
102
RTVSPost2010PropOp31
 70
     1
102
RTVSPost2010Prop32
280
     0
102
RTVSPost2010PropOp32
 70
     1
102
RTVSPost2010Prop33
280
     0
102
RTVSPost2010PropOp33
 70
     1
102
RTVSPost2010Prop34
280
     0
102
RTVSPost2010PropOp34
 70
     1
102
RTVSPost2010Prop35
280
     0
102
RTVSPost2010PropOp35
 70
     1
102
RTVSPost2010Prop36
280
     0
102
RTVSPost2010PropOp36
 70
     1
102
RTVSPost2010Prop37
 90
       50
102
RTVSPost2010PropOp37
 70
     1
102
RTVSPost2010Prop38
140
0.0
102
RTVSPost2010PropOp38
 70
     1
102
RTVSPost2010Prop39
140
1.0
102
RTVSPost2010PropOp39
 70
     1
102
RTVSPost2010Prop40
 90
        0
102
RTVSPost2010PropOp40
 70
     1
102
RTVSPost2010Prop41ColorIndex
 90
       18
102
RTVSPost2010Prop41ColorRGB
 90
        0
102
RTVSPost2010PropOp41
 70
     1
102
RTVSPost2010Prop42
 90
       50
102
RTVSPost2010PropOp42
 70
     1
102
RTVSPost2010Prop43
 90
        3
102
RTVSPost2010PropOp43
 70
     1
102
RTVSPost2010Prop44ColorIndex
 90
        5
102
RTVSPost2010Prop44ColorRGB
 90
      255
102
RTVSPost2010PropOp44
 70
     1
102
RTVSPost2010Prop45
280
     0
102
RTVSPost2010PropOp45
 70
     1
102
RTVSPost2010Prop46
 90
       50
102
RTVSPost2010PropOp46
 70
     1
102
RTVSPost2010Prop47
 90
       50
102
RTVSPost2010PropOp47
 70
     1
102
RTVSPost2010Prop48
 90
       50
102
RTVSPost2010PropOp48
 70
     1
102
RTVSPost2010Prop49
280
     0
102
RTVSPost2010PropOp49
 70
     1
102
RTVSPost2010Prop50
 90
       50
102
RTVSPost2010PropOp50
 70
     1
102
RTVSPost2010Prop51ColorIndex
 90
      256
102
RTVSPost2010Prop51ColorRGB
 90
-16777216
102
RTVSPost2010PropOp51
 70
     0
102
RTVSPost2010Prop52
140
1.0
102
RTVSPost2010PropOp52
 70
     0
102
RTVSPost2010Prop53
 90
        2
102
RTVSPost2010PropOp53
 70
     1
102
RTVSPost2010Prop54
  1
strokes_ogs.tif
102
RTVSPost2010PropOp54
 70
     1
102
RTVSPost2010Prop55
280
     0
102
RTVSPost2010PropOp55
 70
     1
102
RTVSPost2010Prop56
140
1.0
102
RTVSPost2010PropOp56
 70
     1
102
RTVSPost2010Prop57
140
1.0
102
RTVSPost2010PropOp57
 70
     1
  0
XRECORD
  5
18D
102
{ACAD_REACTORS
330
18C
102
}
330
18C
100
AcDbXrecord
280
     1
102
RTVSPost2010Prop28
280
     0
102
RTVSPost2010PropOp28
 70
     1
102
RTVSPost2010Prop29
280
     1
102
RTVSPost2010PropOp29
 70
     1
102
RTVSPost2010Prop30
280
     1
102
RTVSPost2010PropOp30
 70
     1
102
RTVSPost2010Prop31
280
     0
102
RTVSPost2010PropOp31
 70
     1
102
RTVSPost2010Prop32
280
     0
102
RTVSPost2010PropOp32
 70
     1
102
RTVSPost2010Prop33
280
     0
102
RTVSPost2010PropOp33
 70
     1
102
RTVSPost2010Prop34
280
     0
102
RTVSPost2010PropOp34
 70
     1
102
RTVSPost2010Prop35
280
     0
102
RTVSPost2010PropOp35
 70
     1
102
RTVSPost2010Prop36
280
     0
102
RTVSPost2010PropOp36
 70
     1
102
RTVSPost2010Prop37
 90
       50
102
RTVSPost2010PropOp37
 70
     1
102
RTVSPost2010Prop38
140
0.0
102
RTVSPost2010PropOp38
 70
     1
102
RTVSPost2010Prop39
140
1.0
102
RTVSPost2010PropOp39
 70
     1
102
RTVSPost2010Prop40
 90
        0
102
RTVSPost2010PropOp40
 70
     1
102
RTVSPost2010Prop41ColorIndex
 90
       18
102
RTVSPost2010Prop41ColorRGB
 90
        0
102
RTVSPost2010PropOp41
 70
     1
102
RTVSPost2010Prop42
 90
       50
102
RTVSPost2010PropOp42
 70
     1
102
RTVSPost2010Prop43
 90
        3
102
RTVSPost2010PropOp43
 70
     1
102
RTVSPost2010Prop44ColorIndex
 90
        5
102
RTVSPost2010Prop44ColorRGB
 90
      255
102
RTVSPost2010PropOp44
 70
     1
102
RTVSPost2010Prop45
280
     0
102
RTVSPost2010PropOp45
 70
     1
102
RTVSPost2010Prop46
 90
       50
102
RTVSPost2010PropOp46
 70
     1
102
RTVSPost2010Prop47
 90
       50
102
RTVSPost2010PropOp47
 70
     1
102
RTVSPost2010Prop48
 90
       50
102
RTVSPost2010PropOp48
 70
     1
102
RTVSPost2010Prop49
280
     0
102
RTVSPost2010PropOp49
 70
     1
102
RTVSPost2010Prop50
 90
       50
102
RTVSPost2010PropOp50
 70
     1
102
RTVSPost2010Prop51ColorIndex
 90
      256
102
RTVSPost2010Prop51ColorRGB
 90
-16777216
102
RTVSPost2010PropOp51
 70
     0
102
RTVSPost2010Prop52
140
1.0
102
RTVSPost2010PropOp52
 70
     0
102
RTVSPost2010Prop53
 90
        2
102
RTVSPost2010PropOp53
 70
     1
102
RTVSPost2010Prop54
  1
strokes_ogs.tif
102
RTVSPost2010PropOp54
 70
     1
102
RTVSPost2010Prop55
280
     0
102
RTVSPost2010PropOp55
 70
     1
102
RTVSPost2010Prop56
140
1.0
102
RTVSPost2010PropOp56
 70
     1
102
RTVSPost2010Prop57
140
1.0
102
RTVSPost2010PropOp57
 70
     1
  0
XRECORD
  5
191
102
{ACAD_REACTORS
330
190
102
}
330
190
100
AcDbXrecord
280
     1
102
RTVSPost2010Prop28
280
     0
102
RTVSPost2010PropOp28
 70
     1
102
RTVSPost2010Prop29
280
     1
102
RTVSPost2010PropOp29
 70
     1
102
RTVSPost2010Prop30
280
     1
102
RTVSPost2010PropOp30
 70
     1
102
RTVSPost2010Prop31
280
     0
102
RTVSPost2010PropOp31
 70
     1
102
RTVSPost2010Prop32
280
     0
102
RTVSPost2010PropOp32
 70
     1
102
RTVSPost2010Prop33
280
     0
102
RTVSPost2010PropOp33
 70
     1
102
RTVSPost2010Prop34
280
     0
102
RTVSPost2010PropOp34
 70
     1
102
RTVSPost2010Prop35
280
     0
102
RTVSPost2010PropOp35
 70
     1
102
RTVSPost2010Prop36
280
     0
102
RTVSPost2010PropOp36
 70
     1
102
RTVSPost2010Prop37
 90
       50
102
RTVSPost2010PropOp37
 70
     1
102
RTVSPost2010Prop38
140
0.0
102
RTVSPost2010PropOp38
 70
     1
102
RTVSPost2010Prop39
140
1.0
102
RTVSPost2010PropOp39
 70
     1
102
RTVSPost2010Prop40
 90
        0
102
RTVSPost2010PropOp40
 70
     1
102
RTVSPost2010Prop41ColorIndex
 90
       18
102
RTVSPost2010Prop41ColorRGB
 90
        0
102
RTVSPost2010PropOp41
 70
     1
102
RTVSPost2010Prop42
 90
       50
102
RTVSPost2010PropOp42
 70
     1
102
RTVSPost2010Prop43
 90
        3
102
RTVSPost2010PropOp43
 70
     1
102
RTVSPost2010Prop44ColorIndex
 90
        5
102
RTVSPost2010Prop44ColorRGB
 90
      255
102
RTVSPost2010PropOp44
 70
     1
102
RTVSPost2010Prop45
280
     0
102
RTVSPost2010PropOp45
 70
     1
102
RTVSPost2010Prop46
 90
       50
102
RTVSPost2010PropOp46
 70
     1
102
RTVSPost2010Prop47
 90
       50
102
RTVSPost2010PropOp47
 70
     1
102
RTVSPost2010Prop48
 90
       50
102
RTVSPost2010PropOp48
 70
     1
102
RTVSPost2010Prop49
280
     0
102
RTVSPost2010PropOp49
 70
     1
102
RTVSPost2010Prop50
 90
       50
102
RTVSPost2010PropOp50
 70
     1
102
RTVSPost2010Prop51ColorIndex
 90
      256
102
RTVSPost2010Prop51ColorRGB
 90
-16777216
102
RTVSPost2010PropOp51
 70
     0
102
RTVSPost2010Prop52
140
1.0
102
RTVSPost2010PropOp52
 70
     0
102
RTVSPost2010Prop53
 90
        2
102
RTVSPost2010PropOp53
 70
     1
102
RTVSPost2010Prop54
  1
strokes_ogs.tif
102
RTVSPost2010PropOp54
 70
     1
102
RTVSPost2010Prop55
280
     0
102
RTVSPost2010PropOp55
 70
     1
102
RTVSPost2010Prop56
140
1.0
102
RTVSPost2010PropOp56
 70
     1
102
RTVSPost2010Prop57
140
1.0
102
RTVSPost2010PropOp57
 70
     1
  0
XRECORD
  5
1AB
102
{ACAD_REACTORS
330
1AA
102
}
330
1AA
100
AcDbXrecord
280
     1
102
RTVSPost2010Prop28
280
     0
102
RTVSPost2010PropOp28
 70
     0
102
RTVSPost2010Prop29
280
     1
102
RTVSPost2010PropOp29
 70
     0
102
RTVSPost2010Prop30
280
     1
102
RTVSPost2010PropOp30
 70
     0
102
RTVSPost2010Prop31
280
     0
102
RTVSPost2010PropOp31
 70
     0
102
RTVSPost2010Prop32
280
     0
102
RTVSPost2010PropOp32
 70
     0
102
RTVSPost2010Prop33
280
     0
102
RTVSPost2010PropOp33
 70
     0
102
RTVSPost2010Prop34
280
     0
102
RTVSPost2010PropOp34
 70
     0
102
RTVSPost2010Prop35
280
     0
102
RTVSPost2010PropOp35
 70
     0
102
RTVSPost2010Prop36
280
     0
102
RTVSPost2010PropOp36
 70
     0
102
RTVSPost2010Prop37
 90
       50
102
RTVSPost2010PropOp37
 70
     0
102
RTVSPost2010Prop38
140
0.0
102
RTVSPost2010PropOp38
 70
     0
102
RTVSPost2010Prop39
140
1.0
102
RTVSPost2010PropOp39
 70
     0
102
RTVSPost2010Prop40
 90
        0
102
RTVSPost2010PropOp40
 70
     0
102
RTVSPost2010Prop41ColorIndex
 90
       18
102
RTVSPost2010Prop41ColorRGB
 90
        0
102
RTVSPost2010PropOp41
 70
     0
102
RTVSPost2010Prop42
 90
       50
102
RTVSPost2010PropOp42
 70
     0
102
RTVSPost2010Prop43
 90
        3
102
RTVSPost2010PropOp43
 70
     0
102
RTVSPost2010Prop44ColorIndex
 90
        5
102
RTVSPost2010Prop44ColorRGB
 90
      255
102
RTVSPost2010PropOp44
 70
     0
102
RTVSPost2010Prop45
280
     0
102
RTVSPost2010PropOp45
 70
     0
102
RTVSPost2010Prop46
 90
       50
102
RTVSPost2010PropOp46
 70
     0
102
RTVSPost2010Prop47
 90
       50
102
RTVSPost2010PropOp47
 70
     0
102
RTVSPost2010Prop48
 90
       50
102
RTVSPost2010PropOp48
 70
     0
102
RTVSPost2010Prop49
280
     0
102
RTVSPost2010PropOp49
 70
     0
102
RTVSPost2010Prop50
 90
       50
102
RTVSPost2010PropOp50
 70
     0
102
RTVSPost2010Prop51ColorIndex
 90
      256
102
RTVSPost2010Prop51ColorRGB
 90
-16777216
102
RTVSPost2010PropOp51
 70
     0
102
RTVSPost2010Prop52
140
1.0
102
RTVSPost2010PropOp52
 70
     0
102
RTVSPost2010Prop53
 90
        2
102
RTVSPost2010PropOp53
 70
     0
102
RTVSPost2010Prop54
  1
strokes_ogs.tif
102
RTVSPost2010PropOp54
 70
     0
102
RTVSPost2010Prop55
280
     0
102
RTVSPost2010PropOp55
 70
     0
102
RTVSPost2010Prop56
140
1.0
102
RTVSPost2010PropOp56
 70
     0
102
RTVSPost2010Prop57
140
1.0
102
RTVSPost2010PropOp57
 70
     0
  0
XRECORD
  5
199
102
{ACAD_REACTORS
330
198
102
}
330
198
100
AcDbXrecord
280
     1
102
RTVSPost2010Prop28
280
     0
102
RTVSPost2010PropOp28
 70
     1
102
RTVSPost2010Prop29
280
     1
102
RTVSPost2010PropOp29
 70
     1
102
RTVSPost2010Prop30
280
     1
102
RTVSPost2010PropOp30
 70
     1
102
RTVSPost2010Prop31
280
     0
102
RTVSPost2010PropOp31
 70
     1
102
RTVSPost2010Prop32
280
     0
102
RTVSPost2010PropOp32
 70
     1
102
RTVSPost2010Prop33
280
     0
102
RTVSPost2010PropOp33
 70
     1
102
RTVSPost2010Prop34
280
     0
102
RTVSPost2010PropOp34
 70
     1
102
RTVSPost2010Prop35
280
     0
102
RTVSPost2010PropOp35
 70
     1
102
RTVSPost2010Prop36
280
     0
102
RTVSPost2010PropOp36
 70
     1
102
RTVSPost2010Prop37
 90
       50
102
RTVSPost2010PropOp37
 70
     1
102
RTVSPost2010Prop38
140
0.0
102
RTVSPost2010PropOp38
 70
     1
102
RTVSPost2010Prop39
140
1.0
102
RTVSPost2010PropOp39
 70
     1
102
RTVSPost2010Prop40
 90
        0
102
RTVSPost2010PropOp40
 70
     1
102
RTVSPost2010Prop41ColorIndex
 90
       18
102
RTVSPost2010Prop41ColorRGB
 90
        0
102
RTVSPost2010PropOp41
 70
     1
102
RTVSPost2010Prop42
 90
       50
102
RTVSPost2010PropOp42
 70
     1
102
RTVSPost2010Prop43
 90
        3
102
RTVSPost2010PropOp43
 70
     1
102
RTVSPost2010Prop44ColorIndex
 90
        5
102
RTVSPost2010Prop44ColorRGB
 90
      255
102
RTVSPost2010PropOp44
 70
     1
102
RTVSPost2010Prop45
280
     0
102
RTVSPost2010PropOp45
 70
     1
102
RTVSPost2010Prop46
 90
       50
102
RTVSPost2010PropOp46
 70
     1
102
RTVSPost2010Prop47
 90
       50
102
RTVSPost2010PropOp47
 70
     1
102
RTVSPost2010Prop48
 90
       50
102
RTVSPost2010PropOp48
 70
     1
102
RTVSPost2010Prop49
280
     0
102
RTVSPost2010PropOp49
 70
     1
102
RTVSPost2010Prop50
 90
       50
102
RTVSPost2010PropOp50
 70
     1
102
RTVSPost2010Prop51ColorIndex
 90
      256
102
RTVSPost2010Prop51ColorRGB
 90
-16777216
102
RTVSPost2010PropOp51
 70
     0
102
RTVSPost2010Prop52
140
1.0
102
RTVSPost2010PropOp52
 70
     0
102
RTVSPost2010Prop53
 90
        2
102
RTVSPost2010PropOp53
 70
     1
102
RTVSPost2010Prop54
  1
strokes_ogs.tif
102
RTVSPost2010PropOp54
 70
     1
102
RTVSPost2010Prop55
280
     0
102
RTVSPost2010PropOp55
 70
     1
102
RTVSPost2010Prop56
140
1.0
102
RTVSPost2010PropOp56
 70
     1
102
RTVSPost2010Prop57
140
1.0
102
RTVSPost2010PropOp57
 70
     1
  0
XRECORD
  5
17D
102
{ACAD_REACTORS
330
17C
102
}
330
17C
100
AcDbXrecord
280
     1
102
RTVSPost2010Prop28
280
     0
102
RTVSPost2010PropOp28
 70
     1
102
RTVSPost2010Prop29
280
     1
102
RTVSPost2010PropOp29
 70
     1
102
RTVSPost2010Prop30
280
     1
102
RTVSPost2010PropOp30
 70
     1
102
RTVSPost2010Prop31
280
     0
102
RTVSPost2010PropOp31
 70
     1
102
RTVSPost2010Prop32
280
     0
102
RTVSPost2010PropOp32
 70
     1
102
RTVSPost2010Prop33
280
     0
102
RTVSPost2010PropOp33
 70
     1
102
RTVSPost2010Prop34
280
     0
102
RTVSPost2010PropOp34
 70
     1
102
RTVSPost2010Prop35
280
     0
102
RTVSPost2010PropOp35
 70
     1
102
RTVSPost2010Prop36
280
     0
102
RTVSPost2010PropOp36
 70
     1
102
RTVSPost2010Prop37
 90
       50
102
RTVSPost2010PropOp37
 70
     1
102
RTVSPost2010Prop38
140
0.0
102
RTVSPost2010PropOp38
 70
     1
102
RTVSPost2010Prop39
140
1.0
102
RTVSPost2010PropOp39
 70
     1
102
RTVSPost2010Prop40
 90
        0
102
RTVSPost2010PropOp40
 70
     1
102
RTVSPost2010Prop41ColorIndex
 90
       18
102
RTVSPost2010Prop41ColorRGB
 90
        0
102
RTVSPost2010PropOp41
 70
     1
102
RTVSPost2010Prop42
 90
       50
102
RTVSPost2010PropOp42
 70
     1
102
RTVSPost2010Prop43
 90
        3
102
RTVSPost2010PropOp43
 70
     1
102
RTVSPost2010Prop44ColorIndex
 90
        5
102
RTVSPost2010Prop44ColorRGB
 90
      255
102
RTVSPost2010PropOp44
 70
     1
102
RTVSPost2010Prop45
280
     0
102
RTVSPost2010PropOp45
 70
     1
102
RTVSPost2010Prop46
 90
       50
102
RTVSPost2010PropOp46
 70
     1
102
RTVSPost2010Prop47
 90
       50
102
RTVSPost2010PropOp47
 70
     1
102
RTVSPost2010Prop48
 90
       50
102
RTVSPost2010PropOp48
 70
     1
102
RTVSPost2010Prop49
280
     0
102
RTVSPost2010PropOp49
 70
     1
102
RTVSPost2010Prop50
 90
       50
102
RTVSPost2010PropOp50
 70
     1
102
RTVSPost2010Prop51ColorIndex
 90
      256
102
RTVSPost2010Prop51ColorRGB
 90
-16777216
102
RTVSPost2010PropOp51
 70
     0
102
RTVSPost2010Prop52
140
1.0
102
RTVSPost2010PropOp52
 70
     0
102
RTVSPost2010Prop53
 90
        2
102
RTVSPost2010PropOp53
 70
     1
102
RTVSPost2010Prop54
  1
strokes_ogs.tif
102
RTVSPost2010PropOp54
 70
     1
102
RTVSPost2010Prop55
280
     0
102
RTVSPost2010PropOp55
 70
     1
102
RTVSPost2010Prop56
140
1.0
102
RTVSPost2010PropOp56
 70
     1
102
RTVSPost2010Prop57
140
1.0
102
RTVSPost2010PropOp57
 70
     1
  0
XRECORD
  5
17F
102
{ACAD_REACTORS
330
17E
102
}
330
17E
100
AcDbXrecord
280
     1
102
RTVSPost2010Prop28
280
     0
102
RTVSPost2010PropOp28
 70
     1
102
RTVSPost2010Prop29
280
     1
102
RTVSPost2010PropOp29
 70
     1
102
RTVSPost2010Prop30
280
     1
102
RTVSPost2010PropOp30
 70
     1
102
RTVSPost2010Prop31
280
     0
102
RTVSPost2010PropOp31
 70
     1
102
RTVSPost2010Prop32
280
     0
102
RTVSPost2010PropOp32
 70
     1
102
RTVSPost2010Prop33
280
     0
102
RTVSPost2010PropOp33
 70
     1
102
RTVSPost2010Prop34
280
     0
102
RTVSPost2010PropOp34
 70
     1
102
RTVSPost2010Prop35
280
     0
102
RTVSPost2010PropOp35
 70
     1
102
RTVSPost2010Prop36
280
     0
102
RTVSPost2010PropOp36
 70
     1
102
RTVSPost2010Prop37
 90
       50
102
RTVSPost2010PropOp37
 70
     1
102
RTVSPost2010Prop38
140
0.0
102
RTVSPost2010PropOp38
 70
     1
102
RTVSPost2010Prop39
140
1.0
102
RTVSPost2010PropOp39
 70
     1
102
RTVSPost2010Prop40
 90
        0
102
RTVSPost2010PropOp40
 70
     1
102
RTVSPost2010Prop41ColorIndex
 90
       18
102
RTVSPost2010Prop41ColorRGB
 90
        0
102
RTVSPost2010PropOp41
 70
     1
102
RTVSPost2010Prop42
 90
       50
102
RTVSPost2010PropOp42
 70
     1
102
RTVSPost2010Prop43
 90
        3
102
RTVSPost2010PropOp43
 70
     1
102
RTVSPost2010Prop44ColorIndex
 90
        5
102
RTVSPost2010Prop44ColorRGB
 90
      255
102
RTVSPost2010PropOp44
 70
     1
102
RTVSPost2010Prop45
280
     0
102
RTVSPost2010PropOp45
 70
     1
102
RTVSPost2010Prop46
 90
       50
102
RTVSPost2010PropOp46
 70
     1
102
RTVSPost2010Prop47
 90
       50
102
RTVSPost2010PropOp47
 70
     1
102
RTVSPost2010Prop48
 90
       50
102
RTVSPost2010PropOp48
 70
     1
102
RTVSPost2010Prop49
280
     0
102
RTVSPost2010PropOp49
 70
     1
102
RTVSPost2010Prop50
 90
       50
102
RTVSPost2010PropOp50
 70
     1
102
RTVSPost2010Prop51ColorIndex
 90
      256
102
RTVSPost2010Prop51ColorRGB
 90
-16777216
102
RTVSPost2010PropOp51
 70
     0
102
RTVSPost2010Prop52
140
1.0
102
RTVSPost2010PropOp52
 70
     0
102
RTVSPost2010Prop53
 90
        2
102
RTVSPost2010PropOp53
 70
     1
102
RTVSPost2010Prop54
  1
strokes_ogs.tif
102
RTVSPost2010PropOp54
 70
     1
102
RTVSPost2010Prop55
280
     0
102
RTVSPost2010PropOp55
 70
     1
102
RTVSPost2010Prop56
140
1.0
102
RTVSPost2010PropOp56
 70
     1
102
RTVSPost2010Prop57
140
1.0
102
RTVSPost2010PropOp57
 70
     1
  0
XRECORD
  5
181
102
{ACAD_REACTORS
330
180
102
}
330
180
100
AcDbXrecord
280
     1
102
RTVSPost2010Prop28
280
     0
102
RTVSPost2010PropOp28
 70
     1
102
RTVSPost2010Prop29
280
     1
102
RTVSPost2010PropOp29
 70
     1
102
RTVSPost2010Prop30
280
     1
102
RTVSPost2010PropOp30
 70
     1
102
RTVSPost2010Prop31
280
     0
102
RTVSPost2010PropOp31
 70
     1
102
RTVSPost2010Prop32
280
     0
102
RTVSPost2010PropOp32
 70
     1
102
RTVSPost2010Prop33
280
     0
102
RTVSPost2010PropOp33
 70
     1
102
RTVSPost2010Prop34
280
     0
102
RTVSPost2010PropOp34
 70
     1
102
RTVSPost2010Prop35
280
     0
102
RTVSPost2010PropOp35
 70
     1
102
RTVSPost2010Prop36
280
     0
102
RTVSPost2010PropOp36
 70
     1
102
RTVSPost2010Prop37
 90
       50
102
RTVSPost2010PropOp37
 70
     1
102
RTVSPost2010Prop38
140
0.0
102
RTVSPost2010PropOp38
 70
     1
102
RTVSPost2010Prop39
140
1.0
102
RTVSPost2010PropOp39
 70
     1
102
RTVSPost2010Prop40
 90
        0
102
RTVSPost2010PropOp40
 70
     1
102
RTVSPost2010Prop41ColorIndex
 90
       18
102
RTVSPost2010Prop41ColorRGB
 90
        0
102
RTVSPost2010PropOp41
 70
     1
102
RTVSPost2010Prop42
 90
       50
102
RTVSPost2010PropOp42
 70
     1
102
RTVSPost2010Prop43
 90
        3
102
RTVSPost2010PropOp43
 70
     1
102
RTVSPost2010Prop44ColorIndex
 90
        5
102
RTVSPost2010Prop44ColorRGB
 90
      255
102
RTVSPost2010PropOp44
 70
     1
102
RTVSPost2010Prop45
280
     0
102
RTVSPost2010PropOp45
 70
     1
102
RTVSPost2010Prop46
 90
       50
102
RTVSPost2010PropOp46
 70
     1
102
RTVSPost2010Prop47
 90
       50
102
RTVSPost2010PropOp47
 70
     1
102
RTVSPost2010Prop48
 90
       50
102
RTVSPost2010PropOp48
 70
     1
102
RTVSPost2010Prop49
280
     0
102
RTVSPost2010PropOp49
 70
     1
102
RTVSPost2010Prop50
 90
       50
102
RTVSPost2010PropOp50
 70
     1
102
RTVSPost2010Prop51ColorIndex
 90
      256
102
RTVSPost2010Prop51ColorRGB
 90
-16777216
102
RTVSPost2010PropOp51
 70
     0
102
RTVSPost2010Prop52
140
1.0
102
RTVSPost2010PropOp52
 70
     0
102
RTVSPost2010Prop53
 90
        2
102
RTVSPost2010PropOp53
 70
     1
102
RTVSPost2010Prop54
  1
strokes_ogs.tif
102
RTVSPost2010PropOp54
 70
     1
102
RTVSPost2010Prop55
280
     0
102
RTVSPost2010PropOp55
 70
     1
102
RTVSPost2010Prop56
140
1.0
102
RTVSPost2010PropOp56
 70
     1
102
RTVSPost2010Prop57
140
1.0
102
RTVSPost2010PropOp57
 70
     1
  0
XRECORD
  5
183
102
{ACAD_REACTORS
330
182
102
}
330
182
100
AcDbXrecord
280
     1
102
RTVSPost2010Prop28
280
     0
102
RTVSPost2010PropOp28
 70
     1
102
RTVSPost2010Prop29
280
     1
102
RTVSPost2010PropOp29
 70
     1
102
RTVSPost2010Prop30
280
     1
102
RTVSPost2010PropOp30
 70
     1
102
RTVSPost2010Prop31
280
     0
102
RTVSPost2010PropOp31
 70
     1
102
RTVSPost2010Prop32
280
     0
102
RTVSPost2010PropOp32
 70
     1
102
RTVSPost2010Prop33
280
     0
102
RTVSPost2010PropOp33
 70
     1
102
RTVSPost2010Prop34
280
     0
102
RTVSPost2010PropOp34
 70
     1
102
RTVSPost2010Prop35
280
     0
102
RTVSPost2010PropOp35
 70
     1
102
RTVSPost2010Prop36
280
     0
102
RTVSPost2010PropOp36
 70
     1
102
RTVSPost2010Prop37
 90
       50
102
RTVSPost2010PropOp37
 70
     1
102
RTVSPost2010Prop38
140
0.0
102
RTVSPost2010PropOp38
 70
     1
102
RTVSPost2010Prop39
140
1.0
102
RTVSPost2010PropOp39
 70
     1
102
RTVSPost2010Prop40
 90
        0
102
RTVSPost2010PropOp40
 70
     1
102
RTVSPost2010Prop41ColorIndex
 90
       18
102
RTVSPost2010Prop41ColorRGB
 90
        0
102
RTVSPost2010PropOp41
 70
     1
102
RTVSPost2010Prop42
 90
       50
102
RTVSPost2010PropOp42
 70
     1
102
RTVSPost2010Prop43
 90
        3
102
RTVSPost2010PropOp43
 70
     1
102
RTVSPost2010Prop44ColorIndex
 90
        5
102
RTVSPost2010Prop44ColorRGB
 90
      255
102
RTVSPost2010PropOp44
 70
     1
102
RTVSPost2010Prop45
280
     0
102
RTVSPost2010PropOp45
 70
     1
102
RTVSPost2010Prop46
 90
       50
102
RTVSPost2010PropOp46
 70
     1
102
RTVSPost2010Prop47
 90
       50
102
RTVSPost2010PropOp47
 70
     1
102
RTVSPost2010Prop48
 90
       50
102
RTVSPost2010PropOp48
 70
     1
102
RTVSPost2010Prop49
280
     0
102
RTVSPost2010PropOp49
 70
     1
102
RTVSPost2010Prop50
 90
       50
102
RTVSPost2010PropOp50
 70
     1
102
RTVSPost2010Prop51ColorIndex
 90
      256
102
RTVSPost2010Prop51ColorRGB
 90
-16777216
102
RTVSPost2010PropOp51
 70
     0
102
RTVSPost2010Prop52
140
1.0
102
RTVSPost2010PropOp52
 70
     0
102
RTVSPost2010Prop53
 90
        2
102
RTVSPost2010PropOp53
 70
     1
102
RTVSPost2010Prop54
  1
strokes_ogs.tif
102
RTVSPost2010PropOp54
 70
     1
102
RTVSPost2010Prop55
280
     0
102
RTVSPost2010PropOp55
 70
     1
102
RTVSPost2010Prop56
140
1.0
102
RTVSPost2010PropOp56
 70
     1
102
RTVSPost2010Prop57
140
1.0
102
RTVSPost2010PropOp57
 70
     1
  0
XRECORD
  5
18B
102
{ACAD_REACTORS
330
18A
102
}
330
18A
100
AcDbXrecord
280
     1
102
RTVSPost2010Prop28
280
     0
102
RTVSPost2010PropOp28
 70
     1
102
RTVSPost2010Prop29
280
     1
102
RTVSPost2010PropOp29
 70
     1
102
RTVSPost2010Prop30
280
     1
102
RTVSPost2010PropOp30
 70
     1
102
RTVSPost2010Prop31
280
     0
102
RTVSPost2010PropOp31
 70
     1
102
RTVSPost2010Prop32
280
     0
102
RTVSPost2010PropOp32
 70
     1
102
RTVSPost2010Prop33
280
     0
102
RTVSPost2010PropOp33
 70
     1
102
RTVSPost2010Prop34
280
     0
102
RTVSPost2010PropOp34
 70
     1
102
RTVSPost2010Prop35
280
     0
102
RTVSPost2010PropOp35
 70
     1
102
RTVSPost2010Prop36
280
     0
102
RTVSPost2010PropOp36
 70
     1
102
RTVSPost2010Prop37
 90
       50
102
RTVSPost2010PropOp37
 70
     1
102
RTVSPost2010Prop38
140
0.0
102
RTVSPost2010PropOp38
 70
     1
102
RTVSPost2010Prop39
140
1.0
102
RTVSPost2010PropOp39
 70
     1
102
RTVSPost2010Prop40
 90
        0
102
RTVSPost2010PropOp40
 70
     1
102
RTVSPost2010Prop41ColorIndex
 90
       18
102
RTVSPost2010Prop41ColorRGB
 90
        0
102
RTVSPost2010PropOp41
 70
     1
102
RTVSPost2010Prop42
 90
       50
102
RTVSPost2010PropOp42
 70
     1
102
RTVSPost2010Prop43
 90
        3
102
RTVSPost2010PropOp43
 70
     1
102
RTVSPost2010Prop44ColorIndex
 90
        5
102
RTVSPost2010Prop44ColorRGB
 90
      255
102
RTVSPost2010PropOp44
 70
     1
102
RTVSPost2010Prop45
280
     0
102
RTVSPost2010PropOp45
 70
     1
102
RTVSPost2010Prop46
 90
       50
102
RTVSPost2010PropOp46
 70
     1
102
RTVSPost2010Prop47
 90
       50
102
RTVSPost2010PropOp47
 70
     1
102
RTVSPost2010Prop48
 90
       50
102
RTVSPost2010PropOp48
 70
     1
102
RTVSPost2010Prop49
280
     0
102
RTVSPost2010PropOp49
 70
     1
102
RTVSPost2010Prop50
 90
       50
102
RTVSPost2010PropOp50
 70
     1
102
RTVSPost2010Prop51ColorIndex
 90
      256
102
RTVSPost2010Prop51ColorRGB
 90
-16777216
102
RTVSPost2010PropOp51
 70
     0
102
RTVSPost2010Prop52
140
1.0
102
RTVSPost2010PropOp52
 70
     0
102
RTVSPost2010Prop53
 90
        2
102
RTVSPost2010PropOp53
 70
     1
102
RTVSPost2010Prop54
  1
strokes_ogs.tif
102
RTVSPost2010PropOp54
 70
     1
102
RTVSPost2010Prop55
280
     0
102
RTVSPost2010PropOp55
 70
     1
102
RTVSPost2010Prop56
140
1.0
102
RTVSPost2010PropOp56
 70
     1
102
RTVSPost2010Prop57
140
1.0
102
RTVSPost2010PropOp57
 70
     1
  0
XRECORD
  5
1A7
102
{ACAD_REACTORS
330
1A6
102
}
330
1A6
100
AcDbXrecord
280
     1
102
RTVSPost2010Prop28
280
     0
102
RTVSPost2010PropOp28
 70
     0
102
RTVSPost2010Prop29
280
     1
102
RTVSPost2010PropOp29
 70
     0
102
RTVSPost2010Prop30
280
     1
102
RTVSPost2010PropOp30
 70
     0
102
RTVSPost2010Prop31
280
     0
102
RTVSPost2010PropOp31
 70
     0
102
RTVSPost2010Prop32
280
     0
102
RTVSPost2010PropOp32
 70
     0
102
RTVSPost2010Prop33
280
     0
102
RTVSPost2010PropOp33
 70
     0
102
RTVSPost2010Prop34
280
     0
102
RTVSPost2010PropOp34
 70
     0
102
RTVSPost2010Prop35
280
     0
102
RTVSPost2010PropOp35
 70
     0
102
RTVSPost2010Prop36
280
     0
102
RTVSPost2010PropOp36
 70
     0
102
RTVSPost2010Prop37
 90
       50
102
RTVSPost2010PropOp37
 70
     0
102
RTVSPost2010Prop38
140
0.0
102
RTVSPost2010PropOp38
 70
     0
102
RTVSPost2010Prop39
140
1.0
102
RTVSPost2010PropOp39
 70
     0
102
RTVSPost2010Prop40
 90
        0
102
RTVSPost2010PropOp40
 70
     0
102
RTVSPost2010Prop41ColorIndex
 90
       18
102
RTVSPost2010Prop41ColorRGB
 90
        0
102
RTVSPost2010PropOp41
 70
     0
102
RTVSPost2010Prop42
 90
       50
102
RTVSPost2010PropOp42
 70
     0
102
RTVSPost2010Prop43
 90
        3
102
RTVSPost2010PropOp43
 70
     0
102
RTVSPost2010Prop44ColorIndex
 90
        5
102
RTVSPost2010Prop44ColorRGB
 90
      255
102
RTVSPost2010PropOp44
 70
     0
102
RTVSPost2010Prop45
280
     0
102
RTVSPost2010PropOp45
 70
     0
102
RTVSPost2010Prop46
 90
       50
102
RTVSPost2010PropOp46
 70
     0
102
RTVSPost2010Prop47
 90
       50
102
RTVSPost2010PropOp47
 70
     0
102
RTVSPost2010Prop48
 90
       50
102
RTVSPost2010PropOp48
 70
     0
102
RTVSPost2010Prop49
280
     0
102
RTVSPost2010PropOp49
 70
     0
102
RTVSPost2010Prop50
 90
       50
102
RTVSPost2010PropOp50
 70
     0
102
RTVSPost2010Prop51ColorIndex
 90
      256
102
RTVSPost2010Prop51ColorRGB
 90
-16777216
102
RTVSPost2010PropOp51
 70
     0
102
RTVSPost2010Prop52
140
1.0
102
RTVSPost2010PropOp52
 70
     0
102
RTVSPost2010Prop53
 90
        2
102
RTVSPost2010PropOp53
 70
     0
102
RTVSPost2010Prop54
  1
strokes_ogs.tif
102
RTVSPost2010PropOp54
 70
     0
102
RTVSPost2010Prop55
280
     0
102
RTVSPost2010PropOp55
 70
     0
102
RTVSPost2010Prop56
140
1.0
102
RTVSPost2010PropOp56
 70
     0
102
RTVSPost2010Prop57
140
1.0
102
RTVSPost2010PropOp57
 70
     0
  0
XRECORD
  5
197
102
{ACAD_REACTORS
330
196
102
}
330
196
100
AcDbXrecord
280
     1
102
RTVSPost2010Prop28
280
     0
102
RTVSPost2010PropOp28
 70
     1
102
RTVSPost2010Prop29
280
     1
102
RTVSPost2010PropOp29
 70
     1
102
RTVSPost2010Prop30
280
     1
102
RTVSPost2010PropOp30
 70
     1
102
RTVSPost2010Prop31
280
     0
102
RTVSPost2010PropOp31
 70
     1
102
RTVSPost2010Prop32
280
     0
102
RTVSPost2010PropOp32
 70
     1
102
RTVSPost2010Prop33
280
     0
102
RTVSPost2010PropOp33
 70
     1
102
RTVSPost2010Prop34
280
     0
102
RTVSPost2010PropOp34
 70
     1
102
RTVSPost2010Prop35
280
     0
102
RTVSPost2010PropOp35
 70
     1
102
RTVSPost2010Prop36
280
     0
102
RTVSPost2010PropOp36
 70
     1
102
RTVSPost2010Prop37
 90
       50
102
RTVSPost2010PropOp37
 70
     1
102
RTVSPost2010Prop38
140
0.0
102
RTVSPost2010PropOp38
 70
     1
102
RTVSPost2010Prop39
140
1.0
102
RTVSPost2010PropOp39
 70
     1
102
RTVSPost2010Prop40
 90
        0
102
RTVSPost2010PropOp40
 70
     1
102
RTVSPost2010Prop41ColorIndex
 90
       18
102
RTVSPost2010Prop41ColorRGB
 90
        0
102
RTVSPost2010PropOp41
 70
     1
102
RTVSPost2010Prop42
 90
       50
102
RTVSPost2010PropOp42
 70
     1
102
RTVSPost2010Prop43
 90
        3
102
RTVSPost2010PropOp43
 70
     1
102
RTVSPost2010Prop44ColorIndex
 90
        5
102
RTVSPost2010Prop44ColorRGB
 90
      255
102
RTVSPost2010PropOp44
 70
     1
102
RTVSPost2010Prop45
280
     0
102
RTVSPost2010PropOp45
 70
     1
102
RTVSPost2010Prop46
 90
       50
102
RTVSPost2010PropOp46
 70
     1
102
RTVSPost2010Prop47
 90
       50
102
RTVSPost2010PropOp47
 70
     1
102
RTVSPost2010Prop48
 90
       50
102
RTVSPost2010PropOp48
 70
     1
102
RTVSPost2010Prop49
280
     0
102
RTVSPost2010PropOp49
 70
     1
102
RTVSPost2010Prop50
 90
       50
102
RTVSPost2010PropOp50
 70
     1
102
RTVSPost2010Prop51ColorIndex
 90
      256
102
RTVSPost2010Prop51ColorRGB
 90
-16777216
102
RTVSPost2010PropOp51
 70
     0
102
RTVSPost2010Prop52
140
1.0
102
RTVSPost2010PropOp52
 70
     0
102
RTVSPost2010Prop53
 90
        2
102
RTVSPost2010PropOp53
 70
     1
102
RTVSPost2010Prop54
  1
strokes_ogs.tif
102
RTVSPost2010PropOp54
 70
     1
102
RTVSPost2010Prop55
280
     0
102
RTVSPost2010PropOp55
 70
     1
102
RTVSPost2010Prop56
140
1.0
102
RTVSPost2010PropOp56
 70
     1
102
RTVSPost2010Prop57
140
1.0
102
RTVSPost2010PropOp57
 70
     1
  0
XRECORD
  5
1A9
102
{ACAD_REACTORS
330
1A8
102
}
330
1A8
100
AcDbXrecord
280
     1
102
RTVSPost2010Prop28
280
     0
102
RTVSPost2010PropOp28
 70
     0
102
RTVSPost2010Prop29
280
     1
102
RTVSPost2010PropOp29
 70
     0
102
RTVSPost2010Prop30
280
     1
102
RTVSPost2010PropOp30
 70
     0
102
RTVSPost2010Prop31
280
     0
102
RTVSPost2010PropOp31
 70
     0
102
RTVSPost2010Prop32
280
     0
102
RTVSPost2010PropOp32
 70
     0
102
RTVSPost2010Prop33
280
     0
102
RTVSPost2010PropOp33
 70
     0
102
RTVSPost2010Prop34
280
     0
102
RTVSPost2010PropOp34
 70
     0
102
RTVSPost2010Prop35
280
     0
102
RTVSPost2010PropOp35
 70
     0
102
RTVSPost2010Prop36
280
     0
102
RTVSPost2010PropOp36
 70
     0
102
RTVSPost2010Prop37
 90
       50
102
RTVSPost2010PropOp37
 70
     0
102
RTVSPost2010Prop38
140
0.0
102
RTVSPost2010PropOp38
 70
     0
102
RTVSPost2010Prop39
140
1.0
102
RTVSPost2010PropOp39
 70
     0
102
RTVSPost2010Prop40
 90
        0
102
RTVSPost2010PropOp40
 70
     0
102
RTVSPost2010Prop41ColorIndex
 90
       18
102
RTVSPost2010Prop41ColorRGB
 90
        0
102
RTVSPost2010PropOp41
 70
     0
102
RTVSPost2010Prop42
 90
       50
102
RTVSPost2010PropOp42
 70
     0
102
RTVSPost2010Prop43
 90
        3
102
RTVSPost2010PropOp43
 70
     0
102
RTVSPost2010Prop44ColorIndex
 90
        5
102
RTVSPost2010Prop44ColorRGB
 90
      255
102
RTVSPost2010PropOp44
 70
     0
102
RTVSPost2010Prop45
280
     0
102
RTVSPost2010PropOp45
 70
     0
102
RTVSPost2010Prop46
 90
       50
102
RTVSPost2010PropOp46
 70
     0
102
RTVSPost2010Prop47
 90
       50
102
RTVSPost2010PropOp47
 70
     0
102
RTVSPost2010Prop48
 90
       50
102
RTVSPost2010PropOp48
 70
     0
102
RTVSPost2010Prop49
280
     0
102
RTVSPost2010PropOp49
 70
     0
102
RTVSPost2010Prop50
 90
       50
102
RTVSPost2010PropOp50
 70
     0
102
RTVSPost2010Prop51ColorIndex
 90
      256
102
RTVSPost2010Prop51ColorRGB
 90
-16777216
102
RTVSPost2010PropOp51
 70
     0
102
RTVSPost2010Prop52
140
1.0
102
RTVSPost2010PropOp52
 70
     0
102
RTVSPost2010Prop53
 90
        2
102
RTVSPost2010PropOp53
 70
     0
102
RTVSPost2010Prop54
  1
strokes_ogs.tif
102
RTVSPost2010PropOp54
 70
     0
102
RTVSPost2010Prop55
280
     0
102
RTVSPost2010PropOp55
 70
     0
102
RTVSPost2010Prop56
140
1.0
102
RTVSPost2010PropOp56
 70
     0
102
RTVSPost2010Prop57
140
1.0
102
RTVSPost2010PropOp57
 70
     0
  0
XRECORD
  5
18F
102
{ACAD_REACTORS
330
18E
102
}
330
18E
100
AcDbXrecord
280
     1
102
RTVSPost2010Prop28
280
     0
102
RTVSPost2010PropOp28
 70
     1
102
RTVSPost2010Prop29
280
     1
102
RTVSPost2010PropOp29
 70
     1
102
RTVSPost2010Prop30
280
     1
102
RTVSPost2010PropOp30
 70
     1
102
RTVSPost2010Prop31
280
     0
102
RTVSPost2010PropOp31
 70
     1
102
RTVSPost2010Prop32
280
     0
102
RTVSPost2010PropOp32
 70
     1
102
RTVSPost2010Prop33
280
     0
102
RTVSPost2010PropOp33
 70
     1
102
RTVSPost2010Prop34
280
     0
102
RTVSPost2010PropOp34
 70
     1
102
RTVSPost2010Prop35
280
     0
102
RTVSPost2010PropOp35
 70
     1
102
RTVSPost2010Prop36
280
     0
102
RTVSPost2010PropOp36
 70
     1
102
RTVSPost2010Prop37
 90
       50
102
RTVSPost2010PropOp37
 70
     1
102
RTVSPost2010Prop38
140
0.0
102
RTVSPost2010PropOp38
 70
     1
102
RTVSPost2010Prop39
140
1.0
102
RTVSPost2010PropOp39
 70
     1
102
RTVSPost2010Prop40
 90
        0
102
RTVSPost2010PropOp40
 70
     1
102
RTVSPost2010Prop41ColorIndex
 90
       18
102
RTVSPost2010Prop41ColorRGB
 90
        0
102
RTVSPost2010PropOp41
 70
     1
102
RTVSPost2010Prop42
 90
       50
102
RTVSPost2010PropOp42
 70
     1
102
RTVSPost2010Prop43
 90
        3
102
RTVSPost2010PropOp43
 70
     1
102
RTVSPost2010Prop44ColorIndex
 90
        5
102
RTVSPost2010Prop44ColorRGB
 90
      255
102
RTVSPost2010PropOp44
 70
     1
102
RTVSPost2010Prop45
280
     0
102
RTVSPost2010PropOp45
 70
     1
102
RTVSPost2010Prop46
 90
       50
102
RTVSPost2010PropOp46
 70
     1
102
RTVSPost2010Prop47
 90
       50
102
RTVSPost2010PropOp47
 70
     1
102
RTVSPost2010Prop48
 90
       50
102
RTVSPost2010PropOp48
 70
     1
102
RTVSPost2010Prop49
280
     0
102
RTVSPost2010PropOp49
 70
     1
102
RTVSPost2010Prop50
 90
       50
102
RTVSPost2010PropOp50
 70
     1
102
RTVSPost2010Prop51ColorIndex
 90
      256
102
RTVSPost2010Prop51ColorRGB
 90
-16777216
102
RTVSPost2010PropOp51
 70
     0
102
RTVSPost2010Prop52
140
1.0
102
RTVSPost2010PropOp52
 70
     0
102
RTVSPost2010Prop53
 90
        2
102
RTVSPost2010PropOp53
 70
     1
102
RTVSPost2010Prop54
  1
strokes_ogs.tif
102
RTVSPost2010PropOp54
 70
     1
102
RTVSPost2010Prop55
280
     0
102
RTVSPost2010PropOp55
 70
     1
102
RTVSPost2010Prop56
140
1.0
102
RTVSPost2010PropOp56
 70
     1
102
RTVSPost2010Prop57
140
1.0
102
RTVSPost2010PropOp57
 70
     1
  0
XRECORD
  5
1A5
102
{ACAD_REACTORS
330
1A4
102
}
330
1A4
100
AcDbXrecord
280
     1
102
RTVSPost2010Prop28
280
     0
102
RTVSPost2010PropOp28
 70
     1
102
RTVSPost2010Prop29
280
     1
102
RTVSPost2010PropOp29
 70
     1
102
RTVSPost2010Prop30
280
     1
102
RTVSPost2010PropOp30
 70
     1
102
RTVSPost2010Prop31
280
     0
102
RTVSPost2010PropOp31
 70
     1
102
RTVSPost2010Prop32
280
     0
102
RTVSPost2010PropOp32
 70
     1
102
RTVSPost2010Prop33
280
     0
102
RTVSPost2010PropOp33
 70
     1
102
RTVSPost2010Prop34
280
     0
102
RTVSPost2010PropOp34
 70
     1
102
RTVSPost2010Prop35
280
     0
102
RTVSPost2010PropOp35
 70
     1
102
RTVSPost2010Prop36
280
     0
102
RTVSPost2010PropOp36
 70
     1
102
RTVSPost2010Prop37
 90
       50
102
RTVSPost2010PropOp37
 70
     1
102
RTVSPost2010Prop38
140
0.0
102
RTVSPost2010PropOp38
 70
     1
102
RTVSPost2010Prop39
140
1.0
102
RTVSPost2010PropOp39
 70
     1
102
RTVSPost2010Prop40
 90
        0
102
RTVSPost2010PropOp40
 70
     1
102
RTVSPost2010Prop41ColorIndex
 90
       18
102
RTVSPost2010Prop41ColorRGB
 90
        0
102
RTVSPost2010PropOp41
 70
     1
102
RTVSPost2010Prop42
 90
       50
102
RTVSPost2010PropOp42
 70
     1
102
RTVSPost2010Prop43
 90
        3
102
RTVSPost2010PropOp43
 70
     1
102
RTVSPost2010Prop44ColorIndex
 90
        5
102
RTVSPost2010Prop44ColorRGB
 90
      255
102
RTVSPost2010PropOp44
 70
     1
102
RTVSPost2010Prop45
280
     0
102
RTVSPost2010PropOp45
 70
     1
102
RTVSPost2010Prop46
 90
       50
102
RTVSPost2010PropOp46
 70
     1
102
RTVSPost2010Prop47
 90
       50
102
RTVSPost2010PropOp47
 70
     1
102
RTVSPost2010Prop48
 90
       50
102
RTVSPost2010PropOp48
 70
     1
102
RTVSPost2010Prop49
280
     0
102
RTVSPost2010PropOp49
 70
     1
102
RTVSPost2010Prop50
 90
       50
102
RTVSPost2010PropOp50
 70
     1
102
RTVSPost2010Prop51ColorIndex
 90
      256
102
RTVSPost2010Prop51ColorRGB
 90
-16777216
102
RTVSPost2010PropOp51
 70
     0
102
RTVSPost2010Prop52
140
1.0
102
RTVSPost2010PropOp52
 70
     0
102
RTVSPost2010Prop53
 90
        2
102
RTVSPost2010PropOp53
 70
     1
102
RTVSPost2010Prop54
  1
strokes_ogs.tif
102
RTVSPost2010PropOp54
 70
     1
102
RTVSPost2010Prop55
280
     0
102
RTVSPost2010PropOp55
 70
     1
102
RTVSPost2010Prop56
140
1.0
102
RTVSPost2010PropOp56
 70
     1
102
RTVSPost2010Prop57
140
1.0
102
RTVSPost2010PropOp57
 70
     1
  0
XRECORD
  5
1A3
102
{ACAD_REACTORS
330
1A2
102
}
330
1A2
100
AcDbXrecord
280
     1
102
RTVSPost2010Prop28
280
     0
102
RTVSPost2010PropOp28
 70
     1
102
RTVSPost2010Prop29
280
     1
102
RTVSPost2010PropOp29
 70
     1
102
RTVSPost2010Prop30
280
     1
102
RTVSPost2010PropOp30
 70
     1
102
RTVSPost2010Prop31
280
     0
102
RTVSPost2010PropOp31
 70
     1
102
RTVSPost2010Prop32
280
     0
102
RTVSPost2010PropOp32
 70
     1
102
RTVSPost2010Prop33
280
     0
102
RTVSPost2010PropOp33
 70
     1
102
RTVSPost2010Prop34
280
     0
102
RTVSPost2010PropOp34
 70
     1
102
RTVSPost2010Prop35
280
     0
102
RTVSPost2010PropOp35
 70
     1
102
RTVSPost2010Prop36
280
     0
102
RTVSPost2010PropOp36
 70
     1
102
RTVSPost2010Prop37
 90
       50
102
RTVSPost2010PropOp37
 70
     1
102
RTVSPost2010Prop38
140
0.0
102
RTVSPost2010PropOp38
 70
     1
102
RTVSPost2010Prop39
140
1.0
102
RTVSPost2010PropOp39
 70
     1
102
RTVSPost2010Prop40
 90
        0
102
RTVSPost2010PropOp40
 70
     1
102
RTVSPost2010Prop41ColorIndex
 90
       18
102
RTVSPost2010Prop41ColorRGB
 90
        0
102
RTVSPost2010PropOp41
 70
     1
102
RTVSPost2010Prop42
 90
       50
102
RTVSPost2010PropOp42
 70
     1
102
RTVSPost2010Prop43
 90
        3
102
RTVSPost2010PropOp43
 70
     1
102
RTVSPost2010Prop44ColorIndex
 90
        5
102
RTVSPost2010Prop44ColorRGB
 90
      255
102
RTVSPost2010PropOp44
 70
     1
102
RTVSPost2010Prop45
280
     0
102
RTVSPost2010PropOp45
 70
     1
102
RTVSPost2010Prop46
 90
       50
102
RTVSPost2010PropOp46
 70
     1
102
RTVSPost2010Prop47
 90
       50
102
RTVSPost2010PropOp47
 70
     1
102
RTVSPost2010Prop48
 90
       50
102
RTVSPost2010PropOp48
 70
     1
102
RTVSPost2010Prop49
280
     0
102
RTVSPost2010PropOp49
 70
     1
102
RTVSPost2010Prop50
 90
       50
102
RTVSPost2010PropOp50
 70
     1
102
RTVSPost2010Prop51ColorIndex
 90
      256
102
RTVSPost2010Prop51ColorRGB
 90
-16777216
102
RTVSPost2010PropOp51
 70
     0
102
RTVSPost2010Prop52
140
1.0
102
RTVSPost2010PropOp52
 70
     0
102
RTVSPost2010Prop53
 90
        2
102
RTVSPost2010PropOp53
 70
     1
102
RTVSPost2010Prop54
  1
strokes_ogs.tif
102
RTVSPost2010PropOp54
 70
     1
102
RTVSPost2010Prop55
280
     0
102
RTVSPost2010PropOp55
 70
     1
102
RTVSPost2010Prop56
140
1.0
102
RTVSPost2010PropOp56
 70
     1
102
RTVSPost2010Prop57
140
1.0
102
RTVSPost2010PropOp57
 70
     1
  0
XRECORD
  5
19D
102
{ACAD_REACTORS
330
19C
102
}
330
19C
100
AcDbXrecord
280
     1
102
RTVSPost2010Prop28
280
     0
102
RTVSPost2010PropOp28
 70
     1
102
RTVSPost2010Prop29
280
     1
102
RTVSPost2010PropOp29
 70
     1
102
RTVSPost2010Prop30
280
     1
102
RTVSPost2010PropOp30
 70
     1
102
RTVSPost2010Prop31
280
     0
102
RTVSPost2010PropOp31
 70
     1
102
RTVSPost2010Prop32
280
     0
102
RTVSPost2010PropOp32
 70
     1
102
RTVSPost2010Prop33
280
     0
102
RTVSPost2010PropOp33
 70
     1
102
RTVSPost2010Prop34
280
     0
102
RTVSPost2010PropOp34
 70
     1
102
RTVSPost2010Prop35
280
     0
102
RTVSPost2010PropOp35
 70
     1
102
RTVSPost2010Prop36
280
     0
102
RTVSPost2010PropOp36
 70
     1
102
RTVSPost2010Prop37
 90
       50
102
RTVSPost2010PropOp37
 70
     1
102
RTVSPost2010Prop38
140
0.0
102
RTVSPost2010PropOp38
 70
     1
102
RTVSPost2010Prop39
140
1.0
102
RTVSPost2010PropOp39
 70
     1
102
RTVSPost2010Prop40
 90
        0
102
RTVSPost2010PropOp40
 70
     1
102
RTVSPost2010Prop41ColorIndex
 90
       18
102
RTVSPost2010Prop41ColorRGB
 90
        0
102
RTVSPost2010PropOp41
 70
     1
102
RTVSPost2010Prop42
 90
       50
102
RTVSPost2010PropOp42
 70
     1
102
RTVSPost2010Prop43
 90
        3
102
RTVSPost2010PropOp43
 70
     1
102
RTVSPost2010Prop44ColorIndex
 90
        5
102
RTVSPost2010Prop44ColorRGB
 90
      255
102
RTVSPost2010PropOp44
 70
     1
102
RTVSPost2010Prop45
280
     0
102
RTVSPost2010PropOp45
 70
     1
102
RTVSPost2010Prop46
 90
       50
102
RTVSPost2010PropOp46
 70
     1
102
RTVSPost2010Prop47
 90
       50
102
RTVSPost2010PropOp47
 70
     1
102
RTVSPost2010Prop48
 90
       50
102
RTVSPost2010PropOp48
 70
     1
102
RTVSPost2010Prop49
280
     0
102
RTVSPost2010PropOp49
 70
     1
102
RTVSPost2010Prop50
 90
       50
102
RTVSPost2010PropOp50
 70
     1
102
RTVSPost2010Prop51ColorIndex
 90
      256
102
RTVSPost2010Prop51ColorRGB
 90
-16777216
102
RTVSPost2010PropOp51
 70
     0
102
RTVSPost2010Prop52
140
1.0
102
RTVSPost2010PropOp52
 70
     0
102
RTVSPost2010Prop53
 90
        2
102
RTVSPost2010PropOp53
 70
     1
102
RTVSPost2010Prop54
  1
strokes_ogs.tif
102
RTVSPost2010PropOp54
 70
     1
102
RTVSPost2010Prop55
280
     0
102
RTVSPost2010PropOp55
 70
     1
102
RTVSPost2010Prop56
140
1.0
102
RTVSPost2010PropOp56
 70
     1
102
RTVSPost2010Prop57
140
1.0
102
RTVSPost2010PropOp57
 70
     1
  0
XRECORD
  5
19F
102
{ACAD_REACTORS
330
19E
102
}
330
19E
100
AcDbXrecord
280
     1
102
RTVSPost2010Prop28
280
     0
102
RTVSPost2010PropOp28
 70
     1
102
RTVSPost2010Prop29
280
     1
102
RTVSPost2010PropOp29
 70
     1
102
RTVSPost2010Prop30
280
     1
102
RTVSPost2010PropOp30
 70
     1
102
RTVSPost2010Prop31
280
     0
102
RTVSPost2010PropOp31
 70
     1
102
RTVSPost2010Prop32
280
     0
102
RTVSPost2010PropOp32
 70
     1
102
RTVSPost2010Prop33
280
     0
102
RTVSPost2010PropOp33
 70
     1
102
RTVSPost2010Prop34
280
     0
102
RTVSPost2010PropOp34
 70
     1
102
RTVSPost2010Prop35
280
     0
102
RTVSPost2010PropOp35
 70
     1
102
RTVSPost2010Prop36
280
     0
102
RTVSPost2010PropOp36
 70
     1
102
RTVSPost2010Prop37
 90
       50
102
RTVSPost2010PropOp37
 70
     1
102
RTVSPost2010Prop38
140
0.0
102
RTVSPost2010PropOp38
 70
     1
102
RTVSPost2010Prop39
140
1.0
102
RTVSPost2010PropOp39
 70
     1
102
RTVSPost2010Prop40
 90
        0
102
RTVSPost2010PropOp40
 70
     1
102
RTVSPost2010Prop41ColorIndex
 90
       18
102
RTVSPost2010Prop41ColorRGB
 90
        0
102
RTVSPost2010PropOp41
 70
     1
102
RTVSPost2010Prop42
 90
       50
102
RTVSPost2010PropOp42
 70
     1
102
RTVSPost2010Prop43
 90
        3
102
RTVSPost2010PropOp43
 70
     1
102
RTVSPost2010Prop44ColorIndex
 90
        5
102
RTVSPost2010Prop44ColorRGB
 90
      255
102
RTVSPost2010PropOp44
 70
     1
102
RTVSPost2010Prop45
280
     0
102
RTVSPost2010PropOp45
 70
     1
102
RTVSPost2010Prop46
 90
       50
102
RTVSPost2010PropOp46
 70
     1
102
RTVSPost2010Prop47
 90
       50
102
RTVSPost2010PropOp47
 70
     1
102
RTVSPost2010Prop48
 90
       50
102
RTVSPost2010PropOp48
 70
     1
102
RTVSPost2010Prop49
280
     0
102
RTVSPost2010PropOp49
 70
     1
102
RTVSPost2010Prop50
 90
       50
102
RTVSPost2010PropOp50
 70
     1
102
RTVSPost2010Prop51ColorIndex
 90
      256
102
RTVSPost2010Prop51ColorRGB
 90
-16777216
102
RTVSPost2010PropOp51
 70
     0
102
RTVSPost2010Prop52
140
1.0
102
RTVSPost2010PropOp52
 70
     0
102
RTVSPost2010Prop53
 90
        2
102
RTVSPost2010PropOp53
 70
     1
102
RTVSPost2010Prop54
  1
strokes_ogs.tif
102
RTVSPost2010PropOp54
 70
     1
102
RTVSPost2010Prop55
280
     0
102
RTVSPost2010PropOp55
 70
     1
102
RTVSPost2010Prop56
140
1.0
102
RTVSPost2010PropOp56
 70
     1
102
RTVSPost2010Prop57
140
1.0
102
RTVSPost2010PropOp57
 70
     1
  0
XRECORD
  5
195
102
{ACAD_REACTORS
330
194
102
}
330
194
100
AcDbXrecord
280
     1
102
RTVSPost2010Prop28
280
     0
102
RTVSPost2010PropOp28
 70
     1
102
RTVSPost2010Prop29
280
     1
102
RTVSPost2010PropOp29
 70
     1
102
RTVSPost2010Prop30
280
     1
102
RTVSPost2010PropOp30
 70
     1
102
RTVSPost2010Prop31
280
     0
102
RTVSPost2010PropOp31
 70
     1
102
RTVSPost2010Prop32
280
     0
102
RTVSPost2010PropOp32
 70
     1
102
RTVSPost2010Prop33
280
     0
102
RTVSPost2010PropOp33
 70
     1
102
RTVSPost2010Prop34
280
     0
102
RTVSPost2010PropOp34
 70
     1
102
RTVSPost2010Prop35
280
     0
102
RTVSPost2010PropOp35
 70
     1
102
RTVSPost2010Prop36
280
     0
102
RTVSPost2010PropOp36
 70
     1
102
RTVSPost2010Prop37
 90
       50
102
RTVSPost2010PropOp37
 70
     1
102
RTVSPost2010Prop38
140
0.0
102
RTVSPost2010PropOp38
 70
     1
102
RTVSPost2010Prop39
140
1.0
102
RTVSPost2010PropOp39
 70
     1
102
RTVSPost2010Prop40
 90
        0
102
RTVSPost2010PropOp40
 70
     1
102
RTVSPost2010Prop41ColorIndex
 90
       18
102
RTVSPost2010Prop41ColorRGB
 90
        0
102
RTVSPost2010PropOp41
 70
     1
102
RTVSPost2010Prop42
 90
       50
102
RTVSPost2010PropOp42
 70
     1
102
RTVSPost2010Prop43
 90
        3
102
RTVSPost2010PropOp43
 70
     1
102
RTVSPost2010Prop44ColorIndex
 90
        5
102
RTVSPost2010Prop44ColorRGB
 90
      255
102
RTVSPost2010PropOp44
 70
     1
102
RTVSPost2010Prop45
280
     0
102
RTVSPost2010PropOp45
 70
     1
102
RTVSPost2010Prop46
 90
       50
102
RTVSPost2010PropOp46
 70
     1
102
RTVSPost2010Prop47
 90
       50
102
RTVSPost2010PropOp47
 70
     1
102
RTVSPost2010Prop48
 90
       50
102
RTVSPost2010PropOp48
 70
     1
102
RTVSPost2010Prop49
280
     0
102
RTVSPost2010PropOp49
 70
     1
102
RTVSPost2010Prop50
 90
       50
102
RTVSPost2010PropOp50
 70
     1
102
RTVSPost2010Prop51ColorIndex
 90
      256
102
RTVSPost2010Prop51ColorRGB
 90
-16777216
102
RTVSPost2010PropOp51
 70
     0
102
RTVSPost2010Prop52
140
1.0
102
RTVSPost2010PropOp52
 70
     0
102
RTVSPost2010Prop53
 90
        2
102
RTVSPost2010PropOp53
 70
     1
102
RTVSPost2010Prop54
  1
strokes_ogs.tif
102
RTVSPost2010PropOp54
 70
     1
102
RTVSPost2010Prop55
280
     0
102
RTVSPost2010PropOp55
 70
     1
102
RTVSPost2010Prop56
140
1.0
102
RTVSPost2010PropOp56
 70
     1
102
RTVSPost2010Prop57
140
1.0
102
RTVSPost2010PropOp57
 70
     1
  0
XRECORD
  5
189
102
{ACAD_REACTORS
330
188
102
}
330
188
100
AcDbXrecord
280
     1
102
RTVSPost2010Prop28
280
     0
102
RTVSPost2010PropOp28
 70
     1
102
RTVSPost2010Prop29
280
     1
102
RTVSPost2010PropOp29
 70
     1
102
RTVSPost2010Prop30
280
     1
102
RTVSPost2010PropOp30
 70
     1
102
RTVSPost2010Prop31
280
     0
102
RTVSPost2010PropOp31
 70
     1
102
RTVSPost2010Prop32
280
     0
102
RTVSPost2010PropOp32
 70
     1
102
RTVSPost2010Prop33
280
     0
102
RTVSPost2010PropOp33
 70
     1
102
RTVSPost2010Prop34
280
     0
102
RTVSPost2010PropOp34
 70
     1
102
RTVSPost2010Prop35
280
     0
102
RTVSPost2010PropOp35
 70
     1
102
RTVSPost2010Prop36
280
     0
102
RTVSPost2010PropOp36
 70
     1
102
RTVSPost2010Prop37
 90
       50
102
RTVSPost2010PropOp37
 70
     1
102
RTVSPost2010Prop38
140
0.0
102
RTVSPost2010PropOp38
 70
     1
102
RTVSPost2010Prop39
140
1.0
102
RTVSPost2010PropOp39
 70
     1
102
RTVSPost2010Prop40
 90
        0
102
RTVSPost2010PropOp40
 70
     1
102
RTVSPost2010Prop41ColorIndex
 90
       18
102
RTVSPost2010Prop41ColorRGB
 90
        0
102
RTVSPost2010PropOp41
 70
     1
102
RTVSPost2010Prop42
 90
       50
102
RTVSPost2010PropOp42
 70
     1
102
RTVSPost2010Prop43
 90
        3
102
RTVSPost2010PropOp43
 70
     1
102
RTVSPost2010Prop44ColorIndex
 90
        5
102
RTVSPost2010Prop44ColorRGB
 90
      255
102
RTVSPost2010PropOp44
 70
     1
102
RTVSPost2010Prop45
280
     0
102
RTVSPost2010PropOp45
 70
     1
102
RTVSPost2010Prop46
 90
       50
102
RTVSPost2010PropOp46
 70
     1
102
RTVSPost2010Prop47
 90
       50
102
RTVSPost2010PropOp47
 70
     1
102
RTVSPost2010Prop48
 90
       50
102
RTVSPost2010PropOp48
 70
     1
102
RTVSPost2010Prop49
280
     0
102
RTVSPost2010PropOp49
 70
     1
102
RTVSPost2010Prop50
 90
       50
102
RTVSPost2010PropOp50
 70
     1
102
RTVSPost2010Prop51ColorIndex
 90
      256
102
RTVSPost2010Prop51ColorRGB
 90
-16777216
102
RTVSPost2010PropOp51
 70
     0
102
RTVSPost2010Prop52
140
1.0
102
RTVSPost2010PropOp52
 70
     0
102
RTVSPost2010Prop53
 90
        2
102
RTVSPost2010PropOp53
 70
     1
102
RTVSPost2010Prop54
  1
strokes_ogs.tif
102
RTVSPost2010PropOp54
 70
     1
102
RTVSPost2010Prop55
280
     0
102
RTVSPost2010PropOp55
 70
     1
102
RTVSPost2010Prop56
140
1.0
102
RTVSPost2010PropOp56
 70
     1
102
RTVSPost2010Prop57
140
1.0
102
RTVSPost2010PropOp57
 70
     1
  0
XRECORD
  5
1A1
102
{ACAD_REACTORS
330
1A0
102
}
330
1A0
100
AcDbXrecord
280
     1
102
RTVSPost2010Prop28
280
     0
102
RTVSPost2010PropOp28
 70
     1
102
RTVSPost2010Prop29
280
     1
102
RTVSPost2010PropOp29
 70
     1
102
RTVSPost2010Prop30
280
     1
102
RTVSPost2010PropOp30
 70
     1
102
RTVSPost2010Prop31
280
     0
102
RTVSPost2010PropOp31
 70
     1
102
RTVSPost2010Prop32
280
     0
102
RTVSPost2010PropOp32
 70
     1
102
RTVSPost2010Prop33
280
     0
102
RTVSPost2010PropOp33
 70
     1
102
RTVSPost2010Prop34
280
     0
102
RTVSPost2010PropOp34
 70
     1
102
RTVSPost2010Prop35
280
     0
102
RTVSPost2010PropOp35
 70
     1
102
RTVSPost2010Prop36
280
     0
102
RTVSPost2010PropOp36
 70
     1
102
RTVSPost2010Prop37
 90
       50
102
RTVSPost2010PropOp37
 70
     1
102
RTVSPost2010Prop38
140
0.0
102
RTVSPost2010PropOp38
 70
     1
102
RTVSPost2010Prop39
140
1.0
102
RTVSPost2010PropOp39
 70
     1
102
RTVSPost2010Prop40
 90
        0
102
RTVSPost2010PropOp40
 70
     1
102
RTVSPost2010Prop41ColorIndex
 90
       18
102
RTVSPost2010Prop41ColorRGB
 90
        0
102
RTVSPost2010PropOp41
 70
     1
102
RTVSPost2010Prop42
 90
       50
102
RTVSPost2010PropOp42
 70
     1
102
RTVSPost2010Prop43
 90
        3
102
RTVSPost2010PropOp43
 70
     1
102
RTVSPost2010Prop44ColorIndex
 90
        5
102
RTVSPost2010Prop44ColorRGB
 90
      255
102
RTVSPost2010PropOp44
 70
     1
102
RTVSPost2010Prop45
280
     0
102
RTVSPost2010PropOp45
 70
     1
102
RTVSPost2010Prop46
 90
       50
102
RTVSPost2010PropOp46
 70
     1
102
RTVSPost2010Prop47
 90
       50
102
RTVSPost2010PropOp47
 70
     1
102
RTVSPost2010Prop48
 90
       50
102
RTVSPost2010PropOp48
 70
     1
102
RTVSPost2010Prop49
280
     0
102
RTVSPost2010PropOp49
 70
     1
102
RTVSPost2010Prop50
 90
       50
102
RTVSPost2010PropOp50
 70
     1
102
RTVSPost2010Prop51ColorIndex
 90
      256
102
RTVSPost2010Prop51ColorRGB
 90
-16777216
102
RTVSPost2010PropOp51
 70
     0
102
RTVSPost2010Prop52
140
1.0
102
RTVSPost2010PropOp52
 70
     0
102
RTVSPost2010Prop53
 90
        2
102
RTVSPost2010PropOp53
 70
     1
102
RTVSPost2010Prop54
  1
strokes_ogs.tif
102
RTVSPost2010PropOp54
 70
     1
102
RTVSPost2010Prop55
280
     0
102
RTVSPost2010PropOp55
 70
     1
102
RTVSPost2010Prop56
140
1.0
102
RTVSPost2010PropOp56
 70
     1
102
RTVSPost2010Prop57
140
1.0
102
RTVSPost2010PropOp57
 70
     1
  0
ENDSEC
  0
EOF
