  0
SECTION
  2
HEADER
  9
$ACADVER
  1
AC1024
  9
$ACADMAINTVER
 70
   205
  9
$DWGCODEPAGE
  3
ANSI_1251
  9
$INSBASE
 10
0.0
 20
0.0
 30
0.0
  9
$EXTMIN
 10
1.000000000000000E+20
 20
1.000000000000000E+20
 30
1.000000000000000E+20
  9
$EXTMAX
 10
-1.000000000000000E+20
 20
-1.000000000000000E+20
 30
-1.000000000000000E+20
  9
$LIMMIN
 10
0.0
 20
0.0
  9
$LIMMAX
 10
12.0
 20
9.0
  9
$ORTHOMODE
 70
     0
  9
$REGENMODE
 70
     1
  9
$FILLMODE
 70
     1
  9
$QTEXTMODE
 70
     0
  9
$MIRRTEXT
 70
     1
  9
$LTSCALE
 40
1.0
  9
$ATTMODE
 70
     1
  9
$TEXTSIZE
 40
0.2
  9
$TRACEWID
 40
0.05
  9
$TEXTSTYLE
  7
Standard
  9
$CLAYER
  8
0
  9
$CELTYPE
  6
ByLayer
  9
$CECOLOR
 62
   256
  9
$CELTSCALE
 40
1.0
  9
$DISPSILH
 70
     0
  9
$DIMSCALE
 40
1.0
  9
$DIMASZ
 40
0.18
  9
$DIMEXO
 40
0.0625
  9
$DIMDLI
 40
0.38
  9
$DIMRND
 40
0.0
  9
$DIMDLE
 40
0.0
  9
$DIMEXE
 40
0.18
  9
$DIMTP
 40
0.0
  9
$DIMTM
 40
0.0
  9
$DIMTXT
 40
0.18
  9
$DIMCEN
 40
0.09
  9
$DIMTSZ
 40
0.0
  9
$DIMTOL
 70
     0
  9
$DIMLIM
 70
     0
  9
$DIMTIH
 70
     1
  9
$DIMTOH
 70
     1
  9
$DIMSE1
 70
     0
  9
$DIMSE2
 70
     0
  9
$DIMTAD
 70
     0
  9
$DIMZIN
 70
     0
  9
$DIMBLK
  1

  9
$DIMASO
 70
     1
  9
$DIMSHO
 70
     1
  9
$DIMPOST
  1

  9
$DIMAPOST
  1

  9
$DIMALT
 70
     0
  9
$DIMALTD
 70
     2
  9
$DIMALTF
 40
25.4
  9
$DIMLFAC
 40
1.0
  9
$DIMTOFL
 70
     0
  9
$DIMTVP
 40
0.0
  9
$DIMTIX
 70
     0
  9
$DIMSOXD
 70
     0
  9
$DIMSAH
 70
     0
  9
$DIMBLK1
  1

  9
$DIMBLK2
  1

  9
$DIMSTYLE
  2
Standard
  9
$DIMCLRD
 70
     0
  9
$DIMCLRE
 70
     0
  9
$DIMCLRT
 70
     0
  9
$DIMTFAC
 40
1.0
  9
$DIMGAP
 40
0.09
  9
$DIMJUST
 70
     0
  9
$DIMSD1
 70
     0
  9
$DIMSD2
 70
     0
  9
$DIMTOLJ
 70
     1
  9
$DIMTZIN
 70
     0
  9
$DIMALTZ
 70
     0
  9
$DIMALTTZ
 70
     0
  9
$DIMUPT
 70
     0
  9
$DIMDEC
 70
     4
  9
$DIMTDEC
 70
     4
  9
$DIMALTU
 70
     2
  9
$DIMALTTD
 70
     2
  9
$DIMTXSTY
  7
Standard
  9
$DIMAUNIT
 70
     0
  9
$DIMADEC
 70
     0
  9
$DIMALTRND
 40
0.0
  9
$DIMAZIN
 70
     0
  9
$DIMDSEP
 70
    46
  9
$DIMATFIT
 70
     3
  9
$DIMFRAC
 70
     0
  9
$DIMLDRBLK
  1

  9
$DIMLUNIT
 70
     2
  9
$DIMLWD
 70
    -2
  9
$DIMLWE
 70
    -2
  9
$DIMTMOVE
 70
     0
  9
$DIMFXL
 40
1.0
  9
$DIMFXLON
 70
     0
  9
$DIMJOGANG
 40
0.7853981633974483
  9
$DIMTFILL
 70
     0
  9
$DIMTFILLCLR
 70
     0
  9
$DIMARCSYM
 70
     0
  9
$DIMLTYPE
  6

  9
$DIMLTEX1
  6

  9
$DIMLTEX2
  6

  9
$DIMTXTDIRECTION
 70
     0
  9
$LUNITS
 70
     2
  9
$LUPREC
 70
     4
  9
$SKETCHINC
 40
0.1
  9
$FILLETRAD
 40
0.5
  9
$AUNITS
 70
     0
  9
$AUPREC
 70
     0
  9
$MENU
  1
.
  9
$ELEVATION
 40
0.0
  9
$PELEVATION
 40
0.0
  9
$THICKNESS
 40
0.0
  9
$LIMCHECK
 70
     0
  9
$CHAMFERA
 40
0.5
  9
$CHAMFERB
 40
0.5
  9
$CHAMFERC
 40
1.0
  9
$CHAMFERD
 40
0.0
  9
$SKPOLY
 70
     0
  9
$TDCREATE
 40
2451380.930432396
  9
$TDUCREATE
 40
2451380.805432396
  9
$TDUPDATE
 40
2451380.966180555
  9
$TDUUPDATE
 40
2451380.841180556
  9
$TDINDWG
 40
0.0075635417
  9
$TDUSRTIMER
 40
0.0075545023
  9
$USRTIMER
 70
     1
  9
$ANGBASE
 50
0.0
  9
$ANGDIR
 70
     0
  9
$PDMODE
 70
     0
  9
$PDSIZE
 40
0.0
  9
$PLINEWID
 40
0.0
  9
$SPLFRAME
 70
     0
  9
$SPLINETYPE
 70
     6
  9
$SPLINESEGS
 70
     8
  9
$HANDSEED
  5
197
  9
$SURFTAB1
 70
     6
  9
$SURFTAB2
 70
     6
  9
$SURFTYPE
 70
     6
  9
$SURFU
 70
     6
  9
$SURFV
 70
     6
  9
$UCSBASE
  2

  9
$UCSNAME
  2

  9
$UCSORG
 10
0.0
 20
0.0
 30
0.0
  9
$UCSXDIR
 10
1.0
 20
0.0
 30
0.0
  9
$UCSYDIR
 10
0.0
 20
1.0
 30
0.0
  9
$UCSORTHOREF
  2

  9
$UCSORTHOVIEW
 70
     0
  9
$UCSORGTOP
 10
0.0
 20
0.0
 30
0.0
  9
$UCSORGBOTTOM
 10
0.0
 20
0.0
 30
0.0
  9
$UCSORGLEFT
 10
0.0
 20
0.0
 30
0.0
  9
$UCSORGRIGHT
 10
0.0
 20
0.0
 30
0.0
  9
$UCSORGFRONT
 10
0.0
 20
0.0
 30
0.0
  9
$UCSORGBACK
 10
0.0
 20
0.0
 30
0.0
  9
$PUCSBASE
  2

  9
$PUCSNAME
  2

  9
$PUCSORG
 10
0.0
 20
0.0
 30
0.0
  9
$PUCSXDIR
 10
1.0
 20
0.0
 30
0.0
  9
$PUCSYDIR
 10
0.0
 20
1.0
 30
0.0
  9
$PUCSORTHOREF
  2

  9
$PUCSORTHOVIEW
 70
     0
  9
$PUCSORGTOP
 10
0.0
 20
0.0
 30
0.0
  9
$PUCSORGBOTTOM
 10
0.0
 20
0.0
 30
0.0
  9
$PUCSORGLEFT
 10
0.0
 20
0.0
 30
0.0
  9
$PUCSORGRIGHT
 10
0.0
 20
0.0
 30
0.0
  9
$PUCSORGFRONT
 10
0.0
 20
0.0
 30
0.0
  9
$PUCSORGBACK
 10
0.0
 20
0.0
 30
0.0
  9
$USERI1
 70
     0
  9
$USERI2
 70
     0
  9
$USERI3
 70
     0
  9
$USERI4
 70
     0
  9
$USERI5
 70
     0
  9
$USERR1
 40
0.0
  9
$USERR2
 40
0.0
  9
$USERR3
 40
0.0
  9
$USERR4
 40
0.0
  9
$USERR5
 40
0.0
  9
$WORLDVIEW
 70
     1
  9
$SHADEDGE
 70
     3
  9
$SHADEDIF
 70
    70
  9
$TILEMODE
 70
     1
  9
$MAXACTVP
 70
    64
  9
$PINSBASE
 10
0.0
 20
0.0
 30
0.0
  9
$PLIMCHECK
 70
     0
  9
$PEXTMIN
 10
1.000000000000000E+20
 20
1.000000000000000E+20
 30
1.000000000000000E+20
  9
$PEXTMAX
 10
-1.000000000000000E+20
 20
-1.000000000000000E+20
 30
-1.000000000000000E+20
  9
$PLIMMIN
 10
0.0
 20
0.0
  9
$PLIMMAX
 10
12.0
 20
9.0
  9
$UNITMODE
 70
     0
  9
$VISRETAIN
 70
     1
  9
$PLINEGEN
 70
     0
  9
$PSLTSCALE
 70
     1
  9
$TREEDEPTH
 70
  3020
  9
$CMLSTYLE
  2
Standard
  9
$CMLJUST
 70
     0
  9
$CMLSCALE
 40
1.0
  9
$PROXYGRAPHICS
 70
     1
  9
$MEASUREMENT
 70
     1
  9
$CELWEIGHT
370
    -1
  9
$ENDCAPS
280
     0
  9
$JOINSTYLE
280
     0
  9
$LWDISPLAY
290
     0
  9
$INSUNITS
 70
     4
  9
$HYPERLINKBASE
  1

  9
$STYLESHEET
  1

  9
$XEDIT
290
     1
  9
$CEPSNTYPE
380
     0
  9
$PSTYLEMODE
290
     1
  9
$FINGERPRINTGUID
  2
{12F50282-3ED8-11D3-A8B7-0060B0F84BC6}
  9
$VERSIONGUID
  2
{12F50293-3ED8-11D3-A8B7-0060B0F84BC6}
  9
$EXTNAMES
290
     1
  9
$PSVPSCALE
 40
0.0
  9
$OLESTARTUP
290
     0
  9
$SORTENTS
280
   127
  9
$INDEXCTL
280
     0
  9
$HIDETEXT
280
     0
  9
$XCLIPFRAME
280
     2
  9
$HALOGAP
280
     0
  9
$OBSCOLOR
 70
   257
  9
$OBSLTYPE
280
     0
  9
$INTERSECTIONDISPLAY
280
     0
  9
$INTERSECTIONCOLOR
 70
   257
  9
$DIMASSOC
280
     1
  9
$PROJECTNAME
  1

  9
$CAMERADISPLAY
290
     0
  9
$LENSLENGTH
 40
50.0
  9
$CAMERAHEIGHT
 40
0.0
  9
$STEPSPERSEC
 40
2.0
  9
$STEPSIZE
 40
6.0
  9
$3DDWFPREC
 40
2.0
  9
$PSOLWIDTH
 40
0.25
  9
$PSOLHEIGHT
 40
4.0
  9
$LOFTANG1
 40
1.570796326794896
  9
$LOFTANG2
 40
1.570796326794896
  9
$LOFTMAG1
 40
0.0
  9
$LOFTMAG2
 40
0.0
  9
$LOFTPARAM
 70
     7
  9
$LOFTNORMALS
280
     1
  9
$LATITUDE
 40
37.795
  9
$LONGITUDE
 40
-122.394
  9
$NORTHDIRECTION
 40
0.0
  9
$TIMEZONE
 70
 -8000
  9
$LIGHTGLYPHDISPLAY
280
     1
  9
$TILEMODELIGHTSYNCH
280
     1
  9
$CMATERIAL
347
AB
  9
$SOLIDHIST
280
     0
  9
$SHOWHIST
280
     1
  9
$DWFFRAME
280
     2
  9
$DGNFRAME
280
     0
  9
$REALWORLDSCALE
290
     1
  9
$INTERFERECOLOR
 62
     1
  9
$INTERFEREOBJVS
345
CD
  9
$INTERFEREVPVS
346
CA
  9
$CSHADOW
280
     0
  9
$SHADOWPLANELOCATION
 40
0.0
  0
ENDSEC
  0
SECTION
  2
CLASSES
  0
CLASS
  1
ACDBDICTIONARYWDFLT
  2
AcDbDictionaryWithDefault
  3
ObjectDBX Classes
 90
        0
 91
        1
280
     0
281
     0
  0
CLASS
  1
ACDBPLACEHOLDER
  2
AcDbPlaceHolder
  3
ObjectDBX Classes
 90
        0
 91
        2
280
     0
281
     0
  0
CLASS
  1
LAYOUT
  2
AcDbLayout
  3
ObjectDBX Classes
 90
        0
 91
        3
280
     0
281
     0
  0
CLASS
  1
MATERIAL
  2
AcDbMaterial
  3
ObjectDBX Classes
 90
     1153
 91
        3
280
     0
281
     0
  0
CLASS
  1
VISUALSTYLE
  2
AcDbVisualStyle
  3
ObjectDBX Classes
 90
     4095
 91
       24
280
     0
281
     0
  0
CLASS
  1
TABLESTYLE
  2
AcDbTableStyle
  3
ObjectDBX Classes
 90
     4095
 91
        1
280
     0
281
     0
  0
CLASS
  1
SCALE
  2
AcDbScale
  3
ObjectDBX Classes
 90
     1153
 91
       17
280
     0
281
     0
  0
CLASS
  1
MLEADERSTYLE
  2
AcDbMLeaderStyle
  3
ACDB_MLEADERSTYLE_CLASS
 90
     4095
 91
        1
280
     0
281
     0
  0
CLASS
  1
ACDBSECTIONVIEWSTYLE
  2
AcDbSectionViewStyle
  3
ObjectDBX Classes
 90
     1025
 91
        1
280
     0
281
     0
  0
CLASS
  1
ACDBDETAILVIEWSTYLE
  2
AcDbDetailViewStyle
  3
ObjectDBX Classes
 90
     1025
 91
        1
280
     0
281
     0
  0
CLASS
  1
MESH
  2
AcDbSubDMesh
  3
ObjectDBX Classes
 90
        0
 91
        1
280
     0
281
     1
  0
CLASS
  1
DICTIONARYVAR
  2
AcDbDictionaryVar
  3
ObjectDBX Classes
 90
        0
 91
        9
280
     0
281
     0
  0
CLASS
  1
CELLSTYLEMAP
  2
AcDbCellStyleMap
  3
ObjectDBX Classes
 90
     1152
 91
        1
280
     0
281
     0
  0
ENDSEC
  0
SECTION
  2
TABLES
  0
TABLE
  2
VPORT
  5
8
330
0
100
AcDbSymbolTable
 70
     1
  0
VPORT
  5
A8
330
8
100
AcDbSymbolTableRecord
100
AcDbViewportTableRecord
  2
*Active
 70
     0
 10
0.0
 20
0.0
 11
1.0
 21
1.0
 12
0.0000418096751673
 22
-20.06817054748535
 13
0.0
 23
0.0
 14
0.5
 24
0.5
 15
0.5
 25
0.5
 16
-1.0
 26
-1.0
 36
1.0
 17
0.0
 27
0.0
 37
0.0
 40
1098.313634533945
 41
1.654530060765643
 42
50.0
 43
0.0
 44
0.0
 50
0.0
 51
0.0
 71
     0
 72
   100
 73
     1
 74
     3
 75
     0
 76
     0
 77
     0
 78
     0
281
     0
 65
     1
110
0.0
120
0.0
130
0.0
111
1.0
121
0.0
131
0.0
112
0.0
122
1.0
132
0.0
 79
     0
146
0.0
348
C9
 60
     3
 61
     5
292
     1
282
     1
141
0.0
142
0.0
 63
   250
421
  3355443
  0
ENDTAB
  0
TABLE
  2
LTYPE
  5
5
330
0
100
AcDbSymbolTable
 70
     1
  0
LTYPE
  5
14
330
5
100
AcDbSymbolTableRecord
100
AcDbLinetypeTableRecord
  2
ByBlock
 70
     0
  3

 72
    65
 73
     0
 40
0.0
  0
LTYPE
  5
15
330
5
100
AcDbSymbolTableRecord
100
AcDbLinetypeTableRecord
  2
ByLayer
 70
     0
  3

 72
    65
 73
     0
 40
0.0
  0
LTYPE
  5
16
330
5
100
AcDbSymbolTableRecord
100
AcDbLinetypeTableRecord
  2
Continuous
 70
     0
  3
Solid line
 72
    65
 73
     0
 40
0.0
  0
ENDTAB
  0
TABLE
  2
LAYER
  5
2
330
0
100
AcDbSymbolTable
 70
     3
  0
LAYER
  5
10
330
2
100
AcDbSymbolTableRecord
100
AcDbLayerTableRecord
  2
0
 70
     0
 62
   153
420
  5804257
  6
Continuous
370
    -3
390
F
347
BB
  0
LAYER
  5
2B
330
2
100
AcDbSymbolTableRecord
100
AcDbLayerTableRecord
  2
ASHADE
 70
     4
 62
     7
  6
Continuous
370
    -3
390
2D
347
BB
  0
LAYER
  5
F8
330
2
100
AcDbSymbolTableRecord
100
AcDbLayerTableRecord
  2
OracDecor_cornice_mouldings
 70
     0
 62
   191
420
 12098533
  6
Continuous
370
    -3
390
F
347
BB
  0
ENDTAB
  0
TABLE
  2
STYLE
  5
3
330
0
100
AcDbSymbolTable
 70
     2
  0
STYLE
  5
11
330
3
100
AcDbSymbolTableRecord
100
AcDbTextStyleTableRecord
  2
Standard
 70
     0
 40
0.0
 41
1.0
 50
0.0
 71
     0
 42
0.2
  3
txt
  4

  0
STYLE
  5
2C
330
3
100
AcDbSymbolTableRecord
100
AcDbTextStyleTableRecord
  2
ASHADE
 70
     0
 40
0.2
 41
1.0
 50
0.0
 71
     0
 42
0.2
  3
simplex
  4

  0
ENDTAB
  0
TABLE
  2
VIEW
  5
6
330
0
100
AcDbSymbolTable
 70
     0
  0
ENDTAB
  0
TABLE
  2
UCS
  5
7
330
0
100
AcDbSymbolTable
 70
     0
  0
ENDTAB
  0
TABLE
  2
APPID
  5
9
330
0
100
AcDbSymbolTable
 70
     6
  0
APPID
  5
12
330
9
100
AcDbSymbolTableRecord
100
AcDbRegAppTableRecord
  2
ACAD
 70
     0
  0
APPID
  5
8F
330
9
100
AcDbSymbolTableRecord
100
AcDbRegAppTableRecord
  2
AVE_RENDER
 70
     0
  0
APPID
  5
90
330
9
100
AcDbSymbolTableRecord
100
AcDbRegAppTableRecord
  2
AVE_ENTITY_MATERIAL
 70
     0
  0
APPID
  5
9C
330
9
100
AcDbSymbolTableRecord
100
AcDbRegAppTableRecord
  2
AVE_FINISH
 70
     0
  0
APPID
  5
9D
330
9
100
AcDbSymbolTableRecord
100
AcDbRegAppTableRecord
  2
AVE_MATERIAL
 70
     0
  0
APPID
  5
9E
330
9
100
AcDbSymbolTableRecord
100
AcDbRegAppTableRecord
  2
AVE_GLOBAL
 70
     0
  0
ENDTAB
  0
TABLE
  2
DIMSTYLE
  5
A
330
0
100
AcDbSymbolTable
 70
     1
100
AcDbDimStyleTable
 71
     0
  0
DIMSTYLE
105
27
330
A
100
AcDbSymbolTableRecord
100
AcDbDimStyleTableRecord
  2
Standard
 70
     0
340
11
  0
ENDTAB
  0
TABLE
  2
BLOCK_RECORD
  5
1
330
0
100
AcDbSymbolTable
 70
     6
  0
BLOCK_RECORD
  5
1F
330
1
100
AcDbSymbolTableRecord
100
AcDbBlockTableRecord
  2
*Model_Space
340
22
 70
     0
280
     1
281
     0
  0
BLOCK_RECORD
  5
1B
330
1
100
AcDbSymbolTableRecord
100
AcDbBlockTableRecord
  2
*Paper_Space
340
1E
 70
     0
280
     1
281
     0
  0
BLOCK_RECORD
  5
23
330
1
100
AcDbSymbolTableRecord
100
AcDbBlockTableRecord
  2
*Paper_Space0
340
26
 70
     0
280
     1
281
     0
  0
BLOCK_RECORD
  5
2E
330
1
100
AcDbSymbolTableRecord
100
AcDbBlockTableRecord
  2
direct
340
0
 70
     0
280
     1
281
     0
  0
BLOCK_RECORD
  5
42
330
1
100
AcDbSymbolTableRecord
100
AcDbBlockTableRecord
  2
overhead
340
0
 70
     0
280
     1
281
     0
  0
BLOCK_RECORD
  5
5F
330
1
100
AcDbSymbolTableRecord
100
AcDbBlockTableRecord
  2
sh_spot
340
0
 70
     0
280
     1
281
     0
  0
BLOCK_RECORD
  5
91
330
1
100
AcDbSymbolTableRecord
100
AcDbBlockTableRecord
  2
AVE_RENDER
340
0
102
{BLKREFS
331
94
331
95
331
96
331
97
331
98
331
99
331
9A
331
9B
102
}
 70
     0
280
     1
281
     0
  0
BLOCK_RECORD
  5
9F
330
1
100
AcDbSymbolTableRecord
100
AcDbBlockTableRecord
  2
AVE_GLOBAL
340
0
102
{BLKREFS
331
A2
102
}
 70
     0
280
     1
281
     0
  0
ENDTAB
  0
ENDSEC
  0
SECTION
  2
BLOCKS
  0
BLOCK
  5
20
330
1F
100
AcDbEntity
  8
0
100
AcDbBlockBegin
  2
*Model_Space
 70
     0
 10
0.0
 20
0.0
 30
0.0
  3
*Model_Space
  1

  0
ENDBLK
  5
21
330
1F
100
AcDbEntity
  8
0
100
AcDbBlockEnd
  0
BLOCK
  5
1C
330
1B
100
AcDbEntity
 67
     1
  8
0
100
AcDbBlockBegin
  2
*Paper_Space
 70
     0
 10
0.0
 20
0.0
 30
0.0
  3
*Paper_Space
  1

  0
ENDBLK
  5
1D
330
1B
100
AcDbEntity
 67
     1
  8
0
100
AcDbBlockEnd
  0
BLOCK
  5
24
330
23
100
AcDbEntity
 67
     1
  8
0
100
AcDbBlockBegin
  2
*Paper_Space0
 70
     0
 10
0.0
 20
0.0
 30
0.0
  3
*Paper_Space0
  1

  0
ENDBLK
  5
25
330
23
100
AcDbEntity
 67
     1
  8
0
100
AcDbBlockEnd
  0
BLOCK
  5
40
330
2E
100
AcDbEntity
  8
0
100
AcDbBlockBegin
  2
direct
 70
     2
 10
0.0
 20
0.0
 30
0.0
  3
direct
  1

  0
ATTDEF
  5
2F
330
2E
100
AcDbEntity
  8
ASHADE
  6
Continuous
 62
     1
100
AcDbText
 10
0.0
 20
-0.1
 30
0.0
 40
0.2
  1

  7
ASHADE
 72
     1
 11
0.0
 21
-0.1
 31
0.0
100
AcDbAttributeDefinition
280
     0
  3
Light Name
  2
SNAME
 70
     0
280
     0
  0
ARC
  5
30
330
2E
100
AcDbEntity
  8
ASHADE
  6
Continuous
 62
     7
100
AcDbCircle
 10
0.0
 20
0.0
 30
0.0
 40
0.3
100
AcDbArc
 50
205.6792886194569
 51
334.3207113805431
  0
ARC
  5
31
330
2E
100
AcDbEntity
  8
ASHADE
  6
Continuous
 62
     7
100
AcDbCircle
 10
0.0
 20
0.0
 30
0.0
 40
0.3
100
AcDbArc
 50
25.67928861945685
 51
154.3207113805431
  0
LINE
  5
32
330
2E
100
AcDbEntity
  8
ASHADE
  6
Continuous
 62
     7
100
AcDbLine
 10
-0.21
 20
0.2142428528562855
 30
0.0
 11
-0.21
 21
0.5
 31
0.0
  0
LINE
  5
33
330
2E
100
AcDbEntity
  8
ASHADE
  6
Continuous
 62
     7
100
AcDbLine
 10
-0.11
 20
0.2791057147390572
 30
0.0
 11
-0.11
 21
0.5
 31
0.0
  0
LINE
  5
34
330
2E
100
AcDbEntity
  8
ASHADE
  6
Continuous
 62
     7
100
AcDbLine
 10
0.21
 20
0.2142428528562855
 30
0.0
 11
0.21
 21
0.5
 31
0.0
  0
ATTDEF
  5
35
330
2E
100
AcDbEntity
  8
ASHADE
  6
Continuous
 62
     7
100
AcDbText
 10
0.0
 20
0.25
 30
0.0
 40
0.01
  1

100
AcDbAttributeDefinition
280
     0
  3
Look-at Y
  2
LAY
 70
     1
280
     0
  0
ATTDEF
  5
36
330
2E
100
AcDbEntity
  8
ASHADE
  6
Continuous
 62
     7
100
AcDbText
 10
0.0
 20
0.22
 30
0.0
 40
0.01
  1
1
100
AcDbAttributeDefinition
280
     0
  3
Light Intensity
  2
INTENSITY
 70
     1
280
     0
  0
ATTDEF
  5
37
330
2E
100
AcDbEntity
  8
ASHADE
  6
Continuous
 62
     7
100
AcDbText
 10
0.0
 20
0.16
 30
0.0
 40
0.01
  1
-1
100
AcDbAttributeDefinition
280
     0
  3
*not used*
  2
BEAMD
 70
     1
280
     0
  0
ATTDEF
  5
38
330
2E
100
AcDbEntity
  8
ASHADE
  6
Continuous
 62
     7
100
AcDbText
 10
0.0
 20
0.175
 30
0.0
 40
0.01
  1
-1
100
AcDbAttributeDefinition
280
     0
  3
*not used*
  2
CONED
 70
     1
280
     0
  0
ATTDEF
  5
39
330
2E
100
AcDbEntity
  8
ASHADE
  6
Continuous
 62
     7
100
AcDbText
 10
0.0
 20
0.19
 30
0.0
 40
0.01
  1
0
100
AcDbAttributeDefinition
280
     0
  3
Depth Map Size
  2
CONEA
 70
     1
280
     0
  0
ATTDEF
  5
3A
330
2E
100
AcDbEntity
  8
ASHADE
  6
Continuous
 62
     7
100
AcDbText
 10
0.0
 20
0.2050000000000001
 30
0.0
 40
0.01
  1
1,1,1
100
AcDbAttributeDefinition
280
     0
  3
Light Color (RGB)
  2
COLOR
 70
     1
280
     0
  0
ATTDEF
  5
3B
330
2E
100
AcDbEntity
  8
ASHADE
  6
Continuous
 62
     7
100
AcDbText
 10
0.0
 20
0.235
 30
0.0
 40
0.01
  1

100
AcDbAttributeDefinition
280
     0
  3
Look-at Z
  2
LAZ
 70
     1
280
     0
  0
LINE
  5
3C
330
2E
100
AcDbEntity
  8
ASHADE
  6
Continuous
 62
     7
100
AcDbLine
 10
0.0
 20
0.3
 30
0.0
 11
0.0
 21
0.5
 31
0.0
  0
LINE
  5
3D
330
2E
100
AcDbEntity
  8
ASHADE
  6
Continuous
 62
     7
100
AcDbLine
 10
0.11
 20
0.2791057147390572
 30
0.0
 11
0.11
 21
0.5
 31
0.0
  0
ATTDEF
  5
3E
330
2E
100
AcDbEntity
  8
ASHADE
  6
Continuous
 62
     7
100
AcDbText
 10
0.0
 20
0.265
 30
0.0
 40
0.01
  1

100
AcDbAttributeDefinition
280
     0
  3
Look-at X
  2
LAX
 70
     1
280
     0
  0
ATTDEF
  5
3F
330
2E
100
AcDbEntity
  8
ASHADE
  6
Continuous
 62
     7
100
AcDbText
 10
0.0
 20
0.28
 30
0.0
 40
0.01
  1

100
AcDbAttributeDefinition
280
     0
  3

  2
GNAME
 70
     1
280
     0
  0
ENDBLK
  5
41
330
2E
100
AcDbEntity
  8
0
100
AcDbBlockEnd
  0
BLOCK
  5
5D
330
42
100
AcDbEntity
  8
0
100
AcDbBlockBegin
  2
overhead
 70
     2
 10
0.0
 20
0.0
 30
0.0
  3
overhead
  1

  0
ATTDEF
  5
43
330
42
100
AcDbEntity
  8
ASHADE
  6
Continuous
 62
     1
100
AcDbText
 10
0.0
 20
-0.1
 30
0.0
 40
0.2
  1

  7
ASHADE
 72
     1
 11
0.0
 21
-0.1
 31
0.0
100
AcDbAttributeDefinition
280
     0
  3
Light Name
  2
SNAME
 70
     0
280
     0
  0
ARC
  5
44
330
42
100
AcDbEntity
  8
ASHADE
  6
Continuous
 62
     7
100
AcDbCircle
 10
0.0
 20
0.0
 30
0.0
 40
0.3
100
AcDbArc
 50
205.6792886194569
 51
334.3207113805431
  0
LINE
  5
45
330
42
100
AcDbEntity
  8
ASHADE
  6
Continuous
 62
     7
100
AcDbLine
 10
-0.2041413561583015
 20
-0.2198324514393848
 30
0.0
 11
-0.2721884748777353
 21
-0.2931099352525131
 31
0.0
  0
LINE
  5
46
330
42
100
AcDbEntity
  8
ASHADE
  6
Continuous
 62
     7
100
AcDbLine
 10
-0.1096591641591904
 20
-0.2792398032442862
 30
0.0
 11
-0.1279356915190555
 21
-0.3257797704516673
 31
0.0
  0
LINE
  5
47
330
42
100
AcDbEntity
  8
ASHADE
  6
Continuous
 62
     7
100
AcDbLine
 10
0.0
 20
-0.2999999999999999
 30
0.0
 11
0.0
 21
-0.4
 31
0.0
  0
LINE
  5
48
330
42
100
AcDbEntity
  8
ASHADE
  6
Continuous
 62
     7
100
AcDbLine
 10
0.1096591641591904
 20
-0.2792398032442862
 30
0.0
 11
0.1279356915190555
 21
-0.3257797704516673
 31
0.0
  0
LINE
  5
49
330
42
100
AcDbEntity
  8
ASHADE
  6
Continuous
 62
     7
100
AcDbLine
 10
0.2041413561583015
 20
-0.2198324514393848
 30
0.0
 11
0.2721884748777353
 21
-0.2931099352525131
 31
0.0
  0
ARC
  5
4A
330
42
100
AcDbEntity
  8
ASHADE
  6
Continuous
 62
     7
100
AcDbCircle
 10
0.0
 20
0.0
 30
0.0
 40
0.3
100
AcDbArc
 50
25.67928861945685
 51
154.3207113805431
  0
LINE
  5
4B
330
42
100
AcDbEntity
  8
ASHADE
  6
Continuous
 62
     7
100
AcDbLine
 10
-0.2703701166919155
 20
0.13
 30
0.0
 11
-0.3154318028072347
 21
0.1516666666666666
 31
0.0
  0
LINE
  5
4C
330
42
100
AcDbEntity
  8
ASHADE
  6
Continuous
 62
     7
100
AcDbLine
 10
-0.2703701166919155
 20
-0.13
 30
0.0
 11
-0.3154318028072347
 21
-0.1516666666666666
 31
0.0
  0
LINE
  5
4D
330
42
100
AcDbEntity
  8
ASHADE
  6
Continuous
 62
     7
100
AcDbLine
 10
-0.2041413561583015
 20
0.2198324514393849
 30
0.0
 11
-0.2721884748777353
 21
0.2931099352525131
 31
0.0
  0
LINE
  5
4E
330
42
100
AcDbEntity
  8
ASHADE
  6
Continuous
 62
     7
100
AcDbLine
 10
-0.1096591641591904
 20
0.2792398032442862
 30
0.0
 11
-0.1279356915190555
 21
0.3257797704516674
 31
0.0
  0
LINE
  5
4F
330
42
100
AcDbEntity
  8
ASHADE
  6
Continuous
 62
     7
100
AcDbLine
 10
0.2703701166919155
 20
-0.13
 30
0.0
 11
0.3154318028072347
 21
-0.1516666666666666
 31
0.0
  0
LINE
  5
50
330
42
100
AcDbEntity
  8
ASHADE
  6
Continuous
 62
     7
100
AcDbLine
 10
0.2703701166919155
 20
0.13
 30
0.0
 11
0.3154318028072347
 21
0.1516666666666666
 31
0.0
  0
LINE
  5
51
330
42
100
AcDbEntity
  8
ASHADE
  6
Continuous
 62
     7
100
AcDbLine
 10
0.0
 20
0.3
 30
0.0
 11
0.0
 21
0.4
 31
0.0
  0
ATTDEF
  5
52
330
42
100
AcDbEntity
  8
ASHADE
  6
Continuous
 62
     7
100
AcDbText
 10
0.0
 20
0.22
 30
0.0
 40
0.01
  1
1
100
AcDbAttributeDefinition
280
     0
  3
Light Intensity
  2
INTENSITY
 70
     1
280
     0
  0
ATTDEF
  5
53
330
42
100
AcDbEntity
  8
ASHADE
  6
Continuous
 62
     7
100
AcDbText
 10
0.0
 20
0.16
 30
0.0
 40
0.01
  1
-1
100
AcDbAttributeDefinition
280
     0
  3
*not used*
  2
BEAMD
 70
     1
280
     0
  0
ATTDEF
  5
54
330
42
100
AcDbEntity
  8
ASHADE
  6
Continuous
 62
     7
100
AcDbText
 10
0.0
 20
0.175
 30
0.0
 40
0.01
  1
-1
100
AcDbAttributeDefinition
280
     0
  3
*not used*
  2
CONED
 70
     1
280
     0
  0
ATTDEF
  5
55
330
42
100
AcDbEntity
  8
ASHADE
  6
Continuous
 62
     7
100
AcDbText
 10
0.0
 20
0.19
 30
0.0
 40
0.01
  1
0
100
AcDbAttributeDefinition
280
     0
  3
Depth Map Size
  2
CONEA
 70
     1
280
     0
  0
ATTDEF
  5
56
330
42
100
AcDbEntity
  8
ASHADE
  6
Continuous
 62
     7
100
AcDbText
 10
0.0
 20
0.2050000000000001
 30
0.0
 40
0.01
  1
1,1,1
100
AcDbAttributeDefinition
280
     0
  3
Light Color (RGB)
  2
COLOR
 70
     1
280
     0
  0
ATTDEF
  5
57
330
42
100
AcDbEntity
  8
ASHADE
  6
Continuous
 62
     7
100
AcDbText
 10
0.0
 20
0.235
 30
0.0
 40
0.01
  1

100
AcDbAttributeDefinition
280
     0
  3
Look-at Z
  2
LAZ
 70
     1
280
     0
  0
ATTDEF
  5
58
330
42
100
AcDbEntity
  8
ASHADE
  6
Continuous
 62
     7
100
AcDbText
 10
0.0
 20
0.25
 30
0.0
 40
0.01
  1

100
AcDbAttributeDefinition
280
     0
  3
Look-at Y
  2
LAY
 70
     1
280
     0
  0
ATTDEF
  5
59
330
42
100
AcDbEntity
  8
ASHADE
  6
Continuous
 62
     7
100
AcDbText
 10
0.0
 20
0.265
 30
0.0
 40
0.01
  1

100
AcDbAttributeDefinition
280
     0
  3
Look-at X
  2
LAX
 70
     1
280
     0
  0
ATTDEF
  5
5A
330
42
100
AcDbEntity
  8
ASHADE
  6
Continuous
 62
     7
100
AcDbText
 10
0.0
 20
0.28
 30
0.0
 40
0.01
  1

100
AcDbAttributeDefinition
280
     0
  3

  2
GNAME
 70
     1
280
     0
  0
LINE
  5
5B
330
42
100
AcDbEntity
  8
ASHADE
  6
Continuous
 62
     7
100
AcDbLine
 10
0.1096591641591904
 20
0.2792398032442862
 30
0.0
 11
0.1279356915190555
 21
0.3257797704516674
 31
0.0
  0
LINE
  5
5C
330
42
100
AcDbEntity
  8
ASHADE
  6
Continuous
 62
     7
100
AcDbLine
 10
0.2041413561583015
 20
0.2198324514393849
 30
0.0
 11
0.2721884748777353
 21
0.2931099352525131
 31
0.0
  0
ENDBLK
  5
5E
330
42
100
AcDbEntity
  8
0
100
AcDbBlockEnd
  0
BLOCK
  5
85
330
5F
100
AcDbEntity
  8
0
100
AcDbBlockBegin
  2
sh_spot
 70
     2
 10
0.0
 20
0.0
 30
0.0
  3
sh_spot
  1

  0
LINE
  5
60
330
5F
100
AcDbEntity
  8
ASHADE
  6
Continuous
 62
     7
100
AcDbLine
 10
0.25
 20
0.26
 30
0.0
 11
-0.25
 21
0.26
 31
0.0
  0
LINE
  5
61
330
5F
100
AcDbEntity
  8
ASHADE
  6
Continuous
 62
     7
100
AcDbLine
 10
-0.25
 20
-0.3399999999999999
 30
0.0
 11
0.25
 21
-0.3399999999999999
 31
0.0
  0
ATTDEF
  5
62
330
5F
100
AcDbEntity
  8
ASHADE
  6
Continuous
 62
     1
100
AcDbText
 10
0.0
 20
-0.1
 30
0.0
 40
0.2
  1

  7
ASHADE
 72
     1
 11
0.0
 21
-0.1
 31
0.0
100
AcDbAttributeDefinition
280
     0
  3
Light Name
  2
SNAME
 70
     0
280
     0
  0
LINE
  5
63
330
5F
100
AcDbEntity
  8
ASHADE
  6
Continuous
 62
     7
100
AcDbLine
 10
-0.25
 20
-0.13
 30
0.0
 11
-0.25
 21
-0.3399999999999999
 31
0.0
  0
LINE
  5
64
330
5F
100
AcDbEntity
  8
ASHADE
  6
Continuous
 62
     7
100
AcDbLine
 10
-0.25
 20
-0.18
 30
0.0
 11
-0.29
 21
-0.18
 31
0.0
  0
LINE
  5
65
330
5F
100
AcDbEntity
  8
ASHADE
  6
Continuous
 62
     7
100
AcDbLine
 10
-0.29
 20
-0.22
 30
0.0
 11
-0.25
 21
-0.22
 31
0.0
  0
LINE
  5
66
330
5F
100
AcDbEntity
  8
ASHADE
  6
Continuous
 62
     7
100
AcDbLine
 10
-0.29
 20
-0.18
 30
0.0
 11
-0.29
 21
-0.22
 31
0.0
  0
LINE
  5
67
330
5F
100
AcDbEntity
  8
ASHADE
  6
Continuous
 62
     7
100
AcDbLine
 10
-0.1045454545454545
 20
0.26
 30
0.0
 11
-0.15
 21
0.46
 31
0.0
  0
LINE
  5
68
330
5F
100
AcDbEntity
  8
ASHADE
  6
Continuous
 62
     7
100
AcDbLine
 10
-0.21
 20
0.26
 30
0.0
 11
-0.301304347826087
 21
0.46
 31
0.0
  0
LINE
  5
69
330
5F
100
AcDbEntity
  8
ASHADE
  6
Continuous
 62
     7
100
AcDbLine
 10
-0.25
 20
0.26
 30
0.0
 11
-0.25
 21
0.13
 31
0.0
  0
LINE
  5
6A
330
5F
100
AcDbEntity
  8
ASHADE
  6
Continuous
 62
     7
100
AcDbLine
 10
-0.25
 20
0.22
 30
0.0
 11
-0.29
 21
0.22
 31
0.0
  0
LINE
  5
6B
330
5F
100
AcDbEntity
  8
ASHADE
  6
Continuous
 62
     7
100
AcDbLine
 10
-0.29
 20
0.1799999999999999
 30
0.0
 11
-0.25
 21
0.1799999999999999
 31
0.0
  0
LINE
  5
6C
330
5F
100
AcDbEntity
  8
ASHADE
  6
Continuous
 62
     7
100
AcDbLine
 10
-0.29
 20
0.22
 30
0.0
 11
-0.29
 21
0.1799999999999999
 31
0.0
  0
ATTDEF
  5
6D
330
5F
100
AcDbEntity
  8
ASHADE
  6
Continuous
 62
     7
100
AcDbText
 10
0.0
 20
-0.24
 30
0.0
 40
0.01
  1
0
100
AcDbAttributeDefinition
280
     0
  3
Depth Map Size
  2
ZSIZE
 70
     1
280
     0
  0
ATTDEF
  5
6E
330
5F
100
AcDbEntity
  8
ASHADE
  6
Continuous
 62
     7
100
AcDbText
 10
0.0
 20
-0.3300000000000001
 30
0.0
 40
0.01
  1
0,0,0
100
AcDbAttributeDefinition
280
     0
  3
Look-from XYZ
  2
LFXYZ
 70
     1
280
     0
  0
ATTDEF
  5
6F
330
5F
100
AcDbEntity
  8
ASHADE
  6
Continuous
 62
     7
100
AcDbText
 10
0.0
 20
-0.315
 30
0.0
 40
0.01
  1
0.0
100
AcDbAttributeDefinition
280
     0
  3
Beam Distribution
  2
BEAMDI
 70
     1
280
     0
  0
ATTDEF
  5
70
330
5F
100
AcDbEntity
  8
ASHADE
  6
Continuous
 62
     7
100
AcDbText
 10
0.0
 20
-0.3
 30
0.0
 40
0.01
  1
0.0
100
AcDbAttributeDefinition
280
     0
  3
Cone Delta
  2
CONEDE
 70
     1
280
     0
  0
ATTDEF
  5
71
330
5F
100
AcDbEntity
  8
ASHADE
  6
Continuous
 62
     7
100
AcDbText
 10
0.0
 20
-0.2850000000000001
 30
0.0
 40
0.01
  1
10.0
100
AcDbAttributeDefinition
280
     0
  3
Cone Angle
  2
CONEAN
 70
     1
280
     0
  0
ATTDEF
  5
72
330
5F
100
AcDbEntity
  8
ASHADE
  6
Continuous
 62
     7
100
AcDbText
 10
0.0
 20
-0.27
 30
0.0
 40
0.01
  1
-1
100
AcDbAttributeDefinition
280
     0
  3
*not used*
  2
BIASMAX
 70
     1
280
     0
  0
ATTDEF
  5
73
330
5F
100
AcDbEntity
  8
ASHADE
  6
Continuous
 62
     7
100
AcDbText
 10
0.0
 20
-0.255
 30
0.0
 40
0.01
  1
-1
100
AcDbAttributeDefinition
280
     0
  3
*not used*
  2
BIASMIN
 70
     1
280
     0
  0
ATTDEF
  5
74
330
5F
100
AcDbEntity
  8
ASHADE
  6
Continuous
 62
     7
100
AcDbText
 10
0.0
 20
-0.225
 30
0.0
 40
0.01
  1
1,1,1
100
AcDbAttributeDefinition
280
     0
  3
Light Color (RGB)
  2
COLOR
 70
     1
280
     0
  0
ATTDEF
  5
75
330
5F
100
AcDbEntity
  8
ASHADE
  6
Continuous
 62
     7
100
AcDbText
 10
0.0
 20
-0.21
 30
0.0
 40
0.01
  1
1
100
AcDbAttributeDefinition
280
     0
  3
Light Intensity
  2
INTENSITY
 70
     1
280
     0
  0
ATTDEF
  5
76
330
5F
100
AcDbEntity
  8
ASHADE
  6
Continuous
 62
     7
100
AcDbText
 10
0.0
 20
-0.15
 30
0.0
 40
0.01
  1

100
AcDbAttributeDefinition
280
     0
  3

  2
GNAME
 70
     1
280
     0
  0
ATTDEF
  5
77
330
5F
100
AcDbEntity
  8
ASHADE
  6
Continuous
 62
     7
100
AcDbText
 10
0.0
 20
-0.195
 30
0.0
 40
0.01
  1

100
AcDbAttributeDefinition
280
     0
  3
Look-at Z
  2
LAZ
 70
     1
280
     0
  0
ATTDEF
  5
78
330
5F
100
AcDbEntity
  8
ASHADE
  6
Continuous
 62
     7
100
AcDbText
 10
0.0
 20
-0.18
 30
0.0
 40
0.01
  1

100
AcDbAttributeDefinition
280
     0
  3
Look-at Y
  2
LAY
 70
     1
280
     0
  0
ATTDEF
  5
79
330
5F
100
AcDbEntity
  8
ASHADE
  6
Continuous
 62
     7
100
AcDbText
 10
0.0
 20
-0.165
 30
0.0
 40
0.01
  1

100
AcDbAttributeDefinition
280
     0
  3
Look-at X
  2
LAX
 70
     1
280
     0
  0
LINE
  5
7A
330
5F
100
AcDbEntity
  8
ASHADE
  6
Continuous
 62
     7
100
AcDbLine
 10
0.25
 20
-0.3399999999999999
 30
0.0
 11
0.25
 21
-0.13
 31
0.0
  0
LINE
  5
7B
330
5F
100
AcDbEntity
  8
ASHADE
  6
Continuous
 62
     7
100
AcDbLine
 10
0.25
 20
-0.18
 30
0.0
 11
0.29
 21
-0.18
 31
0.0
  0
LINE
  5
7C
330
5F
100
AcDbEntity
  8
ASHADE
  6
Continuous
 62
     7
100
AcDbLine
 10
0.29
 20
-0.22
 30
0.0
 11
0.25
 21
-0.22
 31
0.0
  0
LINE
  5
7D
330
5F
100
AcDbEntity
  8
ASHADE
  6
Continuous
 62
     7
100
AcDbLine
 10
0.29
 20
-0.18
 30
0.0
 11
0.29
 21
-0.22
 31
0.0
  0
LINE
  5
7E
330
5F
100
AcDbEntity
  8
ASHADE
  6
Continuous
 62
     7
100
AcDbLine
 10
0.21
 20
0.26
 30
0.0
 11
0.301304347826087
 21
0.46
 31
0.0
  0
LINE
  5
7F
330
5F
100
AcDbEntity
  8
ASHADE
  6
Continuous
 62
     7
100
AcDbLine
 10
0.1045454545454545
 20
0.26
 30
0.0
 11
0.15
 21
0.46
 31
0.0
  0
LINE
  5
80
330
5F
100
AcDbEntity
  8
ASHADE
  6
Continuous
 62
     7
100
AcDbLine
 10
0.0
 20
0.26
 30
0.0
 11
0.0
 21
0.46
 31
0.0
  0
LINE
  5
81
330
5F
100
AcDbEntity
  8
ASHADE
  6
Continuous
 62
     7
100
AcDbLine
 10
0.25
 20
0.13
 30
0.0
 11
0.25
 21
0.26
 31
0.0
  0
LINE
  5
82
330
5F
100
AcDbEntity
  8
ASHADE
  6
Continuous
 62
     7
100
AcDbLine
 10
0.25
 20
0.22
 30
0.0
 11
0.29
 21
0.22
 31
0.0
  0
LINE
  5
83
330
5F
100
AcDbEntity
  8
ASHADE
  6
Continuous
 62
     7
100
AcDbLine
 10
0.29
 20
0.1799999999999999
 30
0.0
 11
0.25
 21
0.1799999999999999
 31
0.0
  0
LINE
  5
84
330
5F
100
AcDbEntity
  8
ASHADE
  6
Continuous
 62
     7
100
AcDbLine
 10
0.29
 20
0.22
 30
0.0
 11
0.29
 21
0.1799999999999999
 31
0.0
  0
ENDBLK
  5
86
330
5F
100
AcDbEntity
  8
0
100
AcDbBlockEnd
  0
BLOCK
  5
92
330
91
100
AcDbEntity
  8
ASHADE
100
AcDbBlockBegin
  2
AVE_RENDER
 70
     0
 10
0.0
 20
0.0
 30
0.0
  3
AVE_RENDER
  1
AVE_RENDER
  0
ENDBLK
  5
93
330
91
100
AcDbEntity
  8
0
100
AcDbBlockEnd
  0
BLOCK
  5
A0
330
9F
100
AcDbEntity
  8
ASHADE
100
AcDbBlockBegin
  2
AVE_GLOBAL
 70
     0
 10
0.0
 20
0.0
 30
0.0
  3
AVE_GLOBAL
  1
AVE_GLOBAL
  0
ENDBLK
  5
A1
330
9F
100
AcDbEntity
  8
0
100
AcDbBlockEnd
  0
ENDSEC
  0
SECTION
  2
ENTITIES
  0
INSERT
  5
94
330
1F
100
AcDbEntity
  8
ASHADE
 62
     1
100
AcDbBlockReference
  2
AVE_RENDER
 10
0.0
 20
0.0
 30
0.0
1001
AVE_RENDER
1002
{
1070
     7
1000
Pref
1070
    30
1070
    20
1070
     1
1070
     0
1000

1070
    10
1070
     1
1070
    10
1040
1.0
1070
     1
1040
0.3
1040
0.7
1040
0.0
1040
10.0
1010
-1.0
1020
-1.0
1030
-1.0
1040
0.3
1070
    49
1070
     0
1070
     0
1010
1.0
1020
1.0
1030
1.0
1040
45.0
1070
     1
1070
     0
1000
WCS
1040
0.0
1070
     0
1040
10.0
1002
}
  0
INSERT
  5
95
330
1F
100
AcDbEntity
  8
ASHADE
 62
     3
100
AcDbBlockReference
  2
AVE_RENDER
 10
0.0
 20
0.0
 30
0.0
1001
AVE_RENDER
1002
{
1070
     0
1000
Full Opt
1070
     0
1070
     1
1070
     1
1070
     1
1070
     0
1070
     0
1070
     0
1070
     1
1070
     1
1040
0.0001
1040
0.0001
1002
}
  0
INSERT
  5
96
330
1F
100
AcDbEntity
  8
ASHADE
 62
     4
100
AcDbBlockReference
  2
AVE_RENDER
 10
0.0
 20
0.0
 30
0.0
1001
AVE_RENDER
1002
{
1070
     0
1000
Quick Opt
1070
     0
1070
     1
1070
     1
1070
     1
1070
     0
1070
     0
1070
     1
1002
}
  0
INSERT
  5
97
330
1F
100
AcDbEntity
  8
ASHADE
 62
     5
100
AcDbBlockReference
  2
AVE_RENDER
 10
0.0
 20
0.0
 30
0.0
1001
AVE_RENDER
1002
{
1070
     1
1000
Scanl Opt
1070
     2
1070
     0
1070
     2
1040
2.0
1040
4.0
1070
     0
1070
     1
1070
     0
1040
0.03
1002
}
  0
INSERT
  5
98
330
1F
100
AcDbEntity
  8
ASHADE
 62
     6
100
AcDbBlockReference
  2
AVE_RENDER
 10
0.0
 20
0.0
 30
0.0
1001
AVE_RENDER
1002
{
1070
     2
1000
Raytr Opt
1070
     2
1070
     0
1070
     2
1040
2.0
1040
4.0
1070
     0
1070
     1
1070
     1
1040
0.03
1070
     3
1040
0.03
1002
}
  0
INSERT
  5
99
330
1F
100
AcDbEntity
  8
ASHADE
 62
     7
100
AcDbBlockReference
  2
AVE_RENDER
 10
0.0
 20
0.0
 30
0.0
1001
AVE_RENDER
1002
{
1070
     0
1000
RFile Opt
1070
     1
1070
   640
1070
   480
1070
 10000
1070
     1
1070
     8
1070
     8
1070
     0
1070
     0
1070
     0
1070
     0
1070
     0
1070
     0
1070
     0
1002
}
  0
INSERT
  5
9A
330
1F
100
AcDbEntity
  8
ASHADE
 62
     8
100
AcDbBlockReference
  2
AVE_RENDER
 10
0.0
 20
0.0
 30
0.0
1001
AVE_RENDER
1002
{
1070
     0
1000
Fog Opt
1070
     0
1070
     0
1040
0.0
1040
1.0
1040
0.0
1040
1.0
1010
0.5
1020
0.5
1030
0.5
1002
}
  0
INSERT
  5
9B
330
1F
100
AcDbEntity
  8
ASHADE
 62
     9
100
AcDbBlockReference
  2
AVE_RENDER
 10
0.0
 20
0.0
 30
0.0
1001
AVE_RENDER
1002
{
1070
     0
1000
BG Opt
1070
     0
1070
     1
1010
0.0
1020
0.0
1030
0.0
1010
1.0
1020
0.0
1030
0.0
1010
0.0
1020
1.0
1030
0.0
1010
0.0
1020
0.0
1030
1.0
1040
0.5
1040
0.33
1040
0.0
1000

1070
     1
1000

1070
     1
1070
     1
1040
1.0
1040
1.0
1040
0.0
1040
0.0
1070
     0
1002
}
  0
INSERT
  5
A2
330
1F
100
AcDbEntity
  8
ASHADE
 62
     1
100
AcDbBlockReference
  2
AVE_GLOBAL
 10
0.0
 20
0.0
 30
0.0
1001
AVE_MATERIAL
1002
{
1000
*GLOBAL*
1000
2
1000
Global finish.
1002
{
1002
}
1002
{
1070
    63
1002
{
1002
{
1010
-1.0
1020
-1.0
1030
-1.0
1002
}
1040
0.1000000014901161
1000

1040
0.0
1002
{
1002
}
1040
0.0
1002
{
1002
}
1040
0.0
1002
}
1002
{
1002
{
1010
-1.0
1020
-1.0
1030
-1.0
1002
}
1040
0.6999999880790711
1000

1040
0.0
1002
{
1002
}
1040
0.0
1002
{
1002
}
1040
0.0
1002
}
1002
{
1002
{
1010
-1.0
1020
-1.0
1030
-1.0
1002
}
1040
0.2000000029802322
1000

1040
0.0
1002
{
1002
}
1040
0.0
1002
{
1002
}
1040
0.0
1002
}
1002
{
1070
     0
1002
{
1070
     1
1002
{
1040
1.0
1040
1.0
1000

1040
0.0
1002
{
1002
}
1040
0.0
1002
{
1002
}
1040
0.0
1002
}
1002
}
1040
1.0
1040
0.0
1040
0.0
1002
}
1002
{
1040
1.0
1040
1.0
1000

1040
0.0
1002
{
1002
}
1040
0.0
1002
{
1002
}
1040
0.0
1002
}
1002
{
1040
0.5
1040
1.0
1000

1040
0.0
1002
{
1002
}
1040
0.0
1002
{
1002
}
1040
0.0
1002
}
1002
{
1070
     0
1040
0.0
1002
{
1002
}
1040
1.0
1002
{
1002
}
1040
0.0
1002
}
1002
{
1040
0.0
1002
{
1002
{
1010
0.0
1020
0.0
1030
0.0
1002
}
1040
1.0
1000

1040
0.0
1002
{
1002
}
1040
0.0
1002
{
1002
}
1040
0.0
1002
}
1002
}
1002
{
1002
{
1070
     1
1002
{
1040
0.0
1040
1.0
1000

1040
0.0
1002
{
1002
}
1040
0.0
1002
{
1002
}
1040
0.0
1002
}
1002
}
1040
0.0
1002
{
1002
}
1010
1.0
1020
0.0
1030
0.0
1010
0.0
1020
1.0
1030
0.0
1010
0.0
1020
0.0
1030
1.0
1070
     0
1002
}
1002
{
1002
{
1040
1.0
1040
1.0
1002
{
1070
     1
1002
{
1040
1.0
1040
1.0
1000

1040
0.0
1002
{
1002
}
1040
0.0
1002
{
1002
}
1040
0.0
1002
}
1002
}
1002
}
1070
     0
1040
0.0
1002
{
1002
}
1002
}
1002
{
1002
}
1002
}
1002
{
1071
        3
1070
     3
1070
     0
1002
{
1070
     2
1070
     0
1070
     0
1040
0.0
1002
}
1070
     0
1070
     2
1002
{
1002
}
1002
}
1002
{
1040
8030.0
1040
190.3000030517578
1040
0.3050000071525574
1040
228.0
1040
545.0
1040
14.0
1040
17.39999961853027
1040
0.4560000002384186
1002
}
1002
}
  0
MESH
  5
F9
330
1F
100
AcDbEntity
  8
OracDecor_cornice_mouldings
 62
   213
420
 14768327
160
             29240
310
387200002C0300000C00000013000000020000003C0000000600000002000000000000E0FF3F8FC0000000000000F8BE00000080129448C0000000E0FF3F8FC000000080CFE513C0000000C0129448C00C000000130000000A0000003C0000000600000002000000000000E0FF3F8FC0000000000000F8BE00000080129448
310
C00000002000408F40000000000000F6BE00000080129448C00C00000013000000120000003C00000006000000020000000000002000408F4000000080CEE513C0000000C0129448C00000002000408F40000000000000F6BE00000080129448C00C000000130000001A0000003C0000000600000002000000000000200040
310
8F4000000080CEE513C0000000C0129448C0000000E0FF3F8FC000000080CFE513C0000000C0129448C00C00000013000000220000003C0000000600000002000000000000E0FF3F8FC0000000000000F8BE00000080129448C0000000E0FF3F8FC0000000000000FABE000000C07B4246C00C000000130000002A0000003C
310
0000000600000002000000000000E0FF3F8FC0000000000000FABE000000C07B4246C00000002000408F40000000000000F6BE000000C07B4246C00C00000013000000320000003C00000006000000020000000000002000408F40000000000000F6BE000000C07B4246C00000002000408F40000000000000F6BE00000080
310
129448C00C000000130000003A0000003C0000000600000002000000000000E0FF3F8FC0000000000000FABE000000C07B4246C0000000E0FF3F8FC000000000401AB1BF000000008D0146C00C00000013000000420000003C00000006000000020000000000002000408F4000000000001AB1BF000000008D0146C0000000
310
E0FF3F8FC000000000401AB1BF000000008D0146C00C000000130000004A0000003C00000006000000020000000000002000408F40000000000000F6BE000000C07B4246C00000002000408F4000000000001AB1BF000000008D0146C00C00000013000000520000003C0000000600000002000000000000E0FF3F8FC00000
310
0000401AB1BF000000008D0146C0000000E0FF3F8FC000000000B0CED0BF000000800BC545C00C000000130000005A0000003C00000006000000020000000000002000408F4000000000A0CED0BF000000800BC545C0000000E0FF3F8FC000000000B0CED0BF000000800BC545C00C00000013000000620000003C00000006
310
000000020000000000002000408F4000000000001AB1BF000000008D0146C00000002000408F4000000000A0CED0BF000000800BC545C00C000000130000006A0000003C0000000600000002000000000000E0FF3F8FC000000000D84EE6BF00000080B66445C0000000E0FF3F8FC000000000B0CED0BF000000800BC545C0
310
0C00000013000000720000003C0000000600000002000000000000E0FF3F8FC000000000D84EE6BF00000080B66445C00000002000408F4000000000D04EE6BF00000080B66445C00C000000130000007A0000003C00000006000000020000000000002000408F4000000000A0CED0BF000000800BC545C00000002000408F
310
4000000000D04EE6BF00000080B66445C00C00000013000000820000003C0000000600000002000000000000E0FF3F8FC000000000D84EE6BF00000080B66445C0000000E0FF3F8FC0000000006882EABF00000040FE2545C00C000000130000008A0000003C00000006000000020000000000002000408F40000000006082
310
EABF00000040FE2545C0000000E0FF3F8FC0000000006882EABF00000040FE2545C00C00000013000000920000003C00000006000000020000000000002000408F4000000000D04EE6BF00000080B66445C00000002000408F40000000006082EABF00000040FE2545C00C000000130000009A0000003C0000000600000002
310
000000000000E0FF3F8FC000000000D84EE6BF0000000046E744C0000000E0FF3F8FC0000000006882EABF00000040FE2545C00C00000013000000A20000003C0000000600000002000000000000E0FF3F8FC000000000D84EE6BF0000000046E744C00000002000408F4000000000D04EE6BF0000000046E744C00C000000
310
13000000AA0000003C00000006000000020000000000002000408F40000000006082EABF00000040FE2545C00000002000408F4000000000D04EE6BF0000000046E744C00C00000013000000B20000003C0000000600000002000000000000E0FF3F8FC000000000D84EE6BF0000000046E744C0000000E0FF3F8FC0000000
310
00B0CED0BF00000000F18644C00C00000013000000BA0000003C00000006000000020000000000002000408F4000000000A8CED0BF00000000F18644C0000000E0FF3F8FC000000000B0CED0BF00000000F18644C00C00000013000000C20000003C00000006000000020000000000002000408F4000000000D04EE6BF0000
310
000046E744C00000002000408F4000000000A8CED0BF00000000F18644C00C00000013000000CA0000003C0000000600000002000000000000E0FF3F8FC000000000A01AB1BF000000C06E4A44C0000000E0FF3F8FC000000000B0CED0BF00000000F18644C00C00000013000000D20000003C000000060000000200000000
310
0000E0FF3F8FC000000000A01AB1BF000000C06E4A44C00000002000408F4000000000601AB1BF000000C06E4A44C00C00000013000000DA0000003C00000006000000020000000000002000408F4000000000A8CED0BF00000000F18644C00000002000408F4000000000601AB1BF000000C06E4A44C00C00000013000000
310
E20000003C0000000600000002000000000000E0FF3F8FC000000000A01AB1BF000000C06E4A44C0000000E0FF3F8FC0000000000000FCBE00000040800944C00C00000013000000EA0000003C0000000600000002000000000000E0FF3F8FC0000000000000FCBE00000040800944C00000002000408F40000000000000FA
310
BE00000040800944C00C00000013000000F20000003C00000006000000020000000000002000408F4000000000601AB1BF000000C06E4A44C00000002000408F40000000000000FABE00000040800944C00C00000013000000FA0000003C0000000600000002000000000000E0FF3F8FC0000000000000FCBE000000408009
310
44C0000000E0FF3F8FC0000000000000FCBE00000000251743C00C00000013000000020100003C0000000600000002000000000000E0FF3F8FC0000000000000FCBE00000000251743C00000002000408F40000000000000FABE00000000251743C00C000000130000000A0100003C00000006000000020000000000002000
310
408F40000000000000FABE00000000251743C00000002000408F40000000000000FABE00000040800944C00C00000013000000120100003C0000000600000002000000000000E0FF3F8FC0000000000000FCBE00000000251743C0000000E0FF3F8FC000000000B019C3BF0000000023B742C00C000000130000001A010000
310
3C00000006000000020000000000002000408F40000000009019C3BF0000000023B742C0000000E0FF3F8FC000000000B019C3BF0000000023B742C00C00000013000000220100003C00000006000000020000000000002000408F40000000009019C3BF0000000023B742C00000002000408F40000000000000FABE000000
310
00251743C00C000000130000002A0100003C0000000600000002000000000000E0FF3F8FC000000000005FE2BF000000E0BE6542C0000000E0FF3F8FC000000000B019C3BF0000000023B742C00C00000013000000320100003C0000000600000002000000000000E0FF3F8FC000000000005FE2BF000000E0BE6542C00000
310
002000408F4000000000FC5EE2BF000000E0BE6542C00C000000130000003A0100003C00000006000000020000000000002000408F4000000000FC5EE2BF000000E0BE6542C00000002000408F40000000009019C3BF0000000023B742C00C00000013000000420100003C0000000600000002000000000000E0FF3F8FC000
310
000000005FE2BF000000E0BE6542C0000000E0FF3F8FC000000000065CF3BF000000805C2F42C00C000000130000004A0100003C00000006000000020000000000002000408F4000000000025CF3BF000000805C2F42C0000000E0FF3F8FC000000000065CF3BF000000805C2F42C00C00000013000000520100003C000000
310
06000000020000000000002000408F4000000000025CF3BF000000805C2F42C00000002000408F4000000000FC5EE2BF000000E0BE6542C00C000000130000005A0100003C0000000600000002000000000000E0FF3F8FC000000000465CFFBF000000A0431C42C0000000E0FF3F8FC000000000065CF3BF000000805C2F42
310
C00C00000013000000620100003C0000000600000002000000000000E0FF3F8FC000000000465CFFBF000000A0431C42C00000002000408F4000000000425CFFBF000000A0431C42C00C000000130000006A0100003C00000006000000020000000000002000408F4000000000025CF3BF000000805C2F42C0000000200040
310
8F4000000000425CFFBF000000A0431C42C00C00000013000000720100003C0000000600000002000000000000E0FF3F8FC000000000465CFFBF000000A0431C42C0000000E0FF3F8FC0000000804B1413C0000000A0431C42C00C000000130000007A0100003C00000006000000020000000000002000408F40000000804A
310
1413C0000000A0431C42C0000000E0FF3F8FC0000000804B1413C0000000A0431C42C00C00000013000000820100003C00000006000000020000000000002000408F40000000804A1413C0000000A0431C42C00000002000408F4000000000425CFFBF000000A0431C42C00C000000130000008A0100003C00000006000000
310
02000000000000E0FF3F8FC0000000804B1413C0000000A0431C42C0000000E0FF3F8FC0000000809C0215C0000000A04D1042C00C00000013000000920100003C00000006000000020000000000002000408F40000000809B0215C0000000A04D1042C0000000E0FF3F8FC0000000809C0215C0000000A04D1042C00C0000
310
00130000009A0100003C00000006000000020000000000002000408F40000000809B0215C0000000A04D1042C00000002000408F40000000804A1413C0000000A0431C42C00C00000013000000A20100003C0000000600000002000000000000E0FF3F8FC0000000809C0215C0000000A04D1042C0000000E0FF3F8FC00000
310
008083A916C00000000026EE41C00C00000013000000AA0100003C00000006000000020000000000002000408F400000008082A916C00000000026EE41C0000000E0FF3F8FC00000008083A916C00000000026EE41C00C00000013000000B20100003C00000006000000020000000000002000408F40000000809B0215C000
310
0000A04D1042C00000002000408F400000008082A916C00000000026EE41C00C00000013000000BA0100003C0000000600000002000000000000E0FF3F8FC00000008083A916C00000000026EE41C0000000E0FF3F8FC000000080E6CB17C0000000E0BBBA41C00C00000013000000C20100003C0000000600000002000000
310
0000002000408F4000000080E5CB17C0000000E0BBBA41C0000000E0FF3F8FC000000080E6CB17C0000000E0BBBA41C00C00000013000000CA0100003C00000006000000020000000000002000408F400000008082A916C00000000026EE41C00000002000408F4000000080E5CB17C0000000E0BBBA41C00C000000130000
310
00D20100003C0000000600000002000000000000E0FF3F8FC000000000D13F18C0000000007D7D41C0000000E0FF3F8FC000000080E6CB17C0000000E0BBBA41C00C00000013000000DA0100003C0000000600000002000000000000E0FF3F8FC000000000D13F18C0000000007D7D41C00000002000408F4000000080D13F
310
18C0000000007D7D41C00C00000013000000E20100003C00000006000000020000000000002000408F4000000080E5CB17C0000000E0BBBA41C00000002000408F4000000080D13F18C0000000007D7D41C00C00000013000000EA0100003C0000000600000002000000000000E0FF3F8FC000000000D13F18C0000000007D
310
7D41C0000000E0FF3F8FC0000000C08C031CC000000020AAA43CC00C00000013000000F20100003C00000006000000020000000000002000408F40000000008D031CC000000000AAA43CC0000000E0FF3F8FC0000000C08C031CC000000020AAA43CC00C00000013000000FA0100003C000000060000000200000000000020
310
00408F40000000008D031CC000000000AAA43CC00000002000408F4000000080D13F18C0000000007D7D41C00C00000013000000020200003C0000000600000002000000000000E0FF3F8FC0000000E0948522C0000000A0BEA536C0000000E0FF3F8FC0000000C08C031CC000000020AAA43CC00C000000130000000A0200
310
003C0000000600000002000000000000E0FF3F8FC0000000E0948522C0000000A0BEA536C00000002000408F4000000000958522C000000080BEA536C00C00000013000000120200003C00000006000000020000000000002000408F4000000000958522C000000080BEA536C00000002000408F40000000008D031CC00000
310
0000AAA43CC00C000000130000001A0200003C0000000600000002000000000000E0FF3F8FC0000000E0948522C0000000A0BEA536C0000000E0FF3F8FC0000000C0427729C0000000605E4331C00C00000013000000220200003C00000006000000020000000000002000408F40000000E0427729C0000000405E4331C000
310
0000E0FF3F8FC0000000C0427729C0000000605E4331C00C000000130000002A0200003C00000006000000020000000000002000408F40000000E0427729C0000000405E4331C00000002000408F4000000000958522C000000080BEA536C00C00000013000000320200003C0000000600000002000000000000E0FF3F8FC0
310
000000C05E4331C0000000A0417729C0000000E0FF3F8FC0000000C0427729C0000000605E4331C00C000000130000003A0200003C0000000600000002000000000000E0FF3F8FC0000000C05E4331C0000000A0417729C00000002000408F40000000C05E4331C000000080417729C00C00000013000000420200003C0000
310
0006000000020000000000002000408F40000000C05E4331C000000080417729C00000002000408F40000000E0427729C0000000405E4331C00C000000130000004A0200003C0000000600000002000000000000E0FF3F8FC0000000C05E4331C0000000A0417729C0000000E0FF3F8FC000000040BFA536C0000000E09385
310
22C00C00000013000000520200003C00000006000000020000000000002000408F4000000040BFA536C0000000C0938522C0000000E0FF3F8FC000000040BFA536C0000000E0938522C00C000000130000005A0200003C00000006000000020000000000002000408F4000000040BFA536C0000000C0938522C00000002000
310
408F40000000C05E4331C000000080417729C00C00000013000000620200003C0000000600000002000000000000E0FF3F8FC0000000C0AAA43CC0000000808A031CC0000000E0FF3F8FC000000040BFA536C0000000E0938522C00C000000130000006A0200003C0000000600000002000000000000E0FF3F8FC0000000C0
310
AAA43CC0000000808A031CC00000002000408F40000000C0AAA43CC0000000808A031CC00C00000013000000720200003C00000006000000020000000000002000408F40000000C0AAA43CC0000000808A031CC00000002000408F4000000040BFA536C0000000C0938522C00C000000130000007A0200003C000000060000
310
0002000000000000E0FF3F8FC0000000C0AAA43CC0000000808A031CC0000000E0FF3F8FC0000000E07C7D41C000000080D03F18C00C00000013000000820200003C00000006000000020000000000002000408F40000000407D7D41C000000000D03F18C0000000E0FF3F8FC0000000E07C7D41C000000080D03F18C00C00
310
0000130000008A0200003C00000006000000020000000000002000408F40000000407D7D41C000000000D03F18C00000002000408F40000000C0AAA43CC0000000808A031CC00C00000013000000920200003C0000000600000002000000000000E0FF3F8FC0000000E0BBBA41C000000000E4CB17C0000000E0FF3F8FC000
310
0000E07C7D41C000000080D03F18C00C000000130000009A0200003C0000000600000002000000000000E0FF3F8FC0000000E0BBBA41C000000000E4CB17C00000002000408F4000000000BCBA41C000000000E4CB17C00C00000013000000A20200003C00000006000000020000000000002000408F40000000407D7D41C0
310
00000000D03F18C00000002000408F4000000000BCBA41C000000000E4CB17C00C00000013000000AA0200003C0000000600000002000000000000E0FF3F8FC0000000E0BBBA41C000000000E4CB17C0000000E0FF3F8FC0000000E025EE41C00000000080A916C00C00000013000000B20200003C00000006000000020000
310
00000000E0FF3F8FC0000000E025EE41C00000000080A916C00000002000408F400000004026EE41C00000000080A916C00C00000013000000BA0200003C00000006000000020000000000002000408F4000000000BCBA41C000000000E4CB17C00000002000408F400000004026EE41C00000000080A916C00C0000001300
310
0000C20200003C0000000600000002000000000000E0FF3F8FC0000000E025EE41C00000000080A916C0000000E0FF3F8FC0000000A04D1042C000000000990215C00C00000013000000CA0200003C00000006000000020000000000002000408F40000000C04D1042C000000000990215C0000000E0FF3F8FC0000000A04D
310
1042C000000000990215C00C00000013000000D20200003C00000006000000020000000000002000408F40000000C04D1042C000000000990215C00000002000408F400000004026EE41C00000000080A916C00C00000013000000DA0200003C0000000600000002000000000000E0FF3F8FC0000000A0431C42C000000000
310
481413C0000000E0FF3F8FC0000000A04D1042C000000000990215C00C00000013000000E20200003C0000000600000002000000000000E0FF3F8FC0000000A0431C42C000000000481413C00000002000408F40000000C0431C42C000000000481413C00C00000013000000EA0200003C0000000600000002000000000000
310
2000408F40000000C04D1042C000000000990215C00000002000408F40000000C0431C42C000000000481413C00C00000013000000F20200003C0000000600000002000000000000E0FF3F8FC0000000A0431C42C000000000481413C0000000E0FF3F8FC0000000A0431C42C000000000385CFFBF0C00000013000000FA02
310
00003C00000006000000020000000000002000408F40000000C0431C42C000000000385CFFBF000000E0FF3F8FC0000000A0431C42C000000000385CFFBF0C00000013000000020300003C00000006000000020000000000002000408F40000000C0431C42C000000000481413C00000002000408F40000000C0431C42C000
310
000000385CFFBF0C000000130000000A0300003C0000000600000002000000000000E0FF3F8FC0000000A0431C42C000000000385CFFBF000000E0FF3F8FC0000000605C2F42C000000000FA5BF3BF0C00000013000000120300003C00000006000000020000000000002000408F40000000C05C2F42C000000000FA5BF3BF
310
000000E0FF3F8FC0000000605C2F42C000000000FA5BF3BF0C000000130000001A0300003C00000006000000020000000000002000408F40000000C0431C42C000000000385CFFBF0000002000408F40000000C05C2F42C000000000FA5BF3BF0C00000013000000220300003C0000000600000002000000000000E0FF3F8F
310
C0000000605C2F42C000000000FA5BF3BF000000E0FF3F8FC0000000E0BE6542C000000000E85EE2BF0C000000130000002A0300003C00000006000000020000000000002000408F4000000000BF6542C000000000E85EE2BF000000E0FF3F8FC0000000E0BE6542C000000000E85EE2BF0C00000013000000320300003C00
310
000006000000020000000000002000408F40000000C05C2F42C000000000FA5BF3BF0000002000408F4000000000BF6542C000000000E85EE2BF0C000000130000003A0300003C0000000600000002000000000000E0FF3F8FC0000000E0BE6542C000000000E85EE2BF000000E0FF3F8FC0000000E022B742C00000000060
310
19C3BF0C00000013000000420300003C00000006000000020000000000002000408F400000004023B742C0000000006019C3BF000000E0FF3F8FC0000000E022B742C0000000006019C3BF0C000000130000004A0300003C00000006000000020000000000002000408F400000004023B742C0000000006019C3BF00000020
310
00408F4000000000BF6542C000000000E85EE2BF0C00000013000000520300003C0000000600000002000000000000E0FF3F8FC0000000E022B742C0000000006019C3BF000000E0FF3F8FC000000040251743C0000000000000F0BE0C000000130000005A0300003C00000006000000020000000000002000408F40000000
310
40251743C0000000000000F0BE000000E0FF3F8FC000000040251743C0000000000000F0BE0C00000013000000620300003C00000006000000020000000000002000408F400000004023B742C0000000006019C3BF0000002000408F4000000040251743C0000000000000F0BE0C000000130000006A0300003C0000000600
310
000002000000000000E0FF3F8FC000000040251743C0000000000000F0BE000000E0FF3F8FC000000080800944C0000000000000F0BE0C00000013000000720300003C00000006000000020000000000002000408F4000000080800944C0000000000000F0BE000000E0FF3F8FC000000080800944C0000000000000F0BE0C
310
000000130000007A0300003C00000006000000020000000000002000408F4000000080800944C0000000000000F0BE0000002000408F4000000040251743C0000000000000F0BE0C00000013000000820300003C0000000600000002000000000000E0FF3F8FC000000080800944C0000000000000F0BE000000E0FF3F8FC0
310
000000406F4A44C000000000E019B1BF0C000000130000008A0300003C00000006000000020000000000002000408F40000000406F4A44C000000000E019B1BF000000E0FF3F8FC0000000406F4A44C000000000E019B1BF0C00000013000000920300003C00000006000000020000000000002000408F4000000080800944
310
C0000000000000F0BE0000002000408F40000000406F4A44C000000000E019B1BF0C000000130000009A0300003C0000000600000002000000000000E0FF3F8FC0000000406F4A44C000000000E019B1BF000000E0FF3F8FC0000000E0F08644C00000000088CED0BF0C00000013000000A20300003C000000060000000200
310
00000000002000408F40000000E0F08644C00000000088CED0BF000000E0FF3F8FC0000000E0F08644C00000000088CED0BF0C00000013000000AA0300003C00000006000000020000000000002000408F40000000E0F08644C00000000088CED0BF0000002000408F40000000406F4A44C000000000E019B1BF0C00000013
310
000000B20300003C0000000600000002000000000000E0FF3F8FC0000000E045E744C000000000C04EE6BF000000E0FF3F8FC0000000E0F08644C00000000088CED0BF0C00000013000000BA0300003C0000000600000002000000000000E0FF3F8FC0000000E045E744C000000000C04EE6BF0000002000408F40000000E0
310
45E744C000000000C04EE6BF0C00000013000000C20300003C00000006000000020000000000002000408F40000000E0F08644C00000000088CED0BF0000002000408F40000000E045E744C000000000C04EE6BF0C00000013000000CA0300003C0000000600000002000000000000E0FF3F8FC0000000E045E744C0000000
310
00C04EE6BF000000E0FF3F8FC000000020FE2545C0000000005082EABF0C00000013000000D20300003C00000006000000020000000000002000408F4000000020FE2545C0000000005082EABF000000E0FF3F8FC000000020FE2545C0000000005082EABF0C00000013000000DA0300003C00000006000000020000000000
310
002000408F40000000E045E744C000000000C04EE6BF0000002000408F4000000020FE2545C0000000005082EABF0C00000013000000E20300003C0000000600000002000000000000E0FF3F8FC000000060B66445C000000000C04EE6BF000000E0FF3F8FC000000020FE2545C0000000005082EABF0C00000013000000EA
310
0300003C0000000600000002000000000000E0FF3F8FC000000060B66445C000000000C04EE6BF0000002000408F4000000060B66445C000000000C04EE6BF0C00000013000000F20300003C00000006000000020000000000002000408F4000000060B66445C000000000C04EE6BF0000002000408F4000000020FE2545C0
310
000000005082EABF0C00000013000000FA0300003C0000000600000002000000000000E0FF3F8FC000000060B66445C000000000C04EE6BF000000E0FF3F8FC0000000600BC545C00000000088CED0BF0C00000013000000020400003C0000000600000002000000000000E0FF3F8FC0000000600BC545C00000000088CED0
310
BF0000002000408F40000000600BC545C00000000088CED0BF0C000000130000000A0400003C00000006000000020000000000002000408F4000000060B66445C000000000C04EE6BF0000002000408F40000000600BC545C00000000088CED0BF0C00000013000000120400003C0000000600000002000000000000E0FF3F
310
8FC0000000600BC545C00000000088CED0BF000000E0FF3F8FC0000000808D0146C000000000001AB1BF0C000000130000001A0400003C00000006000000020000000000002000408F40000000808D0146C000000000E019B1BF000000E0FF3F8FC0000000808D0146C000000000001AB1BF0C00000013000000220400003C
310
00000006000000020000000000002000408F40000000808D0146C000000000E019B1BF0000002000408F40000000600BC545C00000000088CED0BF0C000000130000002A0400003C0000000600000002000000000000E0FF3F8FC0000000407C4246C0000000000000F2BE000000E0FF3F8FC0000000808D0146C000000000
310
001AB1BF0C00000013000000320400003C00000006000000020000000000002000408F40000000407C4246C0000000000000F2BE000000E0FF3F8FC0000000407C4246C0000000000000F2BE0C000000130000003A0400003C00000006000000020000000000002000408F40000000407C4246C0000000000000F2BE000000
310
2000408F40000000808D0146C000000000E019B1BF0C00000013000000420400003C0000000600000002000000000000E0FF3F8FC0000000C0129448C0000000000000F2BE000000E0FF3F8FC0000000407C4246C0000000000000F2BE0C000000130000004A0400003C0000000600000002000000000000E0FF3F8FC00000
310
00C0129448C0000000000000F2BE0000002000408F40000000C0129448C0000000000000F2BE0C00000013000000520400003C00000006000000020000000000002000408F40000000C0129448C0000000000000F2BE0000002000408F40000000407C4246C0000000000000F2BE0C000000130000005A0400003C00000006
310
00000002000000000000E0FF3F8FC0000000C0129448C0000000000000F2BE000000E0FF3F8FC0000000A0129448C000000080CDE513C00C00000013000000620400003C0000000600000002000000000000E0FF3F8FC0000000A0129448C000000080CDE513C00000002000408F40000000A0129448C000000080CDE513C0
310
0C000000130000006A0400003C00000006000000020000000000002000408F40000000C0129448C0000000000000F2BE0000002000408F40000000A0129448C000000080CDE513C00C00000013000000720400003C0000000600000002000000000000E0FF3F8FC0000000E0226C46C0000000809AB214C0000000E0FF3F8F
310
C000000000797A48C0000000809AB214C00C000000130000007A0400003C0000000600000002000000000000E0FF3F8FC0000000E0226C46C0000000809AB214C00000002000408F40000000E0226C46C0000000809AB214C00C00000013000000820400003C00000006000000020000000000002000408F4000000000797A
310
48C0000000809AB214C00000002000408F40000000E0226C46C0000000809AB214C00C000000130000008A0400003C00000006000000020000000000002000408F4000000000797A48C0000000809AB214C0000000E0FF3F8FC000000000797A48C0000000809AB214C00C00000013000000920400003C0000000600000002
310
000000000000E0FF3F8FC0000000E0226C46C0000000809AB214C0000000E0FF3F8FC0000000E0768D46C0000000C032101CC00C000000130000009A0400003C0000000600000002000000000000E0FF3F8FC0000000E0768D46C0000000C032101CC00000002000408F40000000E0768D46C00000008032101CC00C000000
310
13000000A20400003C00000006000000020000000000002000408F40000000E0226C46C0000000809AB214C00000002000408F40000000E0768D46C00000008032101CC00C00000013000000AA0400003C0000000600000002000000000000E0FF3F8FC0000000E0768D46C0000000C032101CC0000000E0FF3F8FC0000000
310
60096146C0000000E089AF21C00C00000013000000B20400003C0000000600000002000000000000E0FF3F8FC000000060096146C0000000E089AF21C00000002000408F4000000060096146C0000000C089AF21C00C00000013000000BA0400003C00000006000000020000000000002000408F4000000060096146C00000
310
00C089AF21C00000002000408F40000000E0768D46C00000008032101CC00C00000013000000C20400003C0000000600000002000000000000E0FF3F8FC000000060096146C0000000E089AF21C0000000E0FF3F8FC00000002098EB45C0000000A0C8EB24C00C00000013000000CA0400003C000000060000000200000000
310
00002000408F400000002098EB45C000000080C8EB24C0000000E0FF3F8FC00000002098EB45C0000000A0C8EB24C00C00000013000000D20400003C00000006000000020000000000002000408F4000000060096146C0000000C089AF21C00000002000408F400000002098EB45C000000080C8EB24C00C00000013000000
310
DA0400003C0000000600000002000000000000E0FF3F8FC00000002098EB45C0000000A0C8EB24C0000000E0FF3F8FC000000020AD3945C000000000616427C00C00000013000000E20400003C00000006000000020000000000002000408F4000000020AD3945C000000000616427C0000000E0FF3F8FC000000020AD3945
310
C000000000616427C00C00000013000000EA0400003C00000006000000020000000000002000408F400000002098EB45C000000080C8EB24C00000002000408F4000000020AD3945C000000000616427C00C00000013000000F20400003C0000000600000002000000000000E0FF3F8FC000000020AD3945C0000000006164
310
27C0000000E0FF3F8FC000000020465E44C000000040CED528C00C00000013000000FA0400003C00000006000000020000000000002000408F4000000020465E44C000000040CED528C0000000E0FF3F8FC000000020465E44C000000040CED528C00C00000013000000020500003C00000006000000020000000000002000
310
408F4000000020AD3945C000000000616427C00000002000408F4000000020465E44C000000040CED528C00C000000130000000A0500003C0000000600000002000000000000E0FF3F8FC0000000A0D17043C0000000209E1829C0000000E0FF3F8FC000000020465E44C000000040CED528C00C0000001300000012050000
310
3C0000000600000002000000000000E0FF3F8FC0000000A0D17043C0000000209E1829C00000002000408F40000000A0D17043C0000000009E1829C00C000000130000001A0500003C00000006000000020000000000002000408F4000000020465E44C000000040CED528C00000002000408F40000000A0D17043C0000000
310
009E1829C00C00000013000000220500003C0000000600000002000000000000E0FF3F8FC0000000A0D17043C0000000209E1829C0000000E0FF3F8FC0000000E0A68A42C000000000B12528C00C000000130000002A0500003C0000000600000002000000000000E0FF3F8FC0000000E0A68A42C000000000B12528C00000
310
002000408F40000000E0A68A42C000000000B12528C00C00000013000000320500003C00000006000000020000000000002000408F40000000A0D17043C0000000009E1829C00000002000408F40000000E0A68A42C000000000B12528C00C000000130000003A0500003C0000000600000002000000000000E0FF3F8FC000
310
0000E0A68A42C000000000B12528C0000000E0FF3F8FC00000000093F941C000000000BD0630C00C00000013000000420500003C00000006000000020000000000002000408F400000000093F941C000000000BD0630C0000000E0FF3F8FC00000000093F941C000000000BD0630C00C000000130000004A0500003C000000
310
06000000020000000000002000408F40000000E0A68A42C000000000B12528C00000002000408F400000000093F941C000000000BD0630C00C00000013000000520500003C0000000600000002000000000000E0FF3F8FC000000080FA6D40C0000000C0281C30C0000000E0FF3F8FC000000040EFD841C000000000203630
310
C00C000000130000005A0500003C00000006000000020000000000002000408F4000000080FA6D40C0000000C0281C30C0000000E0FF3F8FC000000080FA6D40C0000000C0281C30C00C00000013000000620500003C00000006000000020000000000002000408F4000000040EFD841C000000000203630C0000000200040
310
8F4000000080FA6D40C0000000C0281C30C00C000000130000006A0500003C00000006000000020000000000002000408F4000000040EFD841C000000000203630C0000000E0FF3F8FC000000040EFD841C000000000203630C00C00000013000000720500003C0000000600000002000000000000E0FF3F8FC0000000802A
310
E13EC0000000E0944530C0000000E0FF3F8FC000000000E3E13CC0000000C09DAC30C00C000000130000007A0500003C00000006000000020000000000002000408F4000000020E3E13CC0000000C09DAC30C0000000E0FF3F8FC000000000E3E13CC0000000C09DAC30C00C00000013000000820500003C00000006000000
310
020000000000002000408F4000000020E3E13CC0000000C09DAC30C00000002000408F40000000802AE13EC0000000E0944530C00C000000130000008A0500003C0000000600000002000000000000E0FF3F8FC0000000802AE13EC0000000E0944530C00000002000408F40000000802AE13EC0000000E0944530C00C0000
310
0013000000920500003C0000000600000002000000000000E0FF3F8FC0000000E0492539C0000000C0C82532C0000000E0FF3F8FC0000000C09BFE3AC000000060B74A31C00C000000130000009A0500003C00000006000000020000000000002000408F40000000004A2539C0000000C0C82532C0000000E0FF3F8FC00000
310
00E0492539C0000000C0C82532C00C00000013000000A20500003C00000006000000020000000000002000408F40000000004A2539C0000000C0C82532C00000002000408F40000000E09BFE3AC000000060B74A31C00C00000013000000AA0500003C00000006000000020000000000002000408F40000000E09BFE3AC000
310
000060B74A31C0000000E0FF3F8FC0000000C09BFE3AC000000060B74A31C00C00000013000000B20500003C0000000600000002000000000000E0FF3F8FC0000000E0007437C000000060E62F33C0000000E0FF3F8FC0000000E08FDA35C000000080027334C00C00000013000000BA0500003C0000000600000002000000
310
0000002000408F40000000C08FDA35C000000080027334C0000000E0FF3F8FC0000000E08FDA35C000000080027334C00C00000013000000C20500003C00000006000000020000000000002000408F40000000C08FDA35C000000080027334C00000002000408F4000000000017437C000000040E62F33C00C000000130000
310
00CA0500003C00000006000000020000000000002000408F4000000000017437C000000040E62F33C0000000E0FF3F8FC0000000E0007437C000000060E62F33C00C00000013000000D20500003C0000000600000002000000000000E0FF3F8FC000000000037334C0000000808FDA35C0000000E0FF3F8FC000000020E72F
310
33C000000080007437C00C00000013000000DA0500003C00000006000000020000000000002000408F4000000000E72F33C000000060007437C0000000E0FF3F8FC000000020E72F33C000000080007437C00C00000013000000E20500003C00000006000000020000000000002000408F4000000000E72F33C00000006000
310
7437C00000002000408F40000000E0027334C0000000808FDA35C00C00000013000000EA0500003C0000000600000002000000000000E0FF3F8FC000000000037334C0000000808FDA35C00000002000408F40000000E0027334C0000000808FDA35C00C00000013000000F20500003C0000000600000002000000000000E0
310
FF3F8FC0000000A0C92532C000000080492539C0000000E0FF3F8FC0000000E0B74A31C0000000E09BFE3AC00C00000013000000FA0500003C00000006000000020000000000002000408F4000000000B84A31C0000000C09BFE3AC0000000E0FF3F8FC0000000E0B74A31C0000000E09BFE3AC00C00000013000000020600
310
003C00000006000000020000000000002000408F4000000000B84A31C0000000C09BFE3AC00000002000408F40000000A0C92532C000000080492539C00C000000130000000A0600003C0000000600000002000000000000E0FF3F8FC0000000A0C92532C000000080492539C00000002000408F40000000A0C92532C00000
310
0080492539C00C00000013000000120600003C0000000600000002000000000000E0FF3F8FC000000040954530C0000000402AE13EC0000000E0FF3F8FC0000000409EAC30C000000000E3E13CC00C000000130000001A0600003C00000006000000020000000000002000408F4000000040954530C0000000402AE13EC000
310
0000E0FF3F8FC000000040954530C0000000402AE13EC00C00000013000000220600003C00000006000000020000000000002000408F4000000040954530C0000000402AE13EC00000002000408F40000000409EAC30C000000000E3E13CC00C000000130000002A0600003C00000006000000020000000000002000408F40
310
000000409EAC30C000000000E3E13CC0000000E0FF3F8FC0000000409EAC30C000000000E3E13CC00C00000013000000320600003C0000000600000002000000000000E0FF3F8FC000000040291C30C000000060FA6D40C0000000E0FF3F8FC000000080203630C000000060EFD841C00C000000130000003A0600003C0000
310
000600000002000000000000E0FF3F8FC000000080203630C000000060EFD841C00000002000408F4000000080203630C000000060EFD841C00C00000013000000420600003C00000006000000020000000000002000408F4000000040291C30C000000060FA6D40C00000002000408F4000000080203630C000000060EFD8
310
41C00C000000130000004A0600003C0000000600000002000000000000E0FF3F8FC000000040291C30C000000060FA6D40C00000002000408F4000000040291C30C000000060FA6D40C00C00000013000000520600003C0000000600000002000000000000E0FF3F8FC0000000E0B12528C000000000A78A42C0000000E0FF
310
3F8FC000000080BD0630C00000002093F941C00C000000130000005A0600003C00000006000000020000000000002000408F4000000000B22528C000000000A78A42C0000000E0FF3F8FC0000000E0B12528C000000000A78A42C00C00000013000000620600003C00000006000000020000000000002000408F4000000080
310
BD0630C00000002093F941C00000002000408F4000000000B22528C000000000A78A42C00C000000130000006A0600003C00000006000000020000000000002000408F4000000080BD0630C00000002093F941C0000000E0FF3F8FC000000080BD0630C00000002093F941C00C00000013000000720600003C000000060000
310
0002000000000000E0FF3F8FC0000000E0B12528C000000000A78A42C0000000E0FF3F8FC0000000009F1829C0000000C0D17043C00C000000130000007A0600003C00000006000000020000000000002000408F40000000209F1829C0000000C0D17043C0000000E0FF3F8FC0000000009F1829C0000000C0D17043C00C00
310
000013000000820600003C00000006000000020000000000002000408F4000000000B22528C000000000A78A42C00000002000408F40000000209F1829C0000000C0D17043C00C000000130000008A0600003C0000000600000002000000000000E0FF3F8FC0000000009F1829C0000000C0D17043C0000000E0FF3F8FC000
310
000020CFD528C000000040465E44C00C00000013000000920600003C00000006000000020000000000002000408F4000000040CFD528C000000040465E44C0000000E0FF3F8FC000000020CFD528C000000040465E44C00C000000130000009A0600003C00000006000000020000000000002000408F4000000040CFD528C0
310
00000040465E44C00000002000408F40000000209F1829C0000000C0D17043C00C00000013000000A20600003C0000000600000002000000000000E0FF3F8FC000000020CFD528C000000040465E44C0000000E0FF3F8FC0000000E0616427C000000040AD3945C00C00000013000000AA0600003C00000006000000020000
310
000000002000408F4000000000626427C000000040AD3945C0000000E0FF3F8FC0000000E0616427C000000040AD3945C00C00000013000000B20600003C00000006000000020000000000002000408F4000000040CFD528C000000040465E44C00000002000408F4000000000626427C000000040AD3945C00C0000001300
310
0000BA0600003C0000000600000002000000000000E0FF3F8FC000000060C9EB24C00000004098EB45C0000000E0FF3F8FC0000000E0616427C000000040AD3945C00C00000013000000C20600003C0000000600000002000000000000E0FF3F8FC000000060C9EB24C00000004098EB45C00000002000408F4000000080C9
310
EB24C00000004098EB45C00C00000013000000CA0600003C00000006000000020000000000002000408F4000000000626427C000000040AD3945C00000002000408F4000000080C9EB24C00000004098EB45C00C00000013000000D20600003C0000000600000002000000000000E0FF3F8FC000000060C9EB24C000000040
310
98EB45C0000000E0FF3F8FC0000000A08AAF21C000000080096146C00C00000013000000DA0600003C00000006000000020000000000002000408F40000000C08AAF21C000000080096146C0000000E0FF3F8FC0000000A08AAF21C000000080096146C00C00000013000000E20600003C0000000600000002000000000000
310
2000408F4000000080C9EB24C00000004098EB45C00000002000408F40000000C08AAF21C000000080096146C00C00000013000000EA0600003C0000000600000002000000000000E0FF3F8FC00000004034101CC000000000778D46C0000000E0FF3F8FC0000000A08AAF21C000000080096146C00C00000013000000F206
310
00003C0000000600000002000000000000E0FF3F8FC00000004034101CC000000000778D46C00000002000408F400000008034101CC000000000778D46C00C00000013000000FA0600003C00000006000000020000000000002000408F40000000C08AAF21C000000080096146C00000002000408F400000008034101CC000
310
000000778D46C00C00000013000000020700003C0000000600000002000000000000E0FF3F8FC00000004034101CC000000000778D46C0000000E0FF3F8FC0000000809CB214C000000000236C46C00C000000130000000A0700003C00000006000000020000000000002000408F40000000809BB214C000000000236C46C0
310
000000E0FF3F8FC0000000809CB214C000000000236C46C00C00000013000000120700003C00000006000000020000000000002000408F400000008034101CC000000000778D46C00000002000408F40000000809BB214C000000000236C46C00C000000130000001A0700003C0000000600000002000000000000E0FF3F8F
310
C0000000809CB214C000000000236C46C0000000E0FF3F8FC0000000009CB214C000000020797A48C00C00000013000000220700003C00000006000000020000000000002000408F40000000809BB214C000000020797A48C0000000E0FF3F8FC0000000009CB214C000000020797A48C00C000000130000002A0700003C00
310
000006000000020000000000002000408F40000000809BB214C000000000236C46C00000002000408F40000000809BB214C000000020797A48C00C00000013000000320700003C0000000600000002000000000000E0FF3F8FC0000000802AE13EC0000000E0944530C0000000E0FF3F8FC000000080FA6D40C0000000C028
310
1C30C00C000000130000003A0700003C00000006000000020000000000002000408F4000000080FA6D40C0000000C0281C30C00000002000408F40000000802AE13EC0000000E0944530C00C00000013000000420700003C0000000600000002000000000000E0FF3F8FC000000000E3E13CC0000000C09DAC30C0000000E0
310
FF3F8FC0000000C09BFE3AC000000060B74A31C00C000000130000004A0700003C00000006000000020000000000002000408F4000000020E3E13CC0000000C09DAC30C00000002000408F40000000E09BFE3AC000000060B74A31C00C00000013000000520700003C0000000600000002000000000000E0FF3F8FC0000000
310
E0492539C0000000C0C82532C0000000E0FF3F8FC0000000E0007437C000000060E62F33C00C000000130000005A0700003C00000006000000020000000000002000408F40000000004A2539C0000000C0C82532C00000002000408F4000000000017437C000000040E62F33C00C00000013000000620700003C0000000600
310
000002000000000000E0FF3F8FC000000000037334C0000000808FDA35C0000000E0FF3F8FC0000000E08FDA35C000000080027334C00C000000130000006A0700003C00000006000000020000000000002000408F40000000C08FDA35C000000080027334C00000002000408F40000000E0027334C0000000808FDA35C00C
310
00000013000000720700003C0000000600000002000000000000E0FF3F8FC0000000A0C92532C000000080492539C0000000E0FF3F8FC000000020E72F33C000000080007437C00C000000130000007A0700003C00000006000000020000000000002000408F4000000000E72F33C000000060007437C00000002000408F40
310
000000A0C92532C000000080492539C00C00000013000000820700003C0000000600000002000000000000E0FF3F8FC0000000E0B74A31C0000000E09BFE3AC0000000E0FF3F8FC0000000409EAC30C000000000E3E13CC00C000000130000008A0700003C00000006000000020000000000002000408F4000000000B84A31
310
C0000000C09BFE3AC00000002000408F40000000409EAC30C000000000E3E13CC00C00000013000000920700003C0000000600000002000000000000E0FF3F8FC000000040291C30C000000060FA6D40C0000000E0FF3F8FC000000040954530C0000000402AE13EC00C000000130000009A0700003C000000060000000200
310
00000000002000408F4000000040954530C0000000402AE13EC00000002000408F4000000040291C30C000000060FA6D40C00C00000013000000A20700003C0000000600000002000000000000E0FF3F8FC0000000A0129448C000000080CDE513C0000000E0FF3F8FC0000000407C4246C0000000000000F2BE0C00000013
310
000000AA0700003C0000000600000002000000000000E0FF3F8FC00000000093F941C000000000BD0630C0000000E0FF3F8FC0000000E07C7D41C000000080D03F18C00C00000013000000B20700003C0000000600000002000000000000E0FF3F8FC0000000E0A68A42C000000000B12528C0000000E0FF3F8FC0000000E0
310
7C7D41C000000080D03F18C00C00000013000000BA0700003C0000000600000002000000000000E0FF3F8FC0000000E0768D46C0000000C032101CC0000000E0FF3F8FC0000000A04D1042C000000000990215C00C00000013000000C20700003C0000000600000002000000000000E0FF3F8FC0000000E0226C46C0000000
310
809AB214C0000000E0FF3F8FC0000000A0431C42C000000000481413C00C00000013000000CA0700003C0000000600000002000000000000E0FF3F8FC0000000A0D17043C0000000209E1829C0000000E0FF3F8FC0000000E0BBBA41C000000000E4CB17C00C00000013000000D20700003C00000006000000020000000000
310
00E0FF3F8FC0000000E0BBBA41C000000000E4CB17C0000000E0FF3F8FC000000020465E44C000000040CED528C00C00000013000000DA0700003C0000000600000002000000000000E0FF3F8FC0000000E025EE41C00000000080A916C0000000E0FF3F8FC000000020AD3945C000000000616427C00C00000013000000E2
310
0700003C0000000600000002000000000000E0FF3F8FC0000000E025EE41C00000000080A916C0000000E0FF3F8FC00000002098EB45C0000000A0C8EB24C00C00000013000000EA0700003C0000000600000002000000000000E0FF3F8FC000000060096146C0000000E089AF21C0000000E0FF3F8FC0000000A04D1042C0
310
00000000990215C00C00000013000000F20700003C0000000600000002000000000000E0FF3F8FC0000000E0226C46C0000000809AB214C0000000E0FF3F8FC0000000600BC545C00000000088CED0BF0C00000013000000FA0700003C0000000600000002000000000000E0FF3F8FC0000000E0226C46C0000000809AB214
310
C0000000E0FF3F8FC0000000808D0146C000000000001AB1BF0C00000013000000020800003C0000000600000002000000000000E0FF3F8FC0000000E0226C46C0000000809AB214C0000000E0FF3F8FC0000000407C4246C0000000000000F2BE0C000000130000000A0800003C0000000600000002000000000000E0FF3F
310
8FC0000000E0226C46C0000000809AB214C0000000E0FF3F8FC000000020FE2545C0000000005082EABF0C00000013000000120800003C0000000600000002000000000000E0FF3F8FC0000000E0226C46C0000000809AB214C0000000E0FF3F8FC000000060B66445C000000000C04EE6BF0C000000130000001A0800003C
310
0000000600000002000000000000E0FF3F8FC0000000E0226C46C0000000809AB214C0000000E0FF3F8FC0000000E045E744C000000000C04EE6BF0C00000013000000220800003C0000000600000002000000000000E0FF3F8FC0000000E0226C46C0000000809AB214C0000000E0FF3F8FC0000000A0431C42C000000000
310
385CFFBF0C000000130000002A0800003C0000000600000002000000000000E0FF3F8FC0000000E0226C46C0000000809AB214C0000000E0FF3F8FC0000000605C2F42C000000000FA5BF3BF0C00000013000000320800003C0000000600000002000000000000E0FF3F8FC0000000E0226C46C0000000809AB214C0000000
310
E0FF3F8FC0000000E0BE6542C000000000E85EE2BF0C000000130000003A0800003C0000000600000002000000000000E0FF3F8FC0000000E0226C46C0000000809AB214C0000000E0FF3F8FC0000000E022B742C0000000006019C3BF0C00000013000000420800003C0000000600000002000000000000E0FF3F8FC00000
310
00E0226C46C0000000809AB214C0000000E0FF3F8FC000000040251743C0000000000000F0BE0C000000130000004A0800003C0000000600000002000000000000E0FF3F8FC0000000E0226C46C0000000809AB214C0000000E0FF3F8FC000000080800944C0000000000000F0BE0C00000013000000520800003C00000006
310
00000002000000000000E0FF3F8FC0000000E0226C46C0000000809AB214C0000000E0FF3F8FC0000000406F4A44C000000000E019B1BF0C000000130000005A0800003C0000000600000002000000000000E0FF3F8FC0000000E0226C46C0000000809AB214C0000000E0FF3F8FC0000000E0F08644C00000000088CED0BF
310
0C00000013000000620800003C0000000600000002000000000000E0FF3F8FC0000000009F1829C0000000C0D17043C0000000E0FF3F8FC000000080E6CB17C0000000E0BBBA41C00C000000130000006A0800003C0000000600000002000000000000E0FF3F8FC000000000D13F18C0000000007D7D41C0000000E0FF3F8F
310
C0000000E0B12528C000000000A78A42C00C00000013000000720800003C0000000600000002000000000000E0FF3F8FC000000000465CFFBF000000A0431C42C0000000E0FF3F8FC0000000809CB214C000000000236C46C00C000000130000007A0800003C0000000600000002000000000000E0FF3F8FC0000000809CB2
310
14C000000000236C46C0000000E0FF3F8FC0000000804B1413C0000000A0431C42C00C00000013000000820800003C0000000600000002000000000000E0FF3F8FC00000004034101CC000000000778D46C0000000E0FF3F8FC0000000809C0215C0000000A04D1042C00C000000130000008A0800003C0000000600000002
310
000000000000E0FF3F8FC0000000A08AAF21C000000080096146C0000000E0FF3F8FC0000000809C0215C0000000A04D1042C00C00000013000000920800003C0000000600000002000000000000E0FF3F8FC000000060C9EB24C00000004098EB45C0000000E0FF3F8FC00000008083A916C00000000026EE41C00C000000
310
130000009A0800003C0000000600000002000000000000E0FF3F8FC0000000E0616427C000000040AD3945C0000000E0FF3F8FC00000008083A916C00000000026EE41C00C00000013000000A20800003C0000000600000002000000000000E0FF3F8FC000000020CFD528C000000040465E44C0000000E0FF3F8FC0000000
310
80E6CB17C0000000E0BBBA41C00C00000013000000AA0800003C0000000600000002000000000000E0FF3F8FC0000000000000FABE000000C07B4246C0000000E0FF3F8FC0000000809CB214C000000000236C46C00C00000013000000B20800003C0000000600000002000000000000E0FF3F8FC0000000809CB214C00000
310
0000236C46C0000000E0FF3F8FC000000000401AB1BF000000008D0146C00C00000013000000BA0800003C0000000600000002000000000000E0FF3F8FC0000000000000FABE000000C07B4246C0000000E0FF3F8FC0000000009CB214C000000020797A48C00C00000013000000C20800003C000000060000000200000000
310
0000E0FF3F8FC0000000809CB214C000000000236C46C0000000E0FF3F8FC000000000B0CED0BF000000800BC545C00C00000013000000CA0800003C0000000600000002000000000000E0FF3F8FC000000000D84EE6BF00000080B66445C0000000E0FF3F8FC0000000809CB214C000000000236C46C00C00000013000000
310
D20800003C0000000600000002000000000000E0FF3F8FC0000000809CB214C000000000236C46C0000000E0FF3F8FC0000000006882EABF00000040FE2545C00C00000013000000DA0800003C0000000600000002000000000000E0FF3F8FC000000000D84EE6BF0000000046E744C0000000E0FF3F8FC0000000809CB214
310
C000000000236C46C00C00000013000000E20800003C0000000600000002000000000000E0FF3F8FC0000000809CB214C000000000236C46C0000000E0FF3F8FC000000000B0CED0BF00000000F18644C00C00000013000000EA0800003C0000000600000002000000000000E0FF3F8FC000000000A01AB1BF000000C06E4A
310
44C0000000E0FF3F8FC0000000809CB214C000000000236C46C00C00000013000000F20800003C0000000600000002000000000000E0FF3F8FC0000000000000FCBE00000040800944C0000000E0FF3F8FC0000000809CB214C000000000236C46C00C00000013000000FA0800003C0000000600000002000000000000E0FF
310
3F8FC0000000000000FCBE00000000251743C0000000E0FF3F8FC0000000809CB214C000000000236C46C00C00000013000000020900003C0000000600000002000000000000E0FF3F8FC0000000809CB214C000000000236C46C0000000E0FF3F8FC000000000B019C3BF0000000023B742C00C000000130000000A090000
310
3C0000000600000002000000000000E0FF3F8FC000000000005FE2BF000000E0BE6542C0000000E0FF3F8FC0000000809CB214C000000000236C46C00C00000013000000120900003C0000000600000002000000000000E0FF3F8FC0000000809CB214C000000000236C46C0000000E0FF3F8FC000000000065CF3BF000000
310
805C2F42C00C000000130000001A0900003C0000000600000002000000000000E0FF3F8FC000000080203630C000000060EFD841C0000000E0FF3F8FC0000000C08C031CC000000020AAA43CC00C00000013000000220900003C0000000600000002000000000000E0FF3F8FC000000040291C30C000000060FA6D40C00000
310
00E0FF3F8FC0000000C08C031CC000000020AAA43CC00C000000130000002A0900003C0000000600000002000000000000E0FF3F8FC0000000802AE13EC0000000E0944530C0000000E0FF3F8FC0000000C0AAA43CC0000000808A031CC00C00000013000000320900003C0000000600000002000000000000E0FF3F8FC000
310
0000C0AAA43CC0000000808A031CC0000000E0FF3F8FC000000080FA6D40C0000000C0281C30C00C000000130000003A0900003C0000000600000002000000000000E0FF3F8FC0000000C09BFE3AC000000060B74A31C0000000E0FF3F8FC000000040BFA536C0000000E0938522C00C00000013000000420900003C000000
310
0600000002000000000000E0FF3F8FC0000000C0AAA43CC0000000808A031CC0000000E0FF3F8FC000000000E3E13CC0000000C09DAC30C00C000000130000004A0900003C0000000600000002000000000000E0FF3F8FC000000040954530C0000000402AE13EC0000000E0FF3F8FC0000000C08C031CC000000020AAA43C
310
C00C00000013000000520900003C0000000600000002000000000000E0FF3F8FC0000000409EAC30C000000000E3E13CC0000000E0FF3F8FC0000000C08C031CC000000020AAA43CC00C000000130000005A0900003C0000000600000002000000000000E0FF3F8FC0000000E0948522C0000000A0BEA536C0000000E0FF3F
310
8FC0000000E0B74A31C0000000E09BFE3AC00C00000013000000620900003C0000000600000002000000000000E0FF3F8FC0000000A0C92532C000000080492539C0000000E0FF3F8FC0000000E0948522C0000000A0BEA536C00C000000130000006A0900003C0000000600000002000000000000E0FF3F8FC0000000C05E
310
4331C0000000A0417729C0000000E0FF3F8FC0000000E0007437C000000060E62F33C00C00000013000000720900003C0000000600000002000000000000E0FF3F8FC0000000E0492539C0000000C0C82532C0000000E0FF3F8FC000000040BFA536C0000000E0938522C00C000000130000007A0900003C00000006000000
310
02000000000000E0FF3F8FC000000000037334C0000000808FDA35C0000000E0FF3F8FC0000000C0427729C0000000605E4331C00C00000013000000820900003C0000000600000002000000000000E0FF3F8FC0000000C05E4331C0000000A0417729C0000000E0FF3F8FC0000000E08FDA35C000000080027334C00C0000
310
00130000008A0900003C0000000600000002000000000000E0FF3F8FC000000020E72F33C000000080007437C0000000E0FF3F8FC0000000C0427729C0000000605E4331C00C00000013000000920900003C00000006000000020000000000002000408F40000000A0129448C000000080CDE513C00000002000408F400000
310
0040AC8D48C000000000677F14C00C000000130000009A0900003C00000006000000020000000000002000408F4000000000797A48C0000000809AB214C00000002000408F4000000040AC8D48C000000000677F14C00C00000013000000A20900003C00000006000000020000000000002000408F4000000000797A48C000
310
0000809AB214C00000002000408F40000000407C4246C0000000000000F2BE0C00000013000000AA0900003C00000006000000020000000000002000408F40000000407D7D41C000000000D03F18C00000002000408F400000000093F941C000000000BD0630C00C00000013000000B20900003C0000000600000002000000
310
0000002000408F400000000093F941C000000000BD0630C00000002000408F40000000E0E2ED41C000000080312B30C00C00000013000000BA0900003C00000006000000020000000000002000408F40000000C0AAA43CC0000000808A031CC00000002000408F40000000E0E2ED41C000000080312B30C00C000000130000
310
00C20900003C00000006000000020000000000002000408F40000000E0226C46C0000000809AB214C00000002000408F40000000C0431C42C000000000481413C00C00000013000000CA0900003C00000006000000020000000000002000408F40000000E0768D46C00000008032101CC00000002000408F40000000C04D10
310
42C000000000990215C00C00000013000000D20900003C00000006000000020000000000002000408F40000000A0D17043C0000000009E1829C00000002000408F4000000000BCBA41C000000000E4CB17C00C00000013000000DA0900003C00000006000000020000000000002000408F40000000E0A68A42C000000000B1
310
2528C00000002000408F40000000407D7D41C000000000D03F18C00C00000013000000E20900003C00000006000000020000000000002000408F4000000020465E44C000000040CED528C00000002000408F4000000000BCBA41C000000000E4CB17C00C00000013000000EA0900003C000000060000000200000000000020
310
00408F4000000020AD3945C000000000616427C00000002000408F400000004026EE41C00000000080A916C00C00000013000000F20900003C00000006000000020000000000002000408F400000002098EB45C000000080C8EB24C00000002000408F400000004026EE41C00000000080A916C00C00000013000000FA0900
310
003C00000006000000020000000000002000408F4000000060096146C0000000C089AF21C00000002000408F40000000C04D1042C000000000990215C00C00000013000000020A00003C00000006000000020000000000002000408F40000000E0226C46C0000000809AB214C00000002000408F40000000808D0146C00000
310
0000E019B1BF0C000000130000000A0A00003C00000006000000020000000000002000408F40000000E0226C46C0000000809AB214C00000002000408F40000000600BC545C00000000088CED0BF0C00000013000000120A00003C00000006000000020000000000002000408F40000000407C4246C0000000000000F2BE00
310
00002000408F40000000E0226C46C0000000809AB214C00C000000130000001A0A00003C00000006000000020000000000002000408F40000000E0226C46C0000000809AB214C00000002000408F4000000060B66445C000000000C04EE6BF0C00000013000000220A00003C00000006000000020000000000002000408F40
310
000000E0226C46C0000000809AB214C00000002000408F4000000020FE2545C0000000005082EABF0C000000130000002A0A00003C00000006000000020000000000002000408F40000000E0226C46C0000000809AB214C00000002000408F40000000E045E744C000000000C04EE6BF0C00000013000000320A00003C0000
310
0006000000020000000000002000408F40000000E0226C46C0000000809AB214C00000002000408F40000000C0431C42C000000000385CFFBF0C000000130000003A0A00003C00000006000000020000000000002000408F40000000E0226C46C0000000809AB214C00000002000408F40000000C05C2F42C000000000FA5B
310
F3BF0C00000013000000420A00003C00000006000000020000000000002000408F40000000E0226C46C0000000809AB214C00000002000408F400000004023B742C0000000006019C3BF0C000000130000004A0A00003C00000006000000020000000000002000408F40000000E0226C46C0000000809AB214C00000002000
310
408F4000000000BF6542C000000000E85EE2BF0C00000013000000520A00003C00000006000000020000000000002000408F40000000E0226C46C0000000809AB214C00000002000408F4000000080800944C0000000000000F0BE0C000000130000005A0A00003C00000006000000020000000000002000408F40000000E0
310
226C46C0000000809AB214C00000002000408F4000000040251743C0000000000000F0BE0C00000013000000620A00003C00000006000000020000000000002000408F40000000E0226C46C0000000809AB214C00000002000408F40000000406F4A44C000000000E019B1BF0C000000130000006A0A00003C000000060000
310
00020000000000002000408F40000000E0226C46C0000000809AB214C00000002000408F40000000E0F08644C00000000088CED0BF0C00000013000000720A00003C00000006000000020000000000002000408F4000000000B22528C000000000A78A42C00000002000408F4000000080D13F18C0000000007D7D41C00C00
310
0000130000007A0A00003C00000006000000020000000000002000408F40000000209F1829C0000000C0D17043C00000002000408F4000000080E5CB17C0000000E0BBBA41C00C00000013000000820A00003C00000006000000020000000000002000408F40000000809BB214C000000000236C46C00000002000408F4000
310
0000804A1413C0000000A0431C42C00C000000130000008A0A00003C00000006000000020000000000002000408F40000000809BB214C000000000236C46C00000002000408F4000000000425CFFBF000000A0431C42C00C00000013000000920A00003C00000006000000020000000000002000408F400000008034101CC0
310
00000000778D46C00000002000408F40000000809B0215C0000000A04D1042C00C000000130000009A0A00003C00000006000000020000000000002000408F40000000C08AAF21C000000080096146C00000002000408F40000000809B0215C0000000A04D1042C00C00000013000000A20A00003C00000006000000020000
310
000000002000408F4000000080C9EB24C00000004098EB45C00000002000408F400000008082A916C00000000026EE41C00C00000013000000AA0A00003C00000006000000020000000000002000408F4000000000626427C000000040AD3945C00000002000408F400000008082A916C00000000026EE41C00C0000001300
310
0000B20A00003C00000006000000020000000000002000408F4000000040CFD528C000000040465E44C00000002000408F4000000080E5CB17C0000000E0BBBA41C00C00000013000000BA0A00003C00000006000000020000000000002000408F40000000809BB214C000000000236C46C00000002000408F400000000000
310
1AB1BF000000008D0146C00C00000013000000C20A00003C00000006000000020000000000002000408F40000000809BB214C000000000236C46C00000002000408F40000000000000F6BE000000C07B4246C00C00000013000000CA0A00003C00000006000000020000000000002000408F4000000080CEE513C0000000C0
310
129448C00000002000408F40000000000000F6BE000000C07B4246C00C00000013000000D20A00003C00000006000000020000000000002000408F40000000809BB214C000000000236C46C00000002000408F4000000000D04EE6BF00000080B66445C00C00000013000000DA0A00003C0000000600000002000000000000
310
2000408F40000000809BB214C000000000236C46C00000002000408F4000000000A0CED0BF000000800BC545C00C00000013000000E20A00003C00000006000000020000000000002000408F40000000809BB214C000000000236C46C00000002000408F40000000006082EABF00000040FE2545C00C00000013000000EA0A
310
00003C00000006000000020000000000002000408F40000000809BB214C000000000236C46C00000002000408F4000000000D04EE6BF0000000046E744C00C00000013000000F20A00003C00000006000000020000000000002000408F40000000809BB214C000000000236C46C00000002000408F4000000000601AB1BF00
310
0000C06E4A44C00C00000013000000FA0A00003C00000006000000020000000000002000408F40000000809BB214C000000000236C46C00000002000408F4000000000A8CED0BF00000000F18644C00C00000013000000020B00003C00000006000000020000000000002000408F40000000809BB214C000000000236C46C0
310
0000002000408F40000000000000FABE00000000251743C00C000000130000000A0B00003C00000006000000020000000000002000408F40000000809BB214C000000000236C46C00000002000408F40000000000000FABE00000040800944C00C00000013000000120B00003C00000006000000020000000000002000408F
310
40000000809BB214C000000000236C46C00000002000408F4000000000FC5EE2BF000000E0BE6542C00C000000130000001A0B00003C00000006000000020000000000002000408F40000000809BB214C000000000236C46C00000002000408F40000000009019C3BF0000000023B742C00C00000013000000220B00003C00
310
000006000000020000000000002000408F40000000809BB214C000000000236C46C00000002000408F4000000000025CF3BF000000805C2F42C00C000000130000002A0B00003C00000006000000020000000000002000408F40000000008D031CC000000000AAA43CC00000002000408F4000000000322B30C000000000E3
310
ED41C00C00000013000000320B00003C00000006000000020000000000002000408F4000000080BD0630C00000002093F941C00000002000408F4000000000322B30C000000000E3ED41C00C000000130000003A0B00003C00000006000000020000000000002000408F4000000080BD0630C00000002093F941C000000020
310
00408F4000000080D13F18C0000000007D7D41C00C00000013000000420B00003C00000006000000020000000000002000408F4000000080FA6D40C0000000C0281C30C00000002000408F40000000C0AAA43CC0000000808A031CC00C000000130000004A0B00003C00000006000000020000000000002000408F40000000
310
C0AAA43CC0000000808A031CC00000002000408F40000000802AE13EC0000000E0944530C00C00000013000000520B00003C00000006000000020000000000002000408F40000000C0AAA43CC0000000808A031CC00000002000408F4000000020E3E13CC0000000C09DAC30C00C000000130000005A0B00003C0000000600
310
0000020000000000002000408F4000000040BFA536C0000000C0938522C00000002000408F40000000E09BFE3AC000000060B74A31C00C00000013000000620B00003C00000006000000020000000000002000408F4000000040954530C0000000402AE13EC00000002000408F40000000008D031CC000000000AAA43CC00C
310
000000130000006A0B00003C00000006000000020000000000002000408F40000000008D031CC000000000AAA43CC00000002000408F4000000040291C30C000000060FA6D40C00C00000013000000720B00003C00000006000000020000000000002000408F40000000008D031CC000000000AAA43CC00000002000408F40
310
000000409EAC30C000000000E3E13CC00C000000130000007A0B00003C00000006000000020000000000002000408F4000000000B84A31C0000000C09BFE3AC00000002000408F4000000000958522C000000080BEA536C00C00000013000000820B00003C00000006000000020000000000002000408F4000000000958522
310
C000000080BEA536C00000002000408F40000000A0C92532C000000080492539C00C000000130000008A0B00003C00000006000000020000000000002000408F4000000040BFA536C0000000C0938522C00000002000408F40000000004A2539C0000000C0C82532C00C00000013000000920B00003C000000060000000200
310
00000000002000408F40000000C05E4331C000000080417729C00000002000408F4000000000017437C000000040E62F33C00C000000130000009A0B00003C00000006000000020000000000002000408F40000000C08FDA35C000000080027334C00000002000408F40000000C05E4331C000000080417729C00C00000013
310
000000A20B00003C00000006000000020000000000002000408F40000000E0427729C0000000405E4331C00000002000408F40000000E0027334C0000000808FDA35C00C00000013000000AA0B00003C00000006000000020000000000002000408F4000000000E72F33C000000060007437C00000002000408F40000000E0
310
427729C0000000405E4331C00C00000013000000B20B00003C0000000600000002000000000000E0FF3F8FC000000080687F14C000000060AC8D48C0000000E0FF3F8FC0000000009CB214C000000020797A48C00C00000013000000BA0B00003C0000000600000002000000000000E0FF3F8FC000000080687F14C0000000
310
60AC8D48C00000002000408F4000000000687F14C000000060AC8D48C00C00000013000000C20B00003C00000006000000020000000000002000408F4000000000687F14C000000060AC8D48C0000000E0FF3F8FC0000000009CB214C000000020797A48C00C00000013000000CA0B00003C00000006000000020000000000
310
00E0FF3F8FC0000000A0129448C000000080CDE513C0000000E0FF3F8FC000000040AC8D48C000000080677F14C00C00000013000000D20B00003C0000000600000002000000000000E0FF3F8FC000000040AC8D48C000000080677F14C00000002000408F4000000040AC8D48C000000000677F14C00C00000013000000DA
310
0B00003C0000000600000002000000000000E0FF3F8FC0000000A0129448C000000080CDE513C00000002000408F4000000040AC8D48C000000000677F14C00C00000013000000E20B00003C0000000600000002000000000000E0FF3F8FC0000000E0E2ED41C000000080312B30C0000000E0FF3F8FC00000000093F941C0
310
00000000BD0630C00C00000013000000EA0B00003C0000000600000002000000000000E0FF3F8FC0000000E0E2ED41C000000080312B30C00000002000408F40000000E0E2ED41C000000080312B30C00C00000013000000F20B00003C0000000600000002000000000000E0FF3F8FC000000080203630C000000060EFD841
310
C0000000E0FF3F8FC000000000322B30C000000000E3ED41C00C00000013000000FA0B00003C0000000600000002000000000000E0FF3F8FC000000000322B30C000000000E3ED41C00000002000408F4000000000322B30C000000000E3ED41C00C00000013000000020C00003C0000000600000002000000000000E0FF3F
310
8FC000000080203630C000000060EFD841C00000002000408F4000000000322B30C000000000E3ED41C00C000000130000000A0C00003C0000000600000002000000000000E0FF3F8FC000000080687F14C000000060AC8D48C0000000E0FF3F8FC000000080CFE513C0000000C0129448C00C00000013000000120C00003C
310
00000006000000020000000000002000408F4000000080CEE513C0000000C0129448C00000002000408F4000000000687F14C000000060AC8D48C00C000000130000001A0C00003C0000000600000002000000000000E0FF3F8FC000000040AC8D48C000000080677F14C0000000E0FF3F8FC000000000797A48C000000080
310
9AB214C00C00000013000000220C00003C0000000600000002000000000000E0FF3F8FC0000000E0E2ED41C000000080312B30C0000000E0FF3F8FC000000040EFD841C000000000203630C00C000000130000002A0C00003C00000006000000020000000000002000408F4000000040EFD841C000000000203630C0000000
310
E0FF3F8FC0000000E0E2ED41C000000080312B30C00C00000013000000320C00003C0000000600000002000000000000E0FF3F8FC000000000322B30C000000000E3ED41C0000000E0FF3F8FC000000080BD0630C00000002093F941C00C000000130000003A0C00003C0000000600000002000000000000E0FF3F8FC00000
310
00407C4246C0000000000000F2BE000000E0FF3F8FC000000000797A48C0000000809AB214C00C00000013000000420C00003C0000000600000002000000000000E0FF3F8FC000000040AC8D48C000000080677F14C0000000E0FF3F8FC0000000407C4246C0000000000000F2BE0C000000130000004A0C00003C00000006
310
00000002000000000000E0FF3F8FC0000000000000FABE000000C07B4246C0000000E0FF3F8FC000000080CFE513C0000000C0129448C00C00000013000000520C00003C0000000600000002000000000000E0FF3F8FC0000000000000FABE000000C07B4246C0000000E0FF3F8FC000000080687F14C000000060AC8D48C0
310
0C000000130000005A0C00003C00000006000000020000000000002000408F40000000000000F6BE000000C07B4246C00000002000408F40000000809BB214C000000020797A48C00C00000013000000620C00003C00000006000000020000000000002000408F40000000809BB214C000000020797A48C00000002000408F
310
4000000000687F14C000000060AC8D48C00C000000130000006A0C00003C00000006000000020000000000002000408F40000000000000F6BE000000C07B4246C00000002000408F4000000000687F14C000000060AC8D48C00C00000013000000720C00003C0000000600000002000000000000E0FF3F8FC000000000322B
310
30C000000000E3ED41C0000000E0FF3F8FC0000000C08C031CC000000020AAA43CC00C000000130000007A0C00003C00000006000000020000000000002000408F40000000008D031CC000000000AAA43CC00000002000408F4000000080203630C000000060EFD841C00C00000013000000820C00003C0000000600000002
310
0000000000002000408F4000000080203630C000000060EFD841C00000002000408F4000000000322B30C000000000E3ED41C00C000000130000008A0C00003C0000000600000002000000000000E0FF3F8FC000000000D13F18C0000000007D7D41C0000000E0FF3F8FC000000080BD0630C00000002093F941C00C000000
310
13000000920C00003C0000000600000002000000000000E0FF3F8FC0000000C0AAA43CC0000000808A031CC0000000E0FF3F8FC0000000E0E2ED41C000000080312B30C00C000000130000009A0C00003C00000006000000020000000000002000408F4000000040EFD841C000000000203630C00000002000408F40000000
310
E0E2ED41C000000080312B30C00C00000013000000A20C00003C00000006000000020000000000002000408F4000000040EFD841C000000000203630C00000002000408F40000000C0AAA43CC0000000808A031CC00C00000013000000AA0C00003C0000000600000002000000000000E0FF3F8FC0000000C0AAA43CC00000
310
00808A031CC0000000E0FF3F8FC000000040EFD841C000000000203630C0
100
AcDbSubDMesh
 71
     2
 72
     0
 91
        0
 92
      176
 10
-999.9999389648436
 20
-49.15682220458984
 30
-0.0000171661376953
 10
-999.9999389648436
 20
-49.15681838989257
 30
-4.974416732788085
 10
-999.9999389648436
 20
-44.84481430053711
 30
-5.174417495727539
 10
-999.9999389648436
 20
-45.1051902770996
 30
-7.01581859588623
 10
-999.9999389648436
 20
-44.75809860229492
 30
-8.842848777770996
 10
-999.9999389648436
 20
-38.88139724731445
 30
-12.54808139801025
 10
-999.9999389648436
 20
-37.08321762084961
 30
-12.07361602783203
 10
-999.9999389648436
 20
-30.87955474853516
 30
-16.27180290222168
 10
-999.9999389648436
 20
-20.44926452636719
 30
-21.85375213623047
 10
-999.9999389648436
 20
-18.14760780334473
 30
-25.1456527709961
 10
-999.9999389648436
 20
-16.11000442504883
 30
-32.85920333862305
 10
-999.9999389648436
 20
-16.21143341064453
 30
-35.69480514526367
 10
-999.9999389648436
 20
-10.46052074432373
 30
-43.84058380126953
 10
-999.9999389648436
 20
-7.015824317932128
 30
-45.10519409179687
 10
-999.9999389648436
 20
-0.0000228881835938
 30
-49.15681457519531
 10
-999.9999389648436
 20
-0.0000247955322266
 30
-44.51940155029297
 10
-999.9999389648436
 20
-0.6971244812011719
 30
-42.78681945800781
 10
-999.9999389648436
 20
-0.6971244812011719
 30
-41.80682373046875
 10
-999.9999389648436
 20
-0.0668125152587891
 30
-40.58150482177734
 10
-999.9999389648436
 20
-0.0000267028808594
 30
-40.07422637939453
 10
-999.9999389648436
 20
-0.0000267028808594
 30
-38.18081665039063
 10
-999.9999389648436
 20
-0.5740966796875
 30
-36.79488754272461
 10
-999.9999389648436
 20
-1.960027694702148
 30
-36.2208137512207
 10
-999.9999389648436
 20
-6.062320709228515
 30
-34.98037719726563
 10
-999.9999389648436
 20
-9.260901451110839
 30
-22.64743995666504
 10
-999.9999389648436
 20
-17.26316452026367
 30
-12.73292255401611
 10
-999.9999389648436
 20
-28.64323043823242
 30
-7.003458023071289
 10
-999.9999389648436
 20
-35.45885848999024
 30
-5.949111938476562
 10
-999.9999389648436
 20
-35.86053085327149
 30
-5.66552734375
 10
-999.9999389648436
 20
-36.2208137512207
 30
-4.769805908203125
 10
-999.9999389648436
 20
-41.80681991577148
 30
-0.697113037109375
 10
-999.9999389648436
 20
-42.78681564331054
 30
-0.697113037109375
 10
-999.9999389648436
 20
-43.53940963745117
 30
-0.2626056671142578
 10
1000.000061035156
 20
-48.95681762695312
 30
-5.174417495727539
 10
1000.000061035156
 20
-49.15682220458984
 30
-0.0000171661376953
 10
1000.000061035156
 20
-44.51941680908203
 30
-0.0000171661376953
 10
1000.000061035156
 20
-44.84481430053711
 30
-5.174417495727539
 10
1000.000061035156
 20
-44.75809860229492
 30
-8.842847824096679
 10
1000.000061035156
 20
-44.01213073730469
 30
-0.0668010711669922
 10
1000.000061035156
 20
-45.1051902770996
 30
-7.015817642211914
 10
1000.000061035156
 20
-43.84057998657226
 30
-10.46051406860351
 10
1000.000061035156
 20
-42.78681564331054
 30
-0.697113037109375
 10
1000.000061035156
 20
-42.45059585571289
 30
-11.69605255126953
 10
1000.000061035156
 20
-43.53940963745117
 30
-0.2626056671142578
 10
1000.000061035156
 20
-41.05422592163086
 30
-0.2626056671142578
 10
1000.000061035156
 20
-40.73651504516601
 30
-12.41758918762207
 10
1000.000061035156
 20
-41.80681991577148
 30
-0.697113037109375
 10
1000.000061035156
 20
-42.29681777954101
 30
-0.8284072875976562
 10
1000.000061035156
 20
-40.07423400878906
 30
-0.0000152587890625
 10
1000.000061035156
 20
-38.88139724731445
 30
-12.54808044433594
 10
1000.000061035156
 20
-40.5815200805664
 30
-0.0668010711669922
 10
1000.000061035156
 20
-37.43076324462891
 30
-0.1492118835449219
 10
1000.000061035156
 20
-37.08321762084961
 30
-12.07361602783203
 10
1000.000061035156
 20
-38.18082427978516
 30
-0.0000152587890625
 10
1000.000061035156
 20
-36.12737274169922
 30
-5.25253677368164
 10
1000.000061035156
 20
-35.69480133056641
 30
-16.21142578125
 10
1000.000061035156
 20
-36.22081756591797
 30
-4.769805908203125
 10
1000.000061035156
 20
-36.22081756591797
 30
-1.960014343261718
 10
1000.000061035156
 20
-36.3700180053711
 30
-1.209955215454101
 10
1000.000061035156
 20
-36.79489135742187
 30
-0.5740852355957032
 10
1000.000061035156
 20
-34.98038482666016
 30
-6.06231689453125
 10
1000.000061035156
 20
-32.85920715332031
 30
-16.1099967956543
 10
1000.000061035156
 20
-35.4588623046875
 30
-5.949111938476562
 10
1000.000061035156
 20
-35.86054229736328
 30
-5.66552734375
 10
1000.000061035156
 20
-28.64323043823242
 30
-7.003458023071289
 10
1000.000061035156
 20
-28.88237190246582
 30
-16.67428207397461
 10
1000.000061035156
 20
-22.6474494934082
 30
-9.260892868041992
 10
1000.000061035156
 20
-25.14566040039063
 30
-18.1475944519043
 10
1000.000061035156
 20
-21.85375595092773
 30
-20.44925689697266
 10
1000.000061035156
 20
-17.26316452026367
 30
-12.73292160034179
 10
1000.000061035156
 20
-19.18711853027344
 30
-23.4531307220459
 10
1000.000061035156
 20
-17.2918701171875
 30
-26.99456405639649
 10
1000.000061035156
 20
-12.73293209075928
 30
-17.26315689086914
 10
1000.000061035156
 20
-16.27180862426758
 30
-30.87955093383789
 10
1000.000061035156
 20
-16.02632904052734
 30
-35.94980239868164
 10
1000.000061035156
 20
-12.07362365722656
 30
-37.08322143554688
 10
1000.000061035156
 20
-12.4175968170166
 30
-40.73651885986328
 10
1000.000061035156
 20
-12.54808902740478
 30
-38.88140106201172
 10
1000.000061035156
 20
-11.69606018066406
 30
-42.45059967041015
 10
1000.000061035156
 20
-9.260902404785156
 30
-22.64743804931641
 10
1000.000061035156
 20
-10.46052169799804
 30
-43.84058380126953
 10
1000.000061035156
 20
-8.84285545349121
 30
-44.75810241699218
 10
1000.000061035156
 20
-7.003467559814453
 30
-28.64321899414063
 10
1000.000061035156
 20
-7.015825271606445
 30
-45.10519409179687
 10
1000.000061035156
 20
-5.252546310424804
 30
-36.12736892700195
 10
1000.000061035156
 20
-5.174421310424804
 30
-44.84481811523437
 10
1000.000061035156
 20
-5.665536880493164
 30
-35.86053466796875
 10
1000.000061035156
 20
-5.94911766052246
 30
-35.45885848999024
 10
1000.000061035156
 20
-6.062322616577148
 30
-34.98037719726563
 10
1000.000061035156
 20
-4.769815444946289
 30
-36.2208137512207
 10
1000.000061035156
 20
-4.974420547485351
 30
-49.15682220458984
 10
1000.000061035156
 20
-0.0000209808349609
 30
-44.51940155029297
 10
1000.000061035156
 20
-0.0000209808349609
 30
-49.15681457519531
 10
1000.000061035156
 20
-0.066802978515625
 30
-44.01211547851562
 10
1000.000061035156
 20
-0.2626113891601562
 30
-43.53941345214844
 10
1000.000061035156
 20
-0.6971206665039063
 30
-42.78681945800781
 10
1000.000061035156
 20
-0.8284149169921875
 30
-42.29682159423828
 10
1000.000061035156
 20
-1.209962844848632
 30
-36.37001037597656
 10
1000.000061035156
 20
-1.960023880004882
 30
-36.2208137512207
 10
1000.000061035156
 20
-0.5740947723388672
 30
-36.79488754272461
 10
1000.000061035156
 20
-0.6971206665039063
 30
-41.80682373046875
 10
1000.000061035156
 20
-0.2626132965087891
 30
-41.05422973632812
 10
1000.000061035156
 20
-0.1492176055908203
 30
-37.43075561523438
 10
1000.000061035156
 20
-0.0668087005615234
 30
-40.58150482177734
 10
1000.000061035156
 20
-0.0000247955322266
 30
-38.18081665039063
 10
1000.000061035156
 20
-0.0000247955322266
 30
-40.07422637939453
 10
-999.9999389648436
 20
-28.88236999511719
 30
-16.67428207397461
 10
-999.9999389648436
 20
-25.145658493042
 30
-18.1475944519043
 10
-999.9999389648436
 20
-19.18712043762207
 30
-23.45313262939453
 10
-999.9999389648436
 20
-17.29186820983886
 30
-26.99456596374512
 10
-999.9999389648436
 20
-16.27180862426758
 30
-30.87955093383789
 10
1000.000061035156
 20
-30.87955474853516
 30
-16.27180290222168
 10
1000.000061035156
 20
-26.99456596374512
 30
-17.29186058044433
 10
1000.000061035156
 20
-23.45314025878906
 30
-19.18710708618164
 10
1000.000061035156
 20
-20.44926261901856
 30
-21.85375213623047
 10
1000.000061035156
 20
-18.14760780334473
 30
-25.1456527709961
 10
1000.000061035156
 20
-16.67428970336914
 30
-28.88236999511719
 10
1000.000061035156
 20
-16.11000442504883
 30
-32.85920333862305
 10
1000.000061035156
 20
-49.15681838989257
 30
-4.974416732788085
 10
1000.000061035156
 20
-35.94979858398438
 30
-16.02632141113281
 10
1000.000061035156
 20
-16.21143341064453
 30
-35.69480514526367
 10
1000.000061035156
 20
-5.174421310424804
 30
-48.95682144165039
 10
-999.9999389648436
 20
-49.10681915283203
 30
-5.124418258666992
 10
-999.9999389648436
 20
-35.85848617553711
 30
-16.16872406005859
 10
-999.9999389648436
 20
-16.16873168945312
 30
-35.85848999023438
 10
-999.9999389648436
 20
-5.124422073364257
 30
-49.1068229675293
 10
1000.000061035156
 20
-49.10681915283203
 30
-5.124416351318359
 10
1000.000061035156
 20
-35.85848617553711
 30
-16.16872406005859
 10
1000.000061035156
 20
-16.16873168945312
 30
-35.85848999023438
 10
1000.000061035156
 20
-5.124420166015625
 30
-49.1068229675293
 10
-999.9999389648436
 20
-44.51941680908203
 30
-0.0000171661376953
 10
-999.9999389648436
 20
-43.84057998657226
 30
-10.46051502227783
 10
-999.9999389648436
 20
-42.45059585571289
 30
-11.69605255126953
 10
-999.9999389648436
 20
-40.73651504516601
 30
-12.41758918762207
 10
-999.9999389648436
 20
-35.94979858398438
 30
-16.02632141113281
 10
-999.9999389648436
 20
-26.99456405639649
 30
-17.29186058044433
 10
-999.9999389648436
 20
-23.45313835144043
 30
-19.18710899353027
 10
-999.9999389648436
 20
-16.67428970336914
 30
-28.88236999511719
 10
-999.9999389648436
 20
-12.07362270355224
 30
-37.08322143554688
 10
-999.9999389648436
 20
-12.54808807373047
 30
-38.88140106201172
 10
-999.9999389648436
 20
-12.41759586334228
 30
-40.73651885986328
 10
-999.9999389648436
 20
-11.69605922698974
 30
-42.45059967041015
 10
-999.9999389648436
 20
-8.842854499816894
 30
-44.75810241699218
 10
-999.9999389648436
 20
-5.17442512512207
 30
-44.84481811523437
 10
-999.9999389648436
 20
-5.174423217773437
 30
-48.95682144165039
 10
-999.9999389648436
 20
-0.0668067932128906
 30
-44.01211547851562
 10
-999.9999389648436
 20
-0.2626152038574219
 30
-43.53941345214844
 10
-999.9999389648436
 20
-0.8284187316894531
 30
-42.29682159423828
 10
-999.9999389648436
 20
-0.2626152038574219
 30
-41.05422973632812
 10
-999.9999389648436
 20
-0.1492214202880859
 30
-37.43075561523438
 10
-999.9999389648436
 20
-1.209966659545898
 30
-36.37001037597656
 10
-999.9999389648436
 20
-4.769819259643554
 30
-36.2208137512207
 10
-999.9999389648436
 20
-5.25255012512207
 30
-36.12736892700195
 10
-999.9999389648436
 20
-5.665540695190429
 30
-35.86053466796875
 10
-999.9999389648436
 20
-5.949121475219726
 30
-35.45885848999024
 10
-999.9999389648436
 20
-7.003466606140136
 30
-28.64322090148926
 10
-999.9999389648436
 20
-12.73293113708496
 30
-17.26315879821777
 10
-999.9999389648436
 20
-22.6474494934082
 30
-9.260893821716308
 10
-999.9999389648436
 20
-34.98037338256836
 30
-6.062318801879882
 10
-999.9999389648436
 20
-36.12736892700195
 30
-5.25253677368164
 10
-999.9999389648436
 20
-36.2208137512207
 30
-1.960014343261718
 10
-999.9999389648436
 20
-36.3700065612793
 30
-1.209955215454101
 10
-999.9999389648436
 20
-36.79488754272461
 30
-0.5740852355957032
 10
-999.9999389648436
 20
-37.43075180053711
 30
-0.1492118835449219
 10
-999.9999389648436
 20
-38.18082427978516
 30
-0.0000152587890625
 10
-999.9999389648436
 20
-40.07423400878906
 30
-0.0000152587890625
 10
-999.9999389648436
 20
-40.5815200805664
 30
-0.0668010711669922
 10
-999.9999389648436
 20
-41.05422592163086
 30
-0.2626056671142578
 10
-999.9999389648436
 20
-42.29681777954101
 30
-0.8284072875976562
 10
-999.9999389648436
 20
-44.01213073730469
 30
-0.066802978515625
 10
-999.9999389648436
 20
-32.85920715332031
 30
-16.1099967956543
 10
-999.9999389648436
 20
-21.85375785827637
 30
-20.44925689697266
 10
-999.9999389648436
 20
-48.95681762695312
 30
-5.174417495727539
 10
-999.9999389648436
 20
-35.69480133056641
 30
-16.21142578125
 10
-999.9999389648436
 20
-16.02632904052734
 30
-35.94980239868164
 10
-999.9999389648436
 20
-4.974424362182617
 30
-49.15682220458984
 93
     1044
 90
        4
 90
      175
 90
       14
 90
       92
 90
       90
 90
        4
 90
       14
 90
       15
 90
       91
 90
       92
 90
        4
 90
       15
 90
      145
 90
       93
 90
       91
 90
        4
 90
      145
 90
      146
 90
       94
 90
       93
 90
        4
 90
      146
 90
       16
 90
       95
 90
       94
 90
        4
 90
       16
 90
      147
 90
       96
 90
       95
 90
        4
 90
      147
 90
       17
 90
      100
 90
       96
 90
        4
 90
       17
 90
      148
 90
      101
 90
      100
 90
        4
 90
      148
 90
       18
 90
      103
 90
      101
 90
        4
 90
       18
 90
       19
 90
      105
 90
      103
 90
        4
 90
       19
 90
       20
 90
      104
 90
      105
 90
        4
 90
       20
 90
      149
 90
      102
 90
      104
 90
        4
 90
      149
 90
       21
 90
       99
 90
      102
 90
        4
 90
       21
 90
      150
 90
       97
 90
       99
 90
        4
 90
      150
 90
       22
 90
       98
 90
       97
 90
        4
 90
       22
 90
      151
 90
       89
 90
       98
 90
        4
 90
      151
 90
      152
 90
       84
 90
       89
 90
        4
 90
      152
 90
      153
 90
       86
 90
       84
 90
        4
 90
      153
 90
      154
 90
       87
 90
       86
 90
        4
 90
      154
 90
       23
 90
       88
 90
       87
 90
        4
 90
       23
 90
      155
 90
       82
 90
       88
 90
        4
 90
      155
 90
       24
 90
       79
 90
       82
 90
        4
 90
       24
 90
      156
 90
       72
 90
       79
 90
        4
 90
      156
 90
       25
 90
       69
 90
       72
 90
        4
 90
       25
 90
      157
 90
       66
 90
       69
 90
        4
 90
      157
 90
       26
 90
       64
 90
       66
 90
        4
 90
       26
 90
      158
 90
       60
 90
       64
 90
        4
 90
      158
 90
       27
 90
       62
 90
       60
 90
        4
 90
       27
 90
       28
 90
       63
 90
       62
 90
        4
 90
       28
 90
      159
 90
       54
 90
       63
 90
        4
 90
      159
 90
       29
 90
       56
 90
       54
 90
        4
 90
       29
 90
      160
 90
       57
 90
       56
 90
        4
 90
      160
 90
      161
 90
       58
 90
       57
 90
        4
 90
      161
 90
      162
 90
       59
 90
       58
 90
        4
 90
      162
 90
      163
 90
       51
 90
       59
 90
        4
 90
      163
 90
      164
 90
       53
 90
       51
 90
        4
 90
      164
 90
      165
 90
       48
 90
       53
 90
        4
 90
      165
 90
      166
 90
       50
 90
       48
 90
        4
 90
      166
 90
      167
 90
       44
 90
       50
 90
        4
 90
      167
 90
       30
 90
       46
 90
       44
 90
        4
 90
       30
 90
      168
 90
       47
 90
       46
 90
        4
 90
      168
 90
       31
 90
       41
 90
       47
 90
        4
 90
       31
 90
       32
 90
       43
 90
       41
 90
        4
 90
       32
 90
      169
 90
       38
 90
       43
 90
        4
 90
      169
 90
      130
 90
       35
 90
       38
 90
        4
 90
      130
 90
        0
 90
       34
 90
       35
 90
        4
 90
        0
 90
        1
 90
      118
 90
       34
 90
        4
 90
      172
 90
        2
 90
       36
 90
       33
 90
        4
 90
        2
 90
        3
 90
       39
 90
       36
 90
        4
 90
        3
 90
        4
 90
       37
 90
       39
 90
        4
 90
        4
 90
      131
 90
       40
 90
       37
 90
        4
 90
      131
 90
      132
 90
       42
 90
       40
 90
        4
 90
      132
 90
      133
 90
       45
 90
       42
 90
        4
 90
      133
 90
        5
 90
       49
 90
       45
 90
        4
 90
        5
 90
        6
 90
       52
 90
       49
 90
        4
 90
        6
 90
      134
 90
      119
 90
       52
 90
        4
 90
      173
 90
      170
 90
       61
 90
       55
 90
        4
 90
        7
 90
      106
 90
       65
 90
      111
 90
        4
 90
      135
 90
      107
 90
       67
 90
      112
 90
        4
 90
      136
 90
      171
 90
       68
 90
      113
 90
        4
 90
        8
 90
      108
 90
       70
 90
      114
 90
        4
 90
        9
 90
      109
 90
       71
 90
      115
 90
        4
 90
      137
 90
      110
 90
       73
 90
      116
 90
        4
 90
       10
 90
       11
 90
      120
 90
      117
 90
        4
 90
      174
 90
      138
 90
       75
 90
       74
 90
        4
 90
      138
 90
      139
 90
       77
 90
       75
 90
        4
 90
      139
 90
      140
 90
       76
 90
       77
 90
        4
 90
      140
 90
      141
 90
       78
 90
       76
 90
        4
 90
      141
 90
       12
 90
       80
 90
       78
 90
        4
 90
       12
 90
      142
 90
       81
 90
       80
 90
        4
 90
      142
 90
       13
 90
       83
 90
       81
 90
        4
 90
       13
 90
      143
 90
       85
 90
       83
 90
        4
 90
      143
 90
      144
 90
      121
 90
       85
 90
        4
 90
      170
 90
        7
 90
      111
 90
       61
 90
        4
 90
      106
 90
      135
 90
      112
 90
       65
 90
        4
 90
      107
 90
      136
 90
      113
 90
       67
 90
        4
 90
      171
 90
        8
 90
      114
 90
       68
 90
        4
 90
      108
 90
        9
 90
      115
 90
       70
 90
        4
 90
      109
 90
      137
 90
      116
 90
       71
 90
        4
 90
      110
 90
       10
 90
      117
 90
       73
 90
        3
 90
        0
 90
      130
 90
        1
 90
        3
 90
      158
 90
      134
 90
        6
 90
        4
 90
       29
 90
      159
 90
        3
 90
        2
 90
        4
 90
       27
 90
      158
 90
        6
 90
        5
 90
        3
 90
       27
 90
        5
 90
      133
 90
        4
 90
       28
 90
       27
 90
      133
 90
      132
 90
        3
 90
       28
 90
      132
 90
      131
 90
        3
 90
      159
 90
        4
 90
        3
 90
        4
 90
      159
 90
       28
 90
      131
 90
        4
 90
        3
 90
      169
 90
       32
 90
        2
 90
        3
 90
      130
 90
      169
 90
        2
 90
        3
 90
       31
 90
      168
 90
        2
 90
        3
 90
       32
 90
       31
 90
        2
 90
        3
 90
      168
 90
       30
 90
        2
 90
        3
 90
      160
 90
       29
 90
        2
 90
        3
 90
      161
 90
      160
 90
        2
 90
        3
 90
      163
 90
      162
 90
        2
 90
        3
 90
      162
 90
      161
 90
        2
 90
        3
 90
      165
 90
      164
 90
        2
 90
        3
 90
      164
 90
      163
 90
        2
 90
        3
 90
      166
 90
      165
 90
        2
 90
        3
 90
      167
 90
      166
 90
        2
 90
        3
 90
       30
 90
      167
 90
        2
 90
        4
 90
       23
 90
      154
 90
      139
 90
      138
 90
        3
 90
      151
 90
       22
 90
      143
 90
        4
 90
      152
 90
      151
 90
      143
 90
       13
 90
        3
 90
      152
 90
       13
 90
      142
 90
        4
 90
      153
 90
      152
 90
      142
 90
       12
 90
        3
 90
      153
 90
       12
 90
      141
 90
        3
 90
      154
 90
      140
 90
      139
 90
        4
 90
      154
 90
      153
 90
      141
 90
      140
 90
        3
 90
      145
 90
       15
 90
      143
 90
        3
 90
       15
 90
      144
 90
      143
 90
        3
 90
       16
 90
      146
 90
      143
 90
        3
 90
      146
 90
      145
 90
      143
 90
        3
 90
      147
 90
       16
 90
      143
 90
        3
 90
      143
 90
       17
 90
      147
 90
        3
 90
       18
 90
      148
 90
      143
 90
        3
 90
      148
 90
       17
 90
      143
 90
        3
 90
       20
 90
       19
 90
      143
 90
        3
 90
       19
 90
       18
 90
      143
 90
        3
 90
       21
 90
      149
 90
      143
 90
        3
 90
      149
 90
       20
 90
      143
 90
        3
 90
       22
 90
      150
 90
      143
 90
        3
 90
      150
 90
       21
 90
      143
 90
        3
 90
      155
 90
       11
 90
       10
 90
        3
 90
       26
 90
        7
 90
      170
 90
        4
 90
       26
 90
      157
 90
      135
 90
      106
 90
        3
 90
       26
 90
      106
 90
        7
 90
        3
 90
      155
 90
       10
 90
      110
 90
        3
 90
      155
 90
      110
 90
      137
 90
        4
 90
       24
 90
      155
 90
      137
 90
      109
 90
        3
 90
       24
 90
      109
 90
        9
 90
        4
 90
      157
 90
       25
 90
      136
 90
      107
 90
        3
 90
      157
 90
      107
 90
      135
 90
        4
 90
       25
 90
      156
 90
        8
 90
      171
 90
        3
 90
       25
 90
      171
 90
      136
 90
        4
 90
      156
 90
       24
 90
        9
 90
      108
 90
        3
 90
      156
 90
      108
 90
        8
 90
        5
 90
       34
 90
      118
 90
      126
 90
       33
 90
       35
 90
        4
 90
       60
 90
      119
 90
      127
 90
       64
 90
        4
 90
       56
 90
       36
 90
       39
 90
       54
 90
        4
 90
       62
 90
       49
 90
       52
 90
       60
 90
        3
 90
       62
 90
       45
 90
       49
 90
        4
 90
       63
 90
       42
 90
       45
 90
       62
 90
        3
 90
       63
 90
       40
 90
       42
 90
        3
 90
       54
 90
       39
 90
       37
 90
        4
 90
       54
 90
       37
 90
       40
 90
       63
 90
        3
 90
       38
 90
       36
 90
       43
 90
        3
 90
       35
 90
       36
 90
       38
 90
        3
 90
       41
 90
       36
 90
       47
 90
        3
 90
       43
 90
       36
 90
       41
 90
        3
 90
       47
 90
       36
 90
       46
 90
        3
 90
       57
 90
       36
 90
       56
 90
        3
 90
       58
 90
       36
 90
       57
 90
        3
 90
       51
 90
       36
 90
       59
 90
        3
 90
       59
 90
       36
 90
       58
 90
        3
 90
       48
 90
       36
 90
       53
 90
        3
 90
       53
 90
       36
 90
       51
 90
        3
 90
       50
 90
       36
 90
       48
 90
        3
 90
       44
 90
       36
 90
       50
 90
        3
 90
       46
 90
       36
 90
       44
 90
        4
 90
       88
 90
       75
 90
       77
 90
       87
 90
        3
 90
       89
 90
       85
 90
       98
 90
        4
 90
       84
 90
       83
 90
       85
 90
       89
 90
        3
 90
       84
 90
       81
 90
       83
 90
        4
 90
       86
 90
       80
 90
       81
 90
       84
 90
        3
 90
       86
 90
       78
 90
       80
 90
        3
 90
       87
 90
       77
 90
       76
 90
        4
 90
       87
 90
       76
 90
       78
 90
       86
 90
        3
 90
       93
 90
       85
 90
       91
 90
        3
 90
       91
 90
       90
 90
       92
 90
        3
 90
       95
 90
       85
 90
       94
 90
        3
 90
       94
 90
       85
 90
       93
 90
        3
 90
       96
 90
       85
 90
       95
 90
        3
 90
       85
 90
       96
 90
      100
 90
        3
 90
      103
 90
       85
 90
      101
 90
        3
 90
      101
 90
       85
 90
      100
 90
        3
 90
      104
 90
       85
 90
      105
 90
        3
 90
      105
 90
       85
 90
      103
 90
        3
 90
       99
 90
       85
 90
      102
 90
        3
 90
      102
 90
       85
 90
      104
 90
        3
 90
       98
 90
       85
 90
       97
 90
        3
 90
       97
 90
       85
 90
       99
 90
        4
 90
       82
 90
      128
 90
       74
 90
       88
 90
        3
 90
       64
 90
       61
 90
      111
 90
        4
 90
       64
 90
       65
 90
      112
 90
       66
 90
        3
 90
       64
 90
      111
 90
       65
 90
        3
 90
       82
 90
       73
 90
      117
 90
        3
 90
       82
 90
      116
 90
       73
 90
        4
 90
       79
 90
       71
 90
      116
 90
       82
 90
        3
 90
       79
 90
      115
 90
       71
 90
        4
 90
       66
 90
       67
 90
      113
 90
       69
 90
        3
 90
       66
 90
      112
 90
       67
 90
        4
 90
       69
 90
       68
 90
      114
 90
       72
 90
        3
 90
       69
 90
      113
 90
       68
 90
        4
 90
       72
 90
       70
 90
      115
 90
       79
 90
        3
 90
       72
 90
      114
 90
       70
 90
        3
 90
      144
 90
      125
 90
      129
 90
        3
 90
        1
 90
      122
 90
      126
 90
        4
 90
      134
 90
      123
 90
      127
 90
      119
 90
        3
 90
       11
 90
      124
 90
      128
 90
        4
 90
      125
 90
      175
 90
       90
 90
      129
 90
        4
 90
      122
 90
      172
 90
       33
 90
      126
 90
        3
 90
      123
 90
      173
 90
       55
 90
        4
 90
      124
 90
      174
 90
       74
 90
      128
 90
        3
 90
      130
 90
      172
 90
      122
 90
        3
 90
      130
 90
      122
 90
        1
 90
        3
 90
      126
 90
      118
 90
        1
 90
        3
 90
       33
 90
       36
 90
       35
 90
        3
 90
      130
 90
        2
 90
      172
 90
        3
 90
       15
 90
      175
 90
      125
 90
        3
 90
       15
 90
      125
 90
      144
 90
        3
 90
       91
 90
       85
 90
      121
 90
        3
 90
       91
 90
      121
 90
      129
 90
        3
 90
      129
 90
      121
 90
      144
 90
        3
 90
       91
 90
      129
 90
       90
 90
        3
 90
       15
 90
       14
 90
      175
 90
        3
 90
      155
 90
      124
 90
       11
 90
        3
 90
       82
 90
      117
 90
      120
 90
        3
 90
       82
 90
      120
 90
      128
 90
        3
 90
      128
 90
      120
 90
       11
 90
        4
 90
      155
 90
       23
 90
      174
 90
      124
 90
        3
 90
       74
 90
       75
 90
       88
 90
        3
 90
       23
 90
      138
 90
      174
 90
        4
 90
      158
 90
       26
 90
      123
 90
      134
 90
        3
 90
       60
 90
       52
 90
      119
 90
        3
 90
      127
 90
       55
 90
       64
 90
        3
 90
       55
 90
      127
 90
      123
 90
        3
 90
       26
 90
      170
 90
      173
 90
        3
 90
       26
 90
      173
 90
      123
 90
        3
 90
       55
 90
       61
 90
       64
 94
      406
 90
       14
 90
      175
 90
       14
 90
       92
 90
       90
 90
       92
 90
       90
 90
      175
 90
       14
 90
       15
 90
       15
 90
       91
 90
       91
 90
       92
 90
       15
 90
      145
 90
       93
 90
      145
 90
       91
 90
       93
 90
      145
 90
      146
 90
       94
 90
      146
 90
       93
 90
       94
 90
       16
 90
      146
 90
       16
 90
       95
 90
       94
 90
       95
 90
       16
 90
      147
 90
       96
 90
      147
 90
       95
 90
       96
 90
       17
 90
      147
 90
       17
 90
      100
 90
       96
 90
      100
 90
       17
 90
      148
 90
      101
 90
      148
 90
      100
 90
      101
 90
       18
 90
      148
 90
       18
 90
      103
 90
      101
 90
      103
 90
       18
 90
       19
 90
       19
 90
      105
 90
      103
 90
      105
 90
       19
 90
       20
 90
       20
 90
      104
 90
      104
 90
      105
 90
       20
 90
      149
 90
      102
 90
      149
 90
      102
 90
      104
 90
       21
 90
      149
 90
       21
 90
       99
 90
       99
 90
      102
 90
       21
 90
      150
 90
       97
 90
      150
 90
       97
 90
       99
 90
       22
 90
      150
 90
       22
 90
       98
 90
       97
 90
       98
 90
       22
 90
      151
 90
       89
 90
      151
 90
       89
 90
       98
 90
      151
 90
      152
 90
       84
 90
      152
 90
       84
 90
       89
 90
      152
 90
      153
 90
       86
 90
      153
 90
       84
 90
       86
 90
      153
 90
      154
 90
       87
 90
      154
 90
       86
 90
       87
 90
       23
 90
      154
 90
       23
 90
       88
 90
       87
 90
       88
 90
       23
 90
      155
 90
       82
 90
      155
 90
       82
 90
       88
 90
       24
 90
      155
 90
       24
 90
       79
 90
       79
 90
       82
 90
       24
 90
      156
 90
       72
 90
      156
 90
       72
 90
       79
 90
       25
 90
      156
 90
       25
 90
       69
 90
       69
 90
       72
 90
       25
 90
      157
 90
       66
 90
      157
 90
       66
 90
       69
 90
       26
 90
      157
 90
       26
 90
       64
 90
       64
 90
       66
 90
       26
 90
      158
 90
       60
 90
      158
 90
       60
 90
       64
 90
       27
 90
      158
 90
       27
 90
       62
 90
       60
 90
       62
 90
       27
 90
       28
 90
       28
 90
       63
 90
       62
 90
       63
 90
       28
 90
      159
 90
       54
 90
      159
 90
       54
 90
       63
 90
       29
 90
      159
 90
       29
 90
       56
 90
       54
 90
       56
 90
       29
 90
      160
 90
       57
 90
      160
 90
       56
 90
       57
 90
      160
 90
      161
 90
       58
 90
      161
 90
       57
 90
       58
 90
      161
 90
      162
 90
       59
 90
      162
 90
       58
 90
       59
 90
      162
 90
      163
 90
       51
 90
      163
 90
       51
 90
       59
 90
      163
 90
      164
 90
       53
 90
      164
 90
       51
 90
       53
 90
      164
 90
      165
 90
       48
 90
      165
 90
       48
 90
       53
 90
      165
 90
      166
 90
       50
 90
      166
 90
       48
 90
       50
 90
      166
 90
      167
 90
       44
 90
      167
 90
       44
 90
       50
 90
       30
 90
      167
 90
       30
 90
       46
 90
       44
 90
       46
 90
       30
 90
      168
 90
       47
 90
      168
 90
       46
 90
       47
 90
       31
 90
      168
 90
       31
 90
       41
 90
       41
 90
       47
 90
       31
 90
       32
 90
       32
 90
       43
 90
       41
 90
       43
 90
       32
 90
      169
 90
       38
 90
      169
 90
       38
 90
       43
 90
      130
 90
      169
 90
       35
 90
      130
 90
       35
 90
       38
 90
        0
 90
      130
 90
        0
 90
       34
 90
       34
 90
       35
 90
        0
 90
        1
 90
        1
 90
      118
 90
       34
 90
      118
 90
        2
 90
      172
 90
        2
 90
       36
 90
       33
 90
       36
 90
       33
 90
      172
 90
        2
 90
        3
 90
        3
 90
       39
 90
       36
 90
       39
 90
        3
 90
        4
 90
        4
 90
       37
 90
       37
 90
       39
 90
        4
 90
      131
 90
       40
 90
      131
 90
       37
 90
       40
 90
      131
 90
      132
 90
       42
 90
      132
 90
       40
 90
       42
 90
      132
 90
      133
 90
       45
 90
      133
 90
       42
 90
       45
 90
        5
 90
      133
 90
        5
 90
       49
 90
       45
 90
       49
 90
        5
 90
        6
 90
        6
 90
       52
 90
       49
 90
       52
 90
        6
 90
      134
 90
      119
 90
      134
 90
       52
 90
      119
 90
      170
 90
      173
 90
       61
 90
      170
 90
       55
 90
       61
 90
       55
 90
      173
 90
        7
 90
      106
 90
       65
 90
      106
 90
       65
 90
      111
 90
        7
 90
      111
 90
      107
 90
      135
 90
       67
 90
      107
 90
       67
 90
      112
 90
      112
 90
      135
 90
      136
 90
      171
 90
       68
 90
      171
 90
       68
 90
      113
 90
      113
 90
      136
 90
        8
 90
      108
 90
       70
 90
      108
 90
       70
 90
      114
 90
        8
 90
      114
 90
        9
 90
      109
 90
       71
 90
      109
 90
       71
 90
      115
 90
        9
 90
      115
 90
      110
 90
      137
 90
       73
 90
      110
 90
       73
 90
      116
 90
      116
 90
      137
 90
       10
 90
       11
 90
       11
 90
      120
 90
      117
 90
      120
 90
       10
 90
      117
 90
      138
 90
      174
 90
       75
 90
      138
 90
       74
 90
       75
 90
       74
 90
      174
 90
      138
 90
      139
 90
       77
 90
      139
 90
       75
 90
       77
 90
      139
 90
      140
 90
       76
 90
      140
 90
       76
 90
       77
 90
      140
 90
      141
 90
       78
 90
      141
 90
       76
 90
       78
 90
       12
 90
      141
 90
       12
 90
       80
 90
       78
 90
       80
 90
       12
 90
      142
 90
       81
 90
      142
 90
       80
 90
       81
 90
       13
 90
      142
 90
       13
 90
       83
 90
       81
 90
       83
 90
       13
 90
      143
 90
       85
 90
      143
 90
       83
 90
       85
 90
      143
 90
      144
 90
      121
 90
      144
 90
       85
 90
      121
 90
        7
 90
      170
 90
       61
 90
      111
 90
      106
 90
      135
 90
       65
 90
      112
 90
      107
 90
      136
 90
       67
 90
      113
 90
        8
 90
      171
 90
       68
 90
      114
 90
        9
 90
      108
 90
       70
 90
      115
 90
      109
 90
      137
 90
       71
 90
      116
 90
       10
 90
      110
 90
       73
 90
      117
 90
        1
 90
      130
 90
      134
 90
      158
 90
        6
 90
      158
 90
        3
 90
      159
 90
        2
 90
       29
 90
        5
 90
       27
 90
       27
 90
      133
 90
       28
 90
      132
 90
       28
 90
      131
 90
        4
 90
      159
 90
        2
 90
       32
 90
        2
 90
      169
 90
        2
 90
      130
 90
        2
 90
      168
 90
        2
 90
       31
 90
        2
 90
       30
 90
        2
 90
      160
 90
        2
 90
      161
 90
        2
 90
      162
 90
        2
 90
      163
 90
        2
 90
      164
 90
        2
 90
      165
 90
        2
 90
      166
 90
        2
 90
      167
 90
      139
 90
      154
 90
       23
 90
      138
 90
       22
 90
      143
 90
      143
 90
      151
 90
       13
 90
      152
 90
      142
 90
      152
 90
       12
 90
      153
 90
      141
 90
      153
 90
      140
 90
      154
 90
       15
 90
      143
 90
      143
 90
      145
 90
       15
 90
      144
 90
      143
 90
      146
 90
       16
 90
      143
 90
      143
 90
      147
 90
       17
 90
      143
 90
      143
 90
      148
 90
       18
 90
      143
 90
       19
 90
      143
 90
       20
 90
      143
 90
      143
 90
      149
 90
       21
 90
      143
 90
      143
 90
      150
 90
       11
 90
      155
 90
       10
 90
      155
 90
        7
 90
       26
 90
       26
 90
      170
 90
      135
 90
      157
 90
       26
 90
      106
 90
      110
 90
      155
 90
      137
 90
      155
 90
       24
 90
      109
 90
        9
 90
       24
 90
       25
 90
      136
 90
      107
 90
      157
 90
        8
 90
      156
 90
       25
 90
      171
 90
      108
 90
      156
 90
      118
 90
      126
 90
       33
 90
      126
 90
       33
 90
       35
 90
       60
 90
      119
 90
      119
 90
      127
 90
       64
 90
      127
 90
       36
 90
       56
 90
       39
 90
       54
 90
       49
 90
       62
 90
       52
 90
       60
 90
       45
 90
       62
 90
       42
 90
       63
 90
       40
 90
       63
 90
       37
 90
       54
 90
       36
 90
       38
 90
       36
 90
       43
 90
       35
 90
       36
 90
       36
 90
       41
 90
       36
 90
       47
 90
       36
 90
       46
 90
       36
 90
       57
 90
       36
 90
       58
 90
       36
 90
       51
 90
       36
 90
       59
 90
       36
 90
       48
 90
       36
 90
       53
 90
       36
 90
       50
 90
       36
 90
       44
 90
       75
 90
       88
 90
       77
 90
       87
 90
       85
 90
       89
 90
       85
 90
       98
 90
       83
 90
       84
 90
       81
 90
       84
 90
       80
 90
       86
 90
       78
 90
       86
 90
       76
 90
       87
 90
       85
 90
       93
 90
       85
 90
       91
 90
       90
 90
       91
 90
       85
 90
       95
 90
       85
 90
       94
 90
       85
 90
       96
 90
       85
 90
      100
 90
       85
 90
      103
 90
       85
 90
      101
 90
       85
 90
      104
 90
       85
 90
      105
 90
       85
 90
       99
 90
       85
 90
      102
 90
       85
 90
       97
 90
       82
 90
      128
 90
       74
 90
      128
 90
       74
 90
       88
 90
       61
 90
       64
 90
       64
 90
      111
 90
       64
 90
       65
 90
       66
 90
      112
 90
       73
 90
       82
 90
       82
 90
      117
 90
       82
 90
      116
 90
       71
 90
       79
 90
       79
 90
      115
 90
       66
 90
       67
 90
       69
 90
      113
 90
       68
 90
       69
 90
       72
 90
      114
 90
       70
 90
       72
 90
      125
 90
      144
 90
      125
 90
      129
 90
      129
 90
      144
 90
        1
 90
      122
 90
      122
 90
      126
 90
        1
 90
      126
 90
      123
 90
      134
 90
      123
 90
      127
 90
       11
 90
      124
 90
      124
 90
      128
 90
       11
 90
      128
 90
      125
 90
      175
 90
       90
 90
      129
 90
      122
 90
      172
 90
      123
 90
      173
 90
       55
 90
      123
 90
      124
 90
      174
 90
      130
 90
      172
 90
      122
 90
      130
 90
       15
 90
      175
 90
       15
 90
      125
 90
       91
 90
      121
 90
      121
 90
      129
 90
       91
 90
      129
 90
      124
 90
      155
 90
       82
 90
      120
 90
      120
 90
      128
 90
       23
 90
      174
 90
       26
 90
      123
 90
       55
 90
      127
 90
       55
 90
       64
 90
       26
 90
      173
 95
      406
140
0.0
140
0.0
140
0.0
140
0.0
140
0.0
140
0.0
140
0.0
140
0.0
140
0.0
140
0.0
140
0.0
140
0.0
140
0.0
140
0.0
140
0.0
140
0.0
140
0.0
140
0.0
140
0.0
140
0.0
140
0.0
140
0.0
140
0.0
140
0.0
140
0.0
140
0.0
140
0.0
140
0.0
140
0.0
140
0.0
140
0.0
140
0.0
140
0.0
140
0.0
140
0.0
140
0.0
140
0.0
140
0.0
140
0.0
140
0.0
140
0.0
140
0.0
140
0.0
140
0.0
140
0.0
140
0.0
140
0.0
140
0.0
140
0.0
140
0.0
140
0.0
140
0.0
140
0.0
140
0.0
140
0.0
140
0.0
140
0.0
140
0.0
140
0.0
140
0.0
140
0.0
140
0.0
140
0.0
140
0.0
140
0.0
140
0.0
140
0.0
140
0.0
140
0.0
140
0.0
140
0.0
140
0.0
140
0.0
140
0.0
140
0.0
140
0.0
140
0.0
140
0.0
140
0.0
140
0.0
140
0.0
140
0.0
140
0.0
140
0.0
140
0.0
140
0.0
140
0.0
140
0.0
140
0.0
140
0.0
140
0.0
140
0.0
140
0.0
140
0.0
140
0.0
140
0.0
140
0.0
140
0.0
140
0.0
140
0.0
140
0.0
140
0.0
140
0.0
140
0.0
140
0.0
140
0.0
140
0.0
140
0.0
140
0.0
140
0.0
140
0.0
140
0.0
140
0.0
140
0.0
140
0.0
140
0.0
140
0.0
140
0.0
140
0.0
140
0.0
140
0.0
140
0.0
140
0.0
140
0.0
140
0.0
140
0.0
140
0.0
140
0.0
140
0.0
140
0.0
140
0.0
140
0.0
140
0.0
140
0.0
140
0.0
140
0.0
140
0.0
140
0.0
140
0.0
140
0.0
140
0.0
140
0.0
140
0.0
140
0.0
140
0.0
140
0.0
140
0.0
140
0.0
140
0.0
140
0.0
140
0.0
140
0.0
140
0.0
140
0.0
140
0.0
140
0.0
140
0.0
140
0.0
140
0.0
140
0.0
140
0.0
140
0.0
140
0.0
140
0.0
140
0.0
140
0.0
140
0.0
140
0.0
140
0.0
140
0.0
140
0.0
140
0.0
140
0.0
140
0.0
140
0.0
140
0.0
140
0.0
140
0.0
140
0.0
140
0.0
140
0.0
140
0.0
140
0.0
140
0.0
140
0.0
140
0.0
140
0.0
140
0.0
140
0.0
140
0.0
140
0.0
140
0.0
140
0.0
140
0.0
140
0.0
140
0.0
140
0.0
140
0.0
140
0.0
140
0.0
140
0.0
140
0.0
140
0.0
140
0.0
140
0.0
140
0.0
140
0.0
140
0.0
140
0.0
140
0.0
140
0.0
140
0.0
140
0.0
140
0.0
140
0.0
140
0.0
140
0.0
140
0.0
140
0.0
140
0.0
140
0.0
140
0.0
140
0.0
140
0.0
140
0.0
140
0.0
140
0.0
140
0.0
140
0.0
140
0.0
140
0.0
140
0.0
140
0.0
140
0.0
140
0.0
140
0.0
140
0.0
140
0.0
140
0.0
140
0.0
140
0.0
140
0.0
140
0.0
140
0.0
140
0.0
140
0.0
140
0.0
140
0.0
140
0.0
140
0.0
140
0.0
140
0.0
140
0.0
140
0.0
140
0.0
140
0.0
140
0.0
140
0.0
140
0.0
140
0.0
140
0.0
140
0.0
140
0.0
140
0.0
140
0.0
140
0.0
140
0.0
140
0.0
140
0.0
140
0.0
140
0.0
140
0.0
140
0.0
140
0.0
140
0.0
140
0.0
140
0.0
140
0.0
140
0.0
140
0.0
140
0.0
140
0.0
140
0.0
140
0.0
140
0.0
140
0.0
140
0.0
140
0.0
140
0.0
140
0.0
140
0.0
140
0.0
140
0.0
140
0.0
140
0.0
140
0.0
140
0.0
140
0.0
140
0.0
140
0.0
140
0.0
140
0.0
140
0.0
140
0.0
140
0.0
140
0.0
140
0.0
140
0.0
140
0.0
140
0.0
140
0.0
140
0.0
140
0.0
140
0.0
140
0.0
140
0.0
140
0.0
140
0.0
140
0.0
140
0.0
140
0.0
140
0.0
140
0.0
140
0.0
140
0.0
140
0.0
140
0.0
140
0.0
140
0.0
140
0.0
140
0.0
140
0.0
140
0.0
140
0.0
140
0.0
140
0.0
140
0.0
140
0.0
140
0.0
140
0.0
140
0.0
140
0.0
140
0.0
140
0.0
140
0.0
140
0.0
140
0.0
140
0.0
140
0.0
140
0.0
140
0.0
140
0.0
140
0.0
140
0.0
140
0.0
140
0.0
140
0.0
140
0.0
140
0.0
140
0.0
140
0.0
140
0.0
140
0.0
140
0.0
140
0.0
140
0.0
140
0.0
140
0.0
140
0.0
140
0.0
140
0.0
140
0.0
140
0.0
140
0.0
140
0.0
140
0.0
140
0.0
140
0.0
140
0.0
140
0.0
140
0.0
140
0.0
140
0.0
140
0.0
140
0.0
140
0.0
140
0.0
140
0.0
140
0.0
140
0.0
140
0.0
140
0.0
140
0.0
140
0.0
140
0.0
140
0.0
140
0.0
140
0.0
140
0.0
140
0.0
140
0.0
140
0.0
140
0.0
140
0.0
140
0.0
140
0.0
 90
        0
  0
POLYLINE
  5
FA
330
1F
100
AcDbEntity
  8
0
 62
    54
420
 11637787
100
AcDb3dPolyline
 66
     1
 10
0.0
 20
0.0
 30
0.0
 70
     9
  0
VERTEX
  5
FB
330
FA
100
AcDbEntity
  8
0
 62
    54
420
 11637787
100
AcDbVertex
100
AcDb3dPolylineVertex
 10
0.0000044114040065
 20
49.15682220458984
 30
-4.974413394927978
 70
    32
  0
VERTEX
  5
FC
330
FA
100
AcDbEntity
  8
0
 62
    54
420
 11637787
100
AcDbVertex
100
AcDb3dPolylineVertex
 10
0.0000041939674702
 20
49.15682601928711
 30
-0.0000128687115648
 70
    32
  0
VERTEX
  5
FD
330
FA
100
AcDbEntity
  8
0
 62
    54
420
 11637787
100
AcDbVertex
100
AcDb3dPolylineVertex
 10
0.0000034384374885
 20
44.5194206237793
 30
-0.0000132741261041
 70
    32
  0
VERTEX
  5
FE
330
FA
100
AcDbEntity
  8
0
 62
    54
420
 11637787
100
AcDbVertex
100
AcDb3dPolylineVertex
 10
0.0000033587098187
 20
44.01213455200195
 30
-0.066799134016037
 70
    32
  0
VERTEX
  5
FF
330
FA
100
AcDbEntity
  8
0
 62
    54
420
 11637787
100
AcDbVertex
100
AcDb3dPolylineVertex
 10
0.0000032902526073
 20
43.53941345214844
 30
-0.2626018524169922
 70
    32
  0
VERTEX
  5
100
330
FA
100
AcDbEntity
  8
0
 62
    54
420
 11637787
100
AcDbVertex
100
AcDb3dPolylineVertex
 10
0.0000031866325116
 20
42.78681945800781
 30
-0.697109341621399
 70
    32
  0
VERTEX
  5
101
330
FA
100
AcDbEntity
  8
0
 62
    54
420
 11637787
100
AcDbVertex
100
AcDb3dPolylineVertex
 10
0.0000031125405258
 20
42.29682159423828
 30
-0.8284035921096801
 70
    32
  0
VERTEX
  5
102
330
FA
100
AcDbEntity
  8
0
 62
    54
420
 11637787
100
AcDbVertex
100
AcDb3dPolylineVertex
 10
0.0000030269707167
 20
41.80682373046875
 30
-0.6971094012260437
 70
    32
  0
VERTEX
  5
103
330
FA
100
AcDbEntity
  8
0
 62
    54
420
 11637787
100
AcDbVertex
100
AcDb3dPolylineVertex
 10
0.0000028853646654
 20
41.05422973632812
 30
-0.2626020610332489
 70
    32
  0
VERTEX
  5
104
330
FA
100
AcDbEntity
  8
0
 62
    54
420
 11637787
100
AcDbVertex
100
AcDb3dPolylineVertex
 10
0.0000027997921279
 20
40.58152389526367
 30
-0.0667975246906281
 70
    32
  0
VERTEX
  5
105
330
FA
100
AcDbEntity
  8
0
 62
    54
420
 11637787
100
AcDbVertex
100
AcDb3dPolylineVertex
 10
0.0000027142255021
 20
40.07423782348633
 30
-0.0000117553881864
 70
    32
  0
VERTEX
  5
106
330
FA
100
AcDbEntity
  8
0
 62
    54
420
 11637787
100
AcDbVertex
100
AcDb3dPolylineVertex
 10
0.0000024057499104
 20
38.18082809448242
 30
-0.0000119209153127
 70
    32
  0
VERTEX
  5
107
330
FA
100
AcDbEntity
  8
0
 62
    54
420
 11637787
100
AcDbVertex
100
AcDb3dPolylineVertex
 10
0.0000022900690055
 20
37.43075561523438
 30
-0.1492086052894592
 70
    32
  0
VERTEX
  5
108
330
FA
100
AcDbEntity
  8
0
 62
    54
420
 11637787
100
AcDbVertex
100
AcDb3dPolylineVertex
 10
0.0000022050453481
 20
36.79489135742187
 30
-0.5740820169448853
 70
    32
  0
VERTEX
  5
109
330
FA
100
AcDbEntity
  8
0
 62
    54
420
 11637787
100
AcDbVertex
100
AcDb3dPolylineVertex
 10
0.0000021636183192
 20
36.37001037597656
 30
-1.209951996803283
 70
    32
  0
VERTEX
  5
10A
330
FA
100
AcDbEntity
  8
0
 62
    54
420
 11637787
100
AcDbVertex
100
AcDb3dPolylineVertex
 10
0.000002172097993
 20
36.22081756591797
 30
-1.96001124382019
 70
    32
  0
VERTEX
  5
10B
330
FA
100
AcDbEntity
  8
0
 62
    54
420
 11637787
100
AcDbVertex
100
AcDb3dPolylineVertex
 10
0.0000022949179765
 20
36.22081756591797
 30
-4.769802570343017
 70
    32
  0
VERTEX
  5
10C
330
FA
100
AcDbEntity
  8
0
 62
    54
420
 11637787
100
AcDbVertex
100
AcDb3dPolylineVertex
 10
0.0000023007946766
 20
36.12737274169922
 30
-5.252533435821533
 70
    32
  0
VERTEX
  5
10D
330
FA
100
AcDbEntity
  8
0
 62
    54
420
 11637787
100
AcDbVertex
100
AcDb3dPolylineVertex
 10
0.0000022753738449
 20
35.86053466796875
 30
-5.665524005889892
 70
    32
  0
VERTEX
  5
10E
330
FA
100
AcDbEntity
  8
0
 62
    54
420
 11637787
100
AcDbVertex
100
AcDb3dPolylineVertex
 10
0.0000022223284759
 20
35.4588623046875
 30
-5.949109077453613
 70
    32
  0
VERTEX
  5
10F
330
FA
100
AcDbEntity
  8
0
 62
    54
420
 11637787
100
AcDbVertex
100
AcDb3dPolylineVertex
 10
0.000002149321972
 20
34.98037719726563
 30
-6.062314987182617
 70
    32
  0
VERTEX
  5
110
330
FA
100
AcDbEntity
  8
0
 62
    54
420
 11637787
100
AcDbVertex
100
AcDb3dPolylineVertex
 10
0.0000011580091268
 20
28.64323425292969
 30
-7.003455638885498
 70
    32
  0
VERTEX
  5
111
330
FA
100
AcDbEntity
  8
0
 62
    54
420
 11637787
100
AcDbVertex
100
AcDb3dPolylineVertex
 10
0.0000040945451474
 20
22.64745330810547
 30
-9.260891914367675
 70
    32
  0
VERTEX
  5
112
330
FA
100
AcDbEntity
  8
0
 62
    54
420
 11637787
100
AcDbVertex
100
AcDb3dPolylineVertex
 10
0.0000033691012504
 20
17.26317024230957
 30
-12.73292064666748
 70
    32
  0
VERTEX
  5
113
330
FA
100
AcDbEntity
  8
0
 62
    54
420
 11637787
100
AcDbVertex
100
AcDb3dPolylineVertex
 10
0.0000028290553473
 20
12.73293685913086
 30
-17.26315689086914
 70
    32
  0
VERTEX
  5
114
330
FA
100
AcDbEntity
  8
0
 62
    54
420
 11637787
100
AcDbVertex
100
AcDb3dPolylineVertex
 10
0.0000024987443794
 20
9.260907173156738
 30
-22.64743995666504
 70
    32
  0
VERTEX
  5
115
330
FA
100
AcDbEntity
  8
0
 62
    54
420
 11637787
100
AcDbVertex
100
AcDb3dPolylineVertex
 10
0.0000023930456337
 20
7.003472805023193
 30
-28.64322090148926
 70
    32
  0
VERTEX
  5
116
330
FA
100
AcDbEntity
  8
0
 62
    54
420
 11637787
100
AcDbVertex
100
AcDb3dPolylineVertex
 10
0.0000025167191779
 20
6.06232738494873
 30
-34.98037338256836
 70
    32
  0
VERTEX
  5
117
330
FA
100
AcDbEntity
  8
0
 62
    54
420
 11637787
100
AcDbVertex
100
AcDb3dPolylineVertex
 10
0.0000025191918667
 20
5.949128627777099
 30
-35.45885467529297
 70
    32
  0
VERTEX
  5
118
330
FA
100
AcDbEntity
  8
0
 62
    54
420
 11637787
100
AcDbVertex
100
AcDb3dPolylineVertex
 10
0.0000024905484679
 20
5.665547847747802
 30
-35.86053085327149
 70
    32
  0
VERTEX
  5
119
330
FA
100
AcDbEntity
  8
0
 62
    54
420
 11637787
100
AcDbVertex
100
AcDb3dPolylineVertex
 10
0.0000024349274099
 20
5.252557277679443
 30
-36.12736511230469
 70
    32
  0
VERTEX
  5
11A
330
FA
100
AcDbEntity
  8
0
 62
    54
420
 11637787
100
AcDbVertex
100
AcDb3dPolylineVertex
 10
0.0000023603652153
 20
4.769826412200927
 30
-36.22080993652344
 70
    32
  0
VERTEX
  5
11B
330
FA
100
AcDbEntity
  8
0
 62
    54
420
 11637787
100
AcDbVertex
100
AcDb3dPolylineVertex
 10
0.0000019025920892
 20
1.960034728050231
 30
-36.22080993652344
 70
    32
  0
VERTEX
  5
11C
330
FA
100
AcDbEntity
  8
0
 62
    54
420
 11637787
100
AcDbVertex
100
AcDb3dPolylineVertex
 10
0.000001786913117
 20
1.209973692893981
 30
-36.3700065612793
 70
    32
  0
VERTEX
  5
11D
330
FA
100
AcDbEntity
  8
0
 62
    54
420
 11637787
100
AcDbVertex
100
AcDb3dPolylineVertex
 10
0.0000017018887775
 20
0.5741036534309388
 30
-36.79488372802734
 70
    32
  0
VERTEX
  5
11E
330
FA
100
AcDbEntity
  8
0
 62
    54
420
 11637787
100
AcDbVertex
100
AcDb3dPolylineVertex
 10
0.000001660462658
 20
0.1492284834384918
 30
-37.43075561523438
 70
    32
  0
VERTEX
  5
11F
330
FA
100
AcDbEntity
  8
0
 62
    54
420
 11637787
100
AcDbVertex
100
AcDb3dPolylineVertex
 10
0.0000016689419908
 20
0.0000338237441611
 30
-38.18081665039063
 70
    32
  0
VERTEX
  5
120
330
FA
100
AcDbEntity
  8
0
 62
    54
420
 11637787
100
AcDbVertex
100
AcDb3dPolylineVertex
 10
0.0000017517056676
 20
0.0000339892721968
 30
-40.07422637939453
 70
    32
  0
VERTEX
  5
121
330
FA
100
AcDbEntity
  8
0
 62
    54
420
 11637787
100
AcDbVertex
100
AcDb3dPolylineVertex
 10
0.0000017847602294
 20
0.0668198466300964
 30
-40.58150482177734
 70
    32
  0
VERTEX
  5
122
330
FA
100
AcDbEntity
  8
0
 62
    54
420
 11637787
100
AcDbVertex
100
AcDb3dPolylineVertex
 10
0.0000018373237936
 20
0.2626225650310516
 30
-41.05422592163086
 70
    32
  0
VERTEX
  5
123
330
FA
100
AcDbEntity
  8
0
 62
    54
420
 11637787
100
AcDbVertex
100
AcDb3dPolylineVertex
 10
0.0000019410113055
 20
0.6971318721771241
 30
-41.80681991577148
 70
    32
  0
VERTEX
  5
124
330
FA
100
AcDbEntity
  8
0
 62
    54
420
 11637787
100
AcDbVertex
100
AcDb3dPolylineVertex
 10
0.0000019838203116
 20
0.82842618227005
 30
-42.29681777954101
 70
    32
  0
VERTEX
  5
125
330
FA
100
AcDbEntity
  8
0
 62
    54
420
 11637787
100
AcDbVertex
100
AcDb3dPolylineVertex
 10
0.0000019838482785
 20
0.6971319913864136
 30
-42.78681564331054
 70
    32
  0
VERTEX
  5
126
330
FA
100
AcDbEntity
  8
0
 62
    54
420
 11637787
100
AcDbVertex
100
AcDb3dPolylineVertex
 10
0.0000019459546365
 20
0.2626228034496307
 30
-43.53940963745117
 70
    32
  0
VERTEX
  5
127
330
FA
100
AcDbEntity
  8
0
 62
    54
420
 11637787
100
AcDbVertex
100
AcDb3dPolylineVertex
 10
-0.0000018799810277
 20
0.0668144226074219
 30
-44.01211547851562
 70
    32
  0
VERTEX
  5
128
330
FA
100
AcDbEntity
  8
0
 62
    54
420
 11637787
100
AcDbVertex
100
AcDb3dPolylineVertex
 10
-0.0000018686871499
 20
0.0000324705324601
 30
-44.51940155029297
 70
    32
  0
VERTEX
  5
129
330
FA
100
AcDbEntity
  8
0
 62
    54
420
 11637787
100
AcDbVertex
100
AcDb3dPolylineVertex
 10
-0.0000016659796529
 20
0.0000309686001856
 30
-49.15681457519531
 70
    32
  0
VERTEX
  5
12A
330
FA
100
AcDbEntity
  8
0
 62
    54
420
 11637787
100
AcDbVertex
100
AcDb3dPolylineVertex
 10
-0.0000008555466593
 20
4.97443151473999
 30
-49.15681838989257
 70
    32
  0
VERTEX
  5
12B
330
FA
100
AcDbEntity
  8
0
 62
    54
420
 11637787
100
AcDbVertex
100
AcDb3dPolylineVertex
 10
-0.0000008332940524
 20
5.124431133270263
 30
-49.10681915283203
 70
    32
  0
VERTEX
  5
12C
330
FA
100
AcDbEntity
  8
0
 62
    54
420
 11637787
100
AcDbVertex
100
AcDb3dPolylineVertex
 10
-0.0000008317047104
 20
5.174431324005126
 30
-48.95681762695312
 70
    32
  0
VERTEX
  5
12D
330
FA
100
AcDbEntity
  8
0
 62
    54
420
 11637787
100
AcDbVertex
100
AcDb3dPolylineVertex
 10
-0.0000010114458746
 20
5.174432754516601
 30
-44.84481430053711
 70
    32
  0
VERTEX
  5
12E
330
FA
100
AcDbEntity
  8
0
 62
    54
420
 11637787
100
AcDbVertex
100
AcDb3dPolylineVertex
 10
-0.0000007000626283
 20
7.01583194732666
 30
-45.1051902770996
 70
    32
  0
VERTEX
  5
12F
330
FA
100
AcDbEntity
  8
0
 62
    54
420
 11637787
100
AcDbVertex
100
AcDb3dPolylineVertex
 10
-0.0000004175735739
 20
8.842862129211425
 30
-44.75809860229492
 70
    32
  0
VERTEX
  5
130
330
FA
100
AcDbEntity
  8
0
 62
    54
420
 11637787
100
AcDbVertex
100
AcDb3dPolylineVertex
 10
-0.0000001941282335
 20
10.46052837371826
 30
-43.84057998657226
 70
    32
  0
VERTEX
  5
131
330
FA
100
AcDbEntity
  8
0
 62
    54
420
 11637787
100
AcDbVertex
100
AcDb3dPolylineVertex
 10
0.0000037611057451
 20
11.69606685638427
 30
-42.45059585571289
 70
    32
  0
VERTEX
  5
132
330
FA
100
AcDbEntity
  8
0
 62
    54
420
 11637787
100
AcDbVertex
100
AcDb3dPolylineVertex
 10
0.0000038037342165
 20
12.41760349273681
 30
-40.73651504516601
 70
    32
  0
VERTEX
  5
133
330
FA
100
AcDbEntity
  8
0
 62
    54
420
 11637787
100
AcDbVertex
100
AcDb3dPolylineVertex
 10
0.0000037439044718
 20
12.548095703125
 30
-38.88139724731445
 70
    32
  0
VERTEX
  5
134
330
FA
100
AcDbEntity
  8
0
 62
    54
420
 11637787
100
AcDbVertex
100
AcDb3dPolylineVertex
 10
0.0000035880029827
 20
12.07362937927246
 30
-37.08321762084961
 70
    32
  0
VERTEX
  5
135
330
FA
100
AcDbEntity
  8
0
 62
    54
420
 11637787
100
AcDbVertex
100
AcDb3dPolylineVertex
 10
0.0000041824373511
 20
16.02633666992187
 30
-35.94979858398438
 70
    32
  0
VERTEX
  5
136
330
FA
100
AcDbEntity
  8
0
 62
    54
420
 11637787
100
AcDbVertex
100
AcDb3dPolylineVertex
 10
0.000004201646334
 20
16.16873931884765
 30
-35.85848617553711
 70
    32
  0
VERTEX
  5
137
330
FA
100
AcDbEntity
  8
0
 62
    54
420
 11637787
100
AcDbVertex
100
AcDb3dPolylineVertex
 10
0.0000042014480641
 20
16.21144104003906
 30
-35.69480133056641
 70
    32
  0
VERTEX
  5
138
330
FA
100
AcDbEntity
  8
0
 62
    54
420
 11637787
100
AcDbVertex
100
AcDb3dPolylineVertex
 10
0.0000040609752432
 20
16.11001205444336
 30
-32.85919952392578
 70
    32
  0
VERTEX
  5
139
330
FA
100
AcDbEntity
  8
0
 62
    54
420
 11637787
100
AcDbVertex
100
AcDb3dPolylineVertex
 10
0.0000040008030737
 20
16.27181434631348
 30
-30.87954902648926
 70
    32
  0
VERTEX
  5
13A
330
FA
100
AcDbEntity
  8
0
 62
    54
420
 11637787
100
AcDbVertex
100
AcDb3dPolylineVertex
 10
0.0000039790761548
 20
16.67429542541504
 30
-28.88236808776856
 70
    32
  0
VERTEX
  5
13B
330
FA
100
AcDbEntity
  8
0
 62
    54
420
 11637787
100
AcDbVertex
100
AcDb3dPolylineVertex
 10
0.0000039971737351
 20
17.29187393188476
 30
-26.99456405639649
 70
    32
  0
VERTEX
  5
13C
330
FA
100
AcDbEntity
  8
0
 62
    54
420
 11637787
100
AcDbVertex
100
AcDb3dPolylineVertex
 10
0.0000040557729335
 20
18.14761352539062
 30
-25.14565086364746
 70
    32
  0
VERTEX
  5
13D
330
FA
100
AcDbEntity
  8
0
 62
    54
420
 11637787
100
AcDbVertex
100
AcDb3dPolylineVertex
 10
0.0000041511484596
 20
19.18712615966797
 30
-23.4531307220459
 70
    32
  0
VERTEX
  5
13E
330
FA
100
AcDbEntity
  8
0
 62
    54
420
 11637787
100
AcDbVertex
100
AcDb3dPolylineVertex
 10
0.000004286866897
 20
20.44927024841308
 30
-21.85375022888184
 70
    32
  0
VERTEX
  5
13F
330
FA
100
AcDbEntity
  8
0
 62
    54
420
 11637787
100
AcDbVertex
100
AcDb3dPolylineVertex
 10
0.0000044542953219
 20
21.85376358032227
 30
-20.44925498962403
 70
    32
  0
VERTEX
  5
140
330
FA
100
AcDbEntity
  8
0
 62
    54
420
 11637787
100
AcDbVertex
100
AcDb3dPolylineVertex
 10
0.0000046596974244
 20
23.45314407348633
 30
-19.18710708618164
 70
    32
  0
VERTEX
  5
141
330
FA
100
AcDbEntity
  8
0
 62
    54
420
 11637787
100
AcDbVertex
100
AcDb3dPolylineVertex
 10
0.0000048900051297
 20
25.14566421508789
 30
-18.14759254455566
 70
    32
  0
VERTEX
  5
142
330
FA
100
AcDbEntity
  8
0
 62
    54
420
 11637787
100
AcDbVertex
100
AcDb3dPolylineVertex
 10
0.0000013391277207
 20
26.99456977844238
 30
-17.2918586730957
 70
    32
  0
VERTEX
  5
143
330
FA
100
AcDbEntity
  8
0
 62
    54
420
 11637787
100
AcDbVertex
100
AcDb3dPolylineVertex
 10
0.0000016196950128
 20
28.88237571716309
 30
-16.67428016662597
 70
    32
  0
VERTEX
  5
144
330
FA
100
AcDbEntity
  8
0
 62
    54
420
 11637787
100
AcDbVertex
100
AcDb3dPolylineVertex
 10
0.0000019274848455
 20
30.87956047058106
 30
-16.27180099487304
 70
    32
  0
VERTEX
  5
145
330
FA
100
AcDbEntity
  8
0
 62
    54
420
 11637787
100
AcDbVertex
100
AcDb3dPolylineVertex
 10
0.0000022429380806
 20
32.85921096801758
 30
-16.10999488830566
 70
    32
  0
VERTEX
  5
146
330
FA
100
AcDbEntity
  8
0
 62
    54
420
 11637787
100
AcDbVertex
100
AcDb3dPolylineVertex
 10
0.0000027093483368
 20
35.69480514526367
 30
-16.21142196655273
 70
    32
  0
VERTEX
  5
147
330
FA
100
AcDbEntity
  8
0
 62
    54
420
 11637787
100
AcDbVertex
100
AcDb3dPolylineVertex
 10
0.0000027341493478
 20
35.85848999023438
 30
-16.16872024536133
 70
    32
  0
VERTEX
  5
148
330
FA
100
AcDbEntity
  8
0
 62
    54
420
 11637787
100
AcDbVertex
100
AcDb3dPolylineVertex
 10
0.0000027428013709
 20
35.94980239868164
 30
-16.02631759643555
 70
    32
  0
VERTEX
  5
149
330
FA
100
AcDbEntity
  8
0
 62
    54
420
 11637787
100
AcDbVertex
100
AcDb3dPolylineVertex
 10
0.000002754680736
 20
37.08322143554688
 30
-12.07361316680908
 70
    32
  0
VERTEX
  5
14A
330
FA
100
AcDbEntity
  8
0
 62
    54
420
 11637787
100
AcDbVertex
100
AcDb3dPolylineVertex
 10
0.0000030683813748
 20
38.88140106201172
 30
-12.54807758331299
 70
    32
  0
VERTEX
  5
14B
330
FA
100
AcDbEntity
  8
0
 62
    54
420
 11637787
100
AcDbVertex
100
AcDb3dPolylineVertex
 10
0.0000033649143916
 20
40.73651885986328
 30
-12.4175853729248
 70
    32
  0
VERTEX
  5
14C
330
FA
100
AcDbEntity
  8
0
 62
    54
420
 11637787
100
AcDbVertex
100
AcDb3dPolylineVertex
 10
0.0000036126339182
 20
42.45059967041015
 30
-11.69604873657226
 70
    32
  0
VERTEX
  5
14D
330
FA
100
AcDbEntity
  8
0
 62
    54
420
 11637787
100
AcDbVertex
100
AcDb3dPolylineVertex
 10
0.0000037850841181
 20
43.84058380126953
 30
-10.46051120758056
 70
    32
  0
VERTEX
  5
14E
330
FA
100
AcDbEntity
  8
0
 62
    54
420
 11637787
100
AcDbVertex
100
AcDb3dPolylineVertex
 10
0.0000038638563638
 20
44.75810241699218
 30
-8.84284496307373
 70
    32
  0
VERTEX
  5
14F
330
FA
100
AcDbEntity
  8
0
 62
    54
420
 11637787
100
AcDbVertex
100
AcDb3dPolylineVertex
 10
0.0000038405423766
 20
45.10519409179687
 30
-7.015814781188964
 70
    32
  0
VERTEX
  5
150
330
FA
100
AcDbEntity
  8
0
 62
    54
420
 11637787
100
AcDbVertex
100
AcDb3dPolylineVertex
 10
0.0000037176318983
 20
44.84481811523437
 30
-5.174413681030273
 70
    32
  0
VERTEX
  5
151
330
FA
100
AcDbEntity
  8
0
 62
    54
420
 11637787
100
AcDbVertex
100
AcDb3dPolylineVertex
 10
0.0000043875616029
 20
48.95682144165039
 30
-5.174413204193115
 70
    32
  0
VERTEX
  5
152
330
FA
100
AcDbEntity
  8
0
 62
    54
420
 11637787
100
AcDbVertex
100
AcDb3dPolylineVertex
 10
0.0000044098151193
 20
49.1068229675293
 30
-5.124413013458251
 70
    32
  0
SEQEND
  5
153
330
FA
100
AcDbEntity
  8
0
 62
    54
420
 11637787
  0
ENDSEC
  0
SECTION
  2
OBJECTS
  0
DICTIONARY
  5
C
330
0
100
AcDbDictionary
281
     1
  3
ACAD_COLOR
350
DC
  3
ACAD_DETAILVIEWSTYLE
350
F5
  3
ACAD_GROUP
350
D
  3
ACAD_LAYOUT
350
1A
  3
ACAD_MATERIAL
350
AA
  3
ACAD_MLEADERSTYLE
350
F1
  3
ACAD_MLINESTYLE
350
17
  3
ACAD_PLOTSETTINGS
350
19
  3
ACAD_PLOTSTYLENAME
350
E
  3
ACAD_SCALELIST
350
DF
  3
ACAD_SECTIONVIEWSTYLE
350
F3
  3
ACAD_TABLESTYLE
350
DD
  3
ACAD_VISUALSTYLE
350
C3
  3
ACDB_RECOMPOSE_DATA
350
160
  3
AcDbVariableDictionary
350
154
  0
DICTIONARY
  5
DC
102
{ACAD_REACTORS
330
C
102
}
330
C
100
AcDbDictionary
281
     1
  0
DICTIONARY
  5
F5
102
{ACAD_REACTORS
330
C
102
}
330
C
100
AcDbDictionary
281
     1
  3
Imperial24
350
F6
  0
DICTIONARY
  5
D
102
{ACAD_REACTORS
330
C
102
}
330
C
100
AcDbDictionary
281
     1
  0
DICTIONARY
  5
1A
102
{ACAD_REACTORS
330
C
102
}
330
C
100
AcDbDictionary
281
     1
  3
Layout1
350
1E
  3
Layout2
350
26
  3
Model
350
22
  0
DICTIONARY
  5
AA
102
{ACAD_REACTORS
330
C
102
}
330
C
100
AcDbDictionary
281
     1
  3
ByBlock
350
B3
  3
ByLayer
350
AB
  3
Global
350
BB
  0
DICTIONARY
  5
F1
102
{ACAD_REACTORS
330
C
102
}
330
C
100
AcDbDictionary
281
     1
  3
Standard
350
F2
  0
DICTIONARY
  5
17
102
{ACAD_REACTORS
330
C
102
}
330
C
100
AcDbDictionary
281
     1
  3
Standard
350
18
  0
DICTIONARY
  5
19
102
{ACAD_REACTORS
330
C
102
}
330
C
100
AcDbDictionary
281
     1
  0
ACDBDICTIONARYWDFLT
  5
E
102
{ACAD_REACTORS
330
C
102
}
330
C
100
AcDbDictionary
281
     1
  3
ByLayer
350
2D
  3
Normal
350
F
100
AcDbDictionaryWithDefault
340
F
  0
DICTIONARY
  5
DF
102
{ACAD_REACTORS
330
C
102
}
330
C
100
AcDbDictionary
281
     1
  3
A0
350
E0
  3
A1
350
E1
  3
A2
350
E2
  3
A3
350
E3
  3
A4
350
E4
  3
A5
350
E5
  3
A6
350
E6
  3
A7
350
E7
  3
A8
350
E8
  3
A9
350
E9
  3
B0
350
EA
  3
B1
350
EB
  3
B2
350
EC
  3
B3
350
ED
  3
B4
350
EE
  3
B5
350
EF
  3
B6
350
F0
  0
DICTIONARY
  5
F3
102
{ACAD_REACTORS
330
C
102
}
330
C
100
AcDbDictionary
281
     1
  3
Imperial24
350
F4
  0
DICTIONARY
  5
DD
102
{ACAD_REACTORS
330
C
102
}
330
C
100
AcDbDictionary
281
     1
  3
Standard
350
DE
  0
DICTIONARY
  5
C3
102
{ACAD_REACTORS
330
C
102
}
330
C
100
AcDbDictionary
281
     1
  3
2dWireframe
350
C9
  3
Basic
350
C8
  3
Brighten
350
CF
  3
ColorChange
350
D3
  3
Conceptual
350
CC
  3
Dim
350
CE
  3
EdgeColorOff
350
DB
  3
Facepattern
350
D2
  3
Flat
350
C4
  3
FlatWithEdges
350
C5
  3
Gouraud
350
C6
  3
GouraudWithEdges
350
C7
  3
Hidden
350
CB
  3
JitterOff
350
D9
  3
Linepattern
350
D1
  3
OverhangOff
350
DA
  3
Realistic
350
CD
  3
Shaded
350
D8
  3
Shaded with edges
350
D7
  3
Shades of Gray
350
D4
  3
Sketchy
350
D5
  3
Thicken
350
D0
  3
Wireframe
350
CA
  3
X-Ray
350
D6
  0
XRECORD
  5
160
102
{ACAD_REACTORS
330
C
102
}
330
C
100
AcDbXrecord
280
     1
 90
        1
330
DE
  0
DICTIONARY
  5
154
102
{ACAD_REACTORS
330
C
102
}
330
C
100
AcDbDictionary
281
     1
  3
CANNOSCALE
350
15A
  3
CMLEADERSTYLE
350
156
  3
CTABLESTYLE
350
155
  3
CVIEWDETAILSTYLE
350
157
  3
CVIEWSECTIONSTYLE
350
158
  3
LAYEREVAL
350
15C
  3
LAYERNOTIFY
350
15D
  3
LIGHTINGUNITS
350
15B
  3
MSLTSCALE
350
159
  0
ACDBDETAILVIEWSTYLE
  5
F6
102
{ACAD_XDICTIONARY
360
195
102
}
102
{ACAD_REACTORS
330
F5
102
}
330
F5
100
AcDbModelDocViewStyle
 70
     0
  3
Imperial24
290
     0
100
AcDbDetailViewStyle
 70
     0
 71
     0
 90
        3
 71
     1
340
11
 62
   256
 40
0.24
340
0
 62
   256
 40
0.24
300

 40
0.36
280
     3
 71
     2
340
16
 90
       25
 62
   256
 71
     3
340
11
 62
   256
 40
0.24
 90
        1
 40
0.75
 90
        1
300
%<\AcVar ViewType \f "%tc1">% %<\AcVar ViewDetailId>%\PSCALE %<\AcVar ViewScale \f "%sn">%
 71
     4
340
16
 90
       25
 62
   256
340
16
 90
       25
 62
   256
280
     0
  0
LAYOUT
  5
1E
102
{ACAD_REACTORS
330
1A
102
}
330
1A
100
AcDbPlotSettings
  1

  2
\\KTXNTBDC\CASF2PN1
  4

  6

 40
0.0
 41
0.0
 42
0.0
 43
0.0
 44
0.0
 45
0.0
 46
0.0
 47
0.0
 48
0.0
 49
0.0
140
0.0
141
0.0
142
1.0
143
1.0
 70
   688
 72
     0
 73
     0
 74
     5
  7

 75
    16
147
1.0
 76
     0
 77
     2
 78
   300
148
0.0
149
0.0
100
AcDbLayout
  1
Layout1
 70
     1
 71
     1
 10
0.0
 20
0.0
 11
12.0
 21
9.0
 12
0.0
 22
0.0
 32
0.0
 14
1.000000000000000E+20
 24
1.000000000000000E+20
 34
1.000000000000000E+20
 15
-1.000000000000000E+20
 25
-1.000000000000000E+20
 35
-1.000000000000000E+20
146
0.0
 13
0.0
 23
0.0
 33
0.0
 16
1.0
 26
0.0
 36
0.0
 17
0.0
 27
1.0
 37
0.0
 76
     0
330
1B
  0
LAYOUT
  5
26
102
{ACAD_REACTORS
330
1A
102
}
330
1A
100
AcDbPlotSettings
  1

  2
\\KTXNTBDC\CASF2PN1
  4

  6

 40
0.0
 41
0.0
 42
0.0
 43
0.0
 44
0.0
 45
0.0
 46
0.0
 47
0.0
 48
0.0
 49
0.0
140
0.0
141
0.0
142
1.0
143
1.0
 70
   688
 72
     0
 73
     0
 74
     5
  7

 75
    16
147
1.0
 76
     0
 77
     2
 78
   300
148
0.0
149
0.0
100
AcDbLayout
  1
Layout2
 70
     1
 71
     2
 10
0.0
 20
0.0
 11
12.0
 21
9.0
 12
0.0
 22
0.0
 32
0.0
 14
0.0
 24
0.0
 34
0.0
 15
0.0
 25
0.0
 35
0.0
146
0.0
 13
0.0
 23
0.0
 33
0.0
 16
1.0
 26
0.0
 36
0.0
 17
0.0
 27
1.0
 37
0.0
 76
     0
330
23
  0
LAYOUT
  5
22
102
{ACAD_REACTORS
330
1A
102
}
330
1A
100
AcDbPlotSettings
  1

  2
\\KTXNTBDC\CASF2PN1
  4

  6

 40
0.0
 41
0.0
 42
0.0
 43
0.0
 44
0.0
 45
0.0
 46
0.0
 47
0.0
 48
0.0
 49
0.0
140
0.0
141
0.0
142
1.0
143
1.0
 70
  1712
 72
     0
 73
     0
 74
     0
  7

 75
     0
147
1.0
 76
     0
 77
     2
 78
   300
148
0.0
149
0.0
100
AcDbLayout
  1
Model
 70
     1
 71
     0
 10
0.0
 20
0.0
 11
12.0
 21
9.0
 12
0.0
 22
0.0
 32
0.0
 14
0.0
 24
0.0
 34
0.0
 15
0.0
 25
0.0
 35
0.0
146
0.0
 13
0.0
 23
0.0
 33
0.0
 16
1.0
 26
0.0
 36
0.0
 17
0.0
 27
1.0
 37
0.0
 76
     0
330
1F
  0
MATERIAL
  5
B3
102
{ACAD_XDICTIONARY
360
B4
102
}
102
{ACAD_REACTORS
330
AA
102
}
330
AA
100
AcDbMaterial
  1
ByBlock
 72
     0
 43
0.0208333333333333
 43
0.0
 43
0.0
 43
0.0
 43
0.0
 43
0.0208333333333333
 43
0.0
 43
0.0
 43
0.0
 43
0.0
 43
1.0
 43
0.0
 43
0.0
 43
0.0
 43
0.0
 43
1.0
 77
     0
 47
0.0208333333333333
 47
0.0
 47
0.0
 47
0.0
 47
0.0
 47
0.0208333333333333
 47
0.0
 47
0.0
 47
0.0
 47
0.0
 47
1.0
 47
0.0
 47
0.0
 47
0.0
 47
0.0
 47
1.0
171
     0
 49
0.0208333333333333
 49
0.0
 49
0.0
 49
0.0
 49
0.0
 49
0.0208333333333333
 49
0.0
 49
0.0
 49
0.0
 49
0.0
 49
1.0
 49
0.0
 49
0.0
 49
0.0
 49
0.0
 49
1.0
175
     0
142
0.0208333333333333
142
0.0
142
0.0
142
0.0
142
0.0
142
0.0208333333333333
142
0.0
142
0.0
142
0.0
142
0.0
142
1.0
142
0.0
142
0.0
142
0.0
142
0.0
142
1.0
179
     0
144
0.0208333333333333
144
0.0
144
0.0
144
0.0
144
0.0
144
0.0208333333333333
144
0.0
144
0.0
144
0.0
144
0.0
144
1.0
144
0.0
144
0.0
144
0.0
144
0.0
144
1.0
147
0.0208333333333333
147
0.0
147
0.0
147
0.0
147
0.0
147
0.0208333333333333
147
0.0
147
0.0
147
0.0
147
0.0
147
1.0
147
0.0
147
0.0
147
0.0
147
0.0
147
1.0
  0
MATERIAL
  5
AB
102
{ACAD_XDICTIONARY
360
AC
102
}
102
{ACAD_REACTORS
330
AA
102
}
330
AA
100
AcDbMaterial
  1
ByLayer
 72
     0
 43
0.0208333333333333
 43
0.0
 43
0.0
 43
0.0
 43
0.0
 43
0.0208333333333333
 43
0.0
 43
0.0
 43
0.0
 43
0.0
 43
1.0
 43
0.0
 43
0.0
 43
0.0
 43
0.0
 43
1.0
 77
     0
 47
0.0208333333333333
 47
0.0
 47
0.0
 47
0.0
 47
0.0
 47
0.0208333333333333
 47
0.0
 47
0.0
 47
0.0
 47
0.0
 47
1.0
 47
0.0
 47
0.0
 47
0.0
 47
0.0
 47
1.0
171
     0
 49
0.0208333333333333
 49
0.0
 49
0.0
 49
0.0
 49
0.0
 49
0.0208333333333333
 49
0.0
 49
0.0
 49
0.0
 49
0.0
 49
1.0
 49
0.0
 49
0.0
 49
0.0
 49
0.0
 49
1.0
175
     0
142
0.0208333333333333
142
0.0
142
0.0
142
0.0
142
0.0
142
0.0208333333333333
142
0.0
142
0.0
142
0.0
142
0.0
142
1.0
142
0.0
142
0.0
142
0.0
142
0.0
142
1.0
179
     0
144
0.0208333333333333
144
0.0
144
0.0
144
0.0
144
0.0
144
0.0208333333333333
144
0.0
144
0.0
144
0.0
144
0.0
144
1.0
144
0.0
144
0.0
144
0.0
144
0.0
144
1.0
147
0.0208333333333333
147
0.0
147
0.0
147
0.0
147
0.0
147
0.0208333333333333
147
0.0
147
0.0
147
0.0
147
0.0
147
1.0
147
0.0
147
0.0
147
0.0
147
0.0
147
1.0
  0
MATERIAL
  5
BB
102
{ACAD_XDICTIONARY
360
BC
102
}
102
{ACAD_REACTORS
330
AA
102
}
330
AA
100
AcDbMaterial
  1
Global
 72
     0
 43
0.0208333333333333
 43
0.0
 43
0.0
 43
0.0
 43
0.0
 43
0.0208333333333333
 43
0.0
 43
0.0
 43
0.0
 43
0.0
 43
1.0
 43
0.0
 43
0.0
 43
0.0
 43
0.0
 43
1.0
 77
     0
 47
0.0208333333333333
 47
0.0
 47
0.0
 47
0.0
 47
0.0
 47
0.0208333333333333
 47
0.0
 47
0.0
 47
0.0
 47
0.0
 47
1.0
 47
0.0
 47
0.0
 47
0.0
 47
0.0
 47
1.0
171
     0
 49
0.0208333333333333
 49
0.0
 49
0.0
 49
0.0
 49
0.0
 49
0.0208333333333333
 49
0.0
 49
0.0
 49
0.0
 49
0.0
 49
1.0
 49
0.0
 49
0.0
 49
0.0
 49
0.0
 49
1.0
175
     0
142
0.0208333333333333
142
0.0
142
0.0
142
0.0
142
0.0
142
0.0208333333333333
142
0.0
142
0.0
142
0.0
142
0.0
142
1.0
142
0.0
142
0.0
142
0.0
142
0.0
142
1.0
179
     0
144
0.0208333333333333
144
0.0
144
0.0
144
0.0
144
0.0
144
0.0208333333333333
144
0.0
144
0.0
144
0.0
144
0.0
144
1.0
144
0.0
144
0.0
144
0.0
144
0.0
144
1.0
147
0.0208333333333333
147
0.0
147
0.0
147
0.0
147
0.0
147
0.0208333333333333
147
0.0
147
0.0
147
0.0
147
0.0
147
1.0
147
0.0
147
0.0
147
0.0
147
0.0
147
1.0
  0
MLEADERSTYLE
  5
F2
102
{ACAD_XDICTIONARY
360
191
102
}
102
{ACAD_REACTORS
330
F1
102
}
330
F1
100
AcDbMLeaderStyle
179
     2
170
     2
171
     1
172
     0
 90
        2
 40
0.0
 41
0.0
173
     1
 91
-1056964608
340
14
 92
       -2
290
     1
 42
0.09
291
     1
 43
0.36
  3
Standard
 44
0.18
300

342
11
174
     1
178
     6
175
     1
176
     0
 93
-1056964608
 45
0.18
292
     0
297
     0
 46
0.18
 94
-1056964608
 47
1.0
 49
1.0
140
1.0
293
     1
141
0.0
294
     1
177
     0
142
1.0
295
     0
296
     0
143
0.125
271
     0
272
     9
273
     9
  0
MLINESTYLE
  5
18
102
{ACAD_REACTORS
330
17
102
}
330
17
100
AcDbMlineStyle
  2
STANDARD
 70
     0
  3

 62
   256
 51
90.0
 52
90.0
 71
     2
 49
0.5
 62
   256
  6
BYLAYER
 49
-0.5
 62
   256
  6
BYLAYER
  0
ACDBPLACEHOLDER
  5
2D
102
{ACAD_REACTORS
330
E
102
}
330
E
  0
ACDBPLACEHOLDER
  5
F
102
{ACAD_REACTORS
330
E
102
}
330
E
  0
SCALE
  5
E0
102
{ACAD_REACTORS
330
DF
102
}
330
DF
100
AcDbScale
 70
     0
300
1:1
140
1.0
141
1.0
290
     1
  0
SCALE
  5
E1
102
{ACAD_REACTORS
330
DF
102
}
330
DF
100
AcDbScale
 70
     0
300
1/128" = 1'-0"
140
0.0078125
141
12.0
290
     0
  0
SCALE
  5
E2
102
{ACAD_REACTORS
330
DF
102
}
330
DF
100
AcDbScale
 70
     0
300
1/64" = 1'-0"
140
0.015625
141
12.0
290
     0
  0
SCALE
  5
E3
102
{ACAD_REACTORS
330
DF
102
}
330
DF
100
AcDbScale
 70
     0
300
1/32" = 1'-0"
140
0.03125
141
12.0
290
     0
  0
SCALE
  5
E4
102
{ACAD_REACTORS
330
DF
102
}
330
DF
100
AcDbScale
 70
     0
300
1/16" = 1'-0"
140
0.0625
141
12.0
290
     0
  0
SCALE
  5
E5
102
{ACAD_REACTORS
330
DF
102
}
330
DF
100
AcDbScale
 70
     0
300
3/32" = 1'-0"
140
0.09375
141
12.0
290
     0
  0
SCALE
  5
E6
102
{ACAD_REACTORS
330
DF
102
}
330
DF
100
AcDbScale
 70
     0
300
1/8" = 1'-0"
140
0.125
141
12.0
290
     0
  0
SCALE
  5
E7
102
{ACAD_REACTORS
330
DF
102
}
330
DF
100
AcDbScale
 70
     0
300
3/16" = 1'-0"
140
0.1875
141
12.0
290
     0
  0
SCALE
  5
E8
102
{ACAD_REACTORS
330
DF
102
}
330
DF
100
AcDbScale
 70
     0
300
1/4" = 1'-0"
140
0.25
141
12.0
290
     0
  0
SCALE
  5
E9
102
{ACAD_REACTORS
330
DF
102
}
330
DF
100
AcDbScale
 70
     0
300
3/8" = 1'-0"
140
0.375
141
12.0
290
     0
  0
SCALE
  5
EA
102
{ACAD_REACTORS
330
DF
102
}
330
DF
100
AcDbScale
 70
     0
300
1/2" = 1'-0"
140
0.5
141
12.0
290
     0
  0
SCALE
  5
EB
102
{ACAD_REACTORS
330
DF
102
}
330
DF
100
AcDbScale
 70
     0
300
3/4" = 1'-0"
140
0.75
141
12.0
290
     0
  0
SCALE
  5
EC
102
{ACAD_REACTORS
330
DF
102
}
330
DF
100
AcDbScale
 70
     0
300
1" = 1'-0"
140
1.0
141
12.0
290
     0
  0
SCALE
  5
ED
102
{ACAD_REACTORS
330
DF
102
}
330
DF
100
AcDbScale
 70
     0
300
1-1/2" = 1'-0"
140
1.5
141
12.0
290
     0
  0
SCALE
  5
EE
102
{ACAD_REACTORS
330
DF
102
}
330
DF
100
AcDbScale
 70
     0
300
3" = 1'-0"
140
3.0
141
12.0
290
     0
  0
SCALE
  5
EF
102
{ACAD_REACTORS
330
DF
102
}
330
DF
100
AcDbScale
 70
     0
300
6" = 1'-0"
140
6.0
141
12.0
290
     0
  0
SCALE
  5
F0
102
{ACAD_REACTORS
330
DF
102
}
330
DF
100
AcDbScale
 70
     0
300
1'-0" = 1'-0"
140
12.0
141
12.0
290
     0
  0
ACDBSECTIONVIEWSTYLE
  5
F4
102
{ACAD_XDICTIONARY
360
193
102
}
102
{ACAD_REACTORS
330
F3
102
}
330
F3
100
AcDbModelDocViewStyle
 70
     0
  3
Imperial24
290
     0
100
AcDbSectionViewStyle
 70
     0
 71
     0
 90
       78
 71
     1
340
11
 62
   256
 40
0.24
340
0
340
0
 62
   256
 40
0.24
300
I, O, Q, S, X, Z
 40
0.48
 90
        3
 40
0.18
 90
        1
 71
     2
340
16
 90
       25
 62
   256
340
16
 90
       50
 62
   256
 40
0.24
 40
0.0
 40
0.24
 71
     3
340
11
 62
   256
 40
0.24
 90
        1
 40
0.75
 90
        1
300
%<\AcVar ViewType \f "%tc1">% %<\AcVar ViewSectionStartId>%-%<\AcVar ViewSectionEndId>%\PSCALE %<\AcVar ViewScale \f "%sn">%
 71
     4
 62
   256
 62
   257
300
ANSI31
 40
1.0
 90
        0
290
     0
290
     0
 90
        6
 40
0.0
 40
1.570796326794896
 40
0.2617993877991494
 40
1.308996938995747
 40
-0.2617993877991494
 40
1.832595714594046
  0
TABLESTYLE
  5
DE
102
{ACAD_XDICTIONARY
360
15E
102
}
102
{ACAD_REACTORS
330
DD
102
}
330
DD
100
AcDbTableStyle
280
     0
  3
Standard
 70
     0
 71
     0
 40
0.06
 41
0.06
280
     0
281
     0
  7
Standard
140
0.18
170
     2
 62
     0
 63
     7
283
     0
 90
      512
 91
        0
  1

274
    -2
284
     1
 64
     0
275
    -2
285
     1
 65
     0
276
    -2
286
     1
 66
     0
277
    -2
287
     1
 67
     0
278
    -2
288
     1
 68
     0
279
    -2
289
     1
 69
     0
  7
Standard
140
0.25
170
     5
 62
     0
 63
     7
283
     0
 90
      512
 91
        0
  1

274
    -2
284
     1
 64
     0
275
    -2
285
     1
 65
     0
276
    -2
286
     1
 66
     0
277
    -2
287
     1
 67
     0
278
    -2
288
     1
 68
     0
279
    -2
289
     1
 69
     0
  7
Standard
140
0.18
170
     5
 62
     0
 63
     7
283
     0
 90
      512
 91
        0
  1

274
    -2
284
     1
 64
     0
275
    -2
285
     1
 65
     0
276
    -2
286
     1
 66
     0
277
    -2
287
     1
 67
     0
278
    -2
288
     1
 68
     0
279
    -2
289
     1
 69
     0
  0
VISUALSTYLE
  5
C9
102
{ACAD_XDICTIONARY
360
16B
102
}
102
{ACAD_REACTORS
330
C3
102
}
330
C3
100
AcDbVisualStyle
  2
2dWireframe
 70
     4
177
     2
291
     0
 71
     0
176
     1
 72
     2
176
     1
 73
     0
176
     1
 90
        0
176
     1
 40
0.6
176
     1
 41
30.0
176
     1
 63
     7
421
 16777215
176
     1
 74
     1
176
     1
 91
        4
176
     1
 64
     7
176
     1
 65
   257
176
     1
 75
     1
176
     1
175
     1
176
     1
 42
1.0
176
     1
 92
        0
176
     1
 66
   257
176
     1
 43
1.0
176
     1
 76
     1
176
     1
 77
     6
176
     1
 78
     2
176
     1
 67
     7
176
     1
 79
     5
176
     1
170
     0
176
     1
171
     0
176
     1
290
     0
176
     1
 93
        1
176
     1
 44
0.0
176
     1
173
     0
176
     1
1001
ACAD
1000
AcDbSavedByObjectVersion
1070
     0
  0
VISUALSTYLE
  5
C8
102
{ACAD_XDICTIONARY
360
169
102
}
102
{ACAD_REACTORS
330
C3
102
}
330
C3
100
AcDbVisualStyle
  2
Basic
 70
     7
177
     2
291
     1
 71
     1
176
     1
 72
     0
176
     1
 73
     1
176
     1
 90
        0
176
     1
 40
0.6
176
     1
 41
30.0
176
     1
 63
     7
421
 16777215
176
     1
 74
     0
176
     1
 91
        4
176
     1
 64
     7
176
     1
 65
   257
176
     1
 75
     1
176
     1
175
     1
176
     1
 42
1.0
176
     1
 92
        8
176
     1
 66
     7
176
     1
 43
1.0
176
     1
 76
     1
176
     1
 77
     6
176
     1
 78
     2
176
     1
 67
     7
176
     1
 79
     5
176
     1
170
     0
176
     1
171
     0
176
     1
290
     0
176
     1
 93
        1
176
     1
 44
0.0
176
     1
173
     0
176
     1
1001
ACAD
1000
AcDbSavedByObjectVersion
1070
     0
  0
VISUALSTYLE
  5
CF
102
{ACAD_XDICTIONARY
360
177
102
}
102
{ACAD_REACTORS
330
C3
102
}
330
C3
100
AcDbVisualStyle
  2
Brighten
 70
    12
177
     2
291
     1
 71
     2
176
     1
 72
     2
176
     1
 73
     0
176
     1
 90
        0
176
     1
 40
0.6
176
     1
 41
30.0
176
     1
 63
     7
421
 16777215
176
     1
 74
     1
176
     1
 91
        4
176
     1
 64
     7
176
     1
 65
   257
176
     1
 75
     1
176
     1
175
     1
176
     1
 42
1.0
176
     1
 92
        8
176
     1
 66
     7
176
     1
 43
1.0
176
     1
 76
     1
176
     1
 77
     6
176
     1
 78
     2
176
     1
 67
     7
176
     1
 79
     5
176
     1
170
     0
176
     1
171
     0
176
     1
290
     0
176
     1
 93
        1
176
     1
 44
50.0
176
     1
173
     0
176
     1
1001
ACAD
1000
AcDbSavedByObjectVersion
1070
     0
  0
VISUALSTYLE
  5
D3
102
{ACAD_XDICTIONARY
360
17F
102
}
102
{ACAD_REACTORS
330
C3
102
}
330
C3
100
AcDbVisualStyle
  2
ColorChange
 70
    16
177
     2
291
     1
 71
     2
176
     1
 72
     2
176
     1
 73
     3
176
     1
 90
        0
176
     1
 40
0.6
176
     1
 41
30.0
176
     1
 63
     8
421
  8421504
176
     1
 74
     1
176
     1
 91
        4
176
     1
 64
     7
176
     1
 65
   257
176
     1
 75
     1
176
     1
175
     1
176
     1
 42
1.0
176
     1
 92
        8
176
     1
 66
     8
424
  8421504
176
     1
 43
1.0
176
     1
 76
     1
176
     1
 77
     6
176
     1
 78
     2
176
     1
 67
     7
176
     1
 79
     5
176
     1
170
     0
176
     1
171
     0
176
     1
290
     0
176
     1
 93
        1
176
     1
 44
0.0
176
     1
173
     0
176
     1
1001
ACAD
1000
AcDbSavedByObjectVersion
1070
     0
  0
VISUALSTYLE
  5
CC
102
{ACAD_XDICTIONARY
360
171
102
}
102
{ACAD_REACTORS
330
C3
102
}
330
C3
100
AcDbVisualStyle
  2
Conceptual
 70
     9
177
     2
291
     0
 71
     3
176
     1
 72
     2
176
     1
 73
     0
176
     1
 90
        0
176
     1
 40
0.6
176
     1
 41
30.0
176
     1
 63
     7
421
 16777215
176
     1
 74
     2
176
     1
 91
        2
176
     1
 64
     7
176
     1
 65
   257
176
     1
 75
     1
176
     1
175
     1
176
     1
 42
179.0
176
     1
 92
        8
176
     1
 66
     7
176
     1
 43
1.0
176
     1
 76
     1
176
     1
 77
     6
176
     1
 78
     2
176
     1
 67
     7
176
     1
 79
     3
176
     1
170
     0
176
     1
171
     0
176
     1
290
     0
176
     1
 93
        1
176
     1
 44
0.0
176
     1
173
     0
176
     1
1001
ACAD
1000
AcDbSavedByObjectVersion
1070
     0
  0
VISUALSTYLE
  5
CE
102
{ACAD_XDICTIONARY
360
175
102
}
102
{ACAD_REACTORS
330
C3
102
}
330
C3
100
AcDbVisualStyle
  2
Dim
 70
    11
177
     2
291
     1
 71
     2
176
     1
 72
     2
176
     1
 73
     0
176
     1
 90
        0
176
     1
 40
0.6
176
     1
 41
30.0
176
     1
 63
     7
421
 16777215
176
     1
 74
     1
176
     1
 91
        4
176
     1
 64
     7
176
     1
 65
   257
176
     1
 75
     1
176
     1
175
     1
176
     1
 42
1.0
176
     1
 92
        8
176
     1
 66
     7
176
     1
 43
1.0
176
     1
 76
     1
176
     1
 77
     6
176
     1
 78
     2
176
     1
 67
     7
176
     1
 79
     5
176
     1
170
     0
176
     1
171
     0
176
     1
290
     0
176
     1
 93
        1
176
     1
 44
-50.0
176
     1
173
     0
176
     1
1001
ACAD
1000
AcDbSavedByObjectVersion
1070
     0
  0
VISUALSTYLE
  5
DB
102
{ACAD_XDICTIONARY
360
18F
102
}
102
{ACAD_REACTORS
330
C3
102
}
330
C3
100
AcDbVisualStyle
  2
EdgeColorOff
 70
    22
177
     2
291
     1
 71
     2
176
     0
 72
     2
176
     0
 73
     0
176
     0
 90
        0
176
     0
 40
0.6
176
     0
 41
30.0
176
     0
 63
     7
421
 16777215
176
     0
 74
     1
176
     0
 91
        4
176
     0
 64
     7
176
     0
 65
   257
176
     0
 75
     1
176
     0
175
     1
176
     0
 42
1.0
176
     0
 92
        8
176
     2
 66
     7
176
     0
 43
1.0
176
     0
 76
     1
176
     0
 77
     6
176
     0
 78
     2
176
     0
 67
     7
176
     0
 79
     5
176
     0
170
     0
176
     0
171
     0
176
     0
290
     0
176
     0
 93
        1
176
     0
 44
0.0
176
     0
173
     0
176
     0
1001
ACAD
1000
AcDbSavedByObjectVersion
1070
     0
  0
VISUALSTYLE
  5
D2
102
{ACAD_XDICTIONARY
360
17D
102
}
102
{ACAD_REACTORS
330
C3
102
}
330
C3
100
AcDbVisualStyle
  2
Facepattern
 70
    15
177
     2
291
     1
 71
     2
176
     1
 72
     2
176
     1
 73
     0
176
     1
 90
        0
176
     1
 40
0.6
176
     1
 41
30.0
176
     1
 63
     7
421
 16777215
176
     1
 74
     1
176
     1
 91
        4
176
     1
 64
     7
176
     1
 65
   257
176
     1
 75
     1
176
     1
175
     1
176
     1
 42
1.0
176
     1
 92
        8
176
     1
 66
     7
176
     1
 43
1.0
176
     1
 76
     1
176
     1
 77
     6
176
     1
 78
     2
176
     1
 67
     7
176
     1
 79
     5
176
     1
170
     0
176
     1
171
     0
176
     1
290
     0
176
     1
 93
        1
176
     1
 44
0.0
176
     1
173
     0
176
     1
1001
ACAD
1000
AcDbSavedByObjectVersion
1070
     0
  0
VISUALSTYLE
  5
C4
102
{ACAD_XDICTIONARY
360
161
102
}
102
{ACAD_REACTORS
330
C3
102
}
330
C3
100
AcDbVisualStyle
  2
Flat
 70
     0
177
     2
291
     1
 71
     2
176
     1
 72
     1
176
     1
 73
     1
176
     1
 90
        2
176
     1
 40
0.6
176
     1
 41
30.0
176
     1
 63
     7
421
 16777215
176
     1
 74
     0
176
     1
 91
        0
176
     1
 64
     7
176
     1
 65
   257
176
     1
 75
     1
176
     1
175
     1
176
     1
 42
1.0
176
     1
 92
        8
176
     1
 66
     7
176
     1
 43
1.0
176
     1
 76
     1
176
     1
 77
     6
176
     1
 78
     2
176
     1
 67
     7
176
     1
 79
     5
176
     1
170
     0
176
     1
171
     0
176
     1
290
     0
176
     1
 93
       13
176
     1
 44
0.0
176
     1
173
     0
176
     1
1001
ACAD
1000
AcDbSavedByObjectVersion
1070
     0
  0
VISUALSTYLE
  5
C5
102
{ACAD_XDICTIONARY
360
163
102
}
102
{ACAD_REACTORS
330
C3
102
}
330
C3
100
AcDbVisualStyle
  2
FlatWithEdges
 70
     1
177
     2
291
     1
 71
     2
176
     1
 72
     1
176
     1
 73
     1
176
     1
 90
        2
176
     1
 40
0.6
176
     1
 41
30.0
176
     1
 63
     7
421
 16777215
176
     1
 74
     1
176
     1
 91
        0
176
     1
 64
     7
176
     1
 65
   257
176
     1
 75
     1
176
     1
175
     1
176
     1
 42
1.0
176
     1
 92
        0
176
     1
 66
   257
176
     1
 43
1.0
176
     1
 76
     1
176
     1
 77
     6
176
     1
 78
     2
176
     1
 67
     7
176
     1
 79
     5
176
     1
170
     0
176
     1
171
     0
176
     1
290
     0
176
     1
 93
       13
176
     1
 44
0.0
176
     1
173
     0
176
     1
1001
ACAD
1000
AcDbSavedByObjectVersion
1070
     0
  0
VISUALSTYLE
  5
C6
102
{ACAD_XDICTIONARY
360
165
102
}
102
{ACAD_REACTORS
330
C3
102
}
330
C3
100
AcDbVisualStyle
  2
Gouraud
 70
     2
177
     2
291
     1
 71
     2
176
     1
 72
     2
176
     1
 73
     1
176
     1
 90
        2
176
     1
 40
0.6
176
     1
 41
30.0
176
     1
 63
     7
421
 16777215
176
     1
 74
     0
176
     1
 91
        0
176
     1
 64
     7
176
     1
 65
   257
176
     1
 75
     1
176
     1
175
     1
176
     1
 42
1.0
176
     1
 92
        0
176
     1
 66
     7
176
     1
 43
1.0
176
     1
 76
     1
176
     1
 77
     6
176
     1
 78
     2
176
     1
 67
     7
176
     1
 79
     5
176
     1
170
     0
176
     1
171
     0
176
     1
290
     0
176
     1
 93
       13
176
     1
 44
0.0
176
     1
173
     0
176
     1
1001
ACAD
1000
AcDbSavedByObjectVersion
1070
     0
  0
VISUALSTYLE
  5
C7
102
{ACAD_XDICTIONARY
360
167
102
}
102
{ACAD_REACTORS
330
C3
102
}
330
C3
100
AcDbVisualStyle
  2
GouraudWithEdges
 70
     3
177
     2
291
     1
 71
     2
176
     1
 72
     2
176
     1
 73
     1
176
     1
 90
        2
176
     1
 40
0.6
176
     1
 41
30.0
176
     1
 63
     7
421
 16777215
176
     1
 74
     1
176
     1
 91
        0
176
     1
 64
     7
176
     1
 65
   257
176
     1
 75
     1
176
     1
175
     1
176
     1
 42
1.0
176
     1
 92
        0
176
     1
 66
   257
176
     1
 43
1.0
176
     1
 76
     1
176
     1
 77
     6
176
     1
 78
     2
176
     1
 67
     7
176
     1
 79
     5
176
     1
170
     0
176
     1
171
     0
176
     1
290
     0
176
     1
 93
       13
176
     1
 44
0.0
176
     1
173
     0
176
     1
1001
ACAD
1000
AcDbSavedByObjectVersion
1070
     0
  0
VISUALSTYLE
  5
CB
102
{ACAD_XDICTIONARY
360
16F
102
}
102
{ACAD_REACTORS
330
C3
102
}
330
C3
100
AcDbVisualStyle
  2
Hidden
 70
     6
177
     2
291
     0
 71
     1
176
     1
 72
     2
176
     1
 73
     2
176
     1
 90
        0
176
     1
 40
0.6
176
     1
 41
30.0
176
     1
 63
     7
421
 16777215
176
     1
 74
     2
176
     1
 91
        2
176
     1
 64
     7
176
     1
 65
   257
176
     1
 75
     2
176
     1
175
     1
176
     1
 42
40.0
176
     1
 92
        0
176
     1
 66
   257
176
     1
 43
1.0
176
     1
 76
     1
176
     1
 77
     6
176
     1
 78
     2
176
     1
 67
     7
176
     1
 79
     3
176
     1
170
     0
176
     1
171
     0
176
     1
290
     0
176
     1
 93
        1
176
     1
 44
0.0
176
     1
173
     0
176
     1
1001
ACAD
1000
AcDbSavedByObjectVersion
1070
     0
  0
VISUALSTYLE
  5
D9
102
{ACAD_XDICTIONARY
360
18B
102
}
102
{ACAD_REACTORS
330
C3
102
}
330
C3
100
AcDbVisualStyle
  2
JitterOff
 70
    20
177
     2
291
     1
 71
     2
176
     0
 72
     2
176
     0
 73
     0
176
     0
 90
        0
176
     0
 40
0.6
176
     0
 41
30.0
176
     0
 63
     7
421
 16777215
176
     0
 74
     1
176
     0
 91
        4
176
     0
 64
     7
176
     0
 65
   257
176
     0
 75
     1
176
     0
175
     1
176
     0
 42
1.0
176
     0
 92
       10
176
     2
 66
     7
176
     0
 43
1.0
176
     0
 76
     1
176
     0
 77
     6
176
     0
 78
     2
176
     0
 67
     7
176
     0
 79
     5
176
     0
170
     0
176
     0
171
     0
176
     0
290
     0
176
     0
 93
        1
176
     0
 44
0.0
176
     0
173
     0
176
     0
1001
ACAD
1000
AcDbSavedByObjectVersion
1070
     0
  0
VISUALSTYLE
  5
D1
102
{ACAD_XDICTIONARY
360
17B
102
}
102
{ACAD_REACTORS
330
C3
102
}
330
C3
100
AcDbVisualStyle
  2
Linepattern
 70
    14
177
     2
291
     1
 71
     2
176
     1
 72
     2
176
     1
 73
     0
176
     1
 90
        0
176
     1
 40
0.6
176
     1
 41
30.0
176
     1
 63
     7
421
 16777215
176
     1
 74
     1
176
     1
 91
        4
176
     1
 64
     7
176
     1
 65
   257
176
     1
 75
     7
176
     1
175
     7
176
     1
 42
1.0
176
     1
 92
        8
176
     1
 66
     7
176
     1
 43
1.0
176
     1
 76
     1
176
     1
 77
     6
176
     1
 78
     2
176
     1
 67
     7
176
     1
 79
     5
176
     1
170
     0
176
     1
171
     0
176
     1
290
     0
176
     1
 93
        1
176
     1
 44
0.0
176
     1
173
     0
176
     1
1001
ACAD
1000
AcDbSavedByObjectVersion
1070
     0
  0
VISUALSTYLE
  5
DA
102
{ACAD_XDICTIONARY
360
18D
102
}
102
{ACAD_REACTORS
330
C3
102
}
330
C3
100
AcDbVisualStyle
  2
OverhangOff
 70
    21
177
     2
291
     1
 71
     2
176
     0
 72
     2
176
     0
 73
     0
176
     0
 90
        0
176
     0
 40
0.6
176
     0
 41
30.0
176
     0
 63
     7
421
 16777215
176
     0
 74
     1
176
     0
 91
        4
176
     0
 64
     7
176
     0
 65
   257
176
     0
 75
     1
176
     0
175
     1
176
     0
 42
1.0
176
     0
 92
        9
176
     2
 66
     7
176
     0
 43
1.0
176
     0
 76
     1
176
     0
 77
     6
176
     0
 78
     2
176
     0
 67
     7
176
     0
 79
     5
176
     0
170
     0
176
     0
171
     0
176
     0
290
     0
176
     0
 93
        1
176
     0
 44
0.0
176
     0
173
     0
176
     0
1001
ACAD
1000
AcDbSavedByObjectVersion
1070
     0
  0
VISUALSTYLE
  5
CD
102
{ACAD_XDICTIONARY
360
173
102
}
102
{ACAD_REACTORS
330
C3
102
}
330
C3
100
AcDbVisualStyle
  2
Realistic
 70
     8
177
     2
291
     0
 71
     2
176
     1
 72
     3
176
     1
 73
     0
176
     1
 90
        2
176
     1
 40
0.6
176
     1
 41
30.0
176
     1
 63
     7
421
 16777215
176
     1
 74
     0
176
     1
 91
        0
176
     1
 64
     7
176
     1
 65
   257
176
     1
 75
     1
176
     1
175
     1
176
     1
 42
1.0
176
     1
 92
        8
176
     1
 66
   257
176
     1
 43
1.0
176
     1
 76
     1
176
     1
 77
     6
176
     1
 78
     2
176
     1
 67
     7
176
     1
 79
     3
176
     1
170
     0
176
     1
171
     0
176
     1
290
     0
176
     1
 93
       13
176
     1
 44
0.0
176
     1
173
     0
176
     1
1001
ACAD
1000
AcDbSavedByObjectVersion
1070
     0
  0
VISUALSTYLE
  5
D8
102
{ACAD_XDICTIONARY
360
189
102
}
102
{ACAD_REACTORS
330
C3
102
}
330
C3
100
AcDbVisualStyle
  2
Shaded
 70
    27
177
     2
291
     0
 71
     2
176
     1
 72
     2
176
     1
 73
     1
176
     1
 90
        2
176
     1
 40
0.6
176
     1
 41
30.0
176
     1
 63
     7
421
 16777215
176
     1
 74
     0
176
     1
 91
        4
176
     1
 64
     7
176
     1
 65
   257
176
     1
 75
     1
176
     1
175
     1
176
     1
 42
1.0
176
     1
 92
        8
176
     1
 66
   257
176
     1
 43
1.0
176
     1
 76
     1
176
     1
 77
     6
176
     1
 78
     2
176
     1
 67
     8
425
  7895160
176
     1
 79
     3
176
     1
170
     0
176
     1
171
     0
176
     1
290
     0
176
     1
 93
        5
176
     1
 44
0.0
176
     1
173
     0
176
     1
1001
ACAD
1000
AcDbSavedByObjectVersion
1070
     0
  0
VISUALSTYLE
  5
D7
102
{ACAD_XDICTIONARY
360
187
102
}
102
{ACAD_REACTORS
330
C3
102
}
330
C3
100
AcDbVisualStyle
  2
Shaded with edges
 70
    26
177
     2
291
     0
 71
     2
176
     1
 72
     2
176
     1
 73
     1
176
     1
 90
        2
176
     1
 40
0.6
176
     1
 41
30.0
176
     1
 63
     7
421
 16777215
176
     1
 74
     1
176
     1
 91
       10
176
     1
 64
     7
176
     1
 65
   257
176
     1
 75
     2
176
     1
175
     1
176
     1
 42
1.0
176
     1
 92
        8
176
     1
 66
   257
176
     1
 43
1.0
176
     1
 76
     1
176
     1
 77
     6
176
     1
 78
     2
176
     1
 67
     7
176
     1
 79
     3
176
     1
170
     0
176
     1
171
     0
176
     1
290
     0
176
     1
 93
        5
176
     1
 44
0.0
176
     1
173
     0
176
     1
1001
ACAD
1000
AcDbSavedByObjectVersion
1070
     0
  0
VISUALSTYLE
  5
D4
102
{ACAD_XDICTIONARY
360
181
102
}
102
{ACAD_REACTORS
330
C3
102
}
330
C3
100
AcDbVisualStyle
  2
Shades of Gray
 70
    23
177
     2
291
     0
 71
     2
176
     1
 72
     2
176
     1
 73
     3
176
     1
 90
        0
176
     1
 40
0.6
176
     1
 41
30.0
176
     1
 63
     7
421
 16777215
176
     1
 74
     2
176
     1
 91
        2
176
     1
 64
     7
176
     1
 65
     7
176
     1
 75
     1
176
     1
175
     1
176
     1
 42
40.0
176
     1
 92
        8
176
     1
 66
     7
176
     1
 43
1.0
176
     1
 76
     1
176
     1
 77
     6
176
     1
 78
     2
176
     1
 67
     7
176
     1
 79
     3
176
     1
170
     0
176
     1
171
     0
176
     1
290
     0
176
     1
 93
        1
176
     1
 44
0.0
176
     1
173
     0
176
     1
1001
ACAD
1000
AcDbSavedByObjectVersion
1070
     0
  0
VISUALSTYLE
  5
D5
102
{ACAD_XDICTIONARY
360
183
102
}
102
{ACAD_REACTORS
330
C3
102
}
330
C3
100
AcDbVisualStyle
  2
Sketchy
 70
    24
177
     2
291
     0
 71
     1
176
     1
 72
     2
176
     1
 73
     2
176
     1
 90
        0
176
     1
 40
0.6
176
     1
 41
30.0
176
     1
 63
     7
421
 16777215
176
     1
 74
     2
176
     1
 91
        2
176
     1
 64
     7
176
     1
 65
     7
176
     1
 75
     1
176
     1
175
     1
176
     1
 42
40.0
176
     1
 92
       11
176
     1
 66
     7
176
     1
 43
1.0
176
     1
 76
     1
176
     1
 77
     6
176
     1
 78
     2
176
     1
 67
     7
176
     1
 79
     6
176
     1
170
     0
176
     1
171
     0
176
     1
290
     0
176
     1
 93
        1
176
     1
 44
0.0
176
     1
173
     0
176
     1
1001
ACAD
1000
AcDbSavedByObjectVersion
1070
     0
  0
VISUALSTYLE
  5
D0
102
{ACAD_XDICTIONARY
360
179
102
}
102
{ACAD_REACTORS
330
C3
102
}
330
C3
100
AcDbVisualStyle
  2
Thicken
 70
    13
177
     2
291
     1
 71
     2
176
     1
 72
     2
176
     1
 73
     0
176
     1
 90
        0
176
     1
 40
0.6
176
     1
 41
30.0
176
     1
 63
     7
421
 16777215
176
     1
 74
     1
176
     1
 91
        4
176
     1
 64
     7
176
     1
 65
   257
176
     1
 75
     1
176
     1
175
     1
176
     1
 42
1.0
176
     1
 92
       12
176
     1
 66
     7
176
     1
 43
1.0
176
     1
 76
     1
176
     1
 77
     6
176
     1
 78
     2
176
     1
 67
     7
176
     1
 79
     5
176
     1
170
     0
176
     1
171
     0
176
     1
290
     0
176
     1
 93
        1
176
     1
 44
0.0
176
     1
173
     0
176
     1
1001
ACAD
1000
AcDbSavedByObjectVersion
1070
     0
  0
VISUALSTYLE
  5
CA
102
{ACAD_XDICTIONARY
360
16D
102
}
102
{ACAD_REACTORS
330
C3
102
}
330
C3
100
AcDbVisualStyle
  2
Wireframe
 70
     5
177
     2
291
     0
 71
     0
176
     1
 72
     2
176
     1
 73
     0
176
     1
 90
        0
176
     1
 40
0.6
176
     1
 41
30.0
176
     1
 63
     7
421
 16777215
176
     1
 74
     1
176
     1
 91
        4
176
     1
 64
     7
176
     1
 65
   257
176
     1
 75
     1
176
     1
175
     1
176
     1
 42
1.0
176
     1
 92
        0
176
     1
 66
   257
176
     1
 43
1.0
176
     1
 76
     1
176
     1
 77
     6
176
     1
 78
     2
176
     1
 67
     7
176
     1
 79
     3
176
     1
170
     0
176
     1
171
     0
176
     1
290
     0
176
     1
 93
        1
176
     1
 44
0.0
176
     1
173
     0
176
     1
1001
ACAD
1000
AcDbSavedByObjectVersion
1070
     0
  0
VISUALSTYLE
  5
D6
102
{ACAD_XDICTIONARY
360
185
102
}
102
{ACAD_REACTORS
330
C3
102
}
330
C3
100
AcDbVisualStyle
  2
X-Ray
 70
    25
177
     2
291
     0
 71
     2
176
     1
 72
     2
176
     1
 73
     1
176
     1
 90
        1
176
     1
 40
0.5
176
     1
 41
30.0
176
     1
 63
     7
421
 16777215
176
     1
 74
     1
176
     1
 91
        0
176
     1
 64
     7
176
     1
 65
   257
176
     1
 75
     1
176
     1
175
     1
176
     1
 42
1.0
176
     1
 92
        8
176
     1
 66
     7
176
     1
 43
1.0
176
     1
 76
     1
176
     1
 77
     6
176
     1
 78
     2
176
     1
 67
     7
176
     1
 79
     3
176
     1
170
     0
176
     1
171
     0
176
     1
290
     0
176
     1
 93
       13
176
     1
 44
0.0
176
     1
173
     0
176
     1
1001
ACAD
1000
AcDbSavedByObjectVersion
1070
     0
  0
DICTIONARYVAR
  5
15A
102
{ACAD_REACTORS
330
154
102
}
330
154
100
DictionaryVariables
280
     0
  1
1:1
  0
DICTIONARYVAR
  5
156
102
{ACAD_REACTORS
330
154
102
}
330
154
100
DictionaryVariables
280
     0
  1
STANDARD
  0
DICTIONARYVAR
  5
155
102
{ACAD_REACTORS
330
154
102
}
330
154
100
DictionaryVariables
280
     0
  1
STANDARD
  0
DICTIONARYVAR
  5
157
102
{ACAD_REACTORS
330
154
102
}
330
154
100
DictionaryVariables
280
     0
  1
Imperial24
  0
DICTIONARYVAR
  5
158
102
{ACAD_REACTORS
330
154
102
}
330
154
100
DictionaryVariables
280
     0
  1
Imperial24
  0
DICTIONARYVAR
  5
15C
102
{ACAD_REACTORS
330
154
102
}
330
154
100
DictionaryVariables
280
     0
  1
1
  0
DICTIONARYVAR
  5
15D
102
{ACAD_REACTORS
330
154
102
}
330
154
100
DictionaryVariables
280
     0
  1
15
  0
DICTIONARYVAR
  5
15B
102
{ACAD_REACTORS
330
154
102
}
330
154
100
DictionaryVariables
280
     0
  1
0
  0
DICTIONARYVAR
  5
159
102
{ACAD_REACTORS
330
154
102
}
330
154
100
DictionaryVariables
280
     0
  1
0
  0
DICTIONARY
  5
195
330
F6
100
AcDbDictionary
280
     1
281
     1
  3
ACAD_XREC_ROUNDTRIP
360
196
  0
DICTIONARY
  5
B4
330
B3
100
AcDbDictionary
280
     1
281
     1
  3
BUMPTILE
360
B6
  3
DIFFUSETILE
360
B5
  3
OPACITYTILE
360
B9
  3
REFLECTIONTILE
360
B8
  3
REFRACTIONTILE
360
BA
  3
SPECULARTILE
360
B7
  0
DICTIONARY
  5
AC
330
AB
100
AcDbDictionary
280
     1
281
     1
  3
BUMPTILE
360
AE
  3
DIFFUSETILE
360
AD
  3
OPACITYTILE
360
B1
  3
REFLECTIONTILE
360
B0
  3
REFRACTIONTILE
360
B2
  3
SPECULARTILE
360
AF
  0
DICTIONARY
  5
BC
330
BB
100
AcDbDictionary
280
     1
281
     1
  3
BUMPTILE
360
BE
  3
DIFFUSETILE
360
BD
  3
OPACITYTILE
360
C1
  3
REFLECTIONTILE
360
C0
  3
REFRACTIONTILE
360
C2
  3
SPECULARTILE
360
BF
  0
DICTIONARY
  5
191
330
F2
100
AcDbDictionary
280
     1
281
     1
  3
ACAD_XREC_ROUNDTRIP
360
192
  0
DICTIONARY
  5
193
330
F4
100
AcDbDictionary
280
     1
281
     1
  3
ACAD_XREC_ROUNDTRIP
360
194
  0
DICTIONARY
  5
15E
330
DE
100
AcDbDictionary
280
     1
281
     1
  3
ACAD_ROUNDTRIP_2008_TABLESTYLE_CELLSTYLEMAP
360
15F
  0
DICTIONARY
  5
16B
330
C9
100
AcDbDictionary
280
     1
281
     1
  3
ACAD_XREC_ROUNDTRIP
360
16C
  0
DICTIONARY
  5
169
330
C8
100
AcDbDictionary
280
     1
281
     1
  3
ACAD_XREC_ROUNDTRIP
360
16A
  0
DICTIONARY
  5
177
330
CF
100
AcDbDictionary
280
     1
281
     1
  3
ACAD_XREC_ROUNDTRIP
360
178
  0
DICTIONARY
  5
17F
330
D3
100
AcDbDictionary
280
     1
281
     1
  3
ACAD_XREC_ROUNDTRIP
360
180
  0
DICTIONARY
  5
171
330
CC
100
AcDbDictionary
280
     1
281
     1
  3
ACAD_XREC_ROUNDTRIP
360
172
  0
DICTIONARY
  5
175
330
CE
100
AcDbDictionary
280
     1
281
     1
  3
ACAD_XREC_ROUNDTRIP
360
176
  0
DICTIONARY
  5
18F
330
DB
100
AcDbDictionary
280
     1
281
     1
  3
ACAD_XREC_ROUNDTRIP
360
190
  0
DICTIONARY
  5
17D
330
D2
100
AcDbDictionary
280
     1
281
     1
  3
ACAD_XREC_ROUNDTRIP
360
17E
  0
DICTIONARY
  5
161
330
C4
100
AcDbDictionary
280
     1
281
     1
  3
ACAD_XREC_ROUNDTRIP
360
162
  0
DICTIONARY
  5
163
330
C5
100
AcDbDictionary
280
     1
281
     1
  3
ACAD_XREC_ROUNDTRIP
360
164
  0
DICTIONARY
  5
165
330
C6
100
AcDbDictionary
280
     1
281
     1
  3
ACAD_XREC_ROUNDTRIP
360
166
  0
DICTIONARY
  5
167
330
C7
100
AcDbDictionary
280
     1
281
     1
  3
ACAD_XREC_ROUNDTRIP
360
168
  0
DICTIONARY
  5
16F
330
CB
100
AcDbDictionary
280
     1
281
     1
  3
ACAD_XREC_ROUNDTRIP
360
170
  0
DICTIONARY
  5
18B
330
D9
100
AcDbDictionary
280
     1
281
     1
  3
ACAD_XREC_ROUNDTRIP
360
18C
  0
DICTIONARY
  5
17B
330
D1
100
AcDbDictionary
280
     1
281
     1
  3
ACAD_XREC_ROUNDTRIP
360
17C
  0
DICTIONARY
  5
18D
330
DA
100
AcDbDictionary
280
     1
281
     1
  3
ACAD_XREC_ROUNDTRIP
360
18E
  0
DICTIONARY
  5
173
330
CD
100
AcDbDictionary
280
     1
281
     1
  3
ACAD_XREC_ROUNDTRIP
360
174
  0
DICTIONARY
  5
189
330
D8
100
AcDbDictionary
280
     1
281
     1
  3
ACAD_XREC_ROUNDTRIP
360
18A
  0
DICTIONARY
  5
187
330
D7
100
AcDbDictionary
280
     1
281
     1
  3
ACAD_XREC_ROUNDTRIP
360
188
  0
DICTIONARY
  5
181
330
D4
100
AcDbDictionary
280
     1
281
     1
  3
ACAD_XREC_ROUNDTRIP
360
182
  0
DICTIONARY
  5
183
330
D5
100
AcDbDictionary
280
     1
281
     1
  3
ACAD_XREC_ROUNDTRIP
360
184
  0
DICTIONARY
  5
179
330
D0
100
AcDbDictionary
280
     1
281
     1
  3
ACAD_XREC_ROUNDTRIP
360
17A
  0
DICTIONARY
  5
16D
330
CA
100
AcDbDictionary
280
     1
281
     1
  3
ACAD_XREC_ROUNDTRIP
360
16E
  0
DICTIONARY
  5
185
330
D6
100
AcDbDictionary
280
     1
281
     1
  3
ACAD_XREC_ROUNDTRIP
360
186
  0
XRECORD
  5
196
102
{ACAD_REACTORS
330
195
102
}
330
195
100
AcDbXrecord
280
     1
102
DISPLAYNAME
  1
Imperial24
102
FLAGS
 90
        0
  0
XRECORD
  5
B6
102
{ACAD_REACTORS
330
B4
102
}
330
B4
100
AcDbXrecord
280
     1
270
     1
271
     1
  0
XRECORD
  5
B5
102
{ACAD_REACTORS
330
B4
102
}
330
B4
100
AcDbXrecord
280
     1
270
     1
271
     1
  0
XRECORD
  5
B9
102
{ACAD_REACTORS
330
B4
102
}
330
B4
100
AcDbXrecord
280
     1
270
     1
271
     1
  0
XRECORD
  5
B8
102
{ACAD_REACTORS
330
B4
102
}
330
B4
100
AcDbXrecord
280
     1
270
     1
271
     1
  0
XRECORD
  5
BA
102
{ACAD_REACTORS
330
B4
102
}
330
B4
100
AcDbXrecord
280
     1
270
     1
271
     1
  0
XRECORD
  5
B7
102
{ACAD_REACTORS
330
B4
102
}
330
B4
100
AcDbXrecord
280
     1
270
     1
271
     1
  0
XRECORD
  5
AE
102
{ACAD_REACTORS
330
AC
102
}
330
AC
100
AcDbXrecord
280
     1
270
     1
271
     1
  0
XRECORD
  5
AD
102
{ACAD_REACTORS
330
AC
102
}
330
AC
100
AcDbXrecord
280
     1
270
     1
271
     1
  0
XRECORD
  5
B1
102
{ACAD_REACTORS
330
AC
102
}
330
AC
100
AcDbXrecord
280
     1
270
     1
271
     1
  0
XRECORD
  5
B0
102
{ACAD_REACTORS
330
AC
102
}
330
AC
100
AcDbXrecord
280
     1
270
     1
271
     1
  0
XRECORD
  5
B2
102
{ACAD_REACTORS
330
AC
102
}
330
AC
100
AcDbXrecord
280
     1
270
     1
271
     1
  0
XRECORD
  5
AF
102
{ACAD_REACTORS
330
AC
102
}
330
AC
100
AcDbXrecord
280
     1
270
     1
271
     1
  0
XRECORD
  5
BE
102
{ACAD_REACTORS
330
BC
102
}
330
BC
100
AcDbXrecord
280
     1
270
     1
271
     1
  0
XRECORD
  5
BD
102
{ACAD_REACTORS
330
BC
102
}
330
BC
100
AcDbXrecord
280
     1
270
     1
271
     1
  0
XRECORD
  5
C1
102
{ACAD_REACTORS
330
BC
102
}
330
BC
100
AcDbXrecord
280
     1
270
     1
271
     1
  0
XRECORD
  5
C0
102
{ACAD_REACTORS
330
BC
102
}
330
BC
100
AcDbXrecord
280
     1
270
     1
271
     1
  0
XRECORD
  5
C2
102
{ACAD_REACTORS
330
BC
102
}
330
BC
100
AcDbXrecord
280
     1
270
     1
271
     1
  0
XRECORD
  5
BF
102
{ACAD_REACTORS
330
BC
102
}
330
BC
100
AcDbXrecord
280
     1
270
     1
271
     1
  0
XRECORD
  5
192
102
{ACAD_REACTORS
330
191
102
}
330
191
100
AcDbXrecord
280
     1
102
ACAD_ROUNDTRIP_2012_MLEADER_STYLE
298
     1
  0
XRECORD
  5
194
102
{ACAD_REACTORS
330
193
102
}
330
193
100
AcDbXrecord
280
     1
102
DISPLAYNAME
  1
Imperial24
102
FLAGS
 90
        0
  0
CELLSTYLEMAP
  5
15F
102
{ACAD_REACTORS
330
15E
102
}
330
15E
100
AcDbCellStyleMap
 90
        3
300
CELLSTYLE
  1
TABLEFORMAT_BEGIN
 90
        5
170
     1
 91
        0
 92
    32768
 62
   257
 93
        1
300
CONTENTFORMAT
  1
CONTENTFORMAT_BEGIN
 90
        0
 91
        0
 92
      512
 93
        0
300

 40
0.0
140
1.0
 94
        5
 62
     0
340
11
144
0.25
309
CONTENTFORMAT_END
171
     0
 94
        0
309
TABLEFORMAT_END
  1
CELLSTYLE_BEGIN
 90
        1
 91
        1
300
_TITLE
309
CELLSTYLE_END
300
CELLSTYLE
  1
TABLEFORMAT_BEGIN
 90
        5
170
     1
 91
        0
 92
        0
 62
   257
 93
        1
300
CONTENTFORMAT
  1
CONTENTFORMAT_BEGIN
 90
        0
 91
        0
 92
      512
 93
        0
300

 40
0.0
140
1.0
 94
        5
 62
     0
340
11
144
0.18
309
CONTENTFORMAT_END
171
     0
 94
        0
309
TABLEFORMAT_END
  1
CELLSTYLE_BEGIN
 90
        2
 91
        1
300
_HEADER
309
CELLSTYLE_END
300
CELLSTYLE
  1
TABLEFORMAT_BEGIN
 90
        5
170
     1
 91
        0
 92
        0
 62
   257
 93
        1
300
CONTENTFORMAT
  1
CONTENTFORMAT_BEGIN
 90
        0
 91
        0
 92
      512
 93
        0
300

 40
0.0
140
1.0
 94
        2
 62
     0
340
11
144
0.18
309
CONTENTFORMAT_END
171
     0
 94
        0
309
TABLEFORMAT_END
  1
CELLSTYLE_BEGIN
 90
        3
 91
        2
300
_DATA
309
CELLSTYLE_END
  0
XRECORD
  5
16C
102
{ACAD_REACTORS
330
16B
102
}
330
16B
100
AcDbXrecord
280
     1
102
RTVSPost2010Prop28
280
     1
102
RTVSPost2010PropOp28
 70
     1
102
RTVSPost2010Prop29
280
     1
102
RTVSPost2010PropOp29
 70
     1
102
RTVSPost2010Prop30
280
     0
102
RTVSPost2010PropOp30
 70
     1
102
RTVSPost2010Prop31
280
     0
102
RTVSPost2010PropOp31
 70
     1
102
RTVSPost2010Prop32
280
     0
102
RTVSPost2010PropOp32
 70
     1
102
RTVSPost2010Prop33
280
     0
102
RTVSPost2010PropOp33
 70
     1
102
RTVSPost2010Prop34
280
     0
102
RTVSPost2010PropOp34
 70
     1
102
RTVSPost2010Prop35
280
     0
102
RTVSPost2010PropOp35
 70
     1
102
RTVSPost2010Prop36
280
     0
102
RTVSPost2010PropOp36
 70
     1
102
RTVSPost2010Prop37
 90
       50
102
RTVSPost2010PropOp37
 70
     1
102
RTVSPost2010Prop38
140
0.0
102
RTVSPost2010PropOp38
 70
     1
102
RTVSPost2010Prop39
140
1.0
102
RTVSPost2010PropOp39
 70
     1
102
RTVSPost2010Prop40
 90
        0
102
RTVSPost2010PropOp40
 70
     1
102
RTVSPost2010Prop41ColorIndex
 90
       18
102
RTVSPost2010Prop41ColorRGB
 90
        0
102
RTVSPost2010PropOp41
 70
     1
102
RTVSPost2010Prop42
 90
       50
102
RTVSPost2010PropOp42
 70
     1
102
RTVSPost2010Prop43
 90
        3
102
RTVSPost2010PropOp43
 70
     1
102
RTVSPost2010Prop44ColorIndex
 90
        5
102
RTVSPost2010Prop44ColorRGB
 90
      255
102
RTVSPost2010PropOp44
 70
     1
102
RTVSPost2010Prop45
280
     0
102
RTVSPost2010PropOp45
 70
     1
102
RTVSPost2010Prop46
 90
       50
102
RTVSPost2010PropOp46
 70
     1
102
RTVSPost2010Prop47
 90
       50
102
RTVSPost2010PropOp47
 70
     1
102
RTVSPost2010Prop48
 90
       50
102
RTVSPost2010PropOp48
 70
     1
102
RTVSPost2010Prop49
280
     0
102
RTVSPost2010PropOp49
 70
     1
102
RTVSPost2010Prop50
 90
       50
102
RTVSPost2010PropOp50
 70
     1
102
RTVSPost2010Prop51ColorIndex
 90
      256
102
RTVSPost2010Prop51ColorRGB
 90
-16777216
102
RTVSPost2010PropOp51
 70
     0
102
RTVSPost2010Prop52
140
1.0
102
RTVSPost2010PropOp52
 70
     0
102
RTVSPost2010Prop53
 90
        2
102
RTVSPost2010PropOp53
 70
     1
102
RTVSPost2010Prop54
  1
strokes_ogs.tif
102
RTVSPost2010PropOp54
 70
     1
102
RTVSPost2010Prop55
280
     0
102
RTVSPost2010PropOp55
 70
     1
102
RTVSPost2010Prop56
140
1.0
102
RTVSPost2010PropOp56
 70
     1
102
RTVSPost2010Prop57
140
1.0
102
RTVSPost2010PropOp57
 70
     1
  0
XRECORD
  5
16A
102
{ACAD_REACTORS
330
169
102
}
330
169
100
AcDbXrecord
280
     1
102
RTVSPost2010Prop28
280
     0
102
RTVSPost2010PropOp28
 70
     1
102
RTVSPost2010Prop29
280
     1
102
RTVSPost2010PropOp29
 70
     1
102
RTVSPost2010Prop30
280
     1
102
RTVSPost2010PropOp30
 70
     1
102
RTVSPost2010Prop31
280
     0
102
RTVSPost2010PropOp31
 70
     1
102
RTVSPost2010Prop32
280
     0
102
RTVSPost2010PropOp32
 70
     1
102
RTVSPost2010Prop33
280
     0
102
RTVSPost2010PropOp33
 70
     1
102
RTVSPost2010Prop34
280
     0
102
RTVSPost2010PropOp34
 70
     1
102
RTVSPost2010Prop35
280
     0
102
RTVSPost2010PropOp35
 70
     1
102
RTVSPost2010Prop36
280
     0
102
RTVSPost2010PropOp36
 70
     1
102
RTVSPost2010Prop37
 90
       50
102
RTVSPost2010PropOp37
 70
     1
102
RTVSPost2010Prop38
140
0.0
102
RTVSPost2010PropOp38
 70
     1
102
RTVSPost2010Prop39
140
1.0
102
RTVSPost2010PropOp39
 70
     1
102
RTVSPost2010Prop40
 90
        0
102
RTVSPost2010PropOp40
 70
     1
102
RTVSPost2010Prop41ColorIndex
 90
       18
102
RTVSPost2010Prop41ColorRGB
 90
        0
102
RTVSPost2010PropOp41
 70
     1
102
RTVSPost2010Prop42
 90
       50
102
RTVSPost2010PropOp42
 70
     1
102
RTVSPost2010Prop43
 90
        3
102
RTVSPost2010PropOp43
 70
     1
102
RTVSPost2010Prop44ColorIndex
 90
        5
102
RTVSPost2010Prop44ColorRGB
 90
      255
102
RTVSPost2010PropOp44
 70
     1
102
RTVSPost2010Prop45
280
     0
102
RTVSPost2010PropOp45
 70
     1
102
RTVSPost2010Prop46
 90
       50
102
RTVSPost2010PropOp46
 70
     1
102
RTVSPost2010Prop47
 90
       50
102
RTVSPost2010PropOp47
 70
     1
102
RTVSPost2010Prop48
 90
       50
102
RTVSPost2010PropOp48
 70
     1
102
RTVSPost2010Prop49
280
     0
102
RTVSPost2010PropOp49
 70
     1
102
RTVSPost2010Prop50
 90
       50
102
RTVSPost2010PropOp50
 70
     1
102
RTVSPost2010Prop51ColorIndex
 90
      256
102
RTVSPost2010Prop51ColorRGB
 90
-16777216
102
RTVSPost2010PropOp51
 70
     0
102
RTVSPost2010Prop52
140
1.0
102
RTVSPost2010PropOp52
 70
     0
102
RTVSPost2010Prop53
 90
        2
102
RTVSPost2010PropOp53
 70
     1
102
RTVSPost2010Prop54
  1
strokes_ogs.tif
102
RTVSPost2010PropOp54
 70
     1
102
RTVSPost2010Prop55
280
     0
102
RTVSPost2010PropOp55
 70
     1
102
RTVSPost2010Prop56
140
1.0
102
RTVSPost2010PropOp56
 70
     1
102
RTVSPost2010Prop57
140
1.0
102
RTVSPost2010PropOp57
 70
     1
  0
XRECORD
  5
178
102
{ACAD_REACTORS
330
177
102
}
330
177
100
AcDbXrecord
280
     1
102
RTVSPost2010Prop28
280
     0
102
RTVSPost2010PropOp28
 70
     1
102
RTVSPost2010Prop29
280
     1
102
RTVSPost2010PropOp29
 70
     1
102
RTVSPost2010Prop30
280
     1
102
RTVSPost2010PropOp30
 70
     1
102
RTVSPost2010Prop31
280
     0
102
RTVSPost2010PropOp31
 70
     1
102
RTVSPost2010Prop32
280
     0
102
RTVSPost2010PropOp32
 70
     1
102
RTVSPost2010Prop33
280
     0
102
RTVSPost2010PropOp33
 70
     1
102
RTVSPost2010Prop34
280
     0
102
RTVSPost2010PropOp34
 70
     1
102
RTVSPost2010Prop35
280
     0
102
RTVSPost2010PropOp35
 70
     1
102
RTVSPost2010Prop36
280
     0
102
RTVSPost2010PropOp36
 70
     1
102
RTVSPost2010Prop37
 90
       50
102
RTVSPost2010PropOp37
 70
     1
102
RTVSPost2010Prop38
140
0.0
102
RTVSPost2010PropOp38
 70
     1
102
RTVSPost2010Prop39
140
1.0
102
RTVSPost2010PropOp39
 70
     1
102
RTVSPost2010Prop40
 90
        0
102
RTVSPost2010PropOp40
 70
     1
102
RTVSPost2010Prop41ColorIndex
 90
       18
102
RTVSPost2010Prop41ColorRGB
 90
        0
102
RTVSPost2010PropOp41
 70
     1
102
RTVSPost2010Prop42
 90
       50
102
RTVSPost2010PropOp42
 70
     1
102
RTVSPost2010Prop43
 90
        3
102
RTVSPost2010PropOp43
 70
     1
102
RTVSPost2010Prop44ColorIndex
 90
        5
102
RTVSPost2010Prop44ColorRGB
 90
      255
102
RTVSPost2010PropOp44
 70
     1
102
RTVSPost2010Prop45
280
     0
102
RTVSPost2010PropOp45
 70
     1
102
RTVSPost2010Prop46
 90
       50
102
RTVSPost2010PropOp46
 70
     1
102
RTVSPost2010Prop47
 90
       50
102
RTVSPost2010PropOp47
 70
     1
102
RTVSPost2010Prop48
 90
       50
102
RTVSPost2010PropOp48
 70
     1
102
RTVSPost2010Prop49
280
     0
102
RTVSPost2010PropOp49
 70
     1
102
RTVSPost2010Prop50
 90
       50
102
RTVSPost2010PropOp50
 70
     1
102
RTVSPost2010Prop51ColorIndex
 90
      256
102
RTVSPost2010Prop51ColorRGB
 90
-16777216
102
RTVSPost2010PropOp51
 70
     0
102
RTVSPost2010Prop52
140
1.0
102
RTVSPost2010PropOp52
 70
     0
102
RTVSPost2010Prop53
 90
        2
102
RTVSPost2010PropOp53
 70
     1
102
RTVSPost2010Prop54
  1
strokes_ogs.tif
102
RTVSPost2010PropOp54
 70
     1
102
RTVSPost2010Prop55
280
     0
102
RTVSPost2010PropOp55
 70
     1
102
RTVSPost2010Prop56
140
1.0
102
RTVSPost2010PropOp56
 70
     1
102
RTVSPost2010Prop57
140
1.0
102
RTVSPost2010PropOp57
 70
     1
  0
XRECORD
  5
180
102
{ACAD_REACTORS
330
17F
102
}
330
17F
100
AcDbXrecord
280
     1
102
RTVSPost2010Prop28
280
     0
102
RTVSPost2010PropOp28
 70
     1
102
RTVSPost2010Prop29
280
     1
102
RTVSPost2010PropOp29
 70
     1
102
RTVSPost2010Prop30
280
     1
102
RTVSPost2010PropOp30
 70
     1
102
RTVSPost2010Prop31
280
     0
102
RTVSPost2010PropOp31
 70
     1
102
RTVSPost2010Prop32
280
     0
102
RTVSPost2010PropOp32
 70
     1
102
RTVSPost2010Prop33
280
     0
102
RTVSPost2010PropOp33
 70
     1
102
RTVSPost2010Prop34
280
     0
102
RTVSPost2010PropOp34
 70
     1
102
RTVSPost2010Prop35
280
     0
102
RTVSPost2010PropOp35
 70
     1
102
RTVSPost2010Prop36
280
     0
102
RTVSPost2010PropOp36
 70
     1
102
RTVSPost2010Prop37
 90
       50
102
RTVSPost2010PropOp37
 70
     1
102
RTVSPost2010Prop38
140
0.0
102
RTVSPost2010PropOp38
 70
     1
102
RTVSPost2010Prop39
140
1.0
102
RTVSPost2010PropOp39
 70
     1
102
RTVSPost2010Prop40
 90
        0
102
RTVSPost2010PropOp40
 70
     1
102
RTVSPost2010Prop41ColorIndex
 90
       18
102
RTVSPost2010Prop41ColorRGB
 90
        0
102
RTVSPost2010PropOp41
 70
     1
102
RTVSPost2010Prop42
 90
       50
102
RTVSPost2010PropOp42
 70
     1
102
RTVSPost2010Prop43
 90
        3
102
RTVSPost2010PropOp43
 70
     1
102
RTVSPost2010Prop44ColorIndex
 90
        5
102
RTVSPost2010Prop44ColorRGB
 90
      255
102
RTVSPost2010PropOp44
 70
     1
102
RTVSPost2010Prop45
280
     0
102
RTVSPost2010PropOp45
 70
     1
102
RTVSPost2010Prop46
 90
       50
102
RTVSPost2010PropOp46
 70
     1
102
RTVSPost2010Prop47
 90
       50
102
RTVSPost2010PropOp47
 70
     1
102
RTVSPost2010Prop48
 90
       50
102
RTVSPost2010PropOp48
 70
     1
102
RTVSPost2010Prop49
280
     0
102
RTVSPost2010PropOp49
 70
     1
102
RTVSPost2010Prop50
 90
       50
102
RTVSPost2010PropOp50
 70
     1
102
RTVSPost2010Prop51ColorIndex
 90
      256
102
RTVSPost2010Prop51ColorRGB
 90
-16777216
102
RTVSPost2010PropOp51
 70
     0
102
RTVSPost2010Prop52
140
1.0
102
RTVSPost2010PropOp52
 70
     0
102
RTVSPost2010Prop53
 90
        2
102
RTVSPost2010PropOp53
 70
     1
102
RTVSPost2010Prop54
  1
strokes_ogs.tif
102
RTVSPost2010PropOp54
 70
     1
102
RTVSPost2010Prop55
280
     0
102
RTVSPost2010PropOp55
 70
     1
102
RTVSPost2010Prop56
140
1.0
102
RTVSPost2010PropOp56
 70
     1
102
RTVSPost2010Prop57
140
1.0
102
RTVSPost2010PropOp57
 70
     1
  0
XRECORD
  5
172
102
{ACAD_REACTORS
330
171
102
}
330
171
100
AcDbXrecord
280
     1
102
RTVSPost2010Prop28
280
     0
102
RTVSPost2010PropOp28
 70
     1
102
RTVSPost2010Prop29
280
     1
102
RTVSPost2010PropOp29
 70
     1
102
RTVSPost2010Prop30
280
     1
102
RTVSPost2010PropOp30
 70
     1
102
RTVSPost2010Prop31
280
     0
102
RTVSPost2010PropOp31
 70
     1
102
RTVSPost2010Prop32
280
     0
102
RTVSPost2010PropOp32
 70
     1
102
RTVSPost2010Prop33
280
     0
102
RTVSPost2010PropOp33
 70
     1
102
RTVSPost2010Prop34
280
     0
102
RTVSPost2010PropOp34
 70
     1
102
RTVSPost2010Prop35
280
     0
102
RTVSPost2010PropOp35
 70
     1
102
RTVSPost2010Prop36
280
     0
102
RTVSPost2010PropOp36
 70
     1
102
RTVSPost2010Prop37
 90
       50
102
RTVSPost2010PropOp37
 70
     1
102
RTVSPost2010Prop38
140
0.0
102
RTVSPost2010PropOp38
 70
     1
102
RTVSPost2010Prop39
140
1.0
102
RTVSPost2010PropOp39
 70
     1
102
RTVSPost2010Prop40
 90
        0
102
RTVSPost2010PropOp40
 70
     1
102
RTVSPost2010Prop41ColorIndex
 90
       18
102
RTVSPost2010Prop41ColorRGB
 90
        0
102
RTVSPost2010PropOp41
 70
     1
102
RTVSPost2010Prop42
 90
       50
102
RTVSPost2010PropOp42
 70
     1
102
RTVSPost2010Prop43
 90
        3
102
RTVSPost2010PropOp43
 70
     1
102
RTVSPost2010Prop44ColorIndex
 90
        5
102
RTVSPost2010Prop44ColorRGB
 90
      255
102
RTVSPost2010PropOp44
 70
     1
102
RTVSPost2010Prop45
280
     0
102
RTVSPost2010PropOp45
 70
     1
102
RTVSPost2010Prop46
 90
       50
102
RTVSPost2010PropOp46
 70
     1
102
RTVSPost2010Prop47
 90
       50
102
RTVSPost2010PropOp47
 70
     1
102
RTVSPost2010Prop48
 90
       50
102
RTVSPost2010PropOp48
 70
     1
102
RTVSPost2010Prop49
280
     0
102
RTVSPost2010PropOp49
 70
     1
102
RTVSPost2010Prop50
 90
       50
102
RTVSPost2010PropOp50
 70
     1
102
RTVSPost2010Prop51ColorIndex
 90
      256
102
RTVSPost2010Prop51ColorRGB
 90
-16777216
102
RTVSPost2010PropOp51
 70
     0
102
RTVSPost2010Prop52
140
1.0
102
RTVSPost2010PropOp52
 70
     0
102
RTVSPost2010Prop53
 90
        2
102
RTVSPost2010PropOp53
 70
     1
102
RTVSPost2010Prop54
  1
strokes_ogs.tif
102
RTVSPost2010PropOp54
 70
     1
102
RTVSPost2010Prop55
280
     0
102
RTVSPost2010PropOp55
 70
     1
102
RTVSPost2010Prop56
140
1.0
102
RTVSPost2010PropOp56
 70
     1
102
RTVSPost2010Prop57
140
1.0
102
RTVSPost2010PropOp57
 70
     1
  0
XRECORD
  5
176
102
{ACAD_REACTORS
330
175
102
}
330
175
100
AcDbXrecord
280
     1
102
RTVSPost2010Prop28
280
     0
102
RTVSPost2010PropOp28
 70
     1
102
RTVSPost2010Prop29
280
     1
102
RTVSPost2010PropOp29
 70
     1
102
RTVSPost2010Prop30
280
     1
102
RTVSPost2010PropOp30
 70
     1
102
RTVSPost2010Prop31
280
     0
102
RTVSPost2010PropOp31
 70
     1
102
RTVSPost2010Prop32
280
     0
102
RTVSPost2010PropOp32
 70
     1
102
RTVSPost2010Prop33
280
     0
102
RTVSPost2010PropOp33
 70
     1
102
RTVSPost2010Prop34
280
     0
102
RTVSPost2010PropOp34
 70
     1
102
RTVSPost2010Prop35
280
     0
102
RTVSPost2010PropOp35
 70
     1
102
RTVSPost2010Prop36
280
     0
102
RTVSPost2010PropOp36
 70
     1
102
RTVSPost2010Prop37
 90
       50
102
RTVSPost2010PropOp37
 70
     1
102
RTVSPost2010Prop38
140
0.0
102
RTVSPost2010PropOp38
 70
     1
102
RTVSPost2010Prop39
140
1.0
102
RTVSPost2010PropOp39
 70
     1
102
RTVSPost2010Prop40
 90
        0
102
RTVSPost2010PropOp40
 70
     1
102
RTVSPost2010Prop41ColorIndex
 90
       18
102
RTVSPost2010Prop41ColorRGB
 90
        0
102
RTVSPost2010PropOp41
 70
     1
102
RTVSPost2010Prop42
 90
       50
102
RTVSPost2010PropOp42
 70
     1
102
RTVSPost2010Prop43
 90
        3
102
RTVSPost2010PropOp43
 70
     1
102
RTVSPost2010Prop44ColorIndex
 90
        5
102
RTVSPost2010Prop44ColorRGB
 90
      255
102
RTVSPost2010PropOp44
 70
     1
102
RTVSPost2010Prop45
280
     0
102
RTVSPost2010PropOp45
 70
     1
102
RTVSPost2010Prop46
 90
       50
102
RTVSPost2010PropOp46
 70
     1
102
RTVSPost2010Prop47
 90
       50
102
RTVSPost2010PropOp47
 70
     1
102
RTVSPost2010Prop48
 90
       50
102
RTVSPost2010PropOp48
 70
     1
102
RTVSPost2010Prop49
280
     0
102
RTVSPost2010PropOp49
 70
     1
102
RTVSPost2010Prop50
 90
       50
102
RTVSPost2010PropOp50
 70
     1
102
RTVSPost2010Prop51ColorIndex
 90
      256
102
RTVSPost2010Prop51ColorRGB
 90
-16777216
102
RTVSPost2010PropOp51
 70
     0
102
RTVSPost2010Prop52
140
1.0
102
RTVSPost2010PropOp52
 70
     0
102
RTVSPost2010Prop53
 90
        2
102
RTVSPost2010PropOp53
 70
     1
102
RTVSPost2010Prop54
  1
strokes_ogs.tif
102
RTVSPost2010PropOp54
 70
     1
102
RTVSPost2010Prop55
280
     0
102
RTVSPost2010PropOp55
 70
     1
102
RTVSPost2010Prop56
140
1.0
102
RTVSPost2010PropOp56
 70
     1
102
RTVSPost2010Prop57
140
1.0
102
RTVSPost2010PropOp57
 70
     1
  0
XRECORD
  5
190
102
{ACAD_REACTORS
330
18F
102
}
330
18F
100
AcDbXrecord
280
     1
102
RTVSPost2010Prop28
280
     0
102
RTVSPost2010PropOp28
 70
     0
102
RTVSPost2010Prop29
280
     1
102
RTVSPost2010PropOp29
 70
     0
102
RTVSPost2010Prop30
280
     1
102
RTVSPost2010PropOp30
 70
     0
102
RTVSPost2010Prop31
280
     0
102
RTVSPost2010PropOp31
 70
     0
102
RTVSPost2010Prop32
280
     0
102
RTVSPost2010PropOp32
 70
     0
102
RTVSPost2010Prop33
280
     0
102
RTVSPost2010PropOp33
 70
     0
102
RTVSPost2010Prop34
280
     0
102
RTVSPost2010PropOp34
 70
     0
102
RTVSPost2010Prop35
280
     0
102
RTVSPost2010PropOp35
 70
     0
102
RTVSPost2010Prop36
280
     0
102
RTVSPost2010PropOp36
 70
     0
102
RTVSPost2010Prop37
 90
       50
102
RTVSPost2010PropOp37
 70
     0
102
RTVSPost2010Prop38
140
0.0
102
RTVSPost2010PropOp38
 70
     0
102
RTVSPost2010Prop39
140
1.0
102
RTVSPost2010PropOp39
 70
     0
102
RTVSPost2010Prop40
 90
        0
102
RTVSPost2010PropOp40
 70
     0
102
RTVSPost2010Prop41ColorIndex
 90
       18
102
RTVSPost2010Prop41ColorRGB
 90
        0
102
RTVSPost2010PropOp41
 70
     0
102
RTVSPost2010Prop42
 90
       50
102
RTVSPost2010PropOp42
 70
     0
102
RTVSPost2010Prop43
 90
        3
102
RTVSPost2010PropOp43
 70
     0
102
RTVSPost2010Prop44ColorIndex
 90
        5
102
RTVSPost2010Prop44ColorRGB
 90
      255
102
RTVSPost2010PropOp44
 70
     0
102
RTVSPost2010Prop45
280
     0
102
RTVSPost2010PropOp45
 70
     0
102
RTVSPost2010Prop46
 90
       50
102
RTVSPost2010PropOp46
 70
     0
102
RTVSPost2010Prop47
 90
       50
102
RTVSPost2010PropOp47
 70
     0
102
RTVSPost2010Prop48
 90
       50
102
RTVSPost2010PropOp48
 70
     0
102
RTVSPost2010Prop49
280
     0
102
RTVSPost2010PropOp49
 70
     0
102
RTVSPost2010Prop50
 90
       50
102
RTVSPost2010PropOp50
 70
     0
102
RTVSPost2010Prop51ColorIndex
 90
      256
102
RTVSPost2010Prop51ColorRGB
 90
-16777216
102
RTVSPost2010PropOp51
 70
     0
102
RTVSPost2010Prop52
140
1.0
102
RTVSPost2010PropOp52
 70
     0
102
RTVSPost2010Prop53
 90
        2
102
RTVSPost2010PropOp53
 70
     0
102
RTVSPost2010Prop54
  1
strokes_ogs.tif
102
RTVSPost2010PropOp54
 70
     0
102
RTVSPost2010Prop55
280
     0
102
RTVSPost2010PropOp55
 70
     0
102
RTVSPost2010Prop56
140
1.0
102
RTVSPost2010PropOp56
 70
     0
102
RTVSPost2010Prop57
140
1.0
102
RTVSPost2010PropOp57
 70
     0
  0
XRECORD
  5
17E
102
{ACAD_REACTORS
330
17D
102
}
330
17D
100
AcDbXrecord
280
     1
102
RTVSPost2010Prop28
280
     0
102
RTVSPost2010PropOp28
 70
     1
102
RTVSPost2010Prop29
280
     1
102
RTVSPost2010PropOp29
 70
     1
102
RTVSPost2010Prop30
280
     1
102
RTVSPost2010PropOp30
 70
     1
102
RTVSPost2010Prop31
280
     0
102
RTVSPost2010PropOp31
 70
     1
102
RTVSPost2010Prop32
280
     0
102
RTVSPost2010PropOp32
 70
     1
102
RTVSPost2010Prop33
280
     0
102
RTVSPost2010PropOp33
 70
     1
102
RTVSPost2010Prop34
280
     0
102
RTVSPost2010PropOp34
 70
     1
102
RTVSPost2010Prop35
280
     0
102
RTVSPost2010PropOp35
 70
     1
102
RTVSPost2010Prop36
280
     0
102
RTVSPost2010PropOp36
 70
     1
102
RTVSPost2010Prop37
 90
       50
102
RTVSPost2010PropOp37
 70
     1
102
RTVSPost2010Prop38
140
0.0
102
RTVSPost2010PropOp38
 70
     1
102
RTVSPost2010Prop39
140
1.0
102
RTVSPost2010PropOp39
 70
     1
102
RTVSPost2010Prop40
 90
        0
102
RTVSPost2010PropOp40
 70
     1
102
RTVSPost2010Prop41ColorIndex
 90
       18
102
RTVSPost2010Prop41ColorRGB
 90
        0
102
RTVSPost2010PropOp41
 70
     1
102
RTVSPost2010Prop42
 90
       50
102
RTVSPost2010PropOp42
 70
     1
102
RTVSPost2010Prop43
 90
        3
102
RTVSPost2010PropOp43
 70
     1
102
RTVSPost2010Prop44ColorIndex
 90
        5
102
RTVSPost2010Prop44ColorRGB
 90
      255
102
RTVSPost2010PropOp44
 70
     1
102
RTVSPost2010Prop45
280
     0
102
RTVSPost2010PropOp45
 70
     1
102
RTVSPost2010Prop46
 90
       50
102
RTVSPost2010PropOp46
 70
     1
102
RTVSPost2010Prop47
 90
       50
102
RTVSPost2010PropOp47
 70
     1
102
RTVSPost2010Prop48
 90
       50
102
RTVSPost2010PropOp48
 70
     1
102
RTVSPost2010Prop49
280
     0
102
RTVSPost2010PropOp49
 70
     1
102
RTVSPost2010Prop50
 90
       50
102
RTVSPost2010PropOp50
 70
     1
102
RTVSPost2010Prop51ColorIndex
 90
      256
102
RTVSPost2010Prop51ColorRGB
 90
-16777216
102
RTVSPost2010PropOp51
 70
     0
102
RTVSPost2010Prop52
140
1.0
102
RTVSPost2010PropOp52
 70
     0
102
RTVSPost2010Prop53
 90
        2
102
RTVSPost2010PropOp53
 70
     1
102
RTVSPost2010Prop54
  1
strokes_ogs.tif
102
RTVSPost2010PropOp54
 70
     1
102
RTVSPost2010Prop55
280
     0
102
RTVSPost2010PropOp55
 70
     1
102
RTVSPost2010Prop56
140
1.0
102
RTVSPost2010PropOp56
 70
     1
102
RTVSPost2010Prop57
140
1.0
102
RTVSPost2010PropOp57
 70
     1
  0
XRECORD
  5
162
102
{ACAD_REACTORS
330
161
102
}
330
161
100
AcDbXrecord
280
     1
102
RTVSPost2010Prop28
280
     0
102
RTVSPost2010PropOp28
 70
     1
102
RTVSPost2010Prop29
280
     1
102
RTVSPost2010PropOp29
 70
     1
102
RTVSPost2010Prop30
280
     1
102
RTVSPost2010PropOp30
 70
     1
102
RTVSPost2010Prop31
280
     0
102
RTVSPost2010PropOp31
 70
     1
102
RTVSPost2010Prop32
280
     0
102
RTVSPost2010PropOp32
 70
     1
102
RTVSPost2010Prop33
280
     0
102
RTVSPost2010PropOp33
 70
     1
102
RTVSPost2010Prop34
280
     0
102
RTVSPost2010PropOp34
 70
     1
102
RTVSPost2010Prop35
280
     0
102
RTVSPost2010PropOp35
 70
     1
102
RTVSPost2010Prop36
280
     0
102
RTVSPost2010PropOp36
 70
     1
102
RTVSPost2010Prop37
 90
       50
102
RTVSPost2010PropOp37
 70
     1
102
RTVSPost2010Prop38
140
0.0
102
RTVSPost2010PropOp38
 70
     1
102
RTVSPost2010Prop39
140
1.0
102
RTVSPost2010PropOp39
 70
     1
102
RTVSPost2010Prop40
 90
        0
102
RTVSPost2010PropOp40
 70
     1
102
RTVSPost2010Prop41ColorIndex
 90
       18
102
RTVSPost2010Prop41ColorRGB
 90
        0
102
RTVSPost2010PropOp41
 70
     1
102
RTVSPost2010Prop42
 90
       50
102
RTVSPost2010PropOp42
 70
     1
102
RTVSPost2010Prop43
 90
        3
102
RTVSPost2010PropOp43
 70
     1
102
RTVSPost2010Prop44ColorIndex
 90
        5
102
RTVSPost2010Prop44ColorRGB
 90
      255
102
RTVSPost2010PropOp44
 70
     1
102
RTVSPost2010Prop45
280
     0
102
RTVSPost2010PropOp45
 70
     1
102
RTVSPost2010Prop46
 90
       50
102
RTVSPost2010PropOp46
 70
     1
102
RTVSPost2010Prop47
 90
       50
102
RTVSPost2010PropOp47
 70
     1
102
RTVSPost2010Prop48
 90
       50
102
RTVSPost2010PropOp48
 70
     1
102
RTVSPost2010Prop49
280
     0
102
RTVSPost2010PropOp49
 70
     1
102
RTVSPost2010Prop50
 90
       50
102
RTVSPost2010PropOp50
 70
     1
102
RTVSPost2010Prop51ColorIndex
 90
      256
102
RTVSPost2010Prop51ColorRGB
 90
-16777216
102
RTVSPost2010PropOp51
 70
     0
102
RTVSPost2010Prop52
140
1.0
102
RTVSPost2010PropOp52
 70
     0
102
RTVSPost2010Prop53
 90
        2
102
RTVSPost2010PropOp53
 70
     1
102
RTVSPost2010Prop54
  1
strokes_ogs.tif
102
RTVSPost2010PropOp54
 70
     1
102
RTVSPost2010Prop55
280
     0
102
RTVSPost2010PropOp55
 70
     1
102
RTVSPost2010Prop56
140
1.0
102
RTVSPost2010PropOp56
 70
     1
102
RTVSPost2010Prop57
140
1.0
102
RTVSPost2010PropOp57
 70
     1
  0
XRECORD
  5
164
102
{ACAD_REACTORS
330
163
102
}
330
163
100
AcDbXrecord
280
     1
102
RTVSPost2010Prop28
280
     0
102
RTVSPost2010PropOp28
 70
     1
102
RTVSPost2010Prop29
280
     1
102
RTVSPost2010PropOp29
 70
     1
102
RTVSPost2010Prop30
280
     1
102
RTVSPost2010PropOp30
 70
     1
102
RTVSPost2010Prop31
280
     0
102
RTVSPost2010PropOp31
 70
     1
102
RTVSPost2010Prop32
280
     0
102
RTVSPost2010PropOp32
 70
     1
102
RTVSPost2010Prop33
280
     0
102
RTVSPost2010PropOp33
 70
     1
102
RTVSPost2010Prop34
280
     0
102
RTVSPost2010PropOp34
 70
     1
102
RTVSPost2010Prop35
280
     0
102
RTVSPost2010PropOp35
 70
     1
102
RTVSPost2010Prop36
280
     0
102
RTVSPost2010PropOp36
 70
     1
102
RTVSPost2010Prop37
 90
       50
102
RTVSPost2010PropOp37
 70
     1
102
RTVSPost2010Prop38
140
0.0
102
RTVSPost2010PropOp38
 70
     1
102
RTVSPost2010Prop39
140
1.0
102
RTVSPost2010PropOp39
 70
     1
102
RTVSPost2010Prop40
 90
        0
102
RTVSPost2010PropOp40
 70
     1
102
RTVSPost2010Prop41ColorIndex
 90
       18
102
RTVSPost2010Prop41ColorRGB
 90
        0
102
RTVSPost2010PropOp41
 70
     1
102
RTVSPost2010Prop42
 90
       50
102
RTVSPost2010PropOp42
 70
     1
102
RTVSPost2010Prop43
 90
        3
102
RTVSPost2010PropOp43
 70
     1
102
RTVSPost2010Prop44ColorIndex
 90
        5
102
RTVSPost2010Prop44ColorRGB
 90
      255
102
RTVSPost2010PropOp44
 70
     1
102
RTVSPost2010Prop45
280
     0
102
RTVSPost2010PropOp45
 70
     1
102
RTVSPost2010Prop46
 90
       50
102
RTVSPost2010PropOp46
 70
     1
102
RTVSPost2010Prop47
 90
       50
102
RTVSPost2010PropOp47
 70
     1
102
RTVSPost2010Prop48
 90
       50
102
RTVSPost2010PropOp48
 70
     1
102
RTVSPost2010Prop49
280
     0
102
RTVSPost2010PropOp49
 70
     1
102
RTVSPost2010Prop50
 90
       50
102
RTVSPost2010PropOp50
 70
     1
102
RTVSPost2010Prop51ColorIndex
 90
      256
102
RTVSPost2010Prop51ColorRGB
 90
-16777216
102
RTVSPost2010PropOp51
 70
     0
102
RTVSPost2010Prop52
140
1.0
102
RTVSPost2010PropOp52
 70
     0
102
RTVSPost2010Prop53
 90
        2
102
RTVSPost2010PropOp53
 70
     1
102
RTVSPost2010Prop54
  1
strokes_ogs.tif
102
RTVSPost2010PropOp54
 70
     1
102
RTVSPost2010Prop55
280
     0
102
RTVSPost2010PropOp55
 70
     1
102
RTVSPost2010Prop56
140
1.0
102
RTVSPost2010PropOp56
 70
     1
102
RTVSPost2010Prop57
140
1.0
102
RTVSPost2010PropOp57
 70
     1
  0
XRECORD
  5
166
102
{ACAD_REACTORS
330
165
102
}
330
165
100
AcDbXrecord
280
     1
102
RTVSPost2010Prop28
280
     0
102
RTVSPost2010PropOp28
 70
     1
102
RTVSPost2010Prop29
280
     1
102
RTVSPost2010PropOp29
 70
     1
102
RTVSPost2010Prop30
280
     1
102
RTVSPost2010PropOp30
 70
     1
102
RTVSPost2010Prop31
280
     0
102
RTVSPost2010PropOp31
 70
     1
102
RTVSPost2010Prop32
280
     0
102
RTVSPost2010PropOp32
 70
     1
102
RTVSPost2010Prop33
280
     0
102
RTVSPost2010PropOp33
 70
     1
102
RTVSPost2010Prop34
280
     0
102
RTVSPost2010PropOp34
 70
     1
102
RTVSPost2010Prop35
280
     0
102
RTVSPost2010PropOp35
 70
     1
102
RTVSPost2010Prop36
280
     0
102
RTVSPost2010PropOp36
 70
     1
102
RTVSPost2010Prop37
 90
       50
102
RTVSPost2010PropOp37
 70
     1
102
RTVSPost2010Prop38
140
0.0
102
RTVSPost2010PropOp38
 70
     1
102
RTVSPost2010Prop39
140
1.0
102
RTVSPost2010PropOp39
 70
     1
102
RTVSPost2010Prop40
 90
        0
102
RTVSPost2010PropOp40
 70
     1
102
RTVSPost2010Prop41ColorIndex
 90
       18
102
RTVSPost2010Prop41ColorRGB
 90
        0
102
RTVSPost2010PropOp41
 70
     1
102
RTVSPost2010Prop42
 90
       50
102
RTVSPost2010PropOp42
 70
     1
102
RTVSPost2010Prop43
 90
        3
102
RTVSPost2010PropOp43
 70
     1
102
RTVSPost2010Prop44ColorIndex
 90
        5
102
RTVSPost2010Prop44ColorRGB
 90
      255
102
RTVSPost2010PropOp44
 70
     1
102
RTVSPost2010Prop45
280
     0
102
RTVSPost2010PropOp45
 70
     1
102
RTVSPost2010Prop46
 90
       50
102
RTVSPost2010PropOp46
 70
     1
102
RTVSPost2010Prop47
 90
       50
102
RTVSPost2010PropOp47
 70
     1
102
RTVSPost2010Prop48
 90
       50
102
RTVSPost2010PropOp48
 70
     1
102
RTVSPost2010Prop49
280
     0
102
RTVSPost2010PropOp49
 70
     1
102
RTVSPost2010Prop50
 90
       50
102
RTVSPost2010PropOp50
 70
     1
102
RTVSPost2010Prop51ColorIndex
 90
      256
102
RTVSPost2010Prop51ColorRGB
 90
-16777216
102
RTVSPost2010PropOp51
 70
     0
102
RTVSPost2010Prop52
140
1.0
102
RTVSPost2010PropOp52
 70
     0
102
RTVSPost2010Prop53
 90
        2
102
RTVSPost2010PropOp53
 70
     1
102
RTVSPost2010Prop54
  1
strokes_ogs.tif
102
RTVSPost2010PropOp54
 70
     1
102
RTVSPost2010Prop55
280
     0
102
RTVSPost2010PropOp55
 70
     1
102
RTVSPost2010Prop56
140
1.0
102
RTVSPost2010PropOp56
 70
     1
102
RTVSPost2010Prop57
140
1.0
102
RTVSPost2010PropOp57
 70
     1
  0
XRECORD
  5
168
102
{ACAD_REACTORS
330
167
102
}
330
167
100
AcDbXrecord
280
     1
102
RTVSPost2010Prop28
280
     0
102
RTVSPost2010PropOp28
 70
     1
102
RTVSPost2010Prop29
280
     1
102
RTVSPost2010PropOp29
 70
     1
102
RTVSPost2010Prop30
280
     1
102
RTVSPost2010PropOp30
 70
     1
102
RTVSPost2010Prop31
280
     0
102
RTVSPost2010PropOp31
 70
     1
102
RTVSPost2010Prop32
280
     0
102
RTVSPost2010PropOp32
 70
     1
102
RTVSPost2010Prop33
280
     0
102
RTVSPost2010PropOp33
 70
     1
102
RTVSPost2010Prop34
280
     0
102
RTVSPost2010PropOp34
 70
     1
102
RTVSPost2010Prop35
280
     0
102
RTVSPost2010PropOp35
 70
     1
102
RTVSPost2010Prop36
280
     0
102
RTVSPost2010PropOp36
 70
     1
102
RTVSPost2010Prop37
 90
       50
102
RTVSPost2010PropOp37
 70
     1
102
RTVSPost2010Prop38
140
0.0
102
RTVSPost2010PropOp38
 70
     1
102
RTVSPost2010Prop39
140
1.0
102
RTVSPost2010PropOp39
 70
     1
102
RTVSPost2010Prop40
 90
        0
102
RTVSPost2010PropOp40
 70
     1
102
RTVSPost2010Prop41ColorIndex
 90
       18
102
RTVSPost2010Prop41ColorRGB
 90
        0
102
RTVSPost2010PropOp41
 70
     1
102
RTVSPost2010Prop42
 90
       50
102
RTVSPost2010PropOp42
 70
     1
102
RTVSPost2010Prop43
 90
        3
102
RTVSPost2010PropOp43
 70
     1
102
RTVSPost2010Prop44ColorIndex
 90
        5
102
RTVSPost2010Prop44ColorRGB
 90
      255
102
RTVSPost2010PropOp44
 70
     1
102
RTVSPost2010Prop45
280
     0
102
RTVSPost2010PropOp45
 70
     1
102
RTVSPost2010Prop46
 90
       50
102
RTVSPost2010PropOp46
 70
     1
102
RTVSPost2010Prop47
 90
       50
102
RTVSPost2010PropOp47
 70
     1
102
RTVSPost2010Prop48
 90
       50
102
RTVSPost2010PropOp48
 70
     1
102
RTVSPost2010Prop49
280
     0
102
RTVSPost2010PropOp49
 70
     1
102
RTVSPost2010Prop50
 90
       50
102
RTVSPost2010PropOp50
 70
     1
102
RTVSPost2010Prop51ColorIndex
 90
      256
102
RTVSPost2010Prop51ColorRGB
 90
-16777216
102
RTVSPost2010PropOp51
 70
     0
102
RTVSPost2010Prop52
140
1.0
102
RTVSPost2010PropOp52
 70
     0
102
RTVSPost2010Prop53
 90
        2
102
RTVSPost2010PropOp53
 70
     1
102
RTVSPost2010Prop54
  1
strokes_ogs.tif
102
RTVSPost2010PropOp54
 70
     1
102
RTVSPost2010Prop55
280
     0
102
RTVSPost2010PropOp55
 70
     1
102
RTVSPost2010Prop56
140
1.0
102
RTVSPost2010PropOp56
 70
     1
102
RTVSPost2010Prop57
140
1.0
102
RTVSPost2010PropOp57
 70
     1
  0
XRECORD
  5
170
102
{ACAD_REACTORS
330
16F
102
}
330
16F
100
AcDbXrecord
280
     1
102
RTVSPost2010Prop28
280
     0
102
RTVSPost2010PropOp28
 70
     1
102
RTVSPost2010Prop29
280
     1
102
RTVSPost2010PropOp29
 70
     1
102
RTVSPost2010Prop30
280
     1
102
RTVSPost2010PropOp30
 70
     1
102
RTVSPost2010Prop31
280
     0
102
RTVSPost2010PropOp31
 70
     1
102
RTVSPost2010Prop32
280
     0
102
RTVSPost2010PropOp32
 70
     1
102
RTVSPost2010Prop33
280
     0
102
RTVSPost2010PropOp33
 70
     1
102
RTVSPost2010Prop34
280
     0
102
RTVSPost2010PropOp34
 70
     1
102
RTVSPost2010Prop35
280
     0
102
RTVSPost2010PropOp35
 70
     1
102
RTVSPost2010Prop36
280
     0
102
RTVSPost2010PropOp36
 70
     1
102
RTVSPost2010Prop37
 90
       50
102
RTVSPost2010PropOp37
 70
     1
102
RTVSPost2010Prop38
140
0.0
102
RTVSPost2010PropOp38
 70
     1
102
RTVSPost2010Prop39
140
1.0
102
RTVSPost2010PropOp39
 70
     1
102
RTVSPost2010Prop40
 90
        0
102
RTVSPost2010PropOp40
 70
     1
102
RTVSPost2010Prop41ColorIndex
 90
       18
102
RTVSPost2010Prop41ColorRGB
 90
        0
102
RTVSPost2010PropOp41
 70
     1
102
RTVSPost2010Prop42
 90
       50
102
RTVSPost2010PropOp42
 70
     1
102
RTVSPost2010Prop43
 90
        3
102
RTVSPost2010PropOp43
 70
     1
102
RTVSPost2010Prop44ColorIndex
 90
        5
102
RTVSPost2010Prop44ColorRGB
 90
      255
102
RTVSPost2010PropOp44
 70
     1
102
RTVSPost2010Prop45
280
     0
102
RTVSPost2010PropOp45
 70
     1
102
RTVSPost2010Prop46
 90
       50
102
RTVSPost2010PropOp46
 70
     1
102
RTVSPost2010Prop47
 90
       50
102
RTVSPost2010PropOp47
 70
     1
102
RTVSPost2010Prop48
 90
       50
102
RTVSPost2010PropOp48
 70
     1
102
RTVSPost2010Prop49
280
     0
102
RTVSPost2010PropOp49
 70
     1
102
RTVSPost2010Prop50
 90
       50
102
RTVSPost2010PropOp50
 70
     1
102
RTVSPost2010Prop51ColorIndex
 90
      256
102
RTVSPost2010Prop51ColorRGB
 90
-16777216
102
RTVSPost2010PropOp51
 70
     0
102
RTVSPost2010Prop52
140
1.0
102
RTVSPost2010PropOp52
 70
     0
102
RTVSPost2010Prop53
 90
        2
102
RTVSPost2010PropOp53
 70
     1
102
RTVSPost2010Prop54
  1
strokes_ogs.tif
102
RTVSPost2010PropOp54
 70
     1
102
RTVSPost2010Prop55
280
     0
102
RTVSPost2010PropOp55
 70
     1
102
RTVSPost2010Prop56
140
1.0
102
RTVSPost2010PropOp56
 70
     1
102
RTVSPost2010Prop57
140
1.0
102
RTVSPost2010PropOp57
 70
     1
  0
XRECORD
  5
18C
102
{ACAD_REACTORS
330
18B
102
}
330
18B
100
AcDbXrecord
280
     1
102
RTVSPost2010Prop28
280
     0
102
RTVSPost2010PropOp28
 70
     0
102
RTVSPost2010Prop29
280
     1
102
RTVSPost2010PropOp29
 70
     0
102
RTVSPost2010Prop30
280
     1
102
RTVSPost2010PropOp30
 70
     0
102
RTVSPost2010Prop31
280
     0
102
RTVSPost2010PropOp31
 70
     0
102
RTVSPost2010Prop32
280
     0
102
RTVSPost2010PropOp32
 70
     0
102
RTVSPost2010Prop33
280
     0
102
RTVSPost2010PropOp33
 70
     0
102
RTVSPost2010Prop34
280
     0
102
RTVSPost2010PropOp34
 70
     0
102
RTVSPost2010Prop35
280
     0
102
RTVSPost2010PropOp35
 70
     0
102
RTVSPost2010Prop36
280
     0
102
RTVSPost2010PropOp36
 70
     0
102
RTVSPost2010Prop37
 90
       50
102
RTVSPost2010PropOp37
 70
     0
102
RTVSPost2010Prop38
140
0.0
102
RTVSPost2010PropOp38
 70
     0
102
RTVSPost2010Prop39
140
1.0
102
RTVSPost2010PropOp39
 70
     0
102
RTVSPost2010Prop40
 90
        0
102
RTVSPost2010PropOp40
 70
     0
102
RTVSPost2010Prop41ColorIndex
 90
       18
102
RTVSPost2010Prop41ColorRGB
 90
        0
102
RTVSPost2010PropOp41
 70
     0
102
RTVSPost2010Prop42
 90
       50
102
RTVSPost2010PropOp42
 70
     0
102
RTVSPost2010Prop43
 90
        3
102
RTVSPost2010PropOp43
 70
     0
102
RTVSPost2010Prop44ColorIndex
 90
        5
102
RTVSPost2010Prop44ColorRGB
 90
      255
102
RTVSPost2010PropOp44
 70
     0
102
RTVSPost2010Prop45
280
     0
102
RTVSPost2010PropOp45
 70
     0
102
RTVSPost2010Prop46
 90
       50
102
RTVSPost2010PropOp46
 70
     0
102
RTVSPost2010Prop47
 90
       50
102
RTVSPost2010PropOp47
 70
     0
102
RTVSPost2010Prop48
 90
       50
102
RTVSPost2010PropOp48
 70
     0
102
RTVSPost2010Prop49
280
     0
102
RTVSPost2010PropOp49
 70
     0
102
RTVSPost2010Prop50
 90
       50
102
RTVSPost2010PropOp50
 70
     0
102
RTVSPost2010Prop51ColorIndex
 90
      256
102
RTVSPost2010Prop51ColorRGB
 90
-16777216
102
RTVSPost2010PropOp51
 70
     0
102
RTVSPost2010Prop52
140
1.0
102
RTVSPost2010PropOp52
 70
     0
102
RTVSPost2010Prop53
 90
        2
102
RTVSPost2010PropOp53
 70
     0
102
RTVSPost2010Prop54
  1
strokes_ogs.tif
102
RTVSPost2010PropOp54
 70
     0
102
RTVSPost2010Prop55
280
     0
102
RTVSPost2010PropOp55
 70
     0
102
RTVSPost2010Prop56
140
1.0
102
RTVSPost2010PropOp56
 70
     0
102
RTVSPost2010Prop57
140
1.0
102
RTVSPost2010PropOp57
 70
     0
  0
XRECORD
  5
17C
102
{ACAD_REACTORS
330
17B
102
}
330
17B
100
AcDbXrecord
280
     1
102
RTVSPost2010Prop28
280
     0
102
RTVSPost2010PropOp28
 70
     1
102
RTVSPost2010Prop29
280
     1
102
RTVSPost2010PropOp29
 70
     1
102
RTVSPost2010Prop30
280
     1
102
RTVSPost2010PropOp30
 70
     1
102
RTVSPost2010Prop31
280
     0
102
RTVSPost2010PropOp31
 70
     1
102
RTVSPost2010Prop32
280
     0
102
RTVSPost2010PropOp32
 70
     1
102
RTVSPost2010Prop33
280
     0
102
RTVSPost2010PropOp33
 70
     1
102
RTVSPost2010Prop34
280
     0
102
RTVSPost2010PropOp34
 70
     1
102
RTVSPost2010Prop35
280
     0
102
RTVSPost2010PropOp35
 70
     1
102
RTVSPost2010Prop36
280
     0
102
RTVSPost2010PropOp36
 70
     1
102
RTVSPost2010Prop37
 90
       50
102
RTVSPost2010PropOp37
 70
     1
102
RTVSPost2010Prop38
140
0.0
102
RTVSPost2010PropOp38
 70
     1
102
RTVSPost2010Prop39
140
1.0
102
RTVSPost2010PropOp39
 70
     1
102
RTVSPost2010Prop40
 90
        0
102
RTVSPost2010PropOp40
 70
     1
102
RTVSPost2010Prop41ColorIndex
 90
       18
102
RTVSPost2010Prop41ColorRGB
 90
        0
102
RTVSPost2010PropOp41
 70
     1
102
RTVSPost2010Prop42
 90
       50
102
RTVSPost2010PropOp42
 70
     1
102
RTVSPost2010Prop43
 90
        3
102
RTVSPost2010PropOp43
 70
     1
102
RTVSPost2010Prop44ColorIndex
 90
        5
102
RTVSPost2010Prop44ColorRGB
 90
      255
102
RTVSPost2010PropOp44
 70
     1
102
RTVSPost2010Prop45
280
     0
102
RTVSPost2010PropOp45
 70
     1
102
RTVSPost2010Prop46
 90
       50
102
RTVSPost2010PropOp46
 70
     1
102
RTVSPost2010Prop47
 90
       50
102
RTVSPost2010PropOp47
 70
     1
102
RTVSPost2010Prop48
 90
       50
102
RTVSPost2010PropOp48
 70
     1
102
RTVSPost2010Prop49
280
     0
102
RTVSPost2010PropOp49
 70
     1
102
RTVSPost2010Prop50
 90
       50
102
RTVSPost2010PropOp50
 70
     1
102
RTVSPost2010Prop51ColorIndex
 90
      256
102
RTVSPost2010Prop51ColorRGB
 90
-16777216
102
RTVSPost2010PropOp51
 70
     0
102
RTVSPost2010Prop52
140
1.0
102
RTVSPost2010PropOp52
 70
     0
102
RTVSPost2010Prop53
 90
        2
102
RTVSPost2010PropOp53
 70
     1
102
RTVSPost2010Prop54
  1
strokes_ogs.tif
102
RTVSPost2010PropOp54
 70
     1
102
RTVSPost2010Prop55
280
     0
102
RTVSPost2010PropOp55
 70
     1
102
RTVSPost2010Prop56
140
1.0
102
RTVSPost2010PropOp56
 70
     1
102
RTVSPost2010Prop57
140
1.0
102
RTVSPost2010PropOp57
 70
     1
  0
XRECORD
  5
18E
102
{ACAD_REACTORS
330
18D
102
}
330
18D
100
AcDbXrecord
280
     1
102
RTVSPost2010Prop28
280
     0
102
RTVSPost2010PropOp28
 70
     0
102
RTVSPost2010Prop29
280
     1
102
RTVSPost2010PropOp29
 70
     0
102
RTVSPost2010Prop30
280
     1
102
RTVSPost2010PropOp30
 70
     0
102
RTVSPost2010Prop31
280
     0
102
RTVSPost2010PropOp31
 70
     0
102
RTVSPost2010Prop32
280
     0
102
RTVSPost2010PropOp32
 70
     0
102
RTVSPost2010Prop33
280
     0
102
RTVSPost2010PropOp33
 70
     0
102
RTVSPost2010Prop34
280
     0
102
RTVSPost2010PropOp34
 70
     0
102
RTVSPost2010Prop35
280
     0
102
RTVSPost2010PropOp35
 70
     0
102
RTVSPost2010Prop36
280
     0
102
RTVSPost2010PropOp36
 70
     0
102
RTVSPost2010Prop37
 90
       50
102
RTVSPost2010PropOp37
 70
     0
102
RTVSPost2010Prop38
140
0.0
102
RTVSPost2010PropOp38
 70
     0
102
RTVSPost2010Prop39
140
1.0
102
RTVSPost2010PropOp39
 70
     0
102
RTVSPost2010Prop40
 90
        0
102
RTVSPost2010PropOp40
 70
     0
102
RTVSPost2010Prop41ColorIndex
 90
       18
102
RTVSPost2010Prop41ColorRGB
 90
        0
102
RTVSPost2010PropOp41
 70
     0
102
RTVSPost2010Prop42
 90
       50
102
RTVSPost2010PropOp42
 70
     0
102
RTVSPost2010Prop43
 90
        3
102
RTVSPost2010PropOp43
 70
     0
102
RTVSPost2010Prop44ColorIndex
 90
        5
102
RTVSPost2010Prop44ColorRGB
 90
      255
102
RTVSPost2010PropOp44
 70
     0
102
RTVSPost2010Prop45
280
     0
102
RTVSPost2010PropOp45
 70
     0
102
RTVSPost2010Prop46
 90
       50
102
RTVSPost2010PropOp46
 70
     0
102
RTVSPost2010Prop47
 90
       50
102
RTVSPost2010PropOp47
 70
     0
102
RTVSPost2010Prop48
 90
       50
102
RTVSPost2010PropOp48
 70
     0
102
RTVSPost2010Prop49
280
     0
102
RTVSPost2010PropOp49
 70
     0
102
RTVSPost2010Prop50
 90
       50
102
RTVSPost2010PropOp50
 70
     0
102
RTVSPost2010Prop51ColorIndex
 90
      256
102
RTVSPost2010Prop51ColorRGB
 90
-16777216
102
RTVSPost2010PropOp51
 70
     0
102
RTVSPost2010Prop52
140
1.0
102
RTVSPost2010PropOp52
 70
     0
102
RTVSPost2010Prop53
 90
        2
102
RTVSPost2010PropOp53
 70
     0
102
RTVSPost2010Prop54
  1
strokes_ogs.tif
102
RTVSPost2010PropOp54
 70
     0
102
RTVSPost2010Prop55
280
     0
102
RTVSPost2010PropOp55
 70
     0
102
RTVSPost2010Prop56
140
1.0
102
RTVSPost2010PropOp56
 70
     0
102
RTVSPost2010Prop57
140
1.0
102
RTVSPost2010PropOp57
 70
     0
  0
XRECORD
  5
174
102
{ACAD_REACTORS
330
173
102
}
330
173
100
AcDbXrecord
280
     1
102
RTVSPost2010Prop28
280
     0
102
RTVSPost2010PropOp28
 70
     1
102
RTVSPost2010Prop29
280
     1
102
RTVSPost2010PropOp29
 70
     1
102
RTVSPost2010Prop30
280
     1
102
RTVSPost2010PropOp30
 70
     1
102
RTVSPost2010Prop31
280
     0
102
RTVSPost2010PropOp31
 70
     1
102
RTVSPost2010Prop32
280
     0
102
RTVSPost2010PropOp32
 70
     1
102
RTVSPost2010Prop33
280
     0
102
RTVSPost2010PropOp33
 70
     1
102
RTVSPost2010Prop34
280
     0
102
RTVSPost2010PropOp34
 70
     1
102
RTVSPost2010Prop35
280
     0
102
RTVSPost2010PropOp35
 70
     1
102
RTVSPost2010Prop36
280
     0
102
RTVSPost2010PropOp36
 70
     1
102
RTVSPost2010Prop37
 90
       50
102
RTVSPost2010PropOp37
 70
     1
102
RTVSPost2010Prop38
140
0.0
102
RTVSPost2010PropOp38
 70
     1
102
RTVSPost2010Prop39
140
1.0
102
RTVSPost2010PropOp39
 70
     1
102
RTVSPost2010Prop40
 90
        0
102
RTVSPost2010PropOp40
 70
     1
102
RTVSPost2010Prop41ColorIndex
 90
       18
102
RTVSPost2010Prop41ColorRGB
 90
        0
102
RTVSPost2010PropOp41
 70
     1
102
RTVSPost2010Prop42
 90
       50
102
RTVSPost2010PropOp42
 70
     1
102
RTVSPost2010Prop43
 90
        3
102
RTVSPost2010PropOp43
 70
     1
102
RTVSPost2010Prop44ColorIndex
 90
        5
102
RTVSPost2010Prop44ColorRGB
 90
      255
102
RTVSPost2010PropOp44
 70
     1
102
RTVSPost2010Prop45
280
     0
102
RTVSPost2010PropOp45
 70
     1
102
RTVSPost2010Prop46
 90
       50
102
RTVSPost2010PropOp46
 70
     1
102
RTVSPost2010Prop47
 90
       50
102
RTVSPost2010PropOp47
 70
     1
102
RTVSPost2010Prop48
 90
       50
102
RTVSPost2010PropOp48
 70
     1
102
RTVSPost2010Prop49
280
     0
102
RTVSPost2010PropOp49
 70
     1
102
RTVSPost2010Prop50
 90
       50
102
RTVSPost2010PropOp50
 70
     1
102
RTVSPost2010Prop51ColorIndex
 90
      256
102
RTVSPost2010Prop51ColorRGB
 90
-16777216
102
RTVSPost2010PropOp51
 70
     0
102
RTVSPost2010Prop52
140
1.0
102
RTVSPost2010PropOp52
 70
     0
102
RTVSPost2010Prop53
 90
        2
102
RTVSPost2010PropOp53
 70
     1
102
RTVSPost2010Prop54
  1
strokes_ogs.tif
102
RTVSPost2010PropOp54
 70
     1
102
RTVSPost2010Prop55
280
     0
102
RTVSPost2010PropOp55
 70
     1
102
RTVSPost2010Prop56
140
1.0
102
RTVSPost2010PropOp56
 70
     1
102
RTVSPost2010Prop57
140
1.0
102
RTVSPost2010PropOp57
 70
     1
  0
XRECORD
  5
18A
102
{ACAD_REACTORS
330
189
102
}
330
189
100
AcDbXrecord
280
     1
102
RTVSPost2010Prop28
280
     0
102
RTVSPost2010PropOp28
 70
     1
102
RTVSPost2010Prop29
280
     1
102
RTVSPost2010PropOp29
 70
     1
102
RTVSPost2010Prop30
280
     1
102
RTVSPost2010PropOp30
 70
     1
102
RTVSPost2010Prop31
280
     0
102
RTVSPost2010PropOp31
 70
     1
102
RTVSPost2010Prop32
280
     0
102
RTVSPost2010PropOp32
 70
     1
102
RTVSPost2010Prop33
280
     0
102
RTVSPost2010PropOp33
 70
     1
102
RTVSPost2010Prop34
280
     0
102
RTVSPost2010PropOp34
 70
     1
102
RTVSPost2010Prop35
280
     0
102
RTVSPost2010PropOp35
 70
     1
102
RTVSPost2010Prop36
280
     0
102
RTVSPost2010PropOp36
 70
     1
102
RTVSPost2010Prop37
 90
       50
102
RTVSPost2010PropOp37
 70
     1
102
RTVSPost2010Prop38
140
0.0
102
RTVSPost2010PropOp38
 70
     1
102
RTVSPost2010Prop39
140
1.0
102
RTVSPost2010PropOp39
 70
     1
102
RTVSPost2010Prop40
 90
        0
102
RTVSPost2010PropOp40
 70
     1
102
RTVSPost2010Prop41ColorIndex
 90
       18
102
RTVSPost2010Prop41ColorRGB
 90
        0
102
RTVSPost2010PropOp41
 70
     1
102
RTVSPost2010Prop42
 90
       50
102
RTVSPost2010PropOp42
 70
     1
102
RTVSPost2010Prop43
 90
        3
102
RTVSPost2010PropOp43
 70
     1
102
RTVSPost2010Prop44ColorIndex
 90
        5
102
RTVSPost2010Prop44ColorRGB
 90
      255
102
RTVSPost2010PropOp44
 70
     1
102
RTVSPost2010Prop45
280
     0
102
RTVSPost2010PropOp45
 70
     1
102
RTVSPost2010Prop46
 90
       50
102
RTVSPost2010PropOp46
 70
     1
102
RTVSPost2010Prop47
 90
       50
102
RTVSPost2010PropOp47
 70
     1
102
RTVSPost2010Prop48
 90
       50
102
RTVSPost2010PropOp48
 70
     1
102
RTVSPost2010Prop49
280
     0
102
RTVSPost2010PropOp49
 70
     1
102
RTVSPost2010Prop50
 90
       50
102
RTVSPost2010PropOp50
 70
     1
102
RTVSPost2010Prop51ColorIndex
 90
      256
102
RTVSPost2010Prop51ColorRGB
 90
-16777216
102
RTVSPost2010PropOp51
 70
     0
102
RTVSPost2010Prop52
140
1.0
102
RTVSPost2010PropOp52
 70
     0
102
RTVSPost2010Prop53
 90
        2
102
RTVSPost2010PropOp53
 70
     1
102
RTVSPost2010Prop54
  1
strokes_ogs.tif
102
RTVSPost2010PropOp54
 70
     1
102
RTVSPost2010Prop55
280
     0
102
RTVSPost2010PropOp55
 70
     1
102
RTVSPost2010Prop56
140
1.0
102
RTVSPost2010PropOp56
 70
     1
102
RTVSPost2010Prop57
140
1.0
102
RTVSPost2010PropOp57
 70
     1
  0
XRECORD
  5
188
102
{ACAD_REACTORS
330
187
102
}
330
187
100
AcDbXrecord
280
     1
102
RTVSPost2010Prop28
280
     0
102
RTVSPost2010PropOp28
 70
     1
102
RTVSPost2010Prop29
280
     1
102
RTVSPost2010PropOp29
 70
     1
102
RTVSPost2010Prop30
280
     1
102
RTVSPost2010PropOp30
 70
     1
102
RTVSPost2010Prop31
280
     0
102
RTVSPost2010PropOp31
 70
     1
102
RTVSPost2010Prop32
280
     0
102
RTVSPost2010PropOp32
 70
     1
102
RTVSPost2010Prop33
280
     0
102
RTVSPost2010PropOp33
 70
     1
102
RTVSPost2010Prop34
280
     0
102
RTVSPost2010PropOp34
 70
     1
102
RTVSPost2010Prop35
280
     0
102
RTVSPost2010PropOp35
 70
     1
102
RTVSPost2010Prop36
280
     0
102
RTVSPost2010PropOp36
 70
     1
102
RTVSPost2010Prop37
 90
       50
102
RTVSPost2010PropOp37
 70
     1
102
RTVSPost2010Prop38
140
0.0
102
RTVSPost2010PropOp38
 70
     1
102
RTVSPost2010Prop39
140
1.0
102
RTVSPost2010PropOp39
 70
     1
102
RTVSPost2010Prop40
 90
        0
102
RTVSPost2010PropOp40
 70
     1
102
RTVSPost2010Prop41ColorIndex
 90
       18
102
RTVSPost2010Prop41ColorRGB
 90
        0
102
RTVSPost2010PropOp41
 70
     1
102
RTVSPost2010Prop42
 90
       50
102
RTVSPost2010PropOp42
 70
     1
102
RTVSPost2010Prop43
 90
        3
102
RTVSPost2010PropOp43
 70
     1
102
RTVSPost2010Prop44ColorIndex
 90
        5
102
RTVSPost2010Prop44ColorRGB
 90
      255
102
RTVSPost2010PropOp44
 70
     1
102
RTVSPost2010Prop45
280
     0
102
RTVSPost2010PropOp45
 70
     1
102
RTVSPost2010Prop46
 90
       50
102
RTVSPost2010PropOp46
 70
     1
102
RTVSPost2010Prop47
 90
       50
102
RTVSPost2010PropOp47
 70
     1
102
RTVSPost2010Prop48
 90
       50
102
RTVSPost2010PropOp48
 70
     1
102
RTVSPost2010Prop49
280
     0
102
RTVSPost2010PropOp49
 70
     1
102
RTVSPost2010Prop50
 90
       50
102
RTVSPost2010PropOp50
 70
     1
102
RTVSPost2010Prop51ColorIndex
 90
      256
102
RTVSPost2010Prop51ColorRGB
 90
-16777216
102
RTVSPost2010PropOp51
 70
     0
102
RTVSPost2010Prop52
140
1.0
102
RTVSPost2010PropOp52
 70
     0
102
RTVSPost2010Prop53
 90
        2
102
RTVSPost2010PropOp53
 70
     1
102
RTVSPost2010Prop54
  1
strokes_ogs.tif
102
RTVSPost2010PropOp54
 70
     1
102
RTVSPost2010Prop55
280
     0
102
RTVSPost2010PropOp55
 70
     1
102
RTVSPost2010Prop56
140
1.0
102
RTVSPost2010PropOp56
 70
     1
102
RTVSPost2010Prop57
140
1.0
102
RTVSPost2010PropOp57
 70
     1
  0
XRECORD
  5
182
102
{ACAD_REACTORS
330
181
102
}
330
181
100
AcDbXrecord
280
     1
102
RTVSPost2010Prop28
280
     0
102
RTVSPost2010PropOp28
 70
     1
102
RTVSPost2010Prop29
280
     1
102
RTVSPost2010PropOp29
 70
     1
102
RTVSPost2010Prop30
280
     1
102
RTVSPost2010PropOp30
 70
     1
102
RTVSPost2010Prop31
280
     0
102
RTVSPost2010PropOp31
 70
     1
102
RTVSPost2010Prop32
280
     0
102
RTVSPost2010PropOp32
 70
     1
102
RTVSPost2010Prop33
280
     0
102
RTVSPost2010PropOp33
 70
     1
102
RTVSPost2010Prop34
280
     0
102
RTVSPost2010PropOp34
 70
     1
102
RTVSPost2010Prop35
280
     0
102
RTVSPost2010PropOp35
 70
     1
102
RTVSPost2010Prop36
280
     0
102
RTVSPost2010PropOp36
 70
     1
102
RTVSPost2010Prop37
 90
       50
102
RTVSPost2010PropOp37
 70
     1
102
RTVSPost2010Prop38
140
0.0
102
RTVSPost2010PropOp38
 70
     1
102
RTVSPost2010Prop39
140
1.0
102
RTVSPost2010PropOp39
 70
     1
102
RTVSPost2010Prop40
 90
        0
102
RTVSPost2010PropOp40
 70
     1
102
RTVSPost2010Prop41ColorIndex
 90
       18
102
RTVSPost2010Prop41ColorRGB
 90
        0
102
RTVSPost2010PropOp41
 70
     1
102
RTVSPost2010Prop42
 90
       50
102
RTVSPost2010PropOp42
 70
     1
102
RTVSPost2010Prop43
 90
        3
102
RTVSPost2010PropOp43
 70
     1
102
RTVSPost2010Prop44ColorIndex
 90
        5
102
RTVSPost2010Prop44ColorRGB
 90
      255
102
RTVSPost2010PropOp44
 70
     1
102
RTVSPost2010Prop45
280
     0
102
RTVSPost2010PropOp45
 70
     1
102
RTVSPost2010Prop46
 90
       50
102
RTVSPost2010PropOp46
 70
     1
102
RTVSPost2010Prop47
 90
       50
102
RTVSPost2010PropOp47
 70
     1
102
RTVSPost2010Prop48
 90
       50
102
RTVSPost2010PropOp48
 70
     1
102
RTVSPost2010Prop49
280
     0
102
RTVSPost2010PropOp49
 70
     1
102
RTVSPost2010Prop50
 90
       50
102
RTVSPost2010PropOp50
 70
     1
102
RTVSPost2010Prop51ColorIndex
 90
      256
102
RTVSPost2010Prop51ColorRGB
 90
-16777216
102
RTVSPost2010PropOp51
 70
     0
102
RTVSPost2010Prop52
140
1.0
102
RTVSPost2010PropOp52
 70
     0
102
RTVSPost2010Prop53
 90
        2
102
RTVSPost2010PropOp53
 70
     1
102
RTVSPost2010Prop54
  1
strokes_ogs.tif
102
RTVSPost2010PropOp54
 70
     1
102
RTVSPost2010Prop55
280
     0
102
RTVSPost2010PropOp55
 70
     1
102
RTVSPost2010Prop56
140
1.0
102
RTVSPost2010PropOp56
 70
     1
102
RTVSPost2010Prop57
140
1.0
102
RTVSPost2010PropOp57
 70
     1
  0
XRECORD
  5
184
102
{ACAD_REACTORS
330
183
102
}
330
183
100
AcDbXrecord
280
     1
102
RTVSPost2010Prop28
280
     0
102
RTVSPost2010PropOp28
 70
     1
102
RTVSPost2010Prop29
280
     1
102
RTVSPost2010PropOp29
 70
     1
102
RTVSPost2010Prop30
280
     1
102
RTVSPost2010PropOp30
 70
     1
102
RTVSPost2010Prop31
280
     0
102
RTVSPost2010PropOp31
 70
     1
102
RTVSPost2010Prop32
280
     0
102
RTVSPost2010PropOp32
 70
     1
102
RTVSPost2010Prop33
280
     0
102
RTVSPost2010PropOp33
 70
     1
102
RTVSPost2010Prop34
280
     0
102
RTVSPost2010PropOp34
 70
     1
102
RTVSPost2010Prop35
280
     0
102
RTVSPost2010PropOp35
 70
     1
102
RTVSPost2010Prop36
280
     0
102
RTVSPost2010PropOp36
 70
     1
102
RTVSPost2010Prop37
 90
       50
102
RTVSPost2010PropOp37
 70
     1
102
RTVSPost2010Prop38
140
0.0
102
RTVSPost2010PropOp38
 70
     1
102
RTVSPost2010Prop39
140
1.0
102
RTVSPost2010PropOp39
 70
     1
102
RTVSPost2010Prop40
 90
        0
102
RTVSPost2010PropOp40
 70
     1
102
RTVSPost2010Prop41ColorIndex
 90
       18
102
RTVSPost2010Prop41ColorRGB
 90
        0
102
RTVSPost2010PropOp41
 70
     1
102
RTVSPost2010Prop42
 90
       50
102
RTVSPost2010PropOp42
 70
     1
102
RTVSPost2010Prop43
 90
        3
102
RTVSPost2010PropOp43
 70
     1
102
RTVSPost2010Prop44ColorIndex
 90
        5
102
RTVSPost2010Prop44ColorRGB
 90
      255
102
RTVSPost2010PropOp44
 70
     1
102
RTVSPost2010Prop45
280
     0
102
RTVSPost2010PropOp45
 70
     1
102
RTVSPost2010Prop46
 90
       50
102
RTVSPost2010PropOp46
 70
     1
102
RTVSPost2010Prop47
 90
       50
102
RTVSPost2010PropOp47
 70
     1
102
RTVSPost2010Prop48
 90
       50
102
RTVSPost2010PropOp48
 70
     1
102
RTVSPost2010Prop49
280
     0
102
RTVSPost2010PropOp49
 70
     1
102
RTVSPost2010Prop50
 90
       50
102
RTVSPost2010PropOp50
 70
     1
102
RTVSPost2010Prop51ColorIndex
 90
      256
102
RTVSPost2010Prop51ColorRGB
 90
-16777216
102
RTVSPost2010PropOp51
 70
     0
102
RTVSPost2010Prop52
140
1.0
102
RTVSPost2010PropOp52
 70
     0
102
RTVSPost2010Prop53
 90
        2
102
RTVSPost2010PropOp53
 70
     1
102
RTVSPost2010Prop54
  1
strokes_ogs.tif
102
RTVSPost2010PropOp54
 70
     1
102
RTVSPost2010Prop55
280
     0
102
RTVSPost2010PropOp55
 70
     1
102
RTVSPost2010Prop56
140
1.0
102
RTVSPost2010PropOp56
 70
     1
102
RTVSPost2010Prop57
140
1.0
102
RTVSPost2010PropOp57
 70
     1
  0
XRECORD
  5
17A
102
{ACAD_REACTORS
330
179
102
}
330
179
100
AcDbXrecord
280
     1
102
RTVSPost2010Prop28
280
     0
102
RTVSPost2010PropOp28
 70
     1
102
RTVSPost2010Prop29
280
     1
102
RTVSPost2010PropOp29
 70
     1
102
RTVSPost2010Prop30
280
     1
102
RTVSPost2010PropOp30
 70
     1
102
RTVSPost2010Prop31
280
     0
102
RTVSPost2010PropOp31
 70
     1
102
RTVSPost2010Prop32
280
     0
102
RTVSPost2010PropOp32
 70
     1
102
RTVSPost2010Prop33
280
     0
102
RTVSPost2010PropOp33
 70
     1
102
RTVSPost2010Prop34
280
     0
102
RTVSPost2010PropOp34
 70
     1
102
RTVSPost2010Prop35
280
     0
102
RTVSPost2010PropOp35
 70
     1
102
RTVSPost2010Prop36
280
     0
102
RTVSPost2010PropOp36
 70
     1
102
RTVSPost2010Prop37
 90
       50
102
RTVSPost2010PropOp37
 70
     1
102
RTVSPost2010Prop38
140
0.0
102
RTVSPost2010PropOp38
 70
     1
102
RTVSPost2010Prop39
140
1.0
102
RTVSPost2010PropOp39
 70
     1
102
RTVSPost2010Prop40
 90
        0
102
RTVSPost2010PropOp40
 70
     1
102
RTVSPost2010Prop41ColorIndex
 90
       18
102
RTVSPost2010Prop41ColorRGB
 90
        0
102
RTVSPost2010PropOp41
 70
     1
102
RTVSPost2010Prop42
 90
       50
102
RTVSPost2010PropOp42
 70
     1
102
RTVSPost2010Prop43
 90
        3
102
RTVSPost2010PropOp43
 70
     1
102
RTVSPost2010Prop44ColorIndex
 90
        5
102
RTVSPost2010Prop44ColorRGB
 90
      255
102
RTVSPost2010PropOp44
 70
     1
102
RTVSPost2010Prop45
280
     0
102
RTVSPost2010PropOp45
 70
     1
102
RTVSPost2010Prop46
 90
       50
102
RTVSPost2010PropOp46
 70
     1
102
RTVSPost2010Prop47
 90
       50
102
RTVSPost2010PropOp47
 70
     1
102
RTVSPost2010Prop48
 90
       50
102
RTVSPost2010PropOp48
 70
     1
102
RTVSPost2010Prop49
280
     0
102
RTVSPost2010PropOp49
 70
     1
102
RTVSPost2010Prop50
 90
       50
102
RTVSPost2010PropOp50
 70
     1
102
RTVSPost2010Prop51ColorIndex
 90
      256
102
RTVSPost2010Prop51ColorRGB
 90
-16777216
102
RTVSPost2010PropOp51
 70
     0
102
RTVSPost2010Prop52
140
1.0
102
RTVSPost2010PropOp52
 70
     0
102
RTVSPost2010Prop53
 90
        2
102
RTVSPost2010PropOp53
 70
     1
102
RTVSPost2010Prop54
  1
strokes_ogs.tif
102
RTVSPost2010PropOp54
 70
     1
102
RTVSPost2010Prop55
280
     0
102
RTVSPost2010PropOp55
 70
     1
102
RTVSPost2010Prop56
140
1.0
102
RTVSPost2010PropOp56
 70
     1
102
RTVSPost2010Prop57
140
1.0
102
RTVSPost2010PropOp57
 70
     1
  0
XRECORD
  5
16E
102
{ACAD_REACTORS
330
16D
102
}
330
16D
100
AcDbXrecord
280
     1
102
RTVSPost2010Prop28
280
     0
102
RTVSPost2010PropOp28
 70
     1
102
RTVSPost2010Prop29
280
     1
102
RTVSPost2010PropOp29
 70
     1
102
RTVSPost2010Prop30
280
     1
102
RTVSPost2010PropOp30
 70
     1
102
RTVSPost2010Prop31
280
     0
102
RTVSPost2010PropOp31
 70
     1
102
RTVSPost2010Prop32
280
     0
102
RTVSPost2010PropOp32
 70
     1
102
RTVSPost2010Prop33
280
     0
102
RTVSPost2010PropOp33
 70
     1
102
RTVSPost2010Prop34
280
     0
102
RTVSPost2010PropOp34
 70
     1
102
RTVSPost2010Prop35
280
     0
102
RTVSPost2010PropOp35
 70
     1
102
RTVSPost2010Prop36
280
     0
102
RTVSPost2010PropOp36
 70
     1
102
RTVSPost2010Prop37
 90
       50
102
RTVSPost2010PropOp37
 70
     1
102
RTVSPost2010Prop38
140
0.0
102
RTVSPost2010PropOp38
 70
     1
102
RTVSPost2010Prop39
140
1.0
102
RTVSPost2010PropOp39
 70
     1
102
RTVSPost2010Prop40
 90
        0
102
RTVSPost2010PropOp40
 70
     1
102
RTVSPost2010Prop41ColorIndex
 90
       18
102
RTVSPost2010Prop41ColorRGB
 90
        0
102
RTVSPost2010PropOp41
 70
     1
102
RTVSPost2010Prop42
 90
       50
102
RTVSPost2010PropOp42
 70
     1
102
RTVSPost2010Prop43
 90
        3
102
RTVSPost2010PropOp43
 70
     1
102
RTVSPost2010Prop44ColorIndex
 90
        5
102
RTVSPost2010Prop44ColorRGB
 90
      255
102
RTVSPost2010PropOp44
 70
     1
102
RTVSPost2010Prop45
280
     0
102
RTVSPost2010PropOp45
 70
     1
102
RTVSPost2010Prop46
 90
       50
102
RTVSPost2010PropOp46
 70
     1
102
RTVSPost2010Prop47
 90
       50
102
RTVSPost2010PropOp47
 70
     1
102
RTVSPost2010Prop48
 90
       50
102
RTVSPost2010PropOp48
 70
     1
102
RTVSPost2010Prop49
280
     0
102
RTVSPost2010PropOp49
 70
     1
102
RTVSPost2010Prop50
 90
       50
102
RTVSPost2010PropOp50
 70
     1
102
RTVSPost2010Prop51ColorIndex
 90
      256
102
RTVSPost2010Prop51ColorRGB
 90
-16777216
102
RTVSPost2010PropOp51
 70
     0
102
RTVSPost2010Prop52
140
1.0
102
RTVSPost2010PropOp52
 70
     0
102
RTVSPost2010Prop53
 90
        2
102
RTVSPost2010PropOp53
 70
     1
102
RTVSPost2010Prop54
  1
strokes_ogs.tif
102
RTVSPost2010PropOp54
 70
     1
102
RTVSPost2010Prop55
280
     0
102
RTVSPost2010PropOp55
 70
     1
102
RTVSPost2010Prop56
140
1.0
102
RTVSPost2010PropOp56
 70
     1
102
RTVSPost2010Prop57
140
1.0
102
RTVSPost2010PropOp57
 70
     1
  0
XRECORD
  5
186
102
{ACAD_REACTORS
330
185
102
}
330
185
100
AcDbXrecord
280
     1
102
RTVSPost2010Prop28
280
     0
102
RTVSPost2010PropOp28
 70
     1
102
RTVSPost2010Prop29
280
     1
102
RTVSPost2010PropOp29
 70
     1
102
RTVSPost2010Prop30
280
     1
102
RTVSPost2010PropOp30
 70
     1
102
RTVSPost2010Prop31
280
     0
102
RTVSPost2010PropOp31
 70
     1
102
RTVSPost2010Prop32
280
     0
102
RTVSPost2010PropOp32
 70
     1
102
RTVSPost2010Prop33
280
     0
102
RTVSPost2010PropOp33
 70
     1
102
RTVSPost2010Prop34
280
     0
102
RTVSPost2010PropOp34
 70
     1
102
RTVSPost2010Prop35
280
     0
102
RTVSPost2010PropOp35
 70
     1
102
RTVSPost2010Prop36
280
     0
102
RTVSPost2010PropOp36
 70
     1
102
RTVSPost2010Prop37
 90
       50
102
RTVSPost2010PropOp37
 70
     1
102
RTVSPost2010Prop38
140
0.0
102
RTVSPost2010PropOp38
 70
     1
102
RTVSPost2010Prop39
140
1.0
102
RTVSPost2010PropOp39
 70
     1
102
RTVSPost2010Prop40
 90
        0
102
RTVSPost2010PropOp40
 70
     1
102
RTVSPost2010Prop41ColorIndex
 90
       18
102
RTVSPost2010Prop41ColorRGB
 90
        0
102
RTVSPost2010PropOp41
 70
     1
102
RTVSPost2010Prop42
 90
       50
102
RTVSPost2010PropOp42
 70
     1
102
RTVSPost2010Prop43
 90
        3
102
RTVSPost2010PropOp43
 70
     1
102
RTVSPost2010Prop44ColorIndex
 90
        5
102
RTVSPost2010Prop44ColorRGB
 90
      255
102
RTVSPost2010PropOp44
 70
     1
102
RTVSPost2010Prop45
280
     0
102
RTVSPost2010PropOp45
 70
     1
102
RTVSPost2010Prop46
 90
       50
102
RTVSPost2010PropOp46
 70
     1
102
RTVSPost2010Prop47
 90
       50
102
RTVSPost2010PropOp47
 70
     1
102
RTVSPost2010Prop48
 90
       50
102
RTVSPost2010PropOp48
 70
     1
102
RTVSPost2010Prop49
280
     0
102
RTVSPost2010PropOp49
 70
     1
102
RTVSPost2010Prop50
 90
       50
102
RTVSPost2010PropOp50
 70
     1
102
RTVSPost2010Prop51ColorIndex
 90
      256
102
RTVSPost2010Prop51ColorRGB
 90
-16777216
102
RTVSPost2010PropOp51
 70
     0
102
RTVSPost2010Prop52
140
1.0
102
RTVSPost2010PropOp52
 70
     0
102
RTVSPost2010Prop53
 90
        2
102
RTVSPost2010PropOp53
 70
     1
102
RTVSPost2010Prop54
  1
strokes_ogs.tif
102
RTVSPost2010PropOp54
 70
     1
102
RTVSPost2010Prop55
280
     0
102
RTVSPost2010PropOp55
 70
     1
102
RTVSPost2010Prop56
140
1.0
102
RTVSPost2010PropOp56
 70
     1
102
RTVSPost2010Prop57
140
1.0
102
RTVSPost2010PropOp57
 70
     1
  0
ENDSEC
  0
EOF
