  0
SECTION
  2
HEADER
  9
$ACADVER
  1
AC1024
  9
$ACADMAINTVER
 70
   205
  9
$DWGCODEPAGE
  3
ANSI_1251
  9
$INSBASE
 10
0.0
 20
0.0
 30
0.0
  9
$EXTMIN
 10
1.000000000000000E+20
 20
1.000000000000000E+20
 30
1.000000000000000E+20
  9
$EXTMAX
 10
-1.000000000000000E+20
 20
-1.000000000000000E+20
 30
-1.000000000000000E+20
  9
$LIMMIN
 10
0.0
 20
0.0
  9
$LIMMAX
 10
12.0
 20
9.0
  9
$ORTHOMODE
 70
     0
  9
$REGENMODE
 70
     1
  9
$FILLMODE
 70
     1
  9
$QTEXTMODE
 70
     0
  9
$MIRRTEXT
 70
     1
  9
$LTSCALE
 40
1.0
  9
$ATTMODE
 70
     1
  9
$TEXTSIZE
 40
0.2
  9
$TRACEWID
 40
0.05
  9
$TEXTSTYLE
  7
Standard
  9
$CLAYER
  8
OracDecor_panel_moldings
  9
$CELTYPE
  6
ByLayer
  9
$CECOLOR
 62
   256
  9
$CELTSCALE
 40
1.0
  9
$DISPSILH
 70
     0
  9
$DIMSCALE
 40
1.0
  9
$DIMASZ
 40
0.18
  9
$DIMEXO
 40
0.0625
  9
$DIMDLI
 40
0.38
  9
$DIMRND
 40
0.0
  9
$DIMDLE
 40
0.0
  9
$DIMEXE
 40
0.18
  9
$DIMTP
 40
0.0
  9
$DIMTM
 40
0.0
  9
$DIMTXT
 40
0.18
  9
$DIMCEN
 40
0.09
  9
$DIMTSZ
 40
0.0
  9
$DIMTOL
 70
     0
  9
$DIMLIM
 70
     0
  9
$DIMTIH
 70
     1
  9
$DIMTOH
 70
     1
  9
$DIMSE1
 70
     0
  9
$DIMSE2
 70
     0
  9
$DIMTAD
 70
     0
  9
$DIMZIN
 70
     0
  9
$DIMBLK
  1

  9
$DIMASO
 70
     1
  9
$DIMSHO
 70
     1
  9
$DIMPOST
  1

  9
$DIMAPOST
  1

  9
$DIMALT
 70
     0
  9
$DIMALTD
 70
     2
  9
$DIMALTF
 40
25.4
  9
$DIMLFAC
 40
1.0
  9
$DIMTOFL
 70
     0
  9
$DIMTVP
 40
0.0
  9
$DIMTIX
 70
     0
  9
$DIMSOXD
 70
     0
  9
$DIMSAH
 70
     0
  9
$DIMBLK1
  1

  9
$DIMBLK2
  1

  9
$DIMSTYLE
  2
Standard
  9
$DIMCLRD
 70
     0
  9
$DIMCLRE
 70
     0
  9
$DIMCLRT
 70
     0
  9
$DIMTFAC
 40
1.0
  9
$DIMGAP
 40
0.09
  9
$DIMJUST
 70
     0
  9
$DIMSD1
 70
     0
  9
$DIMSD2
 70
     0
  9
$DIMTOLJ
 70
     1
  9
$DIMTZIN
 70
     0
  9
$DIMALTZ
 70
     0
  9
$DIMALTTZ
 70
     0
  9
$DIMUPT
 70
     0
  9
$DIMDEC
 70
     4
  9
$DIMTDEC
 70
     4
  9
$DIMALTU
 70
     2
  9
$DIMALTTD
 70
     2
  9
$DIMTXSTY
  7
Standard
  9
$DIMAUNIT
 70
     0
  9
$DIMADEC
 70
     0
  9
$DIMALTRND
 40
0.0
  9
$DIMAZIN
 70
     0
  9
$DIMDSEP
 70
    46
  9
$DIMATFIT
 70
     3
  9
$DIMFRAC
 70
     0
  9
$DIMLDRBLK
  1

  9
$DIMLUNIT
 70
     2
  9
$DIMLWD
 70
    -2
  9
$DIMLWE
 70
    -2
  9
$DIMTMOVE
 70
     0
  9
$DIMFXL
 40
1.0
  9
$DIMFXLON
 70
     0
  9
$DIMJOGANG
 40
0.7853981633974483
  9
$DIMTFILL
 70
     0
  9
$DIMTFILLCLR
 70
     0
  9
$DIMARCSYM
 70
     0
  9
$DIMLTYPE
  6

  9
$DIMLTEX1
  6

  9
$DIMLTEX2
  6

  9
$DIMTXTDIRECTION
 70
     0
  9
$LUNITS
 70
     2
  9
$LUPREC
 70
     4
  9
$SKETCHINC
 40
0.1
  9
$FILLETRAD
 40
0.5
  9
$AUNITS
 70
     0
  9
$AUPREC
 70
     0
  9
$MENU
  1
.
  9
$ELEVATION
 40
0.0
  9
$PELEVATION
 40
0.0
  9
$THICKNESS
 40
0.0
  9
$LIMCHECK
 70
     0
  9
$CHAMFERA
 40
0.5
  9
$CHAMFERB
 40
0.5
  9
$CHAMFERC
 40
1.0
  9
$CHAMFERD
 40
0.0
  9
$SKPOLY
 70
     0
  9
$TDCREATE
 40
2451380.930432396
  9
$TDUCREATE
 40
2451380.805432396
  9
$TDUPDATE
 40
2451380.966180555
  9
$TDUUPDATE
 40
2451380.841180556
  9
$TDINDWG
 40
0.0075631366
  9
$TDUSRTIMER
 40
0.0075540972
  9
$USRTIMER
 70
     1
  9
$ANGBASE
 50
0.0
  9
$ANGDIR
 70
     0
  9
$PDMODE
 70
     0
  9
$PDSIZE
 40
0.0
  9
$PLINEWID
 40
0.0
  9
$SPLFRAME
 70
     0
  9
$SPLINETYPE
 70
     6
  9
$SPLINESEGS
 70
     8
  9
$HANDSEED
  5
189
  9
$SURFTAB1
 70
     6
  9
$SURFTAB2
 70
     6
  9
$SURFTYPE
 70
     6
  9
$SURFU
 70
     6
  9
$SURFV
 70
     6
  9
$UCSBASE
  2

  9
$UCSNAME
  2

  9
$UCSORG
 10
0.0
 20
0.0
 30
0.0
  9
$UCSXDIR
 10
1.0
 20
0.0
 30
0.0
  9
$UCSYDIR
 10
0.0
 20
1.0
 30
0.0
  9
$UCSORTHOREF
  2

  9
$UCSORTHOVIEW
 70
     0
  9
$UCSORGTOP
 10
0.0
 20
0.0
 30
0.0
  9
$UCSORGBOTTOM
 10
0.0
 20
0.0
 30
0.0
  9
$UCSORGLEFT
 10
0.0
 20
0.0
 30
0.0
  9
$UCSORGRIGHT
 10
0.0
 20
0.0
 30
0.0
  9
$UCSORGFRONT
 10
0.0
 20
0.0
 30
0.0
  9
$UCSORGBACK
 10
0.0
 20
0.0
 30
0.0
  9
$PUCSBASE
  2

  9
$PUCSNAME
  2

  9
$PUCSORG
 10
0.0
 20
0.0
 30
0.0
  9
$PUCSXDIR
 10
1.0
 20
0.0
 30
0.0
  9
$PUCSYDIR
 10
0.0
 20
1.0
 30
0.0
  9
$PUCSORTHOREF
  2

  9
$PUCSORTHOVIEW
 70
     0
  9
$PUCSORGTOP
 10
0.0
 20
0.0
 30
0.0
  9
$PUCSORGBOTTOM
 10
0.0
 20
0.0
 30
0.0
  9
$PUCSORGLEFT
 10
0.0
 20
0.0
 30
0.0
  9
$PUCSORGRIGHT
 10
0.0
 20
0.0
 30
0.0
  9
$PUCSORGFRONT
 10
0.0
 20
0.0
 30
0.0
  9
$PUCSORGBACK
 10
0.0
 20
0.0
 30
0.0
  9
$USERI1
 70
     0
  9
$USERI2
 70
     0
  9
$USERI3
 70
     0
  9
$USERI4
 70
     0
  9
$USERI5
 70
     0
  9
$USERR1
 40
0.0
  9
$USERR2
 40
0.0
  9
$USERR3
 40
0.0
  9
$USERR4
 40
0.0
  9
$USERR5
 40
0.0
  9
$WORLDVIEW
 70
     1
  9
$SHADEDGE
 70
     3
  9
$SHADEDIF
 70
    70
  9
$TILEMODE
 70
     1
  9
$MAXACTVP
 70
    64
  9
$PINSBASE
 10
0.0
 20
0.0
 30
0.0
  9
$PLIMCHECK
 70
     0
  9
$PEXTMIN
 10
1.000000000000000E+20
 20
1.000000000000000E+20
 30
1.000000000000000E+20
  9
$PEXTMAX
 10
-1.000000000000000E+20
 20
-1.000000000000000E+20
 30
-1.000000000000000E+20
  9
$PLIMMIN
 10
0.0
 20
0.0
  9
$PLIMMAX
 10
12.0
 20
9.0
  9
$UNITMODE
 70
     0
  9
$VISRETAIN
 70
     1
  9
$PLINEGEN
 70
     0
  9
$PSLTSCALE
 70
     1
  9
$TREEDEPTH
 70
  3020
  9
$CMLSTYLE
  2
Standard
  9
$CMLJUST
 70
     0
  9
$CMLSCALE
 40
1.0
  9
$PROXYGRAPHICS
 70
     1
  9
$MEASUREMENT
 70
     1
  9
$CELWEIGHT
370
    -1
  9
$ENDCAPS
280
     0
  9
$JOINSTYLE
280
     0
  9
$LWDISPLAY
290
     0
  9
$INSUNITS
 70
     4
  9
$HYPERLINKBASE
  1

  9
$STYLESHEET
  1

  9
$XEDIT
290
     1
  9
$CEPSNTYPE
380
     0
  9
$PSTYLEMODE
290
     1
  9
$FINGERPRINTGUID
  2
{12F50282-3ED8-11D3-A8B7-0060B0F84BC6}
  9
$VERSIONGUID
  2
{12F50293-3ED8-11D3-A8B7-0060B0F84BC6}
  9
$EXTNAMES
290
     1
  9
$PSVPSCALE
 40
0.0
  9
$OLESTARTUP
290
     0
  9
$SORTENTS
280
   127
  9
$INDEXCTL
280
     0
  9
$HIDETEXT
280
     0
  9
$XCLIPFRAME
280
     2
  9
$HALOGAP
280
     0
  9
$OBSCOLOR
 70
   257
  9
$OBSLTYPE
280
     0
  9
$INTERSECTIONDISPLAY
280
     0
  9
$INTERSECTIONCOLOR
 70
   257
  9
$DIMASSOC
280
     1
  9
$PROJECTNAME
  1

  9
$CAMERADISPLAY
290
     0
  9
$LENSLENGTH
 40
50.0
  9
$CAMERAHEIGHT
 40
0.0
  9
$STEPSPERSEC
 40
2.0
  9
$STEPSIZE
 40
6.0
  9
$3DDWFPREC
 40
2.0
  9
$PSOLWIDTH
 40
0.25
  9
$PSOLHEIGHT
 40
4.0
  9
$LOFTANG1
 40
1.570796326794896
  9
$LOFTANG2
 40
1.570796326794896
  9
$LOFTMAG1
 40
0.0
  9
$LOFTMAG2
 40
0.0
  9
$LOFTPARAM
 70
     7
  9
$LOFTNORMALS
280
     1
  9
$LATITUDE
 40
37.795
  9
$LONGITUDE
 40
-122.394
  9
$NORTHDIRECTION
 40
0.0
  9
$TIMEZONE
 70
 -8000
  9
$LIGHTGLYPHDISPLAY
280
     1
  9
$TILEMODELIGHTSYNCH
280
     1
  9
$CMATERIAL
347
AB
  9
$SOLIDHIST
280
     0
  9
$SHOWHIST
280
     1
  9
$DWFFRAME
280
     2
  9
$DGNFRAME
280
     0
  9
$REALWORLDSCALE
290
     1
  9
$INTERFERECOLOR
 62
     1
  9
$INTERFEREOBJVS
345
CD
  9
$INTERFEREVPVS
346
CA
  9
$CSHADOW
280
     0
  9
$SHADOWPLANELOCATION
 40
0.0
  0
ENDSEC
  0
SECTION
  2
CLASSES
  0
CLASS
  1
ACDBDICTIONARYWDFLT
  2
AcDbDictionaryWithDefault
  3
ObjectDBX Classes
 90
        0
 91
        1
280
     0
281
     0
  0
CLASS
  1
ACDBPLACEHOLDER
  2
AcDbPlaceHolder
  3
ObjectDBX Classes
 90
        0
 91
        2
280
     0
281
     0
  0
CLASS
  1
LAYOUT
  2
AcDbLayout
  3
ObjectDBX Classes
 90
        0
 91
        3
280
     0
281
     0
  0
CLASS
  1
MATERIAL
  2
AcDbMaterial
  3
ObjectDBX Classes
 90
     1153
 91
        3
280
     0
281
     0
  0
CLASS
  1
VISUALSTYLE
  2
AcDbVisualStyle
  3
ObjectDBX Classes
 90
     4095
 91
       24
280
     0
281
     0
  0
CLASS
  1
TABLESTYLE
  2
AcDbTableStyle
  3
ObjectDBX Classes
 90
     4095
 91
        1
280
     0
281
     0
  0
CLASS
  1
SCALE
  2
AcDbScale
  3
ObjectDBX Classes
 90
     1153
 91
       17
280
     0
281
     0
  0
CLASS
  1
MLEADERSTYLE
  2
AcDbMLeaderStyle
  3
ACDB_MLEADERSTYLE_CLASS
 90
     4095
 91
        1
280
     0
281
     0
  0
CLASS
  1
ACDBSECTIONVIEWSTYLE
  2
AcDbSectionViewStyle
  3
ObjectDBX Classes
 90
     1025
 91
        1
280
     0
281
     0
  0
CLASS
  1
ACDBDETAILVIEWSTYLE
  2
AcDbDetailViewStyle
  3
ObjectDBX Classes
 90
     1025
 91
        1
280
     0
281
     0
  0
CLASS
  1
MESH
  2
AcDbSubDMesh
  3
ObjectDBX Classes
 90
        0
 91
        1
280
     0
281
     1
  0
CLASS
  1
DICTIONARYVAR
  2
AcDbDictionaryVar
  3
ObjectDBX Classes
 90
        0
 91
        9
280
     0
281
     0
  0
CLASS
  1
CELLSTYLEMAP
  2
AcDbCellStyleMap
  3
ObjectDBX Classes
 90
     1152
 91
        1
280
     0
281
     0
  0
ENDSEC
  0
SECTION
  2
TABLES
  0
TABLE
  2
VPORT
  5
8
330
0
100
AcDbSymbolTable
 70
     1
  0
VPORT
  5
A8
330
8
100
AcDbSymbolTableRecord
100
AcDbViewportTableRecord
  2
*Active
 70
     0
 10
0.0
 20
0.0
 11
1.0
 21
1.0
 12
0.0
 22
20.39103698730469
 13
0.0
 23
0.0
 14
0.5
 24
0.5
 15
0.5
 25
0.5
 16
-1.0
 26
-1.0
 36
1.0
 17
0.0
 27
0.0
 37
0.0
 40
1078.845861408267
 41
1.651861561736233
 42
50.0
 43
0.0
 44
0.0
 50
0.0
 51
0.0
 71
     0
 72
   100
 73
     1
 74
     3
 75
     0
 76
     0
 77
     0
 78
     0
281
     0
 65
     1
110
0.0
120
0.0
130
0.0
111
1.0
121
0.0
131
0.0
112
0.0
122
1.0
132
0.0
 79
     0
146
0.0
348
C9
 60
     3
 61
     5
292
     1
282
     1
141
0.0
142
0.0
 63
   250
421
  3355443
  0
ENDTAB
  0
TABLE
  2
LTYPE
  5
5
330
0
100
AcDbSymbolTable
 70
     1
  0
LTYPE
  5
14
330
5
100
AcDbSymbolTableRecord
100
AcDbLinetypeTableRecord
  2
ByBlock
 70
     0
  3

 72
    65
 73
     0
 40
0.0
  0
LTYPE
  5
15
330
5
100
AcDbSymbolTableRecord
100
AcDbLinetypeTableRecord
  2
ByLayer
 70
     0
  3

 72
    65
 73
     0
 40
0.0
  0
LTYPE
  5
16
330
5
100
AcDbSymbolTableRecord
100
AcDbLinetypeTableRecord
  2
Continuous
 70
     0
  3
Solid line
 72
    65
 73
     0
 40
0.0
  0
ENDTAB
  0
TABLE
  2
LAYER
  5
2
330
0
100
AcDbSymbolTable
 70
     3
  0
LAYER
  5
10
330
2
100
AcDbSymbolTableRecord
100
AcDbLayerTableRecord
  2
0
 70
     0
 62
     7
  6
Continuous
370
    -3
390
F
347
BB
  0
LAYER
  5
2B
330
2
100
AcDbSymbolTableRecord
100
AcDbLayerTableRecord
  2
ASHADE
 70
     4
 62
     7
  6
Continuous
370
    -3
390
2D
347
BB
  0
LAYER
  5
F8
330
2
100
AcDbSymbolTableRecord
100
AcDbLayerTableRecord
  2
OracDecor_panel_moldings
 70
     0
 62
   164
420
  1842353
  6
Continuous
370
    -3
390
F
347
BB
  0
ENDTAB
  0
TABLE
  2
STYLE
  5
3
330
0
100
AcDbSymbolTable
 70
     2
  0
STYLE
  5
11
330
3
100
AcDbSymbolTableRecord
100
AcDbTextStyleTableRecord
  2
Standard
 70
     0
 40
0.0
 41
1.0
 50
0.0
 71
     0
 42
0.2
  3
txt
  4

  0
STYLE
  5
2C
330
3
100
AcDbSymbolTableRecord
100
AcDbTextStyleTableRecord
  2
ASHADE
 70
     0
 40
0.2
 41
1.0
 50
0.0
 71
     0
 42
0.2
  3
simplex
  4

  0
ENDTAB
  0
TABLE
  2
VIEW
  5
6
330
0
100
AcDbSymbolTable
 70
     0
  0
ENDTAB
  0
TABLE
  2
UCS
  5
7
330
0
100
AcDbSymbolTable
 70
     0
  0
ENDTAB
  0
TABLE
  2
APPID
  5
9
330
0
100
AcDbSymbolTable
 70
     6
  0
APPID
  5
12
330
9
100
AcDbSymbolTableRecord
100
AcDbRegAppTableRecord
  2
ACAD
 70
     0
  0
APPID
  5
8F
330
9
100
AcDbSymbolTableRecord
100
AcDbRegAppTableRecord
  2
AVE_RENDER
 70
     0
  0
APPID
  5
90
330
9
100
AcDbSymbolTableRecord
100
AcDbRegAppTableRecord
  2
AVE_ENTITY_MATERIAL
 70
     0
  0
APPID
  5
9C
330
9
100
AcDbSymbolTableRecord
100
AcDbRegAppTableRecord
  2
AVE_FINISH
 70
     0
  0
APPID
  5
9D
330
9
100
AcDbSymbolTableRecord
100
AcDbRegAppTableRecord
  2
AVE_MATERIAL
 70
     0
  0
APPID
  5
9E
330
9
100
AcDbSymbolTableRecord
100
AcDbRegAppTableRecord
  2
AVE_GLOBAL
 70
     0
  0
ENDTAB
  0
TABLE
  2
DIMSTYLE
  5
A
330
0
100
AcDbSymbolTable
 70
     1
100
AcDbDimStyleTable
 71
     0
  0
DIMSTYLE
105
27
330
A
100
AcDbSymbolTableRecord
100
AcDbDimStyleTableRecord
  2
Standard
 70
     0
340
11
  0
ENDTAB
  0
TABLE
  2
BLOCK_RECORD
  5
1
330
0
100
AcDbSymbolTable
 70
     6
  0
BLOCK_RECORD
  5
1F
330
1
100
AcDbSymbolTableRecord
100
AcDbBlockTableRecord
  2
*Model_Space
340
22
 70
     0
280
     1
281
     0
  0
BLOCK_RECORD
  5
1B
330
1
100
AcDbSymbolTableRecord
100
AcDbBlockTableRecord
  2
*Paper_Space
340
1E
 70
     0
280
     1
281
     0
  0
BLOCK_RECORD
  5
23
330
1
100
AcDbSymbolTableRecord
100
AcDbBlockTableRecord
  2
*Paper_Space0
340
26
 70
     0
280
     1
281
     0
  0
BLOCK_RECORD
  5
2E
330
1
100
AcDbSymbolTableRecord
100
AcDbBlockTableRecord
  2
direct
340
0
 70
     0
280
     1
281
     0
  0
BLOCK_RECORD
  5
42
330
1
100
AcDbSymbolTableRecord
100
AcDbBlockTableRecord
  2
overhead
340
0
 70
     0
280
     1
281
     0
  0
BLOCK_RECORD
  5
5F
330
1
100
AcDbSymbolTableRecord
100
AcDbBlockTableRecord
  2
sh_spot
340
0
 70
     0
280
     1
281
     0
  0
BLOCK_RECORD
  5
91
330
1
100
AcDbSymbolTableRecord
100
AcDbBlockTableRecord
  2
AVE_RENDER
340
0
102
{BLKREFS
331
94
331
95
331
96
331
97
331
98
331
99
331
9A
331
9B
102
}
 70
     0
280
     1
281
     0
  0
BLOCK_RECORD
  5
9F
330
1
100
AcDbSymbolTableRecord
100
AcDbBlockTableRecord
  2
AVE_GLOBAL
340
0
102
{BLKREFS
331
A2
102
}
 70
     0
280
     1
281
     0
  0
ENDTAB
  0
ENDSEC
  0
SECTION
  2
BLOCKS
  0
BLOCK
  5
20
330
1F
100
AcDbEntity
  8
0
100
AcDbBlockBegin
  2
*Model_Space
 70
     0
 10
0.0
 20
0.0
 30
0.0
  3
*Model_Space
  1

  0
ENDBLK
  5
21
330
1F
100
AcDbEntity
  8
0
100
AcDbBlockEnd
  0
BLOCK
  5
1C
330
1B
100
AcDbEntity
 67
     1
  8
0
100
AcDbBlockBegin
  2
*Paper_Space
 70
     0
 10
0.0
 20
0.0
 30
0.0
  3
*Paper_Space
  1

  0
ENDBLK
  5
1D
330
1B
100
AcDbEntity
 67
     1
  8
0
100
AcDbBlockEnd
  0
BLOCK
  5
24
330
23
100
AcDbEntity
 67
     1
  8
0
100
AcDbBlockBegin
  2
*Paper_Space0
 70
     0
 10
0.0
 20
0.0
 30
0.0
  3
*Paper_Space0
  1

  0
ENDBLK
  5
25
330
23
100
AcDbEntity
 67
     1
  8
0
100
AcDbBlockEnd
  0
BLOCK
  5
40
330
2E
100
AcDbEntity
  8
0
100
AcDbBlockBegin
  2
direct
 70
     2
 10
0.0
 20
0.0
 30
0.0
  3
direct
  1

  0
ATTDEF
  5
2F
330
2E
100
AcDbEntity
  8
ASHADE
  6
Continuous
 62
     1
100
AcDbText
 10
0.0
 20
-0.1
 30
0.0
 40
0.2
  1

  7
ASHADE
 72
     1
 11
0.0
 21
-0.1
 31
0.0
100
AcDbAttributeDefinition
280
     0
  3
Light Name
  2
SNAME
 70
     0
280
     0
  0
ARC
  5
30
330
2E
100
AcDbEntity
  8
ASHADE
  6
Continuous
 62
     7
100
AcDbCircle
 10
0.0
 20
0.0
 30
0.0
 40
0.3
100
AcDbArc
 50
205.6792886194569
 51
334.3207113805431
  0
ARC
  5
31
330
2E
100
AcDbEntity
  8
ASHADE
  6
Continuous
 62
     7
100
AcDbCircle
 10
0.0
 20
0.0
 30
0.0
 40
0.3
100
AcDbArc
 50
25.67928861945685
 51
154.3207113805431
  0
LINE
  5
32
330
2E
100
AcDbEntity
  8
ASHADE
  6
Continuous
 62
     7
100
AcDbLine
 10
-0.21
 20
0.2142428528562855
 30
0.0
 11
-0.21
 21
0.5
 31
0.0
  0
LINE
  5
33
330
2E
100
AcDbEntity
  8
ASHADE
  6
Continuous
 62
     7
100
AcDbLine
 10
-0.11
 20
0.2791057147390572
 30
0.0
 11
-0.11
 21
0.5
 31
0.0
  0
LINE
  5
34
330
2E
100
AcDbEntity
  8
ASHADE
  6
Continuous
 62
     7
100
AcDbLine
 10
0.21
 20
0.2142428528562855
 30
0.0
 11
0.21
 21
0.5
 31
0.0
  0
ATTDEF
  5
35
330
2E
100
AcDbEntity
  8
ASHADE
  6
Continuous
 62
     7
100
AcDbText
 10
0.0
 20
0.25
 30
0.0
 40
0.01
  1

100
AcDbAttributeDefinition
280
     0
  3
Look-at Y
  2
LAY
 70
     1
280
     0
  0
ATTDEF
  5
36
330
2E
100
AcDbEntity
  8
ASHADE
  6
Continuous
 62
     7
100
AcDbText
 10
0.0
 20
0.22
 30
0.0
 40
0.01
  1
1
100
AcDbAttributeDefinition
280
     0
  3
Light Intensity
  2
INTENSITY
 70
     1
280
     0
  0
ATTDEF
  5
37
330
2E
100
AcDbEntity
  8
ASHADE
  6
Continuous
 62
     7
100
AcDbText
 10
0.0
 20
0.16
 30
0.0
 40
0.01
  1
-1
100
AcDbAttributeDefinition
280
     0
  3
*not used*
  2
BEAMD
 70
     1
280
     0
  0
ATTDEF
  5
38
330
2E
100
AcDbEntity
  8
ASHADE
  6
Continuous
 62
     7
100
AcDbText
 10
0.0
 20
0.175
 30
0.0
 40
0.01
  1
-1
100
AcDbAttributeDefinition
280
     0
  3
*not used*
  2
CONED
 70
     1
280
     0
  0
ATTDEF
  5
39
330
2E
100
AcDbEntity
  8
ASHADE
  6
Continuous
 62
     7
100
AcDbText
 10
0.0
 20
0.19
 30
0.0
 40
0.01
  1
0
100
AcDbAttributeDefinition
280
     0
  3
Depth Map Size
  2
CONEA
 70
     1
280
     0
  0
ATTDEF
  5
3A
330
2E
100
AcDbEntity
  8
ASHADE
  6
Continuous
 62
     7
100
AcDbText
 10
0.0
 20
0.2050000000000001
 30
0.0
 40
0.01
  1
1,1,1
100
AcDbAttributeDefinition
280
     0
  3
Light Color (RGB)
  2
COLOR
 70
     1
280
     0
  0
ATTDEF
  5
3B
330
2E
100
AcDbEntity
  8
ASHADE
  6
Continuous
 62
     7
100
AcDbText
 10
0.0
 20
0.235
 30
0.0
 40
0.01
  1

100
AcDbAttributeDefinition
280
     0
  3
Look-at Z
  2
LAZ
 70
     1
280
     0
  0
LINE
  5
3C
330
2E
100
AcDbEntity
  8
ASHADE
  6
Continuous
 62
     7
100
AcDbLine
 10
0.0
 20
0.3
 30
0.0
 11
0.0
 21
0.5
 31
0.0
  0
LINE
  5
3D
330
2E
100
AcDbEntity
  8
ASHADE
  6
Continuous
 62
     7
100
AcDbLine
 10
0.11
 20
0.2791057147390572
 30
0.0
 11
0.11
 21
0.5
 31
0.0
  0
ATTDEF
  5
3E
330
2E
100
AcDbEntity
  8
ASHADE
  6
Continuous
 62
     7
100
AcDbText
 10
0.0
 20
0.265
 30
0.0
 40
0.01
  1

100
AcDbAttributeDefinition
280
     0
  3
Look-at X
  2
LAX
 70
     1
280
     0
  0
ATTDEF
  5
3F
330
2E
100
AcDbEntity
  8
ASHADE
  6
Continuous
 62
     7
100
AcDbText
 10
0.0
 20
0.28
 30
0.0
 40
0.01
  1

100
AcDbAttributeDefinition
280
     0
  3

  2
GNAME
 70
     1
280
     0
  0
ENDBLK
  5
41
330
2E
100
AcDbEntity
  8
0
100
AcDbBlockEnd
  0
BLOCK
  5
5D
330
42
100
AcDbEntity
  8
0
100
AcDbBlockBegin
  2
overhead
 70
     2
 10
0.0
 20
0.0
 30
0.0
  3
overhead
  1

  0
ATTDEF
  5
43
330
42
100
AcDbEntity
  8
ASHADE
  6
Continuous
 62
     1
100
AcDbText
 10
0.0
 20
-0.1
 30
0.0
 40
0.2
  1

  7
ASHADE
 72
     1
 11
0.0
 21
-0.1
 31
0.0
100
AcDbAttributeDefinition
280
     0
  3
Light Name
  2
SNAME
 70
     0
280
     0
  0
ARC
  5
44
330
42
100
AcDbEntity
  8
ASHADE
  6
Continuous
 62
     7
100
AcDbCircle
 10
0.0
 20
0.0
 30
0.0
 40
0.3
100
AcDbArc
 50
205.6792886194569
 51
334.3207113805431
  0
LINE
  5
45
330
42
100
AcDbEntity
  8
ASHADE
  6
Continuous
 62
     7
100
AcDbLine
 10
-0.2041413561583015
 20
-0.2198324514393848
 30
0.0
 11
-0.2721884748777353
 21
-0.2931099352525131
 31
0.0
  0
LINE
  5
46
330
42
100
AcDbEntity
  8
ASHADE
  6
Continuous
 62
     7
100
AcDbLine
 10
-0.1096591641591904
 20
-0.2792398032442862
 30
0.0
 11
-0.1279356915190555
 21
-0.3257797704516673
 31
0.0
  0
LINE
  5
47
330
42
100
AcDbEntity
  8
ASHADE
  6
Continuous
 62
     7
100
AcDbLine
 10
0.0
 20
-0.2999999999999999
 30
0.0
 11
0.0
 21
-0.4
 31
0.0
  0
LINE
  5
48
330
42
100
AcDbEntity
  8
ASHADE
  6
Continuous
 62
     7
100
AcDbLine
 10
0.1096591641591904
 20
-0.2792398032442862
 30
0.0
 11
0.1279356915190555
 21
-0.3257797704516673
 31
0.0
  0
LINE
  5
49
330
42
100
AcDbEntity
  8
ASHADE
  6
Continuous
 62
     7
100
AcDbLine
 10
0.2041413561583015
 20
-0.2198324514393848
 30
0.0
 11
0.2721884748777353
 21
-0.2931099352525131
 31
0.0
  0
ARC
  5
4A
330
42
100
AcDbEntity
  8
ASHADE
  6
Continuous
 62
     7
100
AcDbCircle
 10
0.0
 20
0.0
 30
0.0
 40
0.3
100
AcDbArc
 50
25.67928861945685
 51
154.3207113805431
  0
LINE
  5
4B
330
42
100
AcDbEntity
  8
ASHADE
  6
Continuous
 62
     7
100
AcDbLine
 10
-0.2703701166919155
 20
0.13
 30
0.0
 11
-0.3154318028072347
 21
0.1516666666666666
 31
0.0
  0
LINE
  5
4C
330
42
100
AcDbEntity
  8
ASHADE
  6
Continuous
 62
     7
100
AcDbLine
 10
-0.2703701166919155
 20
-0.13
 30
0.0
 11
-0.3154318028072347
 21
-0.1516666666666666
 31
0.0
  0
LINE
  5
4D
330
42
100
AcDbEntity
  8
ASHADE
  6
Continuous
 62
     7
100
AcDbLine
 10
-0.2041413561583015
 20
0.2198324514393849
 30
0.0
 11
-0.2721884748777353
 21
0.2931099352525131
 31
0.0
  0
LINE
  5
4E
330
42
100
AcDbEntity
  8
ASHADE
  6
Continuous
 62
     7
100
AcDbLine
 10
-0.1096591641591904
 20
0.2792398032442862
 30
0.0
 11
-0.1279356915190555
 21
0.3257797704516674
 31
0.0
  0
LINE
  5
4F
330
42
100
AcDbEntity
  8
ASHADE
  6
Continuous
 62
     7
100
AcDbLine
 10
0.2703701166919155
 20
-0.13
 30
0.0
 11
0.3154318028072347
 21
-0.1516666666666666
 31
0.0
  0
LINE
  5
50
330
42
100
AcDbEntity
  8
ASHADE
  6
Continuous
 62
     7
100
AcDbLine
 10
0.2703701166919155
 20
0.13
 30
0.0
 11
0.3154318028072347
 21
0.1516666666666666
 31
0.0
  0
LINE
  5
51
330
42
100
AcDbEntity
  8
ASHADE
  6
Continuous
 62
     7
100
AcDbLine
 10
0.0
 20
0.3
 30
0.0
 11
0.0
 21
0.4
 31
0.0
  0
ATTDEF
  5
52
330
42
100
AcDbEntity
  8
ASHADE
  6
Continuous
 62
     7
100
AcDbText
 10
0.0
 20
0.22
 30
0.0
 40
0.01
  1
1
100
AcDbAttributeDefinition
280
     0
  3
Light Intensity
  2
INTENSITY
 70
     1
280
     0
  0
ATTDEF
  5
53
330
42
100
AcDbEntity
  8
ASHADE
  6
Continuous
 62
     7
100
AcDbText
 10
0.0
 20
0.16
 30
0.0
 40
0.01
  1
-1
100
AcDbAttributeDefinition
280
     0
  3
*not used*
  2
BEAMD
 70
     1
280
     0
  0
ATTDEF
  5
54
330
42
100
AcDbEntity
  8
ASHADE
  6
Continuous
 62
     7
100
AcDbText
 10
0.0
 20
0.175
 30
0.0
 40
0.01
  1
-1
100
AcDbAttributeDefinition
280
     0
  3
*not used*
  2
CONED
 70
     1
280
     0
  0
ATTDEF
  5
55
330
42
100
AcDbEntity
  8
ASHADE
  6
Continuous
 62
     7
100
AcDbText
 10
0.0
 20
0.19
 30
0.0
 40
0.01
  1
0
100
AcDbAttributeDefinition
280
     0
  3
Depth Map Size
  2
CONEA
 70
     1
280
     0
  0
ATTDEF
  5
56
330
42
100
AcDbEntity
  8
ASHADE
  6
Continuous
 62
     7
100
AcDbText
 10
0.0
 20
0.2050000000000001
 30
0.0
 40
0.01
  1
1,1,1
100
AcDbAttributeDefinition
280
     0
  3
Light Color (RGB)
  2
COLOR
 70
     1
280
     0
  0
ATTDEF
  5
57
330
42
100
AcDbEntity
  8
ASHADE
  6
Continuous
 62
     7
100
AcDbText
 10
0.0
 20
0.235
 30
0.0
 40
0.01
  1

100
AcDbAttributeDefinition
280
     0
  3
Look-at Z
  2
LAZ
 70
     1
280
     0
  0
ATTDEF
  5
58
330
42
100
AcDbEntity
  8
ASHADE
  6
Continuous
 62
     7
100
AcDbText
 10
0.0
 20
0.25
 30
0.0
 40
0.01
  1

100
AcDbAttributeDefinition
280
     0
  3
Look-at Y
  2
LAY
 70
     1
280
     0
  0
ATTDEF
  5
59
330
42
100
AcDbEntity
  8
ASHADE
  6
Continuous
 62
     7
100
AcDbText
 10
0.0
 20
0.265
 30
0.0
 40
0.01
  1

100
AcDbAttributeDefinition
280
     0
  3
Look-at X
  2
LAX
 70
     1
280
     0
  0
ATTDEF
  5
5A
330
42
100
AcDbEntity
  8
ASHADE
  6
Continuous
 62
     7
100
AcDbText
 10
0.0
 20
0.28
 30
0.0
 40
0.01
  1

100
AcDbAttributeDefinition
280
     0
  3

  2
GNAME
 70
     1
280
     0
  0
LINE
  5
5B
330
42
100
AcDbEntity
  8
ASHADE
  6
Continuous
 62
     7
100
AcDbLine
 10
0.1096591641591904
 20
0.2792398032442862
 30
0.0
 11
0.1279356915190555
 21
0.3257797704516674
 31
0.0
  0
LINE
  5
5C
330
42
100
AcDbEntity
  8
ASHADE
  6
Continuous
 62
     7
100
AcDbLine
 10
0.2041413561583015
 20
0.2198324514393849
 30
0.0
 11
0.2721884748777353
 21
0.2931099352525131
 31
0.0
  0
ENDBLK
  5
5E
330
42
100
AcDbEntity
  8
0
100
AcDbBlockEnd
  0
BLOCK
  5
85
330
5F
100
AcDbEntity
  8
0
100
AcDbBlockBegin
  2
sh_spot
 70
     2
 10
0.0
 20
0.0
 30
0.0
  3
sh_spot
  1

  0
LINE
  5
60
330
5F
100
AcDbEntity
  8
ASHADE
  6
Continuous
 62
     7
100
AcDbLine
 10
0.25
 20
0.26
 30
0.0
 11
-0.25
 21
0.26
 31
0.0
  0
LINE
  5
61
330
5F
100
AcDbEntity
  8
ASHADE
  6
Continuous
 62
     7
100
AcDbLine
 10
-0.25
 20
-0.3399999999999999
 30
0.0
 11
0.25
 21
-0.3399999999999999
 31
0.0
  0
ATTDEF
  5
62
330
5F
100
AcDbEntity
  8
ASHADE
  6
Continuous
 62
     1
100
AcDbText
 10
0.0
 20
-0.1
 30
0.0
 40
0.2
  1

  7
ASHADE
 72
     1
 11
0.0
 21
-0.1
 31
0.0
100
AcDbAttributeDefinition
280
     0
  3
Light Name
  2
SNAME
 70
     0
280
     0
  0
LINE
  5
63
330
5F
100
AcDbEntity
  8
ASHADE
  6
Continuous
 62
     7
100
AcDbLine
 10
-0.25
 20
-0.13
 30
0.0
 11
-0.25
 21
-0.3399999999999999
 31
0.0
  0
LINE
  5
64
330
5F
100
AcDbEntity
  8
ASHADE
  6
Continuous
 62
     7
100
AcDbLine
 10
-0.25
 20
-0.18
 30
0.0
 11
-0.29
 21
-0.18
 31
0.0
  0
LINE
  5
65
330
5F
100
AcDbEntity
  8
ASHADE
  6
Continuous
 62
     7
100
AcDbLine
 10
-0.29
 20
-0.22
 30
0.0
 11
-0.25
 21
-0.22
 31
0.0
  0
LINE
  5
66
330
5F
100
AcDbEntity
  8
ASHADE
  6
Continuous
 62
     7
100
AcDbLine
 10
-0.29
 20
-0.18
 30
0.0
 11
-0.29
 21
-0.22
 31
0.0
  0
LINE
  5
67
330
5F
100
AcDbEntity
  8
ASHADE
  6
Continuous
 62
     7
100
AcDbLine
 10
-0.1045454545454545
 20
0.26
 30
0.0
 11
-0.15
 21
0.46
 31
0.0
  0
LINE
  5
68
330
5F
100
AcDbEntity
  8
ASHADE
  6
Continuous
 62
     7
100
AcDbLine
 10
-0.21
 20
0.26
 30
0.0
 11
-0.301304347826087
 21
0.46
 31
0.0
  0
LINE
  5
69
330
5F
100
AcDbEntity
  8
ASHADE
  6
Continuous
 62
     7
100
AcDbLine
 10
-0.25
 20
0.26
 30
0.0
 11
-0.25
 21
0.13
 31
0.0
  0
LINE
  5
6A
330
5F
100
AcDbEntity
  8
ASHADE
  6
Continuous
 62
     7
100
AcDbLine
 10
-0.25
 20
0.22
 30
0.0
 11
-0.29
 21
0.22
 31
0.0
  0
LINE
  5
6B
330
5F
100
AcDbEntity
  8
ASHADE
  6
Continuous
 62
     7
100
AcDbLine
 10
-0.29
 20
0.1799999999999999
 30
0.0
 11
-0.25
 21
0.1799999999999999
 31
0.0
  0
LINE
  5
6C
330
5F
100
AcDbEntity
  8
ASHADE
  6
Continuous
 62
     7
100
AcDbLine
 10
-0.29
 20
0.22
 30
0.0
 11
-0.29
 21
0.1799999999999999
 31
0.0
  0
ATTDEF
  5
6D
330
5F
100
AcDbEntity
  8
ASHADE
  6
Continuous
 62
     7
100
AcDbText
 10
0.0
 20
-0.24
 30
0.0
 40
0.01
  1
0
100
AcDbAttributeDefinition
280
     0
  3
Depth Map Size
  2
ZSIZE
 70
     1
280
     0
  0
ATTDEF
  5
6E
330
5F
100
AcDbEntity
  8
ASHADE
  6
Continuous
 62
     7
100
AcDbText
 10
0.0
 20
-0.3300000000000001
 30
0.0
 40
0.01
  1
0,0,0
100
AcDbAttributeDefinition
280
     0
  3
Look-from XYZ
  2
LFXYZ
 70
     1
280
     0
  0
ATTDEF
  5
6F
330
5F
100
AcDbEntity
  8
ASHADE
  6
Continuous
 62
     7
100
AcDbText
 10
0.0
 20
-0.315
 30
0.0
 40
0.01
  1
0.0
100
AcDbAttributeDefinition
280
     0
  3
Beam Distribution
  2
BEAMDI
 70
     1
280
     0
  0
ATTDEF
  5
70
330
5F
100
AcDbEntity
  8
ASHADE
  6
Continuous
 62
     7
100
AcDbText
 10
0.0
 20
-0.3
 30
0.0
 40
0.01
  1
0.0
100
AcDbAttributeDefinition
280
     0
  3
Cone Delta
  2
CONEDE
 70
     1
280
     0
  0
ATTDEF
  5
71
330
5F
100
AcDbEntity
  8
ASHADE
  6
Continuous
 62
     7
100
AcDbText
 10
0.0
 20
-0.2850000000000001
 30
0.0
 40
0.01
  1
10.0
100
AcDbAttributeDefinition
280
     0
  3
Cone Angle
  2
CONEAN
 70
     1
280
     0
  0
ATTDEF
  5
72
330
5F
100
AcDbEntity
  8
ASHADE
  6
Continuous
 62
     7
100
AcDbText
 10
0.0
 20
-0.27
 30
0.0
 40
0.01
  1
-1
100
AcDbAttributeDefinition
280
     0
  3
*not used*
  2
BIASMAX
 70
     1
280
     0
  0
ATTDEF
  5
73
330
5F
100
AcDbEntity
  8
ASHADE
  6
Continuous
 62
     7
100
AcDbText
 10
0.0
 20
-0.255
 30
0.0
 40
0.01
  1
-1
100
AcDbAttributeDefinition
280
     0
  3
*not used*
  2
BIASMIN
 70
     1
280
     0
  0
ATTDEF
  5
74
330
5F
100
AcDbEntity
  8
ASHADE
  6
Continuous
 62
     7
100
AcDbText
 10
0.0
 20
-0.225
 30
0.0
 40
0.01
  1
1,1,1
100
AcDbAttributeDefinition
280
     0
  3
Light Color (RGB)
  2
COLOR
 70
     1
280
     0
  0
ATTDEF
  5
75
330
5F
100
AcDbEntity
  8
ASHADE
  6
Continuous
 62
     7
100
AcDbText
 10
0.0
 20
-0.21
 30
0.0
 40
0.01
  1
1
100
AcDbAttributeDefinition
280
     0
  3
Light Intensity
  2
INTENSITY
 70
     1
280
     0
  0
ATTDEF
  5
76
330
5F
100
AcDbEntity
  8
ASHADE
  6
Continuous
 62
     7
100
AcDbText
 10
0.0
 20
-0.15
 30
0.0
 40
0.01
  1

100
AcDbAttributeDefinition
280
     0
  3

  2
GNAME
 70
     1
280
     0
  0
ATTDEF
  5
77
330
5F
100
AcDbEntity
  8
ASHADE
  6
Continuous
 62
     7
100
AcDbText
 10
0.0
 20
-0.195
 30
0.0
 40
0.01
  1

100
AcDbAttributeDefinition
280
     0
  3
Look-at Z
  2
LAZ
 70
     1
280
     0
  0
ATTDEF
  5
78
330
5F
100
AcDbEntity
  8
ASHADE
  6
Continuous
 62
     7
100
AcDbText
 10
0.0
 20
-0.18
 30
0.0
 40
0.01
  1

100
AcDbAttributeDefinition
280
     0
  3
Look-at Y
  2
LAY
 70
     1
280
     0
  0
ATTDEF
  5
79
330
5F
100
AcDbEntity
  8
ASHADE
  6
Continuous
 62
     7
100
AcDbText
 10
0.0
 20
-0.165
 30
0.0
 40
0.01
  1

100
AcDbAttributeDefinition
280
     0
  3
Look-at X
  2
LAX
 70
     1
280
     0
  0
LINE
  5
7A
330
5F
100
AcDbEntity
  8
ASHADE
  6
Continuous
 62
     7
100
AcDbLine
 10
0.25
 20
-0.3399999999999999
 30
0.0
 11
0.25
 21
-0.13
 31
0.0
  0
LINE
  5
7B
330
5F
100
AcDbEntity
  8
ASHADE
  6
Continuous
 62
     7
100
AcDbLine
 10
0.25
 20
-0.18
 30
0.0
 11
0.29
 21
-0.18
 31
0.0
  0
LINE
  5
7C
330
5F
100
AcDbEntity
  8
ASHADE
  6
Continuous
 62
     7
100
AcDbLine
 10
0.29
 20
-0.22
 30
0.0
 11
0.25
 21
-0.22
 31
0.0
  0
LINE
  5
7D
330
5F
100
AcDbEntity
  8
ASHADE
  6
Continuous
 62
     7
100
AcDbLine
 10
0.29
 20
-0.18
 30
0.0
 11
0.29
 21
-0.22
 31
0.0
  0
LINE
  5
7E
330
5F
100
AcDbEntity
  8
ASHADE
  6
Continuous
 62
     7
100
AcDbLine
 10
0.21
 20
0.26
 30
0.0
 11
0.301304347826087
 21
0.46
 31
0.0
  0
LINE
  5
7F
330
5F
100
AcDbEntity
  8
ASHADE
  6
Continuous
 62
     7
100
AcDbLine
 10
0.1045454545454545
 20
0.26
 30
0.0
 11
0.15
 21
0.46
 31
0.0
  0
LINE
  5
80
330
5F
100
AcDbEntity
  8
ASHADE
  6
Continuous
 62
     7
100
AcDbLine
 10
0.0
 20
0.26
 30
0.0
 11
0.0
 21
0.46
 31
0.0
  0
LINE
  5
81
330
5F
100
AcDbEntity
  8
ASHADE
  6
Continuous
 62
     7
100
AcDbLine
 10
0.25
 20
0.13
 30
0.0
 11
0.25
 21
0.26
 31
0.0
  0
LINE
  5
82
330
5F
100
AcDbEntity
  8
ASHADE
  6
Continuous
 62
     7
100
AcDbLine
 10
0.25
 20
0.22
 30
0.0
 11
0.29
 21
0.22
 31
0.0
  0
LINE
  5
83
330
5F
100
AcDbEntity
  8
ASHADE
  6
Continuous
 62
     7
100
AcDbLine
 10
0.29
 20
0.1799999999999999
 30
0.0
 11
0.25
 21
0.1799999999999999
 31
0.0
  0
LINE
  5
84
330
5F
100
AcDbEntity
  8
ASHADE
  6
Continuous
 62
     7
100
AcDbLine
 10
0.29
 20
0.22
 30
0.0
 11
0.29
 21
0.1799999999999999
 31
0.0
  0
ENDBLK
  5
86
330
5F
100
AcDbEntity
  8
0
100
AcDbBlockEnd
  0
BLOCK
  5
92
330
91
100
AcDbEntity
  8
ASHADE
100
AcDbBlockBegin
  2
AVE_RENDER
 70
     0
 10
0.0
 20
0.0
 30
0.0
  3
AVE_RENDER
  1
AVE_RENDER
  0
ENDBLK
  5
93
330
91
100
AcDbEntity
  8
0
100
AcDbBlockEnd
  0
BLOCK
  5
A0
330
9F
100
AcDbEntity
  8
ASHADE
100
AcDbBlockBegin
  2
AVE_GLOBAL
 70
     0
 10
0.0
 20
0.0
 30
0.0
  3
AVE_GLOBAL
  1
AVE_GLOBAL
  0
ENDBLK
  5
A1
330
9F
100
AcDbEntity
  8
0
100
AcDbBlockEnd
  0
ENDSEC
  0
SECTION
  2
ENTITIES
  0
INSERT
  5
94
330
1F
100
AcDbEntity
  8
ASHADE
 62
     1
100
AcDbBlockReference
  2
AVE_RENDER
 10
0.0
 20
0.0
 30
0.0
1001
AVE_RENDER
1002
{
1070
     7
1000
Pref
1070
    30
1070
    20
1070
     1
1070
     0
1000

1070
    10
1070
     1
1070
    10
1040
1.0
1070
     1
1040
0.3
1040
0.7
1040
0.0
1040
10.0
1010
-1.0
1020
-1.0
1030
-1.0
1040
0.3
1070
    49
1070
     0
1070
     0
1010
1.0
1020
1.0
1030
1.0
1040
45.0
1070
     1
1070
     0
1000
WCS
1040
0.0
1070
     0
1040
10.0
1002
}
  0
INSERT
  5
95
330
1F
100
AcDbEntity
  8
ASHADE
 62
     3
100
AcDbBlockReference
  2
AVE_RENDER
 10
0.0
 20
0.0
 30
0.0
1001
AVE_RENDER
1002
{
1070
     0
1000
Full Opt
1070
     0
1070
     1
1070
     1
1070
     1
1070
     0
1070
     0
1070
     0
1070
     1
1070
     1
1040
0.0001
1040
0.0001
1002
}
  0
INSERT
  5
96
330
1F
100
AcDbEntity
  8
ASHADE
 62
     4
100
AcDbBlockReference
  2
AVE_RENDER
 10
0.0
 20
0.0
 30
0.0
1001
AVE_RENDER
1002
{
1070
     0
1000
Quick Opt
1070
     0
1070
     1
1070
     1
1070
     1
1070
     0
1070
     0
1070
     1
1002
}
  0
INSERT
  5
97
330
1F
100
AcDbEntity
  8
ASHADE
 62
     5
100
AcDbBlockReference
  2
AVE_RENDER
 10
0.0
 20
0.0
 30
0.0
1001
AVE_RENDER
1002
{
1070
     1
1000
Scanl Opt
1070
     2
1070
     0
1070
     2
1040
2.0
1040
4.0
1070
     0
1070
     1
1070
     0
1040
0.03
1002
}
  0
INSERT
  5
98
330
1F
100
AcDbEntity
  8
ASHADE
 62
     6
100
AcDbBlockReference
  2
AVE_RENDER
 10
0.0
 20
0.0
 30
0.0
1001
AVE_RENDER
1002
{
1070
     2
1000
Raytr Opt
1070
     2
1070
     0
1070
     2
1040
2.0
1040
4.0
1070
     0
1070
     1
1070
     1
1040
0.03
1070
     3
1040
0.03
1002
}
  0
INSERT
  5
99
330
1F
100
AcDbEntity
  8
ASHADE
 62
     7
100
AcDbBlockReference
  2
AVE_RENDER
 10
0.0
 20
0.0
 30
0.0
1001
AVE_RENDER
1002
{
1070
     0
1000
RFile Opt
1070
     1
1070
   640
1070
   480
1070
 10000
1070
     1
1070
     8
1070
     8
1070
     0
1070
     0
1070
     0
1070
     0
1070
     0
1070
     0
1070
     0
1002
}
  0
INSERT
  5
9A
330
1F
100
AcDbEntity
  8
ASHADE
 62
     8
100
AcDbBlockReference
  2
AVE_RENDER
 10
0.0
 20
0.0
 30
0.0
1001
AVE_RENDER
1002
{
1070
     0
1000
Fog Opt
1070
     0
1070
     0
1040
0.0
1040
1.0
1040
0.0
1040
1.0
1010
0.5
1020
0.5
1030
0.5
1002
}
  0
INSERT
  5
9B
330
1F
100
AcDbEntity
  8
ASHADE
 62
     9
100
AcDbBlockReference
  2
AVE_RENDER
 10
0.0
 20
0.0
 30
0.0
1001
AVE_RENDER
1002
{
1070
     0
1000
BG Opt
1070
     0
1070
     1
1010
0.0
1020
0.0
1030
0.0
1010
1.0
1020
0.0
1030
0.0
1010
0.0
1020
1.0
1030
0.0
1010
0.0
1020
0.0
1030
1.0
1040
0.5
1040
0.33
1040
0.0
1000

1070
     1
1000

1070
     1
1070
     1
1040
1.0
1040
1.0
1040
0.0
1040
0.0
1070
     0
1002
}
  0
INSERT
  5
A2
330
1F
100
AcDbEntity
  8
ASHADE
 62
     1
100
AcDbBlockReference
  2
AVE_GLOBAL
 10
0.0
 20
0.0
 30
0.0
1001
AVE_MATERIAL
1002
{
1000
*GLOBAL*
1000
2
1000
Global finish.
1002
{
1002
}
1002
{
1070
    63
1002
{
1002
{
1010
-1.0
1020
-1.0
1030
-1.0
1002
}
1040
0.1000000014901161
1000

1040
0.0
1002
{
1002
}
1040
0.0
1002
{
1002
}
1040
0.0
1002
}
1002
{
1002
{
1010
-1.0
1020
-1.0
1030
-1.0
1002
}
1040
0.6999999880790711
1000

1040
0.0
1002
{
1002
}
1040
0.0
1002
{
1002
}
1040
0.0
1002
}
1002
{
1002
{
1010
-1.0
1020
-1.0
1030
-1.0
1002
}
1040
0.2000000029802322
1000

1040
0.0
1002
{
1002
}
1040
0.0
1002
{
1002
}
1040
0.0
1002
}
1002
{
1070
     0
1002
{
1070
     1
1002
{
1040
1.0
1040
1.0
1000

1040
0.0
1002
{
1002
}
1040
0.0
1002
{
1002
}
1040
0.0
1002
}
1002
}
1040
1.0
1040
0.0
1040
0.0
1002
}
1002
{
1040
1.0
1040
1.0
1000

1040
0.0
1002
{
1002
}
1040
0.0
1002
{
1002
}
1040
0.0
1002
}
1002
{
1040
0.5
1040
1.0
1000

1040
0.0
1002
{
1002
}
1040
0.0
1002
{
1002
}
1040
0.0
1002
}
1002
{
1070
     0
1040
0.0
1002
{
1002
}
1040
1.0
1002
{
1002
}
1040
0.0
1002
}
1002
{
1040
0.0
1002
{
1002
{
1010
0.0
1020
0.0
1030
0.0
1002
}
1040
1.0
1000

1040
0.0
1002
{
1002
}
1040
0.0
1002
{
1002
}
1040
0.0
1002
}
1002
}
1002
{
1002
{
1070
     1
1002
{
1040
0.0
1040
1.0
1000

1040
0.0
1002
{
1002
}
1040
0.0
1002
{
1002
}
1040
0.0
1002
}
1002
}
1040
0.0
1002
{
1002
}
1010
1.0
1020
0.0
1030
0.0
1010
0.0
1020
1.0
1030
0.0
1010
0.0
1020
0.0
1030
1.0
1070
     0
1002
}
1002
{
1002
{
1040
1.0
1040
1.0
1002
{
1070
     1
1002
{
1040
1.0
1040
1.0
1000

1040
0.0
1002
{
1002
}
1040
0.0
1002
{
1002
}
1040
0.0
1002
}
1002
}
1002
}
1070
     0
1040
0.0
1002
{
1002
}
1002
}
1002
{
1002
}
1002
}
1002
{
1071
        3
1070
     3
1070
     0
1002
{
1070
     2
1070
     0
1070
     0
1040
0.0
1002
}
1070
     0
1070
     2
1002
{
1002
}
1002
}
1002
{
1040
8030.0
1040
190.3000030517578
1040
0.3050000071525574
1040
228.0
1040
545.0
1040
14.0
1040
17.39999961853027
1040
0.4560000002384186
1002
}
1002
}
  0
MESH
  5
F9
330
1F
100
AcDbEntity
  8
OracDecor_panel_moldings
 62
   221
420
 15050455
160
             24344
310
185F0000A40200000C00000013000000020000003C00000006000000020000000000000000408FC000000040009810C00000000040CFBB3F0000000000408FC0000000000000F8BE00000000000000000C000000130000000A0000003C00000006000000020000000000000000408FC0000000000000F8BE00000000000000
310
00000000E0FF3F8F40000000000000ECBE00000000000000000C00000013000000120000003C0000000600000002000000000000E0FF3F8F40000000000000ECBE0000000000000000000000E0FF3F8F4000000080019810C00000000040CFBB3F0C000000130000001A0000003C0000000600000002000000000000000040
310
8FC000000040009810C00000000040CFBB3F000000E0FF3F8F4000000080019810C00000000040CFBB3F0C00000013000000220000003C00000006000000020000000000000000408FC0000000000000F8BE000000C0C87B2E400000000000408FC0000000000000F8BE00000000000000000C000000130000002A0000003C
310
00000006000000020000000000000000408FC0000000000000F8BE000000C0C87B2E40000000E0FF3F8F40000000000000ECBE000000C0C87B2E400C00000013000000320000003C0000000600000002000000000000E0FF3F8F40000000000000ECBE000000C0C87B2E40000000E0FF3F8F40000000000000ECBE00000000
310
000000000C000000130000003A0000003C00000006000000020000000000000000408FC0000000401B1B13C000000060888530400000000000408FC0000000000000F8BE000000C0C87B2E400C00000013000000420000003C00000006000000020000000000000000408FC0000000401B1B13C00000006088853040000000
310
E0FF3F8F40000000801C1B13C000000060888530400C000000130000004A0000003C0000000600000002000000000000E0FF3F8F40000000000000ECBE000000C0C87B2E40000000E0FF3F8F40000000801C1B13C000000060888530400C00000013000000520000003C00000006000000020000000000000000408FC00000
310
00C0C9AA16C0000000E0CEEC30400000000000408FC0000000401B1B13C000000060888530400C000000130000005A0000003C00000006000000020000000000000000408FC0000000C0C9AA16C0000000E0CEEC3040000000E0FF3F8F4000000000CBAA16C0000000E0CEEC30400C00000013000000620000003C00000006
310
00000002000000000000E0FF3F8F4000000000CBAA16C0000000E0CEEC3040000000E0FF3F8F40000000801C1B13C000000060888530400C000000130000006A0000003C00000006000000020000000000000000408FC0000000402F8519C000000060D69731400000000000408FC0000000C0C9AA16C0000000E0CEEC3040
310
0C00000013000000720000003C00000006000000020000000000000000408FC0000000402F8519C000000060D6973140000000E0FF3F8F4000000080308519C000000060D69731400C000000130000007A0000003C0000000600000002000000000000E0FF3F8F4000000080308519C000000060D6973140000000E0FF3F8F
310
4000000000CBAA16C0000000E0CEEC30400C00000013000000820000003C00000006000000020000000000000000408FC000000000F35C1BC0000000E07A7432400000000000408FC0000000402F8519C000000060D69731400C000000130000008A0000003C00000006000000020000000000000000408FC000000000F35C
310
1BC0000000E07A743240000000E0FF3F8F4000000040F45C1BC0000000E07A7432400C00000013000000920000003C0000000600000002000000000000E0FF3F8F4000000040F45C1BC0000000E07A743240000000E0FF3F8F4000000080308519C000000060D69731400C000000130000009A0000003C0000000600000002
310
0000000000000000408FC0000000C003001CC0000000605D6B33400000000000408FC000000000F35C1BC0000000E07A7432400C00000013000000A20000003C00000006000000020000000000000000408FC0000000C003001CC0000000605D6B3340000000E0FF3F8F400000000005001CC0000000605D6B33400C000000
310
13000000AA0000003C0000000600000002000000000000E0FF3F8F400000000005001CC0000000605D6B3340000000E0FF3F8F4000000040F45C1BC0000000E07A7432400C00000013000000B20000003C00000006000000020000000000000000408FC0000000A003001CC0000000C03A873E400000000000408FC0000000
310
C003001CC0000000605D6B33400C00000013000000BA0000003C00000006000000020000000000000000408FC0000000A003001CC0000000C03A873E40000000E0FF3F8F40000000E004001CC0000000C03A873E400C00000013000000C20000003C0000000600000002000000000000E0FF3F8F40000000E004001CC00000
310
00C03A873E40000000E0FF3F8F400000000005001CC0000000605D6B33400C00000013000000CA0000003C00000006000000020000000000000000408FC000000000F35C1BC0000000401D7E3F400000000000408FC0000000A003001CC0000000C03A873E400C00000013000000D20000003C000000060000000200000000
310
00000000408FC000000000F35C1BC0000000401D7E3F40000000E0FF3F8F4000000060F45C1BC0000000401D7E3F400C00000013000000DA0000003C0000000600000002000000000000E0FF3F8F40000000E004001CC0000000C03A873E40000000E0FF3F8F4000000060F45C1BC0000000401D7E3F400C00000013000000
310
E20000003C00000006000000020000000000000000408FC0000000402F8519C000000000612D40400000000000408FC000000000F35C1BC0000000401D7E3F400C00000013000000EA0000003C00000006000000020000000000000000408FC0000000402F8519C000000000612D4040000000E0FF3F8F4000000080308519
310
C000000000612D40400C00000013000000F20000003C0000000600000002000000000000E0FF3F8F4000000080308519C000000000612D4040000000E0FF3F8F4000000060F45C1BC0000000401D7E3F400C00000013000000FA0000003C00000006000000020000000000000000408FC0000000C0C9AA16C0000000C0E482
310
40400000000000408FC0000000402F8519C000000000612D40400C00000013000000020100003C00000006000000020000000000000000408FC0000000C0C9AA16C0000000C0E4824040000000E0FF3F8F4000000040CBAA16C0000000C0E48240400C000000130000000A0100003C0000000600000002000000000000E0FF
310
3F8F4000000040CBAA16C0000000C0E4824040000000E0FF3F8F4000000080308519C000000000612D40400C00000013000000120100003C00000006000000020000000000000000408FC0000000401B1B13C00000000088B640400000000000408FC0000000C0C9AA16C0000000C0E48240400C000000130000001A010000
310
3C00000006000000020000000000000000408FC0000000401B1B13C00000000088B64040000000E0FF3F8F40000000801C1B13C00000000088B640400C00000013000000220100003C0000000600000002000000000000E0FF3F8F40000000801C1B13C00000000088B64040000000E0FF3F8F4000000040CBAA16C0000000
310
C0E48240400C000000130000002A0100003C00000006000000020000000000000000408FC0000000000000FABE000000005A5A41400000000000408FC0000000401B1B13C00000000088B640400C00000013000000320100003C00000006000000020000000000000000408FC0000000000000FABE000000005A5A41400000
310
00E0FF3F8F40000000000000F0BE000000005A5A41400C000000130000003A0100003C0000000600000002000000000000E0FF3F8F40000000000000F0BE000000005A5A4140000000E0FF3F8F40000000801C1B13C00000000088B640400C00000013000000420100003C00000006000000020000000000000000408FC000
310
0000000000FBBE000000004CF948400000000000408FC0000000000000FABE000000005A5A41400C000000130000004A0100003C00000006000000020000000000000000408FC0000000000000FBBE000000004CF94840000000E0FF3F8F40000000000000F0BE000000004CF948400C00000013000000520100003C000000
310
0600000002000000000000E0FF3F8F40000000000000F0BE000000005A5A4140000000E0FF3F8F40000000000000F0BE000000004CF948400C000000130000005A0100003C00000006000000020000000000000000408FC0000000C0009810C00000008064EB48400000000000408FC0000000000000FBBE000000004CF948
310
400C00000013000000620100003C00000006000000020000000000000000408FC0000000C0009810C00000008064EB4840000000E0FF3F8F4000000000029810C00000008064EB48400C000000130000006A0100003C0000000600000002000000000000E0FF3F8F4000000000029810C00000008064EB4840000000E0FF3F
310
8F40000000000000F0BE000000004CF948400C00000013000000720100003C00000006000000020000000000000000408FC000000040698A13C00000000005E048400000000000408FC0000000C0009810C00000008064EB48400C000000130000007A0100003C00000006000000020000000000000000408FC00000004069
310
8A13C00000000005E04840000000E0FF3F8F40000000806A8A13C00000000005E048400C00000013000000820100003C0000000600000002000000000000E0FF3F8F40000000806A8A13C00000000005E04840000000E0FF3F8F4000000000029810C00000008064EB48400C000000130000008A0100003C00000006000000
310
020000000000000000408FC000000080745E16C0000000C042C348400000000000408FC000000040698A13C00000000005E048400C00000013000000920100003C00000006000000020000000000000000408FC000000080745E16C0000000C042C34840000000E0FF3F8F40000000C0755E16C0000000C042C348400C0000
310
00130000009A0100003C0000000600000002000000000000E0FF3F8F40000000C0755E16C0000000C042C34840000000E0FF3F8F40000000806A8A13C00000000005E048400C00000013000000A20100003C00000006000000020000000000000000408FC0000000C0E1FA18C000000080209648400000000000408FC00000
310
0080745E16C0000000C042C348400C00000013000000AA0100003C00000006000000020000000000000000408FC0000000C0E1FA18C00000008020964840000000E0FF3F8F4000000000E3FA18C000000080209648400C00000013000000B20100003C0000000600000002000000000000E0FF3F8F4000000000E3FA18C000
310
00008020964840000000E0FF3F8F40000000C0755E16C0000000C042C348400C00000013000000BA0100003C00000006000000020000000000000000408FC00000002057481BC0000000802F5A48400000000000408FC0000000C0E1FA18C000000080209648400C00000013000000C20100003C0000000600000002000000
310
0000000000408FC00000002057481BC0000000802F5A4840000000E0FF3F8F400000006058481BC0000000802F5A48400C00000013000000CA0100003C0000000600000002000000000000E0FF3F8F400000006058481BC0000000802F5A4840000000E0FF3F8F4000000000E3FA18C000000080209648400C000000130000
310
00D20100003C00000006000000020000000000000000408FC0000000C0F9311DC0000000808C1148400000000000408FC00000002057481BC0000000802F5A48400C00000013000000DA0100003C00000006000000020000000000000000408FC0000000C0F9311DC0000000808C114840000000E0FF3F8F4000000000FB31
310
1DC0000000808C1148400C00000013000000E20100003C0000000600000002000000000000E0FF3F8F4000000000FB311DC0000000808C114840000000E0FF3F8F400000006058481BC0000000802F5A48400C00000013000000EA0100003C00000006000000020000000000000000408FC0000000C089A61EC000000080C9
310
BE47400000000000408FC0000000C0F9311DC0000000808C1148400C00000013000000F20100003C00000006000000020000000000000000408FC0000000C089A61EC000000080C9BE4740000000E0FF3F8F40000000008BA61EC000000080C9BE47400C00000013000000FA0100003C0000000600000002000000000000E0
310
FF3F8F40000000008BA61EC000000080C9BE4740000000E0FF3F8F4000000000FB311DC0000000808C1148400C00000013000000020200003C00000006000000020000000000000000408FC00000002013991FC0000000C0CA6447400000000000408FC0000000C089A61EC000000080C9BE47400C000000130000000A0200
310
003C00000006000000020000000000000000408FC00000002013991FC0000000C0CA644740000000E0FF3F8F400000004014991FC0000000C0CA6447400C00000013000000120200003C0000000600000002000000000000E0FF3F8F400000004014991FC0000000C0CA644740000000E0FF3F8F40000000008BA61EC00000
310
0080C9BE47400C000000130000001A0200003C00000006000000020000000000000000408FC0000000E0890020C000000080B30647400000000000408FC00000002013991FC0000000C0CA6447400C00000013000000220200003C00000006000000020000000000000000408FC0000000E0890020C000000080B306474000
310
0000E0FF3F8F40000000008A0020C000000080B30647400C000000130000002A0200003C0000000600000002000000000000E0FF3F8F40000000008A0020C000000080B3064740000000E0FF3F8F400000004014991FC0000000C0CA6447400C00000013000000320200003C00000006000000020000000000000000408FC0
310
00000060030026C000000040A6FC46400000000000408FC0000000E0890020C000000080B30647400C000000130000003A0200003C00000006000000020000000000000000408FC000000060030026C000000040A6FC4640000000E0FF3F8F4000000000020026C000000040A6FC46400C00000013000000420200003C0000
310
000600000002000000000000E0FF3F8F40000000008A0020C000000080B3064740000000E0FF3F8F4000000000020026C000000040A6FC46400C000000130000004A0200003C00000006000000020000000000000000408FC000000060030026C000000040A6FC46400000000000408FC000000040B59926C0000000E00D0A
310
46400C00000013000000520200003C00000006000000020000000000000000408FC000000040B59926C0000000E00D0A4640000000E0FF3F8F4000000000B49926C0000000E00D0A46400C000000130000005A0200003C0000000600000002000000000000E0FF3F8F4000000000B49926C0000000E00D0A4640000000E0FF
310
3F8F4000000000020026C000000040A6FC46400C00000013000000620200003C00000006000000020000000000000000408FC0000000003B5027C0000000409E7D45400000000000408FC0000000A0908628C0000000005AE544400C000000130000006A0200003C00000006000000020000000000000000408FC0000000A0
310
908628C0000000005AE54440000000E0FF3F8F40000000408F8628C0000000005AE544400C00000013000000720200003C0000000600000002000000000000E0FF3F8F40000000408F8628C0000000005AE54440000000E0FF3F8F40000000C0395027C0000000409E7D45400C000000130000007A0200003C000000060000
310
00020000000000000000408FC0000000003B5027C0000000409E7D4540000000E0FF3F8F40000000C0395027C0000000409E7D45400C00000013000000820200003C00000006000000020000000000000000408FC000000000BEE129C0000000A0E36D44400000000000408FC000000020F9C42BC0000000E014F543400C00
310
0000130000008A0200003C00000006000000020000000000000000408FC000000020F9C42BC0000000E014F54340000000E0FF3F8F4000000000F9C42BC0000000C014F543400C00000013000000920200003C0000000600000002000000000000E0FF3F8F4000000000F9C42BC0000000C014F54340000000E0FF3F8F4000
310
0000E0BCE129C0000000C0E36D44400C000000130000009A0200003C00000006000000020000000000000000408FC000000000BEE129C0000000A0E36D4440000000E0FF3F8F40000000E0BCE129C0000000C0E36D44400C00000013000000A20200003C00000006000000020000000000000000408FC000000040D2A22DC0
310
00000080499E43400000000000408FC0000000C0F10130C000000000B45043400C00000013000000AA0200003C00000006000000020000000000000000408FC0000000C0F10130C000000000B45043400000000000408F40000000C0F10130C000000000B45043400C00000013000000B20200003C00000006000000020000
310
000000000000408F40000000C0F10130C000000000B45043400000000000408F4000000040D2A22DC000000080499E43400C00000013000000BA0200003C00000006000000020000000000000000408FC000000040D2A22DC000000080499E43400000000000408F4000000040D2A22DC000000080499E43400C0000001300
310
0000C20200003C0000000600000002000000000000E0FF3F8FC0000000C0010033C000000040A6FC4240000000E0FF3F8FC000000020D11A31C0000000A0122343400C00000013000000CA0200003C0000000600000002000000000000E0FF3F8FC0000000C0010033C000000040A6FC42400000000000408F40000000C001
310
0033C000000040A6FC42400C00000013000000D20200003C00000006000000020000000000000000408F4000000000D11A31C0000000A0122343400000000000408F40000000C0010033C000000040A6FC42400C00000013000000DA0200003C0000000600000002000000000000E0FF3F8FC000000020D11A31C0000000A0
310
122343400000000000408F4000000000D11A31C0000000A0122343400C00000013000000E20200003C0000000600000002000000000000E0FF3F8FC0000000C0010033C000000040A6FC4240000000E0FF3F8FC0000000C0010033C000000040A67C41400C00000013000000EA0200003C0000000600000002000000000000
310
E0FF3F8FC0000000C0010033C000000040A67C41400000000000408F40000000C0010033C000000040A67C41400C00000013000000F20200003C00000006000000020000000000000000408F40000000C0010033C000000040A67C41400000000000408F40000000C0010033C000000040A6FC42400C00000013000000FA02
310
00003C0000000600000002000000000000E0FF3F8FC0000000C0010033C000000040A67C4140000000E0FF3F8FC0000000404C1C35C000000020CF5541400C00000013000000020300003C0000000600000002000000000000E0FF3F8FC0000000404C1C35C000000020CF5541400000000000408F40000000204B1C35C000
310
000020CF5541400C000000130000000A0300003C00000006000000020000000000000000408F40000000C0010033C000000040A67C41400000000000408F40000000204B1C35C000000020CF5541400C00000013000000120300003C0000000600000002000000000000E0FF3F8FC0000000C07C7736C000000060D6224140
310
000000E0FF3F8FC000000000CAC137C0000000606AD740400C000000130000001A0300003C0000000600000002000000000000E0FF3F8FC000000000CAC137C0000000606AD740400000000000408F40000000E0C8C137C0000000606AD740400C00000013000000220300003C00000006000000020000000000000000408F
310
40000000E0C8C137C0000000606AD740400000000000408F40000000A07B7736C000000060D62241400C000000130000002A0300003C0000000600000002000000000000E0FF3F8FC0000000C07C7736C000000060D62241400000000000408F40000000A07B7736C000000060D62241400C00000013000000320300003C00
310
00000600000002000000000000E0FF3F8FC00000008031F238C0000000E099754040000000E0FF3F8FC0000000C09B043AC0000000006BFD3F400C000000130000003A0300003C0000000600000002000000000000E0FF3F8FC0000000C09B043AC0000000006BFD3F400000000000408F40000000A09A043AC0000000006B
310
FD3F400C00000013000000420300003C00000006000000020000000000000000408F40000000A09A043AC0000000006BFD3F400000000000408F400000006030F238C0000000E0997540400C000000130000004A0300003C0000000600000002000000000000E0FF3F8FC00000008031F238C0000000E09975404000000000
310
00408F400000006030F238C0000000E0997540400C00000013000000520300003C00000006000000020000000000000000408FC00000000091F13AC000000080F3EB3E400000000000408FC0000000C0D6B53BC0000000408BBA3D400C000000130000005A0300003C00000006000000020000000000000000408FC0000000
310
C0D6B53BC0000000408BBA3D400000000000408F40000000C0D5B53BC0000000408BBA3D400C00000013000000620300003C00000006000000020000000000000000408F40000000C0D5B53BC0000000408BBA3D400000000000408F400000000090F13AC000000080F3EB3E400C000000130000006A0300003C0000000600
310
0000020000000000000000408FC00000000091F13AC000000080F3EB3E400000000000408F400000000090F13AC000000080F3EB3E400C00000013000000720300003C00000006000000020000000000000000408FC0000000E0274C3CC00000006065713C400000000000408FC00000002073B23CC00000002005153B400C
310
000000130000007A0300003C00000006000000020000000000000000408FC00000002073B23CC00000002005153B40000000E0FF3F8F400000004072B23CC00000002005153B400C00000013000000820300003C0000000600000002000000000000E0FF3F8F400000004072B23CC00000002005153B40000000E0FF3F8F40
310
00000000274C3CC00000006065713C400C000000130000008A0300003C00000006000000020000000000000000408FC0000000E0274C3CC00000006065713C40000000E0FF3F8F4000000000274C3CC00000006065713C400C00000013000000920300003C00000006000000020000000000000000408FC000000060F2E53C
310
C000000020DBAE39400000000000408FC000000060F2E53CC0000000A0BC4338400C000000130000009A0300003C00000006000000020000000000000000408FC000000060F2E53CC0000000A0BC433840000000E0FF3F8F4000000080F1E53CC0000000A0BC4338400C00000013000000A20300003C000000060000000200
310
0000000000E0FF3F8F4000000080F1E53CC0000000A0BC433840000000E0FF3F8F4000000080F1E53CC000000020DBAE39400C00000013000000AA0300003C00000006000000020000000000000000408FC000000060F2E53CC000000020DBAE3940000000E0FF3F8F4000000080F1E53CC000000020DBAE39400C00000013
310
000000B20300003C00000006000000020000000000000000408FC00000002073B23CC0000000A092DD36400000000000408FC0000000E0274C3CC000000020328135400C00000013000000BA0300003C00000006000000020000000000000000408FC0000000E0274C3CC00000002032813540000000E0FF3F8F4000000000
310
274C3CC000000000328135400C00000013000000C20300003C0000000600000002000000000000E0FF3F8F4000000000274C3CC00000000032813540000000E0FF3F8F400000004072B23CC0000000A092DD36400C00000013000000CA0300003C00000006000000020000000000000000408FC00000002073B23CC0000000
310
A092DD3640000000E0FF3F8F400000004072B23CC0000000A092DD36400C00000013000000D20300003C00000006000000020000000000000000408FC0000000A0D6B53BC0000000400C3834400000000000408FC00000002091F13AC000000040A40633400C00000013000000DA0300003C00000006000000020000000000
310
000000408FC00000002091F13AC000000040A40633400000000000408F400000000090F13AC000000020A40633400C00000013000000E20300003C00000006000000020000000000000000408F400000000090F13AC000000020A40633400000000000408F40000000C0D5B53BC0000000400C3834400C00000013000000EA
310
0300003C00000006000000020000000000000000408FC0000000A0D6B53BC0000000400C3834400000000000408F40000000C0D5B53BC0000000400C3834400C00000013000000F20300003C0000000600000002000000000000E0FF3F8FC0000000A09B043AC0000000C02CF53140000000E0FF3F8FC00000006031F238C0
310
00000040640731400C00000013000000FA0300003C0000000600000002000000000000E0FF3F8FC00000006031F238C000000040640731400000000000408F400000004030F238C000000020640731400C00000013000000020400003C00000006000000020000000000000000408F400000004030F238C000000020640731
310
400000000000408F40000000809A043AC0000000C02CF531400C000000130000000A0400003C0000000600000002000000000000E0FF3F8FC0000000A09B043AC0000000C02CF531400000000000408F40000000809A043AC0000000C02CF531400C00000013000000120400003C0000000600000002000000000000E0FF3F
310
8FC0000000A0C9C137C000000020C3433040000000E0FF3F8FC0000000A07C7736C0000000E0D6592F400C000000130000001A0400003C0000000600000002000000000000E0FF3F8FC0000000A07C7736C0000000E0D6592F400000000000408F40000000807B7736C0000000E0D6592F400C00000013000000220400003C
310
00000006000000020000000000000000408F40000000807B7736C0000000E0D6592F400000000000408F4000000080C8C137C000000000C34330400C000000130000002A0400003C0000000600000002000000000000E0FF3F8FC0000000A0C9C137C000000020C34330400000000000408F4000000080C8C137C000000000
310
C34330400C00000013000000320400003C0000000600000002000000000000E0FF3F8FC0000000C0010033C0000000E097F22D40000000E0FF3F8FC0000000E04B1C35C000000020F48D2E400C000000130000003A0400003C0000000600000002000000000000E0FF3F8FC0000000C0010033C0000000E097F22D40000000
310
0000408F40000000C0010033C0000000E097F22D400C00000013000000420400003C00000006000000020000000000000000408F40000000C0010033C0000000E097F22D400000000000408F40000000C04A1C35C000000000F48D2E400C000000130000004A0400003C0000000600000002000000000000E0FF3F8FC00000
310
00E04B1C35C000000020F48D2E400000000000408F40000000C04A1C35C000000000F48D2E400C00000013000000520400003C0000000600000002000000000000E0FF3F8FC0000000C0010033C0000000E097F22740000000E0FF3F8FC0000000C0010033C0000000E097F22D400C000000130000005A0400003C00000006
310
00000002000000000000E0FF3F8FC0000000C0010033C0000000E097F227400000000000408F40000000A0010033C0000000E097F227400C00000013000000620400003C00000006000000020000000000000000408F40000000A0010033C0000000E097F227400000000000408F40000000C0010033C0000000E097F22D40
310
0C000000130000006A0400003C0000000600000002000000000000E0FF3F8FC0000000C0010033C0000000E097F22740000000E0FF3F8FC0000000E0D01A31C000000000E65827400C00000013000000720400003C0000000600000002000000000000E0FF3F8FC0000000E0D01A31C000000000E65827400000000000408F
310
40000000C0D01A31C000000000E65827400C000000130000007A0400003C00000006000000020000000000000000408F40000000C0D01A31C000000000E65827400000000000408F40000000A0010033C0000000E097F227400C00000013000000820400003C00000006000000020000000000000000408FC0000000A0F101
310
30C00000004060A226400000000000408FC000000020D2A22DC0000000800A6C25400C000000130000008A0400003C00000006000000020000000000000000408FC000000020D2A22DC0000000800A6C25400000000000408F4000000020D2A22DC0000000800A6C25400C00000013000000920400003C0000000600000002
310
0000000000000000408F4000000080F10130C00000004060A226400000000000408F4000000020D2A22DC0000000800A6C25400C000000130000009A0400003C00000006000000020000000000000000408FC0000000A0F10130C00000004060A226400000000000408F4000000080F10130C00000004060A226400C000000
310
13000000A20400003C00000006000000020000000000000000408FC0000000E0F8C42BC000000020DD1024400000000000408FC0000000E0BDE129C0000000E0A12D22400C00000013000000AA0400003C00000006000000020000000000000000408FC0000000E0BDE129C0000000E0A12D2240000000E0FF3F8F40000000
310
C0BCE129C0000000C0A12D22400C00000013000000B20400003C0000000600000002000000000000E0FF3F8F40000000C0F8C42BC000000040DD102440000000E0FF3F8F40000000C0BCE129C0000000C0A12D22400C00000013000000BA0400003C00000006000000020000000000000000408FC0000000E0F8C42BC00000
310
0020DD102440000000E0FF3F8F40000000C0F8C42BC000000040DD1024400C00000013000000C20400003C00000006000000020000000000000000408FC000000060908628C0000000C0C84F20400000000000408FC0000000C03A5027C00000000070DD1B400C00000013000000CA0400003C000000060000000200000000
310
00000000408FC0000000C03A5027C00000000070DD1B40000000E0FF3F8F4000000080395027C00000000070DD1B400C00000013000000D20400003C0000000600000002000000000000E0FF3F8F40000000008F8628C000000080C84F2040000000E0FF3F8F4000000080395027C00000000070DD1B400C00000013000000
310
DA0400003C00000006000000020000000000000000408FC000000060908628C0000000C0C84F2040000000E0FF3F8F40000000008F8628C000000080C84F20400C00000013000000E20400003C00000006000000020000000000000000408FC000000020030026C00000000060CA0F400000000000408FC000000000B59926
310
C000000080F27917400C00000013000000EA0400003C00000006000000020000000000000000408FC000000020030026C00000000060CA0F40000000E0FF3F8F40000000C0010026C00000000060CA0F400C00000013000000F20400003C0000000600000002000000000000E0FF3F8F40000000C0B39926C000000080F279
310
1740000000E0FF3F8F40000000C0010026C00000000060CA0F400C00000013000000FA0400003C00000006000000020000000000000000408FC000000000B59926C000000080F2791740000000E0FF3F8F40000000C0B39926C000000080F27917400C00000013000000020500003C00000006000000020000000000000000
310
408FC0000000A0890020C0000000008B290F400000000000408FC000000020030026C00000000060CA0F400C000000130000000A0500003C00000006000000020000000000000000408FC0000000A0890020C0000000008B290F40000000E0FF3F8F40000000C0890020C0000000008B290F400C0000001300000012050000
310
3C0000000600000002000000000000E0FF3F8F40000000C0890020C0000000008B290F40000000E0FF3F8F40000000C0010026C00000000060CA0F400C000000130000001A0500003C00000006000000020000000000000000408FC0000000A012991FC000000000184809400000000000408FC0000000A0890020C0000000
310
008B290F400C00000013000000220500003C00000006000000020000000000000000408FC0000000A012991FC00000000018480940000000E0FF3F8F40000000C013991FC000000000184809400C000000130000002A0500003C0000000600000002000000000000E0FF3F8F40000000C013991FC000000000184809400000
310
00E0FF3F8F40000000C0890020C0000000008B290F400C00000013000000320500003C00000006000000020000000000000000408FC00000004089A61EC0000000002AA803400000000000408FC0000000A012991FC000000000184809400C000000130000003A0500003C00000006000000020000000000000000408FC000
310
00004089A61EC0000000002AA80340000000E0FF3F8F40000000808AA61EC0000000002AA803400C00000013000000420500003C0000000600000002000000000000E0FF3F8F40000000C013991FC00000000018480940000000E0FF3F8F40000000808AA61EC0000000002AA803400C000000130000004A0500003C000000
310
06000000020000000000000000408FC000000040F9311DC000000000F8F7FC3F0000000000408FC00000004089A61EC0000000002AA803400C00000013000000520500003C00000006000000020000000000000000408FC000000040F9311DC000000000F8F7FC3F000000E0FF3F8F4000000080FA311DC000000000F8F7FC
310
3F0C000000130000005A0500003C0000000600000002000000000000E0FF3F8F4000000080FA311DC000000000F8F7FC3F000000E0FF3F8F40000000808AA61EC0000000002AA803400C00000013000000620500003C00000006000000020000000000000000408FC00000008056481BC00000000098E3F33F000000000040
310
8FC000000040F9311DC000000000F8F7FC3F0C000000130000006A0500003C00000006000000020000000000000000408FC00000008056481BC00000000098E3F33F000000E0FF3F8F40000000C057481BC00000000098E3F33F0C00000013000000720500003C0000000600000002000000000000E0FF3F8F4000000080FA
310
311DC000000000F8F7FC3F000000E0FF3F8F40000000C057481BC00000000098E3F33F0C000000130000007A0500003C00000006000000020000000000000000408FC000000020E1FA18C000000000F0CAE83F0000000000408FC00000008056481BC00000000098E3F33F0C00000013000000820500003C00000006000000
310
020000000000000000408FC000000020E1FA18C000000000F0CAE83F000000E0FF3F8F4000000080E2FA18C000000000F0CAE83F0C000000130000008A0500003C0000000600000002000000000000E0FF3F8F4000000080E2FA18C000000000F0CAE83F000000E0FF3F8F40000000C057481BC00000000098E3F33F0C0000
310
0013000000920500003C00000006000000020000000000000000408FC0000000C0735E16C000000000B004DB3F0000000000408FC000000020E1FA18C000000000F0CAE83F0C000000130000009A0500003C00000006000000020000000000000000408FC0000000C0735E16C000000000B004DB3F000000E0FF3F8F400000
310
0000755E16C000000000B004DB3F0C00000013000000A20500003C0000000600000002000000000000E0FF3F8F4000000080E2FA18C000000000F0CAE83F000000E0FF3F8F4000000000755E16C000000000B004DB3F0C00000013000000AA0500003C00000006000000020000000000000000408FC000000080688A13C000
310
0000002047C93F0000000000408FC0000000C0735E16C000000000B004DB3F0C00000013000000B20500003C00000006000000020000000000000000408FC000000080688A13C0000000002047C93F000000E0FF3F8F40000000C0698A13C0000000002047C93F0C00000013000000BA0500003C0000000600000002000000
310
000000E0FF3F8F40000000C0698A13C0000000002047C93F000000E0FF3F8F4000000000755E16C000000000B004DB3F0C00000013000000C20500003C00000006000000020000000000000000408FC000000040009810C00000000040CFBB3F0000000000408FC000000080688A13C0000000002047C93F0C000000130000
310
00CA0500003C0000000600000002000000000000E0FF3F8F40000000C0698A13C0000000002047C93F000000E0FF3F8F4000000080019810C00000000040CFBB3F0C00000013000000D20500003C00000006000000020000000000000000408FC0000000003B5027C0000000409E7D45400000000000408FC000000040B599
310
26C0000000E00D0A46400C00000013000000DA0500003C0000000600000002000000000000E0FF3F8F4000000000B49926C0000000E00D0A4640000000E0FF3F8F40000000C0395027C0000000409E7D45400C00000013000000E20500003C00000006000000020000000000000000408FC000000000BEE129C0000000A0E3
310
6D44400000000000408FC0000000A0908628C0000000005AE544400C00000013000000EA0500003C0000000600000002000000000000E0FF3F8F40000000408F8628C0000000005AE54440000000E0FF3F8F40000000E0BCE129C0000000C0E36D44400C00000013000000F20500003C000000060000000200000000000000
310
00408FC000000040D2A22DC000000080499E43400000000000408FC000000020F9C42BC0000000E014F543400C00000013000000FA0500003C0000000600000002000000000000E0FF3F8F4000000000F9C42BC0000000C014F543400000000000408F4000000040D2A22DC000000080499E43400C00000013000000020600
310
003C0000000600000002000000000000E0FF3F8FC000000020D11A31C0000000A0122343400000000000408FC0000000C0F10130C000000000B45043400C000000130000000A0600003C00000006000000020000000000000000408F4000000000D11A31C0000000A0122343400000000000408F40000000C0F10130C00000
310
0000B45043400C00000013000000120600003C00000006000000020000000000000000408FC0000000A0F10130C00000004060A22640000000E0FF3F8FC0000000E0D01A31C000000000E65827400C000000130000001A0600003C00000006000000020000000000000000408F40000000C0D01A31C000000000E658274000
310
00000000408F4000000080F10130C00000004060A226400C00000013000000220600003C00000006000000020000000000000000408FC0000000E0F8C42BC000000020DD1024400000000000408FC000000020D2A22DC0000000800A6C25400C000000130000002A0600003C0000000600000002000000000000E0FF3F8F40
310
000000C0F8C42BC000000040DD1024400000000000408F4000000020D2A22DC0000000800A6C25400C00000013000000320600003C00000006000000020000000000000000408FC000000060908628C0000000C0C84F20400000000000408FC0000000E0BDE129C0000000E0A12D22400C000000130000003A0600003C0000
310
000600000002000000000000E0FF3F8F40000000008F8628C000000080C84F2040000000E0FF3F8F40000000C0BCE129C0000000C0A12D22400C00000013000000420600003C00000006000000020000000000000000408FC000000000B59926C000000080F27917400000000000408FC0000000C03A5027C00000000070DD
310
1B400C000000130000004A0600003C0000000600000002000000000000E0FF3F8F40000000C0B39926C000000080F2791740000000E0FF3F8F4000000080395027C00000000070DD1B400C00000013000000520600003C0000000600000002000000000000E0FF3F8FC0000000C07C7736C000000060D6224140000000E0FF
310
3F8FC0000000404C1C35C000000020CF5541400C000000130000005A0600003C00000006000000020000000000000000408F40000000204B1C35C000000020CF5541400000000000408F40000000A07B7736C000000060D62241400C00000013000000620600003C0000000600000002000000000000E0FF3F8FC000000080
310
31F238C0000000E099754040000000E0FF3F8FC000000000CAC137C0000000606AD740400C000000130000006A0600003C00000006000000020000000000000000408F40000000E0C8C137C0000000606AD740400000000000408F400000006030F238C0000000E0997540400C00000013000000720600003C000000060000
310
00020000000000000000408FC00000000091F13AC000000080F3EB3E40000000E0FF3F8FC0000000C09B043AC0000000006BFD3F400C000000130000007A0600003C00000006000000020000000000000000408F40000000A09A043AC0000000006BFD3F400000000000408F400000000090F13AC000000080F3EB3E400C00
310
000013000000820600003C00000006000000020000000000000000408FC0000000E0274C3CC00000006065713C400000000000408FC0000000C0D6B53BC0000000408BBA3D400C000000130000008A0600003C00000006000000020000000000000000408F40000000C0D5B53BC0000000408BBA3D40000000E0FF3F8F4000
310
000000274C3CC00000006065713C400C00000013000000920600003C00000006000000020000000000000000408FC000000060F2E53CC000000020DBAE39400000000000408FC00000002073B23CC00000002005153B400C000000130000009A0600003C0000000600000002000000000000E0FF3F8F400000004072B23CC0
310
0000002005153B40000000E0FF3F8F4000000080F1E53CC000000020DBAE39400C00000013000000A20600003C00000006000000020000000000000000408FC00000002073B23CC0000000A092DD36400000000000408FC000000060F2E53CC0000000A0BC4338400C00000013000000AA0600003C00000006000000020000
310
00000000E0FF3F8F400000004072B23CC0000000A092DD3640000000E0FF3F8F4000000080F1E53CC0000000A0BC4338400C00000013000000B20600003C00000006000000020000000000000000408FC0000000A0D6B53BC0000000400C3834400000000000408FC0000000E0274C3CC000000020328135400C0000001300
310
0000BA0600003C00000006000000020000000000000000408F40000000C0D5B53BC0000000400C383440000000E0FF3F8F4000000000274C3CC000000000328135400C00000013000000C20600003C0000000600000002000000000000E0FF3F8FC0000000A09B043AC0000000C02CF531400000000000408FC00000002091
310
F13AC000000040A40633400C00000013000000CA0600003C00000006000000020000000000000000408F40000000809A043AC0000000C02CF531400000000000408F400000000090F13AC000000020A40633400C00000013000000D20600003C0000000600000002000000000000E0FF3F8FC0000000A0C9C137C000000020
310
C3433040000000E0FF3F8FC00000006031F238C000000040640731400C00000013000000DA0600003C00000006000000020000000000000000408F4000000080C8C137C000000000C34330400000000000408F400000004030F238C000000020640731400C00000013000000E20600003C0000000600000002000000000000
310
E0FF3F8FC0000000E04B1C35C000000020F48D2E40000000E0FF3F8FC0000000A07C7736C0000000E0D6592F400C00000013000000EA0600003C00000006000000020000000000000000408F40000000C04A1C35C000000000F48D2E400000000000408F40000000807B7736C0000000E0D6592F400C00000013000000F206
310
00003C0000000600000002000000000000E0FF3F8FC000000020D11A31C0000000A0122343400000000000408FC0000000A003001CC0000000C03A873E400C00000013000000FA0600003C00000006000000020000000000000000408FC0000000A003001CC0000000C03A873E40000000E0FF3F8FC0000000C0010033C000
310
000040A67C41400C00000013000000020700003C00000006000000020000000000000000408FC00000002013991FC0000000C0CA6447400000000000408FC0000000000000FABE000000005A5A41400C000000130000000A0700003C00000006000000020000000000000000408FC0000000E0890020C000000080B3064740
310
0000000000408FC0000000000000FABE000000005A5A41400C00000013000000120700003C00000006000000020000000000000000408FC0000000C0F9311DC0000000808C1148400000000000408FC0000000000000FABE000000005A5A41400C000000130000001A0700003C00000006000000020000000000000000408F
310
C0000000C089A61EC000000080C9BE47400000000000408FC0000000000000FABE000000005A5A41400C00000013000000220700003C00000006000000020000000000000000408FC00000002057481BC0000000802F5A48400000000000408FC0000000000000FABE000000005A5A41400C000000130000002A0700003C00
310
000006000000020000000000000000408FC0000000C0E1FA18C000000080209648400000000000408FC0000000000000FABE000000005A5A41400C00000013000000320700003C00000006000000020000000000000000408FC000000080745E16C0000000C042C348400000000000408FC0000000000000FABE000000005A
310
5A41400C000000130000003A0700003C00000006000000020000000000000000408FC000000040698A13C00000000005E048400000000000408FC0000000000000FABE000000005A5A41400C00000013000000420700003C00000006000000020000000000000000408FC0000000C0009810C00000008064EB484000000000
310
00408FC0000000000000FABE000000005A5A41400C000000130000004A0700003C00000006000000020000000000000000408FC0000000000000F8BE000000C0C87B2E400000000000408FC0000000A012991FC000000000184809400C00000013000000520700003C00000006000000020000000000000000408FC0000000
310
000000F8BE000000C0C87B2E400000000000408FC0000000A0890020C0000000008B290F400C000000130000005A0700003C00000006000000020000000000000000408FC0000000000000F8BE000000C0C87B2E400000000000408FC000000040F9311DC000000000F8F7FC3F0C00000013000000620700003C0000000600
310
0000020000000000000000408FC0000000000000F8BE000000C0C87B2E400000000000408FC00000004089A61EC0000000002AA803400C000000130000006A0700003C00000006000000020000000000000000408FC0000000000000F8BE000000C0C87B2E400000000000408FC000000020E1FA18C000000000F0CAE83F0C
310
00000013000000720700003C00000006000000020000000000000000408FC0000000000000F8BE000000C0C87B2E400000000000408FC00000008056481BC00000000098E3F33F0C000000130000007A0700003C00000006000000020000000000000000408FC0000000000000F8BE000000C0C87B2E400000000000408FC0
310
00000080688A13C0000000002047C93F0C00000013000000820700003C00000006000000020000000000000000408FC0000000000000F8BE000000C0C87B2E400000000000408FC0000000C0735E16C000000000B004DB3F0C000000130000008A0700003C00000006000000020000000000000000408FC0000000000000F8
310
BE000000C0C87B2E400000000000408FC000000040009810C00000000040CFBB3F0C00000013000000920700003C00000006000000020000000000000000408FC000000060030026C000000040A6FC46400000000000408FC0000000401B1B13C00000000088B640400C000000130000009A0700003C000000060000000200
310
00000000000000408FC0000000401B1B13C00000000088B640400000000000408FC000000040B59926C0000000E00D0A46400C00000013000000A20700003C00000006000000020000000000000000408FC0000000003B5027C0000000409E7D45400000000000408FC0000000C0C9AA16C0000000C0E48240400C00000013
310
000000AA0700003C00000006000000020000000000000000408FC0000000C0C9AA16C0000000C0E48240400000000000408FC0000000A0908628C0000000005AE544400C00000013000000B20700003C00000006000000020000000000000000408FC000000000BEE129C0000000A0E36D44400000000000408FC000000040
310
2F8519C000000000612D40400C00000013000000BA0700003C00000006000000020000000000000000408FC0000000402F8519C000000000612D40400000000000408FC000000020F9C42BC0000000E014F543400C00000013000000C20700003C00000006000000020000000000000000408FC000000040D2A22DC0000000
310
80499E43400000000000408FC000000000F35C1BC0000000401D7E3F400C00000013000000CA0700003C00000006000000020000000000000000408FC000000000F35C1BC0000000401D7E3F400000000000408FC0000000C0F10130C000000000B45043400C00000013000000D20700003C00000006000000020000000000
310
000000408FC0000000A003001CC0000000C03A873E40000000E0FF3F8FC0000000404C1C35C000000020CF5541400C00000013000000DA0700003C00000006000000020000000000000000408FC0000000C003001CC0000000605D6B3340000000E0FF3F8FC0000000E0D01A31C000000000E65827400C00000013000000E2
310
0700003C00000006000000020000000000000000408FC0000000C003001CC0000000605D6B3340000000E0FF3F8FC0000000C0010033C0000000E097F22D400C00000013000000EA0700003C00000006000000020000000000000000408FC000000000F35C1BC0000000E07A7432400000000000408FC0000000A0F10130C0
310
0000004060A226400C00000013000000F20700003C00000006000000020000000000000000408FC0000000402F8519C000000060D69731400000000000408FC0000000E0F8C42BC000000020DD1024400C00000013000000FA0700003C00000006000000020000000000000000408FC000000000F35C1BC0000000E07A7432
310
400000000000408FC000000020D2A22DC0000000800A6C25400C00000013000000020800003C00000006000000020000000000000000408FC0000000C0C9AA16C0000000E0CEEC30400000000000408FC000000060908628C0000000C0C84F20400C000000130000000A0800003C0000000600000002000000000000000040
310
8FC0000000402F8519C000000060D69731400000000000408FC0000000E0BDE129C0000000E0A12D22400C00000013000000120800003C00000006000000020000000000000000408FC0000000401B1B13C000000060888530400000000000408FC000000000B59926C000000080F27917400C000000130000001A0800003C
310
00000006000000020000000000000000408FC0000000C0C9AA16C0000000E0CEEC30400000000000408FC0000000C03A5027C00000000070DD1B400C00000013000000220800003C00000006000000020000000000000000408FC0000000401B1B13C000000060888530400000000000408FC000000020030026C000000000
310
60CA0F400C000000130000002A0800003C00000006000000020000000000000000408FC0000000C003001CC0000000605D6B3340000000E0FF3F8FC0000000E04B1C35C000000020F48D2E400C00000013000000320800003C00000006000000020000000000000000408FC0000000C003001CC0000000605D6B3340000000
310
E0FF3F8FC0000000A07C7736C0000000E0D6592F400C000000130000003A0800003C00000006000000020000000000000000408FC0000000C003001CC0000000605D6B3340000000E0FF3F8FC0000000A0C9C137C000000020C34330400C00000013000000420800003C00000006000000020000000000000000408FC00000
310
00C003001CC0000000605D6B3340000000E0FF3F8FC00000006031F238C000000040640731400C000000130000004A0800003C00000006000000020000000000000000408FC0000000C003001CC0000000605D6B3340000000E0FF3F8FC0000000A09B043AC0000000C02CF531400C00000013000000520800003C00000006
310
000000020000000000000000408FC0000000C003001CC0000000605D6B33400000000000408FC00000002091F13AC000000040A40633400C000000130000005A0800003C00000006000000020000000000000000408FC0000000C003001CC0000000605D6B33400000000000408FC0000000A0D6B53BC0000000400C383440
310
0C00000013000000620800003C00000006000000020000000000000000408FC0000000C003001CC0000000605D6B33400000000000408FC0000000E0274C3CC000000020328135400C000000130000006A0800003C00000006000000020000000000000000408FC0000000C003001CC0000000605D6B33400000000000408F
310
C00000002073B23CC0000000A092DD36400C00000013000000720800003C00000006000000020000000000000000408FC0000000C003001CC0000000605D6B33400000000000408FC000000060F2E53CC0000000A0BC4338400C000000130000007A0800003C00000006000000020000000000000000408FC0000000A00300
310
1CC0000000C03A873E40000000E0FF3F8FC000000000CAC137C0000000606AD740400C00000013000000820800003C00000006000000020000000000000000408FC0000000A003001CC0000000C03A873E40000000E0FF3F8FC0000000C07C7736C000000060D62241400C000000130000008A0800003C0000000600000002
310
0000000000000000408FC0000000A003001CC0000000C03A873E40000000E0FF3F8FC0000000C09B043AC0000000006BFD3F400C00000013000000920800003C00000006000000020000000000000000408FC0000000A003001CC0000000C03A873E40000000E0FF3F8FC00000008031F238C0000000E0997540400C000000
310
130000009A0800003C00000006000000020000000000000000408FC0000000A003001CC0000000C03A873E400000000000408FC0000000C0D6B53BC0000000408BBA3D400C00000013000000A20800003C00000006000000020000000000000000408FC0000000A003001CC0000000C03A873E400000000000408FC0000000
310
0091F13AC000000080F3EB3E400C00000013000000AA0800003C00000006000000020000000000000000408FC0000000A003001CC0000000C03A873E400000000000408FC00000002073B23CC00000002005153B400C00000013000000B20800003C00000006000000020000000000000000408FC0000000A003001CC00000
310
00C03A873E400000000000408FC0000000E0274C3CC00000006065713C400C00000013000000BA0800003C00000006000000020000000000000000408FC0000000A003001CC0000000C03A873E400000000000408FC000000060F2E53CC000000020DBAE39400C00000013000000C20800003C000000060000000200000000
310
0000E0FF3F8F40000000E004001CC0000000C03A873E400000000000408F40000000C0010033C000000040A67C41400C00000013000000CA0800003C00000006000000020000000000000000408F4000000000D11A31C0000000A012234340000000E0FF3F8F40000000E004001CC0000000C03A873E400C00000013000000
310
D20800003C0000000600000002000000000000E0FF3F8F40000000008A0020C000000080B3064740000000E0FF3F8F40000000000000F0BE000000005A5A41400C00000013000000DA0800003C0000000600000002000000000000E0FF3F8F400000004014991FC0000000C0CA644740000000E0FF3F8F40000000000000F0
310
BE000000005A5A41400C00000013000000E20800003C0000000600000002000000000000E0FF3F8F40000000000000F0BE000000005A5A4140000000E0FF3F8F40000000008BA61EC000000080C9BE47400C00000013000000EA0800003C0000000600000002000000000000E0FF3F8F40000000000000F0BE000000005A5A
310
4140000000E0FF3F8F4000000000FB311DC0000000808C1148400C00000013000000F20800003C0000000600000002000000000000E0FF3F8F40000000000000F0BE000000005A5A4140000000E0FF3F8F400000006058481BC0000000802F5A48400C00000013000000FA0800003C0000000600000002000000000000E0FF
310
3F8F40000000000000F0BE000000005A5A4140000000E0FF3F8F4000000000E3FA18C000000080209648400C00000013000000020900003C0000000600000002000000000000E0FF3F8F40000000000000F0BE000000005A5A4140000000E0FF3F8F40000000C0755E16C0000000C042C348400C000000130000000A090000
310
3C0000000600000002000000000000E0FF3F8F40000000000000F0BE000000005A5A4140000000E0FF3F8F40000000806A8A13C00000000005E048400C00000013000000120900003C0000000600000002000000000000E0FF3F8F40000000000000F0BE000000005A5A4140000000E0FF3F8F4000000000029810C0000000
310
8064EB48400C000000130000001A0900003C0000000600000002000000000000E0FF3F8F40000000000000ECBE000000C0C87B2E40000000E0FF3F8F40000000C0890020C0000000008B290F400C00000013000000220900003C0000000600000002000000000000E0FF3F8F40000000000000ECBE000000C0C87B2E400000
310
00E0FF3F8F40000000C013991FC000000000184809400C000000130000002A0900003C0000000600000002000000000000E0FF3F8F40000000000000ECBE000000C0C87B2E40000000E0FF3F8F40000000808AA61EC0000000002AA803400C00000013000000320900003C0000000600000002000000000000E0FF3F8F4000
310
0000000000ECBE000000C0C87B2E40000000E0FF3F8F4000000080FA311DC000000000F8F7FC3F0C000000130000003A0900003C0000000600000002000000000000E0FF3F8F40000000000000ECBE000000C0C87B2E40000000E0FF3F8F40000000C057481BC00000000098E3F33F0C00000013000000420900003C000000
310
0600000002000000000000E0FF3F8F40000000000000ECBE000000C0C87B2E40000000E0FF3F8F4000000080E2FA18C000000000F0CAE83F0C000000130000004A0900003C0000000600000002000000000000E0FF3F8F40000000000000ECBE000000C0C87B2E40000000E0FF3F8F4000000000755E16C000000000B004DB
310
3F0C00000013000000520900003C0000000600000002000000000000E0FF3F8F40000000000000ECBE000000C0C87B2E40000000E0FF3F8F40000000C0698A13C0000000002047C93F0C000000130000005A0900003C0000000600000002000000000000E0FF3F8F40000000000000ECBE000000C0C87B2E40000000E0FF3F
310
8F4000000080019810C00000000040CFBB3F0C00000013000000620900003C0000000600000002000000000000E0FF3F8F4000000000B49926C0000000E00D0A4640000000E0FF3F8F40000000801C1B13C00000000088B640400C000000130000006A0900003C0000000600000002000000000000E0FF3F8F400000000002
310
0026C000000040A6FC4640000000E0FF3F8F40000000801C1B13C00000000088B640400C00000013000000720900003C0000000600000002000000000000E0FF3F8F40000000408F8628C0000000005AE54440000000E0FF3F8F4000000040CBAA16C0000000C0E48240400C000000130000007A0900003C00000006000000
310
02000000000000E0FF3F8F40000000C0395027C0000000409E7D4540000000E0FF3F8F4000000040CBAA16C0000000C0E48240400C00000013000000820900003C0000000600000002000000000000E0FF3F8F4000000000F9C42BC0000000C014F54340000000E0FF3F8F4000000080308519C000000000612D40400C0000
310
00130000008A0900003C0000000600000002000000000000E0FF3F8F40000000E0BCE129C0000000C0E36D4440000000E0FF3F8F4000000080308519C000000000612D40400C00000013000000920900003C00000006000000020000000000000000408F40000000C0F10130C000000000B4504340000000E0FF3F8F400000
310
0060F45C1BC0000000401D7E3F400C000000130000009A0900003C00000006000000020000000000000000408F4000000040D2A22DC000000080499E4340000000E0FF3F8F4000000060F45C1BC0000000401D7E3F400C00000013000000A20900003C0000000600000002000000000000E0FF3F8F40000000E004001CC000
310
0000C03A873E400000000000408F40000000204B1C35C000000020CF5541400C00000013000000AA0900003C0000000600000002000000000000E0FF3F8F400000000005001CC0000000605D6B33400000000000408F40000000C0010033C0000000E097F22D400C00000013000000B20900003C0000000600000002000000
310
000000E0FF3F8F400000000005001CC0000000605D6B33400000000000408F40000000C0D01A31C000000000E65827400C00000013000000BA0900003C0000000600000002000000000000E0FF3F8F4000000040F45C1BC0000000E07A7432400000000000408F4000000080F10130C00000004060A226400C000000130000
310
00C20900003C0000000600000002000000000000E0FF3F8F4000000040F45C1BC0000000E07A7432400000000000408F4000000020D2A22DC0000000800A6C25400C00000013000000CA0900003C0000000600000002000000000000E0FF3F8F4000000080308519C000000060D6973140000000E0FF3F8F40000000C0F8C4
310
2BC000000040DD1024400C00000013000000D20900003C0000000600000002000000000000E0FF3F8F4000000080308519C000000060D6973140000000E0FF3F8F40000000C0BCE129C0000000C0A12D22400C00000013000000DA0900003C0000000600000002000000000000E0FF3F8F4000000000CBAA16C0000000E0CE
310
EC3040000000E0FF3F8F40000000008F8628C000000080C84F20400C00000013000000E20900003C0000000600000002000000000000E0FF3F8F4000000000CBAA16C0000000E0CEEC3040000000E0FF3F8F4000000080395027C00000000070DD1B400C00000013000000EA0900003C0000000600000002000000000000E0
310
FF3F8F40000000801C1B13C00000006088853040000000E0FF3F8F40000000C0B39926C000000080F27917400C00000013000000F20900003C0000000600000002000000000000E0FF3F8F40000000801C1B13C00000006088853040000000E0FF3F8F40000000C0010026C00000000060CA0F400C00000013000000FA0900
310
003C0000000600000002000000000000E0FF3F8F400000000005001CC0000000605D6B33400000000000408F40000000C04A1C35C000000000F48D2E400C00000013000000020A00003C0000000600000002000000000000E0FF3F8F400000000005001CC0000000605D6B33400000000000408F40000000807B7736C00000
310
00E0D6592F400C000000130000000A0A00003C0000000600000002000000000000E0FF3F8F400000000005001CC0000000605D6B33400000000000408F4000000080C8C137C000000000C34330400C00000013000000120A00003C0000000600000002000000000000E0FF3F8F400000000005001CC0000000605D6B334000
310
00000000408F400000004030F238C000000020640731400C000000130000001A0A00003C0000000600000002000000000000E0FF3F8F400000000005001CC0000000605D6B33400000000000408F40000000809A043AC0000000C02CF531400C00000013000000220A00003C0000000600000002000000000000E0FF3F8F40
310
0000000005001CC0000000605D6B33400000000000408F400000000090F13AC000000020A40633400C000000130000002A0A00003C0000000600000002000000000000E0FF3F8F400000000005001CC0000000605D6B33400000000000408F40000000C0D5B53BC0000000400C3834400C00000013000000320A00003C0000
310
000600000002000000000000E0FF3F8F400000000005001CC0000000605D6B3340000000E0FF3F8F4000000000274C3CC000000000328135400C000000130000003A0A00003C0000000600000002000000000000E0FF3F8F400000000005001CC0000000605D6B3340000000E0FF3F8F400000004072B23CC0000000A092DD
310
36400C00000013000000420A00003C0000000600000002000000000000E0FF3F8F400000000005001CC0000000605D6B3340000000E0FF3F8F4000000080F1E53CC0000000A0BC4338400C000000130000004A0A00003C0000000600000002000000000000E0FF3F8F40000000E004001CC0000000C03A873E400000000000
310
408F40000000A07B7736C000000060D62241400C00000013000000520A00003C0000000600000002000000000000E0FF3F8F40000000E004001CC0000000C03A873E400000000000408F40000000E0C8C137C0000000606AD740400C000000130000005A0A00003C0000000600000002000000000000E0FF3F8F40000000E0
310
04001CC0000000C03A873E400000000000408F400000006030F238C0000000E0997540400C00000013000000620A00003C0000000600000002000000000000E0FF3F8F40000000E004001CC0000000C03A873E400000000000408F40000000A09A043AC0000000006BFD3F400C000000130000006A0A00003C000000060000
310
0002000000000000E0FF3F8F40000000E004001CC0000000C03A873E400000000000408F400000000090F13AC000000080F3EB3E400C00000013000000720A00003C0000000600000002000000000000E0FF3F8F40000000E004001CC0000000C03A873E400000000000408F40000000C0D5B53BC0000000408BBA3D400C00
310
0000130000007A0A00003C0000000600000002000000000000E0FF3F8F40000000E004001CC0000000C03A873E40000000E0FF3F8F4000000000274C3CC00000006065713C400C00000013000000820A00003C0000000600000002000000000000E0FF3F8F40000000E004001CC0000000C03A873E40000000E0FF3F8F4000
310
00004072B23CC00000002005153B400C000000130000008A0A00003C0000000600000002000000000000E0FF3F8F40000000E004001CC0000000C03A873E40000000E0FF3F8F4000000080F1E53CC000000020DBAE3940
100
AcDbSubDMesh
 71
     2
 72
     0
 91
        0
 92
      148
 10
-999.9999389648436
 20
-19.00002670288086
 30
37.97382354736328
 10
-999.9999389648436
 20
-17.10475349426269
 30
38.27400588989258
 10
-1000.0
 20
-14.81801033020019
 30
39.23661804199219
 10
-1000.0
 20
-12.94090270996093
 30
40.8585090637207
 10
-1000.0
 20
-11.65670013427734
 30
42.98139190673828
 10
-1000.0
 20
-11.00002574920654
 30
45.97382354736327
 10
-1000.0
 20
-8.001051902770996
 30
46.05235290527343
 10
-1000.0
 20
-7.899487018585205
 30
46.78743743896484
 10
-1000.0
 20
-7.662634849548339
 30
47.49052429199219
 10
-1000.0
 20
-7.298804283142089
 30
48.13710021972656
 10
-1000.0
 20
-6.820644855499267
 30
48.70457458496094
 10
-1000.0
 20
-6.245001792907714
 30
49.17286682128906
 10
-1000.0
 20
-5.592241287231445
 30
49.52547454833984
 10
-1000.0
 20
-4.885167121887207
 30
49.75015258789063
 10
-1000.0
 20
-4.148440361022949
 30
49.83900451660156
 10
-1000.0
 20
-0.000025749206543
 30
49.9476318359375
 10
-1000.0
 20
-0.0000247955322266
 30
34.70587158203125
 10
-1000.0
 20
-4.776471138000488
 30
33.426025390625
 10
-1000.0
 20
-5.666785240173339
 30
33.02260589599609
 10
-1000.0
 20
-6.3800630569458
 30
32.35452270507813
 10
-1000.0
 20
-6.840770721435546
 30
31.49263381958008
 10
-1000.0
 20
-7.000013828277587
 30
30.52824020385742
 10
-1000.0
 20
-7.000014305114746
 30
19.41939353942871
 10
-1000.0
 20
-6.840770721435546
 30
18.45499992370605
 10
-1000.0
 20
-6.3800630569458
 30
17.59311485290527
 10
-1000.0
 20
-5.666785240173339
 30
16.9250316619873
 10
-1000.0
 20
-4.776471138000488
 30
16.5216121673584
 10
-1000.0
 20
-0.0000228881835938
 30
15.24176597595215
 10
-1000.0
 20
-4.148438453674316
 30
0.1086311340332031
 10
-1000.0
 20
-4.885164260864257
 30
0.1974830627441406
 10
-1000.0
 20
-5.592238426208496
 30
0.4221611022949219
 10
-1000.0
 20
-6.244999408721923
 30
0.7747726440429688
 10
-1000.0
 20
-6.820642471313476
 30
1.243064880371093
 10
-1000.0
 20
-7.298802375793457
 30
1.810539245605468
 10
-1000.0
 20
-7.662632942199707
 30
2.457111358642578
 10
-1000.0
 20
-7.899485111236572
 30
3.160202026367187
 10
-1000.0
 20
-8.001049995422363
 30
3.89528465270996
 10
-1000.0
 20
-11.00002384185791
 30
3.97381591796875
 10
-1000.0
 20
-11.30020904541015
 30
5.869089126586914
 10
-1000.0
 20
-12.26282024383545
 30
8.155828475952148
 10
-1000.0
 20
-13.88471126556396
 30
10.03293704986572
 10
-1000.0
 20
-16.00759315490722
 30
11.31714057922363
 10
-999.9999389648436
 20
-19.00002670288086
 30
11.97381496429443
 10
-999.9999389648436
 20
-19.00002670288086
 30
14.97381496429443
 10
-999.9999389648436
 20
-21.11053276062012
 30
15.27725315093994
 10
-999.9999389648436
 20
-23.75698280334473
 30
16.26469612121582
 10
-999.9999389648436
 20
-26.01799964904785
 30
17.95771408081054
 10
-1000.0
 20
-27.71030616760254
 30
20.21893692016602
 10
-1000.0
 20
-28.69706916809082
 30
22.86551856994629
 10
-1000.0
 20
-28.89822959899902
 30
25.68303108215332
 10
-1000.0
 20
-28.29748344421387
 30
28.44295310974121
 10
-1000.0
 20
-26.94361877441406
 30
30.92168426513672
 10
-999.9999389648436
 20
-24.9460678100586
 30
32.91875839233398
 10
-999.9999389648436
 20
-22.46674728393555
 30
34.27216720581055
 10
-999.9999389648436
 20
-19.00002670288086
 30
34.97382354736328
 10
-1000.0
 20
-0.0000228881835938
 30
0.0
 10
-1000.0
 20
-16.00759506225586
 30
38.6304931640625
 10
-1000.0
 20
-13.8847131729126
 30
39.91469955444336
 10
-1000.0
 20
-12.26282215118408
 30
41.79180908203124
 10
-1000.0
 20
-11.30021095275879
 30
44.07854843139648
 10
-1000.0
 20
-11.65669822692871
 30
6.96624755859375
 10
-1000.0
 20
-12.94090175628662
 30
9.089125633239746
 10
-1000.0
 20
-14.81800937652588
 30
10.71101760864258
 10
-999.9999389648436
 20
-17.10474967956543
 30
11.67362976074219
 10
-999.9999389648436
 20
-22.46674537658691
 30
15.6754674911499
 10
-999.9999389648436
 20
-24.94606590270996
 30
17.02887344360351
 10
-1000.0
 20
-26.9436206817627
 30
19.02594375610351
 10
-1000.0
 20
-28.29748344421387
 30
21.50467109680176
 10
-1000.0
 20
-28.89822959899902
 30
24.26459693908692
 10
-1000.0
 20
-28.69706916809082
 30
27.08210945129394
 10
-1000.0
 20
-27.71030807495117
 30
29.72868728637696
 10
-999.9999389648436
 20
-26.01800155639649
 30
31.98991394042969
 10
-999.9999389648436
 20
-23.75698852539063
 30
33.68293380737305
 10
-999.9999389648436
 20
-21.11053848266601
 30
34.67038345336914
 10
1000.0
 20
-17.10475158691406
 30
38.27400588989258
 10
999.9999389648436
 20
-7.000018596649169
 30
30.52824020385742
 10
1000.0
 20
-19.00002670288086
 30
34.97382354736328
 10
1000.0
 20
-19.00002670288086
 30
37.97382354736328
 10
999.9999389648436
 20
-8.001052856445312
 30
46.05235290527343
 10
999.9999389648436
 20
-7.899491310119628
 30
46.78743743896484
 10
999.9999389648436
 20
-0.0000152587890625
 30
34.70587158203125
 10
999.9999389648436
 20
-7.662639617919921
 30
47.49052429199219
 10
999.9999389648436
 20
-7.298809051513671
 30
48.13710021972656
 10
999.9999389648436
 20
-6.820649623870849
 30
48.70457458496094
 10
999.9999389648436
 20
-6.245006561279296
 30
49.17286682128906
 10
999.9999389648436
 20
-5.592246055603027
 30
49.52547454833984
 10
999.9999389648436
 20
-4.885171890258789
 30
49.75015258789063
 10
999.9999389648436
 20
-4.148445129394531
 30
49.83900451660156
 10
999.9999389648436
 20
-0.0000152587890625
 30
49.9476318359375
 10
999.9999389648436
 20
-0.0000133514404297
 30
15.24176597595215
 10
999.9999389648436
 20
-7.899489402770996
 30
3.160202026367187
 10
999.9999389648436
 20
-8.001050949096679
 30
3.89528465270996
 10
999.9999389648436
 20
-7.298807144165039
 30
1.810539245605468
 10
999.9999389648436
 20
-7.662637710571289
 30
2.457111358642578
 10
999.9999389648436
 20
-6.245004653930664
 30
0.7747726440429688
 10
999.9999389648436
 20
-6.820647239685058
 30
1.243064880371093
 10
999.9999389648436
 20
-4.885169029235839
 30
0.1974830627441406
 10
999.9999389648436
 20
-5.592243194580078
 30
0.4221611022949219
 10
999.9999389648436
 20
-0.0000133514404297
 30
0.0
 10
999.9999389648436
 20
-4.148443222045898
 30
0.1086311340332031
 10
999.9999389648436
 20
-11.30020141601562
 30
44.07854843139648
 10
999.9999389648436
 20
-11.00001525878906
 30
45.97382354736327
 10
999.9999389648436
 20
-4.77647590637207
 30
33.426025390625
 10
999.9999389648436
 20
-12.2628116607666
 30
41.79180908203124
 10
999.9999389648436
 20
-11.65669059753418
 30
42.98139190673828
 10
999.9999389648436
 20
-5.666790962219238
 30
33.02260589599609
 10
999.9999389648436
 20
-13.88471221923828
 30
39.9146957397461
 10
999.9999389648436
 20
-12.94089412689209
 30
40.85851287841797
 10
999.9999389648436
 20
-6.380067825317382
 30
32.35452270507813
 10
1000.0
 20
-16.00759506225586
 30
38.6304931640625
 10
1000.0
 20
-14.81801033020019
 30
39.23661804199219
 10
999.9999389648436
 20
-6.840775966644287
 30
31.49263381958008
 10
1000.0
 20
-21.11052131652832
 30
34.67038345336914
 10
999.9999389648436
 20
-7.000019073486328
 30
19.41939353942871
 10
1000.0
 20
-17.10474777221679
 30
11.67362976074219
 10
1000.0
 20
-19.00002479553222
 30
11.97381496429443
 10
1000.0
 20
-19.00002670288086
 30
14.97381496429443
 10
999.9999389648436
 20
-6.840775489807128
 30
18.45499992370605
 10
1000.0
 20
-16.00759124755859
 30
11.31714057922363
 10
999.9999389648436
 20
-6.380067825317382
 30
17.59311485290527
 10
999.9999389648436
 20
-13.88471031188965
 30
10.03293800354004
 10
1000.0
 20
-14.81800937652588
 30
10.71101760864258
 10
999.9999389648436
 20
-5.666790008544921
 30
16.9250316619873
 10
999.9999389648436
 20
-12.26280975341797
 30
8.155826568603515
 10
999.9999389648436
 20
-12.94089317321777
 30
9.089124679565429
 10
999.9999389648436
 20
-4.77647590637207
 30
16.5216121673584
 10
999.9999389648436
 20
-11.30019950866699
 30
5.869089126586914
 10
999.9999389648436
 20
-11.65668869018555
 30
6.96624755859375
 10
999.9999389648436
 20
-11.00001335144043
 30
3.97381591796875
 10
1000.0
 20
-21.11051559448242
 30
15.27725219726562
 10
1000.0
 20
-22.46672821044922
 30
15.6754674911499
 10
1000.0
 20
-23.75696563720703
 30
16.26469421386719
 10
1000.0
 20
-24.94604873657227
 30
17.02887153625488
 10
1000.0
 20
-26.01798248291016
 30
17.95771408081054
 10
1000.0
 20
-26.943603515625
 30
19.02594184875488
 10
1000.0
 20
-27.71029281616211
 30
20.21893692016602
 10
999.9999389648436
 20
-28.29747009277344
 30
21.50466918945312
 10
999.9999389648436
 20
-28.69705581665039
 30
22.86551856994629
 10
999.9999389648436
 20
-28.89821624755859
 30
24.26459693908692
 10
1000.0
 20
-23.75697135925293
 30
33.68293380737305
 10
1000.0
 20
-22.46673011779785
 30
34.27216720581055
 10
1000.0
 20
-26.01798439025879
 30
31.98991394042969
 10
1000.0
 20
-24.9460506439209
 30
32.91875839233398
 10
1000.0
 20
-27.71029281616211
 30
29.72868728637696
 10
1000.0
 20
-26.943603515625
 30
30.92168426513672
 10
999.9999389648436
 20
-28.69705581665039
 30
27.08210945129394
 10
999.9999389648436
 20
-28.29747009277344
 30
28.44295310974121
 10
999.9999389648436
 20
-28.89821624755859
 30
25.68303108215332
 93
      868
 90
        4
 90
       28
 90
       55
 90
       98
 90
       99
 90
        4
 90
       55
 90
       27
 90
       89
 90
       98
 90
        4
 90
       27
 90
       26
 90
      125
 90
       89
 90
        4
 90
       26
 90
       25
 90
      122
 90
      125
 90
        4
 90
       25
 90
       24
 90
      119
 90
      122
 90
        4
 90
       24
 90
       23
 90
      117
 90
      119
 90
        4
 90
       23
 90
       22
 90
      113
 90
      117
 90
        4
 90
       22
 90
       21
 90
       75
 90
      113
 90
        4
 90
       21
 90
       20
 90
      111
 90
       75
 90
        4
 90
       20
 90
       19
 90
      108
 90
      111
 90
        4
 90
       19
 90
       18
 90
      105
 90
      108
 90
        4
 90
       18
 90
       17
 90
      102
 90
      105
 90
        4
 90
       17
 90
       16
 90
       80
 90
      102
 90
        4
 90
       16
 90
       15
 90
       88
 90
       80
 90
        4
 90
       15
 90
       14
 90
       87
 90
       88
 90
        4
 90
       14
 90
       13
 90
       86
 90
       87
 90
        4
 90
       13
 90
       12
 90
       85
 90
       86
 90
        4
 90
       12
 90
       11
 90
       84
 90
       85
 90
        4
 90
       11
 90
       10
 90
       83
 90
       84
 90
        4
 90
       10
 90
        9
 90
       82
 90
       83
 90
        4
 90
        9
 90
        8
 90
       81
 90
       82
 90
        4
 90
        8
 90
        7
 90
       79
 90
       81
 90
        4
 90
        7
 90
        6
 90
       78
 90
       79
 90
        4
 90
        6
 90
        5
 90
      101
 90
       78
 90
        4
 90
        5
 90
       59
 90
      100
 90
      101
 90
        4
 90
        4
 90
       58
 90
      103
 90
      104
 90
        4
 90
        3
 90
       57
 90
      106
 90
      107
 90
        4
 90
        2
 90
       56
 90
      109
 90
      110
 90
        4
 90
        1
 90
        0
 90
       77
 90
       74
 90
        4
 90
        0
 90
       54
 90
       76
 90
       77
 90
        4
 90
       54
 90
       73
 90
      112
 90
       76
 90
        4
 90
       53
 90
       72
 90
      139
 90
      140
 90
        4
 90
       52
 90
       71
 90
      141
 90
      142
 90
        4
 90
       51
 90
       70
 90
      143
 90
      144
 90
        4
 90
       50
 90
       69
 90
      145
 90
      146
 90
        4
 90
       49
 90
       68
 90
      138
 90
      147
 90
        4
 90
       48
 90
       67
 90
      136
 90
      137
 90
        4
 90
       47
 90
       66
 90
      134
 90
      135
 90
        4
 90
       46
 90
       65
 90
      132
 90
      133
 90
        4
 90
       45
 90
       64
 90
      130
 90
      131
 90
        4
 90
       44
 90
       43
 90
      116
 90
      129
 90
        4
 90
       43
 90
       42
 90
      115
 90
      116
 90
        4
 90
       42
 90
       63
 90
      114
 90
      115
 90
        4
 90
       41
 90
       62
 90
      121
 90
      118
 90
        4
 90
       40
 90
       61
 90
      124
 90
      120
 90
        4
 90
       39
 90
       60
 90
      127
 90
      123
 90
        4
 90
       38
 90
       37
 90
      128
 90
      126
 90
        4
 90
       37
 90
       36
 90
       91
 90
      128
 90
        4
 90
       36
 90
       35
 90
       90
 90
       91
 90
        4
 90
       35
 90
       34
 90
       93
 90
       90
 90
        4
 90
       34
 90
       33
 90
       92
 90
       93
 90
        4
 90
       33
 90
       32
 90
       95
 90
       92
 90
        4
 90
       32
 90
       31
 90
       94
 90
       95
 90
        4
 90
       31
 90
       30
 90
       97
 90
       94
 90
        4
 90
       30
 90
       29
 90
       96
 90
       97
 90
        4
 90
       29
 90
       28
 90
       99
 90
       96
 90
        4
 90
       59
 90
        4
 90
      104
 90
      100
 90
        4
 90
       58
 90
        3
 90
      107
 90
      103
 90
        4
 90
       57
 90
        2
 90
      110
 90
      106
 90
        4
 90
       56
 90
        1
 90
       74
 90
      109
 90
        4
 90
       63
 90
       41
 90
      118
 90
      114
 90
        4
 90
       62
 90
       40
 90
      120
 90
      121
 90
        4
 90
       61
 90
       39
 90
      123
 90
      124
 90
        4
 90
       60
 90
       38
 90
      126
 90
      127
 90
        4
 90
       73
 90
       53
 90
      140
 90
      112
 90
        4
 90
       72
 90
       52
 90
      142
 90
      139
 90
        4
 90
       71
 90
       51
 90
      144
 90
      141
 90
        4
 90
       70
 90
       50
 90
      146
 90
      143
 90
        4
 90
       69
 90
       49
 90
      147
 90
      145
 90
        4
 90
       68
 90
       48
 90
      137
 90
      138
 90
        4
 90
       67
 90
       47
 90
      135
 90
      136
 90
        4
 90
       66
 90
       46
 90
      133
 90
      134
 90
        4
 90
       65
 90
       45
 90
      131
 90
      132
 90
        4
 90
       64
 90
       44
 90
      129
 90
      130
 90
        4
 90
        1
 90
       21
 90
       54
 90
        0
 90
        3
 90
        6
 90
        7
 90
       16
 90
        3
 90
        8
 90
        9
 90
       16
 90
        3
 90
        7
 90
        8
 90
       16
 90
        3
 90
        9
 90
       10
 90
       16
 90
        3
 90
       10
 90
       11
 90
       16
 90
        3
 90
       11
 90
       12
 90
       16
 90
        3
 90
       12
 90
       13
 90
       16
 90
        3
 90
       13
 90
       14
 90
       16
 90
        3
 90
       14
 90
       15
 90
       16
 90
        3
 90
       27
 90
       35
 90
       36
 90
        3
 90
       27
 90
       33
 90
       34
 90
        3
 90
       27
 90
       34
 90
       35
 90
        3
 90
       27
 90
       31
 90
       32
 90
        3
 90
       27
 90
       32
 90
       33
 90
        3
 90
       27
 90
       29
 90
       30
 90
        3
 90
       27
 90
       30
 90
       31
 90
        3
 90
       27
 90
       55
 90
       28
 90
        3
 90
       27
 90
       28
 90
       29
 90
        3
 90
       59
 90
        5
 90
       17
 90
        4
 90
        5
 90
        6
 90
       16
 90
       17
 90
        3
 90
       58
 90
        4
 90
       18
 90
        4
 90
        4
 90
       59
 90
       17
 90
       18
 90
        3
 90
       57
 90
        3
 90
       19
 90
        4
 90
        3
 90
       58
 90
       18
 90
       19
 90
        3
 90
       56
 90
        2
 90
       20
 90
        4
 90
        2
 90
       57
 90
       19
 90
       20
 90
        4
 90
        1
 90
       56
 90
       20
 90
       21
 90
        3
 90
       21
 90
       73
 90
       54
 90
        4
 90
       22
 90
       63
 90
       42
 90
       43
 90
        4
 90
       22
 90
       23
 90
       41
 90
       63
 90
        4
 90
       23
 90
       24
 90
       40
 90
       62
 90
        3
 90
       23
 90
       62
 90
       41
 90
        4
 90
       24
 90
       25
 90
       39
 90
       61
 90
        3
 90
       24
 90
       61
 90
       40
 90
        4
 90
       25
 90
       26
 90
       38
 90
       60
 90
        3
 90
       25
 90
       60
 90
       39
 90
        4
 90
       26
 90
       27
 90
       36
 90
       37
 90
        3
 90
       26
 90
       37
 90
       38
 90
        3
 90
       22
 90
       43
 90
       44
 90
        3
 90
       22
 90
       44
 90
       64
 90
        3
 90
       22
 90
       64
 90
       45
 90
        3
 90
       22
 90
       45
 90
       65
 90
        3
 90
       22
 90
       65
 90
       46
 90
        3
 90
       22
 90
       46
 90
       66
 90
        3
 90
       22
 90
       66
 90
       47
 90
        3
 90
       22
 90
       47
 90
       67
 90
        3
 90
       22
 90
       67
 90
       48
 90
        3
 90
       22
 90
       48
 90
       68
 90
        3
 90
       21
 90
       72
 90
       53
 90
        3
 90
       21
 90
       53
 90
       73
 90
        3
 90
       21
 90
       71
 90
       52
 90
        3
 90
       21
 90
       52
 90
       72
 90
        3
 90
       21
 90
       70
 90
       51
 90
        3
 90
       21
 90
       51
 90
       71
 90
        3
 90
       21
 90
       69
 90
       50
 90
        3
 90
       21
 90
       50
 90
       70
 90
        4
 90
       21
 90
       22
 90
       68
 90
       49
 90
        3
 90
       21
 90
       49
 90
       69
 90
        4
 90
       74
 90
       77
 90
       76
 90
       75
 90
        3
 90
       78
 90
       80
 90
       79
 90
        3
 90
       81
 90
       80
 90
       82
 90
        3
 90
       79
 90
       80
 90
       81
 90
        3
 90
       82
 90
       80
 90
       83
 90
        3
 90
       83
 90
       80
 90
       84
 90
        3
 90
       84
 90
       80
 90
       85
 90
        3
 90
       85
 90
       80
 90
       86
 90
        3
 90
       86
 90
       80
 90
       87
 90
        3
 90
       87
 90
       80
 90
       88
 90
        3
 90
       89
 90
       91
 90
       90
 90
        3
 90
       89
 90
       93
 90
       92
 90
        3
 90
       89
 90
       90
 90
       93
 90
        3
 90
       89
 90
       95
 90
       94
 90
        3
 90
       89
 90
       92
 90
       95
 90
        3
 90
       89
 90
       97
 90
       96
 90
        3
 90
       89
 90
       94
 90
       97
 90
        3
 90
       89
 90
       99
 90
       98
 90
        3
 90
       89
 90
       96
 90
       99
 90
        3
 90
      100
 90
      102
 90
      101
 90
        4
 90
      101
 90
      102
 90
       80
 90
       78
 90
        3
 90
      103
 90
      105
 90
      104
 90
        4
 90
      104
 90
      105
 90
      102
 90
      100
 90
        3
 90
      106
 90
      108
 90
      107
 90
        4
 90
      107
 90
      108
 90
      105
 90
      103
 90
        3
 90
      109
 90
      111
 90
      110
 90
        4
 90
      110
 90
      111
 90
      108
 90
      106
 90
        4
 90
       74
 90
       75
 90
      111
 90
      109
 90
        3
 90
       75
 90
       76
 90
      112
 90
        4
 90
      113
 90
      116
 90
      115
 90
      114
 90
        4
 90
      113
 90
      114
 90
      118
 90
      117
 90
        4
 90
      117
 90
      121
 90
      120
 90
      119
 90
        3
 90
      117
 90
      118
 90
      121
 90
        4
 90
      119
 90
      124
 90
      123
 90
      122
 90
        3
 90
      119
 90
      120
 90
      124
 90
        4
 90
      122
 90
      127
 90
      126
 90
      125
 90
        3
 90
      122
 90
      123
 90
      127
 90
        4
 90
      125
 90
      128
 90
       91
 90
       89
 90
        3
 90
      125
 90
      126
 90
      128
 90
        3
 90
      113
 90
      129
 90
      116
 90
        3
 90
      113
 90
      130
 90
      129
 90
        3
 90
      113
 90
      131
 90
      130
 90
        3
 90
      113
 90
      132
 90
      131
 90
        3
 90
      113
 90
      133
 90
      132
 90
        3
 90
      113
 90
      134
 90
      133
 90
        3
 90
      113
 90
      135
 90
      134
 90
        3
 90
      113
 90
      136
 90
      135
 90
        3
 90
      113
 90
      137
 90
      136
 90
        3
 90
      113
 90
      138
 90
      137
 90
        3
 90
       75
 90
      140
 90
      139
 90
        3
 90
       75
 90
      112
 90
      140
 90
        3
 90
       75
 90
      142
 90
      141
 90
        3
 90
       75
 90
      139
 90
      142
 90
        3
 90
       75
 90
      144
 90
      143
 90
        3
 90
       75
 90
      141
 90
      144
 90
        3
 90
       75
 90
      146
 90
      145
 90
        3
 90
       75
 90
      143
 90
      146
 90
        4
 90
       75
 90
      147
 90
      138
 90
      113
 90
        3
 90
       75
 90
      145
 90
      147
 94
      338
 90
       28
 90
       55
 90
       55
 90
       98
 90
       98
 90
       99
 90
       28
 90
       99
 90
       27
 90
       55
 90
       27
 90
       89
 90
       89
 90
       98
 90
       26
 90
       27
 90
       26
 90
      125
 90
       89
 90
      125
 90
       25
 90
       26
 90
       25
 90
      122
 90
      122
 90
      125
 90
       24
 90
       25
 90
       24
 90
      119
 90
      119
 90
      122
 90
       23
 90
       24
 90
       23
 90
      117
 90
      117
 90
      119
 90
       22
 90
       23
 90
       22
 90
      113
 90
      113
 90
      117
 90
       21
 90
       22
 90
       21
 90
       75
 90
       75
 90
      113
 90
       20
 90
       21
 90
       20
 90
      111
 90
       75
 90
      111
 90
       19
 90
       20
 90
       19
 90
      108
 90
      108
 90
      111
 90
       18
 90
       19
 90
       18
 90
      105
 90
      105
 90
      108
 90
       17
 90
       18
 90
       17
 90
      102
 90
      102
 90
      105
 90
       16
 90
       17
 90
       16
 90
       80
 90
       80
 90
      102
 90
       15
 90
       16
 90
       15
 90
       88
 90
       80
 90
       88
 90
       14
 90
       15
 90
       14
 90
       87
 90
       87
 90
       88
 90
       13
 90
       14
 90
       13
 90
       86
 90
       86
 90
       87
 90
       12
 90
       13
 90
       12
 90
       85
 90
       85
 90
       86
 90
       11
 90
       12
 90
       11
 90
       84
 90
       84
 90
       85
 90
       10
 90
       11
 90
       10
 90
       83
 90
       83
 90
       84
 90
        9
 90
       10
 90
        9
 90
       82
 90
       82
 90
       83
 90
        8
 90
        9
 90
        8
 90
       81
 90
       81
 90
       82
 90
        7
 90
        8
 90
        7
 90
       79
 90
       79
 90
       81
 90
        6
 90
        7
 90
        6
 90
       78
 90
       78
 90
       79
 90
        5
 90
        6
 90
        5
 90
      101
 90
       78
 90
      101
 90
        5
 90
       59
 90
       59
 90
      100
 90
      100
 90
      101
 90
        4
 90
       58
 90
       58
 90
      103
 90
      103
 90
      104
 90
        4
 90
      104
 90
        3
 90
       57
 90
       57
 90
      106
 90
      106
 90
      107
 90
        3
 90
      107
 90
        2
 90
       56
 90
       56
 90
      109
 90
      109
 90
      110
 90
        2
 90
      110
 90
        0
 90
        1
 90
        0
 90
       77
 90
       74
 90
       77
 90
        1
 90
       74
 90
        0
 90
       54
 90
       54
 90
       76
 90
       76
 90
       77
 90
       54
 90
       73
 90
       73
 90
      112
 90
       76
 90
      112
 90
       53
 90
       72
 90
       72
 90
      139
 90
      139
 90
      140
 90
       53
 90
      140
 90
       52
 90
       71
 90
       71
 90
      141
 90
      141
 90
      142
 90
       52
 90
      142
 90
       51
 90
       70
 90
       70
 90
      143
 90
      143
 90
      144
 90
       51
 90
      144
 90
       50
 90
       69
 90
       69
 90
      145
 90
      145
 90
      146
 90
       50
 90
      146
 90
       49
 90
       68
 90
       68
 90
      138
 90
      138
 90
      147
 90
       49
 90
      147
 90
       48
 90
       67
 90
       67
 90
      136
 90
      136
 90
      137
 90
       48
 90
      137
 90
       47
 90
       66
 90
       66
 90
      134
 90
      134
 90
      135
 90
       47
 90
      135
 90
       46
 90
       65
 90
       65
 90
      132
 90
      132
 90
      133
 90
       46
 90
      133
 90
       45
 90
       64
 90
       64
 90
      130
 90
      130
 90
      131
 90
       45
 90
      131
 90
       43
 90
       44
 90
       43
 90
      116
 90
      116
 90
      129
 90
       44
 90
      129
 90
       42
 90
       43
 90
       42
 90
      115
 90
      115
 90
      116
 90
       42
 90
       63
 90
       63
 90
      114
 90
      114
 90
      115
 90
       41
 90
       62
 90
       62
 90
      121
 90
      118
 90
      121
 90
       41
 90
      118
 90
       40
 90
       61
 90
       61
 90
      124
 90
      120
 90
      124
 90
       40
 90
      120
 90
       39
 90
       60
 90
       60
 90
      127
 90
      123
 90
      127
 90
       39
 90
      123
 90
       37
 90
       38
 90
       37
 90
      128
 90
      126
 90
      128
 90
       38
 90
      126
 90
       36
 90
       37
 90
       36
 90
       91
 90
       91
 90
      128
 90
       35
 90
       36
 90
       35
 90
       90
 90
       90
 90
       91
 90
       34
 90
       35
 90
       34
 90
       93
 90
       90
 90
       93
 90
       33
 90
       34
 90
       33
 90
       92
 90
       92
 90
       93
 90
       32
 90
       33
 90
       32
 90
       95
 90
       92
 90
       95
 90
       31
 90
       32
 90
       31
 90
       94
 90
       94
 90
       95
 90
       30
 90
       31
 90
       30
 90
       97
 90
       94
 90
       97
 90
       29
 90
       30
 90
       29
 90
       96
 90
       96
 90
       97
 90
       28
 90
       29
 90
       96
 90
       99
 90
        4
 90
       59
 90
      100
 90
      104
 90
        3
 90
       58
 90
      103
 90
      107
 90
        2
 90
       57
 90
      106
 90
      110
 90
        1
 90
       56
 90
       74
 90
      109
 90
       41
 90
       63
 90
      114
 90
      118
 90
       40
 90
       62
 90
      120
 90
      121
 90
       39
 90
       61
 90
      123
 90
      124
 90
       38
 90
       60
 90
      126
 90
      127
 90
       53
 90
       73
 90
      112
 90
      140
 90
       52
 90
       72
 90
      139
 90
      142
 90
       51
 90
       71
 90
      141
 90
      144
 90
       50
 90
       70
 90
      143
 90
      146
 90
       49
 90
       69
 90
      145
 90
      147
 90
       48
 90
       68
 90
      137
 90
      138
 90
       47
 90
       67
 90
      135
 90
      136
 90
       46
 90
       66
 90
      133
 90
      134
 90
       45
 90
       65
 90
      131
 90
      132
 90
       44
 90
       64
 90
      129
 90
      130
 90
        1
 90
       21
 90
       21
 90
       54
 90
        7
 90
       16
 90
        6
 90
       16
 90
        9
 90
       16
 90
        8
 90
       16
 90
       10
 90
       16
 90
       11
 90
       16
 90
       12
 90
       16
 90
       13
 90
       16
 90
       14
 90
       16
 90
       27
 90
       35
 90
       27
 90
       36
 90
       27
 90
       33
 90
       27
 90
       34
 90
       27
 90
       31
 90
       27
 90
       32
 90
       27
 90
       29
 90
       27
 90
       30
 90
       27
 90
       28
 90
        5
 90
       17
 90
       17
 90
       59
 90
        4
 90
       18
 90
       18
 90
       58
 90
        3
 90
       19
 90
       19
 90
       57
 90
        2
 90
       20
 90
       20
 90
       56
 90
       21
 90
       73
 90
       22
 90
       63
 90
       22
 90
       43
 90
       23
 90
       41
 90
       24
 90
       40
 90
       23
 90
       62
 90
       25
 90
       39
 90
       24
 90
       61
 90
       26
 90
       38
 90
       25
 90
       60
 90
       26
 90
       37
 90
       22
 90
       44
 90
       22
 90
       64
 90
       22
 90
       45
 90
       22
 90
       65
 90
       22
 90
       46
 90
       22
 90
       66
 90
       22
 90
       47
 90
       22
 90
       67
 90
       22
 90
       48
 90
       22
 90
       68
 90
       21
 90
       72
 90
       21
 90
       53
 90
       21
 90
       71
 90
       21
 90
       52
 90
       21
 90
       70
 90
       21
 90
       51
 90
       21
 90
       69
 90
       21
 90
       50
 90
       21
 90
       49
 90
       75
 90
       76
 90
       74
 90
       75
 90
       78
 90
       80
 90
       79
 90
       80
 90
       80
 90
       81
 90
       80
 90
       82
 90
       80
 90
       83
 90
       80
 90
       84
 90
       80
 90
       85
 90
       80
 90
       86
 90
       80
 90
       87
 90
       89
 90
       91
 90
       89
 90
       90
 90
       89
 90
       93
 90
       89
 90
       92
 90
       89
 90
       95
 90
       89
 90
       94
 90
       89
 90
       97
 90
       89
 90
       96
 90
       89
 90
       99
 90
      100
 90
      102
 90
      101
 90
      102
 90
      103
 90
      105
 90
      104
 90
      105
 90
      106
 90
      108
 90
      107
 90
      108
 90
      109
 90
      111
 90
      110
 90
      111
 90
       75
 90
      112
 90
      113
 90
      116
 90
      113
 90
      114
 90
      117
 90
      118
 90
      117
 90
      121
 90
      119
 90
      120
 90
      119
 90
      124
 90
      122
 90
      123
 90
      122
 90
      127
 90
      125
 90
      126
 90
      125
 90
      128
 90
      113
 90
      129
 90
      113
 90
      130
 90
      113
 90
      131
 90
      113
 90
      132
 90
      113
 90
      133
 90
      113
 90
      134
 90
      113
 90
      135
 90
      113
 90
      136
 90
      113
 90
      137
 90
      113
 90
      138
 90
       75
 90
      140
 90
       75
 90
      139
 90
       75
 90
      142
 90
       75
 90
      141
 90
       75
 90
      144
 90
       75
 90
      143
 90
       75
 90
      146
 90
       75
 90
      145
 90
       75
 90
      147
 95
      338
140
0.0
140
0.0
140
0.0
140
0.0
140
0.0
140
0.0
140
0.0
140
0.0
140
0.0
140
0.0
140
0.0
140
0.0
140
0.0
140
0.0
140
0.0
140
0.0
140
0.0
140
0.0
140
0.0
140
0.0
140
0.0
140
0.0
140
0.0
140
0.0
140
0.0
140
0.0
140
0.0
140
0.0
140
0.0
140
0.0
140
0.0
140
0.0
140
0.0
140
0.0
140
0.0
140
0.0
140
0.0
140
0.0
140
0.0
140
0.0
140
0.0
140
0.0
140
0.0
140
0.0
140
0.0
140
0.0
140
0.0
140
0.0
140
0.0
140
0.0
140
0.0
140
0.0
140
0.0
140
0.0
140
0.0
140
0.0
140
0.0
140
0.0
140
0.0
140
0.0
140
0.0
140
0.0
140
0.0
140
0.0
140
0.0
140
0.0
140
0.0
140
0.0
140
0.0
140
0.0
140
0.0
140
0.0
140
0.0
140
0.0
140
0.0
140
0.0
140
0.0
140
0.0
140
0.0
140
0.0
140
0.0
140
0.0
140
0.0
140
0.0
140
0.0
140
0.0
140
0.0
140
0.0
140
0.0
140
0.0
140
0.0
140
0.0
140
0.0
140
0.0
140
0.0
140
0.0
140
0.0
140
0.0
140
0.0
140
0.0
140
0.0
140
0.0
140
0.0
140
0.0
140
0.0
140
0.0
140
0.0
140
0.0
140
0.0
140
0.0
140
0.0
140
0.0
140
0.0
140
0.0
140
0.0
140
0.0
140
0.0
140
0.0
140
0.0
140
0.0
140
0.0
140
0.0
140
0.0
140
0.0
140
0.0
140
0.0
140
0.0
140
0.0
140
0.0
140
0.0
140
0.0
140
0.0
140
0.0
140
0.0
140
0.0
140
0.0
140
0.0
140
0.0
140
0.0
140
0.0
140
0.0
140
0.0
140
0.0
140
0.0
140
0.0
140
0.0
140
0.0
140
0.0
140
0.0
140
0.0
140
0.0
140
0.0
140
0.0
140
0.0
140
0.0
140
0.0
140
0.0
140
0.0
140
0.0
140
0.0
140
0.0
140
0.0
140
0.0
140
0.0
140
0.0
140
0.0
140
0.0
140
0.0
140
0.0
140
0.0
140
0.0
140
0.0
140
0.0
140
0.0
140
0.0
140
0.0
140
0.0
140
0.0
140
0.0
140
0.0
140
0.0
140
0.0
140
0.0
140
0.0
140
0.0
140
0.0
140
0.0
140
0.0
140
0.0
140
0.0
140
0.0
140
0.0
140
0.0
140
0.0
140
0.0
140
0.0
140
0.0
140
0.0
140
0.0
140
0.0
140
0.0
140
0.0
140
0.0
140
0.0
140
0.0
140
0.0
140
0.0
140
0.0
140
0.0
140
0.0
140
0.0
140
0.0
140
0.0
140
0.0
140
0.0
140
0.0
140
0.0
140
0.0
140
0.0
140
0.0
140
0.0
140
0.0
140
0.0
140
0.0
140
0.0
140
0.0
140
0.0
140
0.0
140
0.0
140
0.0
140
0.0
140
0.0
140
0.0
140
0.0
140
0.0
140
0.0
140
0.0
140
0.0
140
0.0
140
0.0
140
0.0
140
0.0
140
0.0
140
0.0
140
0.0
140
0.0
140
0.0
140
0.0
140
0.0
140
0.0
140
0.0
140
0.0
140
0.0
140
0.0
140
0.0
140
0.0
140
0.0
140
0.0
140
0.0
140
0.0
140
0.0
140
0.0
140
0.0
140
0.0
140
0.0
140
0.0
140
0.0
140
0.0
140
0.0
140
0.0
140
0.0
140
0.0
140
0.0
140
0.0
140
0.0
140
0.0
140
0.0
140
0.0
140
0.0
140
0.0
140
0.0
140
0.0
140
0.0
140
0.0
140
0.0
140
0.0
140
0.0
140
0.0
140
0.0
140
0.0
140
0.0
140
0.0
140
0.0
140
0.0
140
0.0
140
0.0
140
0.0
140
0.0
140
0.0
140
0.0
140
0.0
140
0.0
140
0.0
140
0.0
140
0.0
140
0.0
140
0.0
140
0.0
140
0.0
140
0.0
140
0.0
140
0.0
140
0.0
140
0.0
140
0.0
140
0.0
140
0.0
140
0.0
140
0.0
140
0.0
140
0.0
140
0.0
140
0.0
140
0.0
140
0.0
140
0.0
140
0.0
140
0.0
140
0.0
140
0.0
140
0.0
140
0.0
140
0.0
140
0.0
140
0.0
140
0.0
140
0.0
140
0.0
 90
        0
  0
POLYLINE
  5
FA
330
1F
100
AcDbEntity
  8
OracDecor_panel_moldings
 62
    61
420
 14083225
100
AcDb3dPolyline
 66
     1
 10
0.0
 20
0.0
 30
0.0
 70
     9
  0
VERTEX
  5
FB
330
FA
100
AcDbEntity
  8
OracDecor_panel_moldings
 62
    61
420
 14083225
100
AcDbVertex
100
AcDb3dPolylineVertex
 10
0.000030517578125
 20
17.10475349426269
 30
38.27400588989258
 70
    32
  0
VERTEX
  5
FC
330
FA
100
AcDbEntity
  8
OracDecor_panel_moldings
 62
    61
420
 14083225
100
AcDbVertex
100
AcDb3dPolylineVertex
 10
0.000030517576306
 20
19.00002670288086
 30
37.97382354736328
 70
    32
  0
VERTEX
  5
FD
330
FA
100
AcDbEntity
  8
OracDecor_panel_moldings
 62
    61
420
 14083225
100
AcDbVertex
100
AcDb3dPolylineVertex
 10
0.000030517578125
 20
19.00002670288086
 30
34.97382354736328
 70
    32
  0
VERTEX
  5
FE
330
FA
100
AcDbEntity
  8
OracDecor_panel_moldings
 62
    61
420
 14083225
100
AcDbVertex
100
AcDb3dPolylineVertex
 10
0.000030517578125
 20
21.11053848266601
 30
34.67038345336914
 70
    32
  0
VERTEX
  5
FF
330
FA
100
AcDbEntity
  8
OracDecor_panel_moldings
 62
    61
420
 14083225
100
AcDbVertex
100
AcDb3dPolylineVertex
 10
0.000030517578125
 20
22.46674728393555
 30
34.27216720581055
 70
    32
  0
VERTEX
  5
100
330
FA
100
AcDbEntity
  8
OracDecor_panel_moldings
 62
    61
420
 14083225
100
AcDbVertex
100
AcDb3dPolylineVertex
 10
0.000030517578125
 20
23.75698852539063
 30
33.68293380737305
 70
    32
  0
VERTEX
  5
101
330
FA
100
AcDbEntity
  8
OracDecor_panel_moldings
 62
    61
420
 14083225
100
AcDbVertex
100
AcDb3dPolylineVertex
 10
0.000030517578125
 20
24.9460678100586
 30
32.91875839233398
 70
    32
  0
VERTEX
  5
102
330
FA
100
AcDbEntity
  8
OracDecor_panel_moldings
 62
    61
420
 14083225
100
AcDbVertex
100
AcDb3dPolylineVertex
 10
0.0000343322753906
 20
26.01800155639649
 30
31.98991394042969
 70
    32
  0
VERTEX
  5
103
330
FA
100
AcDbEntity
  8
OracDecor_panel_moldings
 62
    61
420
 14083225
100
AcDbVertex
100
AcDb3dPolylineVertex
 10
0.0000190734863281
 20
26.94361877441406
 30
30.92168426513672
 70
    32
  0
VERTEX
  5
104
330
FA
100
AcDbEntity
  8
OracDecor_panel_moldings
 62
    61
420
 14083225
100
AcDbVertex
100
AcDb3dPolylineVertex
 10
-0.0000076293945313
 20
27.71030807495117
 30
29.72868728637696
 70
    32
  0
VERTEX
  5
105
330
FA
100
AcDbEntity
  8
OracDecor_panel_moldings
 62
    61
420
 14083225
100
AcDbVertex
100
AcDb3dPolylineVertex
 10
-0.0000228881835938
 20
28.29748344421387
 30
28.44295310974121
 70
    32
  0
VERTEX
  5
106
330
FA
100
AcDbEntity
  8
OracDecor_panel_moldings
 62
    61
420
 14083225
100
AcDbVertex
100
AcDb3dPolylineVertex
 10
-0.0000228881835938
 20
28.69706916809082
 30
27.08210945129394
 70
    32
  0
VERTEX
  5
107
330
FA
100
AcDbEntity
  8
OracDecor_panel_moldings
 62
    61
420
 14083225
100
AcDbVertex
100
AcDb3dPolylineVertex
 10
-0.0000228881835938
 20
28.89822959899902
 30
25.68303108215332
 70
    32
  0
VERTEX
  5
108
330
FA
100
AcDbEntity
  8
OracDecor_panel_moldings
 62
    61
420
 14083225
100
AcDbVertex
100
AcDb3dPolylineVertex
 10
-0.0000228881835938
 20
28.89822959899902
 30
24.26459693908692
 70
    32
  0
VERTEX
  5
109
330
FA
100
AcDbEntity
  8
OracDecor_panel_moldings
 62
    61
420
 14083225
100
AcDbVertex
100
AcDb3dPolylineVertex
 10
-0.0000228881835938
 20
28.69706916809082
 30
22.86551856994629
 70
    32
  0
VERTEX
  5
10A
330
FA
100
AcDbEntity
  8
OracDecor_panel_moldings
 62
    61
420
 14083225
100
AcDbVertex
100
AcDb3dPolylineVertex
 10
-0.0000228881835938
 20
28.29748344421387
 30
21.50467109680176
 70
    32
  0
VERTEX
  5
10B
330
FA
100
AcDbEntity
  8
OracDecor_panel_moldings
 62
    61
420
 14083225
100
AcDbVertex
100
AcDb3dPolylineVertex
 10
-0.0000076293945313
 20
27.71030616760254
 30
20.21893692016602
 70
    32
  0
VERTEX
  5
10C
330
FA
100
AcDbEntity
  8
OracDecor_panel_moldings
 62
    61
420
 14083225
100
AcDbVertex
100
AcDb3dPolylineVertex
 10
0.0000190734881471
 20
26.9436206817627
 30
19.02594375610351
 70
    32
  0
VERTEX
  5
10D
330
FA
100
AcDbEntity
  8
OracDecor_panel_moldings
 62
    61
420
 14083225
100
AcDbVertex
100
AcDb3dPolylineVertex
 10
0.0000343322753906
 20
26.01799964904785
 30
17.95771408081054
 70
    32
  0
VERTEX
  5
10E
330
FA
100
AcDbEntity
  8
OracDecor_panel_moldings
 62
    61
420
 14083225
100
AcDbVertex
100
AcDb3dPolylineVertex
 10
0.000030517578125
 20
24.94606590270996
 30
17.02887344360351
 70
    32
  0
VERTEX
  5
10F
330
FA
100
AcDbEntity
  8
OracDecor_panel_moldings
 62
    61
420
 14083225
100
AcDbVertex
100
AcDb3dPolylineVertex
 10
0.000030517578125
 20
23.75698280334473
 30
16.26469612121582
 70
    32
  0
VERTEX
  5
110
330
FA
100
AcDbEntity
  8
OracDecor_panel_moldings
 62
    61
420
 14083225
100
AcDbVertex
100
AcDb3dPolylineVertex
 10
0.000030517578125
 20
22.46674537658691
 30
15.6754674911499
 70
    32
  0
VERTEX
  5
111
330
FA
100
AcDbEntity
  8
OracDecor_panel_moldings
 62
    61
420
 14083225
100
AcDbVertex
100
AcDb3dPolylineVertex
 10
0.000030517578125
 20
21.11053276062012
 30
15.27725315093994
 70
    32
  0
VERTEX
  5
112
330
FA
100
AcDbEntity
  8
OracDecor_panel_moldings
 62
    61
420
 14083225
100
AcDbVertex
100
AcDb3dPolylineVertex
 10
0.000030517578125
 20
19.00002670288086
 30
14.97381496429443
 70
    32
  0
VERTEX
  5
113
330
FA
100
AcDbEntity
  8
OracDecor_panel_moldings
 62
    61
420
 14083225
100
AcDbVertex
100
AcDb3dPolylineVertex
 10
0.000030517578125
 20
19.00002670288086
 30
11.97381496429443
 70
    32
  0
VERTEX
  5
114
330
FA
100
AcDbEntity
  8
OracDecor_panel_moldings
 62
    61
420
 14083225
100
AcDbVertex
100
AcDb3dPolylineVertex
 10
0.000030517578125
 20
17.10474967956543
 30
11.67362976074219
 70
    32
  0
VERTEX
  5
115
330
FA
100
AcDbEntity
  8
OracDecor_panel_moldings
 62
    61
420
 14083225
100
AcDbVertex
100
AcDb3dPolylineVertex
 10
0.0000152587890625
 20
16.00759315490722
 30
11.31714057922363
 70
    32
  0
VERTEX
  5
116
330
FA
100
AcDbEntity
  8
OracDecor_panel_moldings
 62
    61
420
 14083225
100
AcDbVertex
100
AcDb3dPolylineVertex
 10
-0.0000152587890625
 20
14.81800937652588
 30
10.71101760864258
 70
    32
  0
VERTEX
  5
117
330
FA
100
AcDbEntity
  8
OracDecor_panel_moldings
 62
    61
420
 14083225
100
AcDbVertex
100
AcDb3dPolylineVertex
 10
-0.000030517576306
 20
13.88471126556396
 30
10.03293704986572
 70
    32
  0
VERTEX
  5
118
330
FA
100
AcDbEntity
  8
OracDecor_panel_moldings
 62
    61
420
 14083225
100
AcDbVertex
100
AcDb3dPolylineVertex
 10
-0.000030517576306
 20
12.94090175628662
 30
9.089125633239746
 70
    32
  0
VERTEX
  5
119
330
FA
100
AcDbEntity
  8
OracDecor_panel_moldings
 62
    61
420
 14083225
100
AcDbVertex
100
AcDb3dPolylineVertex
 10
-0.000030517578125
 20
12.26282024383545
 30
8.155827522277832
 70
    32
  0
VERTEX
  5
11A
330
FA
100
AcDbEntity
  8
OracDecor_panel_moldings
 62
    61
420
 14083225
100
AcDbVertex
100
AcDb3dPolylineVertex
 10
-0.000030517574487
 20
11.65669822692871
 30
6.966247081756591
 70
    32
  0
VERTEX
  5
11B
330
FA
100
AcDbEntity
  8
OracDecor_panel_moldings
 62
    61
420
 14083225
100
AcDbVertex
100
AcDb3dPolylineVertex
 10
-0.000030517578125
 20
11.30020904541015
 30
5.869089603424072
 70
    32
  0
VERTEX
  5
11C
330
FA
100
AcDbEntity
  8
OracDecor_panel_moldings
 62
    61
420
 14083225
100
AcDbVertex
100
AcDb3dPolylineVertex
 10
-0.000030517574487
 20
11.00002384185791
 30
3.973815441131591
 70
    32
  0
VERTEX
  5
11D
330
FA
100
AcDbEntity
  8
OracDecor_panel_moldings
 62
    61
420
 14083225
100
AcDbVertex
100
AcDb3dPolylineVertex
 10
-0.000030517576306
 20
8.001049995422363
 30
3.895284414291381
 70
    32
  0
VERTEX
  5
11E
330
FA
100
AcDbEntity
  8
OracDecor_panel_moldings
 62
    61
420
 14083225
100
AcDbVertex
100
AcDb3dPolylineVertex
 10
-0.000030517578125
 20
7.899485111236572
 30
3.160201787948608
 70
    32
  0
VERTEX
  5
11F
330
FA
100
AcDbEntity
  8
OracDecor_panel_moldings
 62
    61
420
 14083225
100
AcDbVertex
100
AcDb3dPolylineVertex
 10
-0.000030517578125
 20
7.662632942199707
 30
2.457111120223999
 70
    32
  0
VERTEX
  5
120
330
FA
100
AcDbEntity
  8
OracDecor_panel_moldings
 62
    61
420
 14083225
100
AcDbVertex
100
AcDb3dPolylineVertex
 10
-0.000030517576306
 20
7.298802375793457
 30
1.8105388879776
 70
    32
  0
VERTEX
  5
121
330
FA
100
AcDbEntity
  8
OracDecor_panel_moldings
 62
    61
420
 14083225
100
AcDbVertex
100
AcDb3dPolylineVertex
 10
-0.000030517578125
 20
6.820642471313476
 30
1.243064522743225
 70
    32
  0
VERTEX
  5
122
330
FA
100
AcDbEntity
  8
OracDecor_panel_moldings
 62
    61
420
 14083225
100
AcDbVertex
100
AcDb3dPolylineVertex
 10
-0.000030517578125
 20
6.244999408721923
 30
0.7747723460197449
 70
    32
  0
VERTEX
  5
123
330
FA
100
AcDbEntity
  8
OracDecor_panel_moldings
 62
    61
420
 14083225
100
AcDbVertex
100
AcDb3dPolylineVertex
 10
-0.000030517581763
 20
5.592238426208496
 30
0.4221608638763428
 70
    32
  0
VERTEX
  5
124
330
FA
100
AcDbEntity
  8
OracDecor_panel_moldings
 62
    61
420
 14083225
100
AcDbVertex
100
AcDb3dPolylineVertex
 10
-0.000030517578125
 20
4.885164260864257
 30
0.1974828541278839
 70
    32
  0
VERTEX
  5
125
330
FA
100
AcDbEntity
  8
OracDecor_panel_moldings
 62
    61
420
 14083225
100
AcDbVertex
100
AcDb3dPolylineVertex
 10
-0.000030517578125
 20
4.148437976837158
 30
0.1086309552192688
 70
    32
  0
VERTEX
  5
126
330
FA
100
AcDbEntity
  8
OracDecor_panel_moldings
 62
    61
420
 14083225
100
AcDbVertex
100
AcDb3dPolylineVertex
 10
-0.000030517578125
 20
0.0000233604259847
 30
-0.0000000000008337
 70
    32
  0
VERTEX
  5
127
330
FA
100
AcDbEntity
  8
OracDecor_panel_moldings
 62
    61
420
 14083225
100
AcDbVertex
100
AcDb3dPolylineVertex
 10
-0.000030517578125
 20
0.0000230729910982
 30
15.24176597595215
 70
    32
  0
VERTEX
  5
128
330
FA
100
AcDbEntity
  8
OracDecor_panel_moldings
 62
    61
420
 14083225
100
AcDbVertex
100
AcDb3dPolylineVertex
 10
-0.000030517578125
 20
4.776471138000488
 30
16.5216121673584
 70
    32
  0
VERTEX
  5
129
330
FA
100
AcDbEntity
  8
OracDecor_panel_moldings
 62
    61
420
 14083225
100
AcDbVertex
100
AcDb3dPolylineVertex
 10
-0.000030517578125
 20
5.666785717010498
 30
16.9250316619873
 70
    32
  0
VERTEX
  5
12A
330
FA
100
AcDbEntity
  8
OracDecor_panel_moldings
 62
    61
420
 14083225
100
AcDbVertex
100
AcDb3dPolylineVertex
 10
-0.000030517578125
 20
6.3800630569458
 30
17.59311485290527
 70
    32
  0
VERTEX
  5
12B
330
FA
100
AcDbEntity
  8
OracDecor_panel_moldings
 62
    61
420
 14083225
100
AcDbVertex
100
AcDb3dPolylineVertex
 10
-0.000030517578125
 20
6.840770721435546
 30
18.45499992370605
 70
    32
  0
VERTEX
  5
12C
330
FA
100
AcDbEntity
  8
OracDecor_panel_moldings
 62
    61
420
 14083225
100
AcDbVertex
100
AcDb3dPolylineVertex
 10
-0.000030517578125
 20
7.000014305114746
 30
19.41939353942871
 70
    32
  0
VERTEX
  5
12D
330
FA
100
AcDbEntity
  8
OracDecor_panel_moldings
 62
    61
420
 14083225
100
AcDbVertex
100
AcDb3dPolylineVertex
 10
-0.000030517578125
 20
7.000013828277587
 30
30.52824020385742
 70
    32
  0
VERTEX
  5
12E
330
FA
100
AcDbEntity
  8
OracDecor_panel_moldings
 62
    61
420
 14083225
100
AcDbVertex
100
AcDb3dPolylineVertex
 10
-0.000030517576306
 20
6.840770721435546
 30
31.49263381958008
 70
    32
  0
VERTEX
  5
12F
330
FA
100
AcDbEntity
  8
OracDecor_panel_moldings
 62
    61
420
 14083225
100
AcDbVertex
100
AcDb3dPolylineVertex
 10
-0.000030517578125
 20
6.3800630569458
 30
32.35452270507813
 70
    32
  0
VERTEX
  5
130
330
FA
100
AcDbEntity
  8
OracDecor_panel_moldings
 62
    61
420
 14083225
100
AcDbVertex
100
AcDb3dPolylineVertex
 10
-0.000030517576306
 20
5.666785717010498
 30
33.02260589599609
 70
    32
  0
VERTEX
  5
131
330
FA
100
AcDbEntity
  8
OracDecor_panel_moldings
 62
    61
420
 14083225
100
AcDbVertex
100
AcDb3dPolylineVertex
 10
-0.000030517578125
 20
4.77647066116333
 30
33.426025390625
 70
    32
  0
VERTEX
  5
132
330
FA
100
AcDbEntity
  8
OracDecor_panel_moldings
 62
    61
420
 14083225
100
AcDbVertex
100
AcDb3dPolylineVertex
 10
-0.000030517576306
 20
0.0000248774686042
 30
34.70587158203125
 70
    32
  0
VERTEX
  5
133
330
FA
100
AcDbEntity
  8
OracDecor_panel_moldings
 62
    61
420
 14083225
100
AcDbVertex
100
AcDb3dPolylineVertex
 10
-0.000030517578125
 20
0.0000255437080341
 30
49.9476318359375
 70
    32
  0
VERTEX
  5
134
330
FA
100
AcDbEntity
  8
OracDecor_panel_moldings
 62
    61
420
 14083225
100
AcDbVertex
100
AcDb3dPolylineVertex
 10
-0.000030517578125
 20
4.148440361022949
 30
49.83900451660156
 70
    32
  0
VERTEX
  5
135
330
FA
100
AcDbEntity
  8
OracDecor_panel_moldings
 62
    61
420
 14083225
100
AcDbVertex
100
AcDb3dPolylineVertex
 10
-0.000030517578125
 20
4.885167121887207
 30
49.75015258789063
 70
    32
  0
VERTEX
  5
136
330
FA
100
AcDbEntity
  8
OracDecor_panel_moldings
 62
    61
420
 14083225
100
AcDbVertex
100
AcDb3dPolylineVertex
 10
-0.000030517578125
 20
5.592241287231445
 30
49.52547454833984
 70
    32
  0
VERTEX
  5
137
330
FA
100
AcDbEntity
  8
OracDecor_panel_moldings
 62
    61
420
 14083225
100
AcDbVertex
100
AcDb3dPolylineVertex
 10
-0.000030517578125
 20
6.245001792907714
 30
49.17286682128906
 70
    32
  0
VERTEX
  5
138
330
FA
100
AcDbEntity
  8
OracDecor_panel_moldings
 62
    61
420
 14083225
100
AcDbVertex
100
AcDb3dPolylineVertex
 10
-0.000030517578125
 20
6.820644855499267
 30
48.70457458496094
 70
    32
  0
VERTEX
  5
139
330
FA
100
AcDbEntity
  8
OracDecor_panel_moldings
 62
    61
420
 14083225
100
AcDbVertex
100
AcDb3dPolylineVertex
 10
-0.000030517578125
 20
7.298804283142089
 30
48.13710021972656
 70
    32
  0
VERTEX
  5
13A
330
FA
100
AcDbEntity
  8
OracDecor_panel_moldings
 62
    61
420
 14083225
100
AcDbVertex
100
AcDb3dPolylineVertex
 10
-0.000030517578125
 20
7.662634849548339
 30
47.49052429199219
 70
    32
  0
VERTEX
  5
13B
330
FA
100
AcDbEntity
  8
OracDecor_panel_moldings
 62
    61
420
 14083225
100
AcDbVertex
100
AcDb3dPolylineVertex
 10
-0.000030517578125
 20
7.899487018585205
 30
46.78743743896484
 70
    32
  0
VERTEX
  5
13C
330
FA
100
AcDbEntity
  8
OracDecor_panel_moldings
 62
    61
420
 14083225
100
AcDbVertex
100
AcDb3dPolylineVertex
 10
-0.000030517576306
 20
8.001051902770996
 30
46.05235290527343
 70
    32
  0
VERTEX
  5
13D
330
FA
100
AcDbEntity
  8
OracDecor_panel_moldings
 62
    61
420
 14083225
100
AcDbVertex
100
AcDb3dPolylineVertex
 10
-0.000030517576306
 20
11.00002574920654
 30
45.97382354736327
 70
    32
  0
VERTEX
  5
13E
330
FA
100
AcDbEntity
  8
OracDecor_panel_moldings
 62
    61
420
 14083225
100
AcDbVertex
100
AcDb3dPolylineVertex
 10
-0.000030517578125
 20
11.30021095275879
 30
44.07854843139648
 70
    32
  0
VERTEX
  5
13F
330
FA
100
AcDbEntity
  8
OracDecor_panel_moldings
 62
    61
420
 14083225
100
AcDbVertex
100
AcDb3dPolylineVertex
 10
-0.000030517576306
 20
11.65670013427734
 30
42.98139190673828
 70
    32
  0
VERTEX
  5
140
330
FA
100
AcDbEntity
  8
OracDecor_panel_moldings
 62
    61
420
 14083225
100
AcDbVertex
100
AcDb3dPolylineVertex
 10
-0.000030517578125
 20
12.26282215118408
 30
41.79180908203124
 70
    32
  0
VERTEX
  5
141
330
FA
100
AcDbEntity
  8
OracDecor_panel_moldings
 62
    61
420
 14083225
100
AcDbVertex
100
AcDb3dPolylineVertex
 10
-0.000030517576306
 20
12.94090270996093
 30
40.8585090637207
 70
    32
  0
VERTEX
  5
142
330
FA
100
AcDbEntity
  8
OracDecor_panel_moldings
 62
    61
420
 14083225
100
AcDbVertex
100
AcDb3dPolylineVertex
 10
-0.000030517576306
 20
13.8847131729126
 30
39.91469955444336
 70
    32
  0
VERTEX
  5
143
330
FA
100
AcDbEntity
  8
OracDecor_panel_moldings
 62
    61
420
 14083225
100
AcDbVertex
100
AcDb3dPolylineVertex
 10
-0.0000152587890625
 20
14.81801033020019
 30
39.23661804199219
 70
    32
  0
VERTEX
  5
144
330
FA
100
AcDbEntity
  8
OracDecor_panel_moldings
 62
    61
420
 14083225
100
AcDbVertex
100
AcDb3dPolylineVertex
 10
0.000015258788153
 20
16.00759506225586
 30
38.6304931640625
 70
    32
  0
SEQEND
  5
145
330
FA
100
AcDbEntity
  8
OracDecor_panel_moldings
 62
    61
420
 14083225
  0
ENDSEC
  0
SECTION
  2
OBJECTS
  0
DICTIONARY
  5
C
330
0
100
AcDbDictionary
281
     1
  3
ACAD_COLOR
350
DC
  3
ACAD_DETAILVIEWSTYLE
350
F5
  3
ACAD_GROUP
350
D
  3
ACAD_LAYOUT
350
1A
  3
ACAD_MATERIAL
350
AA
  3
ACAD_MLEADERSTYLE
350
F1
  3
ACAD_MLINESTYLE
350
17
  3
ACAD_PLOTSETTINGS
350
19
  3
ACAD_PLOTSTYLENAME
350
E
  3
ACAD_SCALELIST
350
DF
  3
ACAD_SECTIONVIEWSTYLE
350
F3
  3
ACAD_TABLESTYLE
350
DD
  3
ACAD_VISUALSTYLE
350
C3
  3
ACDB_RECOMPOSE_DATA
350
152
  3
AcDbVariableDictionary
350
146
  0
DICTIONARY
  5
DC
102
{ACAD_REACTORS
330
C
102
}
330
C
100
AcDbDictionary
281
     1
  0
DICTIONARY
  5
F5
102
{ACAD_REACTORS
330
C
102
}
330
C
100
AcDbDictionary
281
     1
  3
Imperial24
350
F6
  0
DICTIONARY
  5
D
102
{ACAD_REACTORS
330
C
102
}
330
C
100
AcDbDictionary
281
     1
  0
DICTIONARY
  5
1A
102
{ACAD_REACTORS
330
C
102
}
330
C
100
AcDbDictionary
281
     1
  3
Layout1
350
1E
  3
Layout2
350
26
  3
Model
350
22
  0
DICTIONARY
  5
AA
102
{ACAD_REACTORS
330
C
102
}
330
C
100
AcDbDictionary
281
     1
  3
ByBlock
350
B3
  3
ByLayer
350
AB
  3
Global
350
BB
  0
DICTIONARY
  5
F1
102
{ACAD_REACTORS
330
C
102
}
330
C
100
AcDbDictionary
281
     1
  3
Standard
350
F2
  0
DICTIONARY
  5
17
102
{ACAD_REACTORS
330
C
102
}
330
C
100
AcDbDictionary
281
     1
  3
Standard
350
18
  0
DICTIONARY
  5
19
102
{ACAD_REACTORS
330
C
102
}
330
C
100
AcDbDictionary
281
     1
  0
ACDBDICTIONARYWDFLT
  5
E
102
{ACAD_REACTORS
330
C
102
}
330
C
100
AcDbDictionary
281
     1
  3
ByLayer
350
2D
  3
Normal
350
F
100
AcDbDictionaryWithDefault
340
F
  0
DICTIONARY
  5
DF
102
{ACAD_REACTORS
330
C
102
}
330
C
100
AcDbDictionary
281
     1
  3
A0
350
E0
  3
A1
350
E1
  3
A2
350
E2
  3
A3
350
E3
  3
A4
350
E4
  3
A5
350
E5
  3
A6
350
E6
  3
A7
350
E7
  3
A8
350
E8
  3
A9
350
E9
  3
B0
350
EA
  3
B1
350
EB
  3
B2
350
EC
  3
B3
350
ED
  3
B4
350
EE
  3
B5
350
EF
  3
B6
350
F0
  0
DICTIONARY
  5
F3
102
{ACAD_REACTORS
330
C
102
}
330
C
100
AcDbDictionary
281
     1
  3
Imperial24
350
F4
  0
DICTIONARY
  5
DD
102
{ACAD_REACTORS
330
C
102
}
330
C
100
AcDbDictionary
281
     1
  3
Standard
350
DE
  0
DICTIONARY
  5
C3
102
{ACAD_REACTORS
330
C
102
}
330
C
100
AcDbDictionary
281
     1
  3
2dWireframe
350
C9
  3
Basic
350
C8
  3
Brighten
350
CF
  3
ColorChange
350
D3
  3
Conceptual
350
CC
  3
Dim
350
CE
  3
EdgeColorOff
350
DB
  3
Facepattern
350
D2
  3
Flat
350
C4
  3
FlatWithEdges
350
C5
  3
Gouraud
350
C6
  3
GouraudWithEdges
350
C7
  3
Hidden
350
CB
  3
JitterOff
350
D9
  3
Linepattern
350
D1
  3
OverhangOff
350
DA
  3
Realistic
350
CD
  3
Shaded
350
D8
  3
Shaded with edges
350
D7
  3
Shades of Gray
350
D4
  3
Sketchy
350
D5
  3
Thicken
350
D0
  3
Wireframe
350
CA
  3
X-Ray
350
D6
  0
XRECORD
  5
152
102
{ACAD_REACTORS
330
C
102
}
330
C
100
AcDbXrecord
280
     1
 90
        1
330
DE
  0
DICTIONARY
  5
146
102
{ACAD_REACTORS
330
C
102
}
330
C
100
AcDbDictionary
281
     1
  3
CANNOSCALE
350
14C
  3
CMLEADERSTYLE
350
148
  3
CTABLESTYLE
350
147
  3
CVIEWDETAILSTYLE
350
149
  3
CVIEWSECTIONSTYLE
350
14A
  3
LAYEREVAL
350
14E
  3
LAYERNOTIFY
350
14F
  3
LIGHTINGUNITS
350
14D
  3
MSLTSCALE
350
14B
  0
ACDBDETAILVIEWSTYLE
  5
F6
102
{ACAD_XDICTIONARY
360
187
102
}
102
{ACAD_REACTORS
330
F5
102
}
330
F5
100
AcDbModelDocViewStyle
 70
     0
  3
Imperial24
290
     0
100
AcDbDetailViewStyle
 70
     0
 71
     0
 90
        3
 71
     1
340
11
 62
   256
 40
0.24
340
0
 62
   256
 40
0.24
300

 40
0.36
280
     3
 71
     2
340
16
 90
       25
 62
   256
 71
     3
340
11
 62
   256
 40
0.24
 90
        1
 40
0.75
 90
        1
300
%<\AcVar ViewType \f "%tc1">% %<\AcVar ViewDetailId>%\PSCALE %<\AcVar ViewScale \f "%sn">%
 71
     4
340
16
 90
       25
 62
   256
340
16
 90
       25
 62
   256
280
     0
  0
LAYOUT
  5
1E
102
{ACAD_REACTORS
330
1A
102
}
330
1A
100
AcDbPlotSettings
  1

  2
\\KTXNTBDC\CASF2PN1
  4

  6

 40
0.0
 41
0.0
 42
0.0
 43
0.0
 44
0.0
 45
0.0
 46
0.0
 47
0.0
 48
0.0
 49
0.0
140
0.0
141
0.0
142
1.0
143
1.0
 70
   688
 72
     0
 73
     0
 74
     5
  7

 75
    16
147
1.0
 76
     0
 77
     2
 78
   300
148
0.0
149
0.0
100
AcDbLayout
  1
Layout1
 70
     1
 71
     1
 10
0.0
 20
0.0
 11
12.0
 21
9.0
 12
0.0
 22
0.0
 32
0.0
 14
1.000000000000000E+20
 24
1.000000000000000E+20
 34
1.000000000000000E+20
 15
-1.000000000000000E+20
 25
-1.000000000000000E+20
 35
-1.000000000000000E+20
146
0.0
 13
0.0
 23
0.0
 33
0.0
 16
1.0
 26
0.0
 36
0.0
 17
0.0
 27
1.0
 37
0.0
 76
     0
330
1B
  0
LAYOUT
  5
26
102
{ACAD_REACTORS
330
1A
102
}
330
1A
100
AcDbPlotSettings
  1

  2
\\KTXNTBDC\CASF2PN1
  4

  6

 40
0.0
 41
0.0
 42
0.0
 43
0.0
 44
0.0
 45
0.0
 46
0.0
 47
0.0
 48
0.0
 49
0.0
140
0.0
141
0.0
142
1.0
143
1.0
 70
   688
 72
     0
 73
     0
 74
     5
  7

 75
    16
147
1.0
 76
     0
 77
     2
 78
   300
148
0.0
149
0.0
100
AcDbLayout
  1
Layout2
 70
     1
 71
     2
 10
0.0
 20
0.0
 11
12.0
 21
9.0
 12
0.0
 22
0.0
 32
0.0
 14
0.0
 24
0.0
 34
0.0
 15
0.0
 25
0.0
 35
0.0
146
0.0
 13
0.0
 23
0.0
 33
0.0
 16
1.0
 26
0.0
 36
0.0
 17
0.0
 27
1.0
 37
0.0
 76
     0
330
23
  0
LAYOUT
  5
22
102
{ACAD_REACTORS
330
1A
102
}
330
1A
100
AcDbPlotSettings
  1

  2
\\KTXNTBDC\CASF2PN1
  4

  6

 40
0.0
 41
0.0
 42
0.0
 43
0.0
 44
0.0
 45
0.0
 46
0.0
 47
0.0
 48
0.0
 49
0.0
140
0.0
141
0.0
142
1.0
143
1.0
 70
  1712
 72
     0
 73
     0
 74
     0
  7

 75
     0
147
1.0
 76
     0
 77
     2
 78
   300
148
0.0
149
0.0
100
AcDbLayout
  1
Model
 70
     1
 71
     0
 10
0.0
 20
0.0
 11
12.0
 21
9.0
 12
0.0
 22
0.0
 32
0.0
 14
0.0
 24
0.0
 34
0.0
 15
0.0
 25
0.0
 35
0.0
146
0.0
 13
0.0
 23
0.0
 33
0.0
 16
1.0
 26
0.0
 36
0.0
 17
0.0
 27
1.0
 37
0.0
 76
     0
330
1F
  0
MATERIAL
  5
B3
102
{ACAD_XDICTIONARY
360
B4
102
}
102
{ACAD_REACTORS
330
AA
102
}
330
AA
100
AcDbMaterial
  1
ByBlock
 72
     0
 43
0.0208333333333333
 43
0.0
 43
0.0
 43
0.0
 43
0.0
 43
0.0208333333333333
 43
0.0
 43
0.0
 43
0.0
 43
0.0
 43
1.0
 43
0.0
 43
0.0
 43
0.0
 43
0.0
 43
1.0
 77
     0
 47
0.0208333333333333
 47
0.0
 47
0.0
 47
0.0
 47
0.0
 47
0.0208333333333333
 47
0.0
 47
0.0
 47
0.0
 47
0.0
 47
1.0
 47
0.0
 47
0.0
 47
0.0
 47
0.0
 47
1.0
171
     0
 49
0.0208333333333333
 49
0.0
 49
0.0
 49
0.0
 49
0.0
 49
0.0208333333333333
 49
0.0
 49
0.0
 49
0.0
 49
0.0
 49
1.0
 49
0.0
 49
0.0
 49
0.0
 49
0.0
 49
1.0
175
     0
142
0.0208333333333333
142
0.0
142
0.0
142
0.0
142
0.0
142
0.0208333333333333
142
0.0
142
0.0
142
0.0
142
0.0
142
1.0
142
0.0
142
0.0
142
0.0
142
0.0
142
1.0
179
     0
144
0.0208333333333333
144
0.0
144
0.0
144
0.0
144
0.0
144
0.0208333333333333
144
0.0
144
0.0
144
0.0
144
0.0
144
1.0
144
0.0
144
0.0
144
0.0
144
0.0
144
1.0
147
0.0208333333333333
147
0.0
147
0.0
147
0.0
147
0.0
147
0.0208333333333333
147
0.0
147
0.0
147
0.0
147
0.0
147
1.0
147
0.0
147
0.0
147
0.0
147
0.0
147
1.0
  0
MATERIAL
  5
AB
102
{ACAD_XDICTIONARY
360
AC
102
}
102
{ACAD_REACTORS
330
AA
102
}
330
AA
100
AcDbMaterial
  1
ByLayer
 72
     0
 43
0.0208333333333333
 43
0.0
 43
0.0
 43
0.0
 43
0.0
 43
0.0208333333333333
 43
0.0
 43
0.0
 43
0.0
 43
0.0
 43
1.0
 43
0.0
 43
0.0
 43
0.0
 43
0.0
 43
1.0
 77
     0
 47
0.0208333333333333
 47
0.0
 47
0.0
 47
0.0
 47
0.0
 47
0.0208333333333333
 47
0.0
 47
0.0
 47
0.0
 47
0.0
 47
1.0
 47
0.0
 47
0.0
 47
0.0
 47
0.0
 47
1.0
171
     0
 49
0.0208333333333333
 49
0.0
 49
0.0
 49
0.0
 49
0.0
 49
0.0208333333333333
 49
0.0
 49
0.0
 49
0.0
 49
0.0
 49
1.0
 49
0.0
 49
0.0
 49
0.0
 49
0.0
 49
1.0
175
     0
142
0.0208333333333333
142
0.0
142
0.0
142
0.0
142
0.0
142
0.0208333333333333
142
0.0
142
0.0
142
0.0
142
0.0
142
1.0
142
0.0
142
0.0
142
0.0
142
0.0
142
1.0
179
     0
144
0.0208333333333333
144
0.0
144
0.0
144
0.0
144
0.0
144
0.0208333333333333
144
0.0
144
0.0
144
0.0
144
0.0
144
1.0
144
0.0
144
0.0
144
0.0
144
0.0
144
1.0
147
0.0208333333333333
147
0.0
147
0.0
147
0.0
147
0.0
147
0.0208333333333333
147
0.0
147
0.0
147
0.0
147
0.0
147
1.0
147
0.0
147
0.0
147
0.0
147
0.0
147
1.0
  0
MATERIAL
  5
BB
102
{ACAD_XDICTIONARY
360
BC
102
}
102
{ACAD_REACTORS
330
AA
102
}
330
AA
100
AcDbMaterial
  1
Global
 72
     0
 43
0.0208333333333333
 43
0.0
 43
0.0
 43
0.0
 43
0.0
 43
0.0208333333333333
 43
0.0
 43
0.0
 43
0.0
 43
0.0
 43
1.0
 43
0.0
 43
0.0
 43
0.0
 43
0.0
 43
1.0
 77
     0
 47
0.0208333333333333
 47
0.0
 47
0.0
 47
0.0
 47
0.0
 47
0.0208333333333333
 47
0.0
 47
0.0
 47
0.0
 47
0.0
 47
1.0
 47
0.0
 47
0.0
 47
0.0
 47
0.0
 47
1.0
171
     0
 49
0.0208333333333333
 49
0.0
 49
0.0
 49
0.0
 49
0.0
 49
0.0208333333333333
 49
0.0
 49
0.0
 49
0.0
 49
0.0
 49
1.0
 49
0.0
 49
0.0
 49
0.0
 49
0.0
 49
1.0
175
     0
142
0.0208333333333333
142
0.0
142
0.0
142
0.0
142
0.0
142
0.0208333333333333
142
0.0
142
0.0
142
0.0
142
0.0
142
1.0
142
0.0
142
0.0
142
0.0
142
0.0
142
1.0
179
     0
144
0.0208333333333333
144
0.0
144
0.0
144
0.0
144
0.0
144
0.0208333333333333
144
0.0
144
0.0
144
0.0
144
0.0
144
1.0
144
0.0
144
0.0
144
0.0
144
0.0
144
1.0
147
0.0208333333333333
147
0.0
147
0.0
147
0.0
147
0.0
147
0.0208333333333333
147
0.0
147
0.0
147
0.0
147
0.0
147
1.0
147
0.0
147
0.0
147
0.0
147
0.0
147
1.0
  0
MLEADERSTYLE
  5
F2
102
{ACAD_XDICTIONARY
360
183
102
}
102
{ACAD_REACTORS
330
F1
102
}
330
F1
100
AcDbMLeaderStyle
179
     2
170
     2
171
     1
172
     0
 90
        2
 40
0.0
 41
0.0
173
     1
 91
-1056964608
340
14
 92
       -2
290
     1
 42
0.09
291
     1
 43
0.36
  3
Standard
 44
0.18
300

342
11
174
     1
178
     6
175
     1
176
     0
 93
-1056964608
 45
0.18
292
     0
297
     0
 46
0.18
 94
-1056964608
 47
1.0
 49
1.0
140
1.0
293
     1
141
0.0
294
     1
177
     0
142
1.0
295
     0
296
     0
143
0.125
271
     0
272
     9
273
     9
  0
MLINESTYLE
  5
18
102
{ACAD_REACTORS
330
17
102
}
330
17
100
AcDbMlineStyle
  2
STANDARD
 70
     0
  3

 62
   256
 51
90.0
 52
90.0
 71
     2
 49
0.5
 62
   256
  6
BYLAYER
 49
-0.5
 62
   256
  6
BYLAYER
  0
ACDBPLACEHOLDER
  5
2D
102
{ACAD_REACTORS
330
E
102
}
330
E
  0
ACDBPLACEHOLDER
  5
F
102
{ACAD_REACTORS
330
E
102
}
330
E
  0
SCALE
  5
E0
102
{ACAD_REACTORS
330
DF
102
}
330
DF
100
AcDbScale
 70
     0
300
1:1
140
1.0
141
1.0
290
     1
  0
SCALE
  5
E1
102
{ACAD_REACTORS
330
DF
102
}
330
DF
100
AcDbScale
 70
     0
300
1/128" = 1'-0"
140
0.0078125
141
12.0
290
     0
  0
SCALE
  5
E2
102
{ACAD_REACTORS
330
DF
102
}
330
DF
100
AcDbScale
 70
     0
300
1/64" = 1'-0"
140
0.015625
141
12.0
290
     0
  0
SCALE
  5
E3
102
{ACAD_REACTORS
330
DF
102
}
330
DF
100
AcDbScale
 70
     0
300
1/32" = 1'-0"
140
0.03125
141
12.0
290
     0
  0
SCALE
  5
E4
102
{ACAD_REACTORS
330
DF
102
}
330
DF
100
AcDbScale
 70
     0
300
1/16" = 1'-0"
140
0.0625
141
12.0
290
     0
  0
SCALE
  5
E5
102
{ACAD_REACTORS
330
DF
102
}
330
DF
100
AcDbScale
 70
     0
300
3/32" = 1'-0"
140
0.09375
141
12.0
290
     0
  0
SCALE
  5
E6
102
{ACAD_REACTORS
330
DF
102
}
330
DF
100
AcDbScale
 70
     0
300
1/8" = 1'-0"
140
0.125
141
12.0
290
     0
  0
SCALE
  5
E7
102
{ACAD_REACTORS
330
DF
102
}
330
DF
100
AcDbScale
 70
     0
300
3/16" = 1'-0"
140
0.1875
141
12.0
290
     0
  0
SCALE
  5
E8
102
{ACAD_REACTORS
330
DF
102
}
330
DF
100
AcDbScale
 70
     0
300
1/4" = 1'-0"
140
0.25
141
12.0
290
     0
  0
SCALE
  5
E9
102
{ACAD_REACTORS
330
DF
102
}
330
DF
100
AcDbScale
 70
     0
300
3/8" = 1'-0"
140
0.375
141
12.0
290
     0
  0
SCALE
  5
EA
102
{ACAD_REACTORS
330
DF
102
}
330
DF
100
AcDbScale
 70
     0
300
1/2" = 1'-0"
140
0.5
141
12.0
290
     0
  0
SCALE
  5
EB
102
{ACAD_REACTORS
330
DF
102
}
330
DF
100
AcDbScale
 70
     0
300
3/4" = 1'-0"
140
0.75
141
12.0
290
     0
  0
SCALE
  5
EC
102
{ACAD_REACTORS
330
DF
102
}
330
DF
100
AcDbScale
 70
     0
300
1" = 1'-0"
140
1.0
141
12.0
290
     0
  0
SCALE
  5
ED
102
{ACAD_REACTORS
330
DF
102
}
330
DF
100
AcDbScale
 70
     0
300
1-1/2" = 1'-0"
140
1.5
141
12.0
290
     0
  0
SCALE
  5
EE
102
{ACAD_REACTORS
330
DF
102
}
330
DF
100
AcDbScale
 70
     0
300
3" = 1'-0"
140
3.0
141
12.0
290
     0
  0
SCALE
  5
EF
102
{ACAD_REACTORS
330
DF
102
}
330
DF
100
AcDbScale
 70
     0
300
6" = 1'-0"
140
6.0
141
12.0
290
     0
  0
SCALE
  5
F0
102
{ACAD_REACTORS
330
DF
102
}
330
DF
100
AcDbScale
 70
     0
300
1'-0" = 1'-0"
140
12.0
141
12.0
290
     0
  0
ACDBSECTIONVIEWSTYLE
  5
F4
102
{ACAD_XDICTIONARY
360
185
102
}
102
{ACAD_REACTORS
330
F3
102
}
330
F3
100
AcDbModelDocViewStyle
 70
     0
  3
Imperial24
290
     0
100
AcDbSectionViewStyle
 70
     0
 71
     0
 90
       78
 71
     1
340
11
 62
   256
 40
0.24
340
0
340
0
 62
   256
 40
0.24
300
I, O, Q, S, X, Z
 40
0.48
 90
        3
 40
0.18
 90
        1
 71
     2
340
16
 90
       25
 62
   256
340
16
 90
       50
 62
   256
 40
0.24
 40
0.0
 40
0.24
 71
     3
340
11
 62
   256
 40
0.24
 90
        1
 40
0.75
 90
        1
300
%<\AcVar ViewType \f "%tc1">% %<\AcVar ViewSectionStartId>%-%<\AcVar ViewSectionEndId>%\PSCALE %<\AcVar ViewScale \f "%sn">%
 71
     4
 62
   256
 62
   257
300
ANSI31
 40
1.0
 90
        0
290
     0
290
     0
 90
        6
 40
0.0
 40
1.570796326794896
 40
0.2617993877991494
 40
1.308996938995747
 40
-0.2617993877991494
 40
1.832595714594046
  0
TABLESTYLE
  5
DE
102
{ACAD_XDICTIONARY
360
150
102
}
102
{ACAD_REACTORS
330
DD
102
}
330
DD
100
AcDbTableStyle
280
     0
  3
Standard
 70
     0
 71
     0
 40
0.06
 41
0.06
280
     0
281
     0
  7
Standard
140
0.18
170
     2
 62
     0
 63
     7
283
     0
 90
      512
 91
        0
  1

274
    -2
284
     1
 64
     0
275
    -2
285
     1
 65
     0
276
    -2
286
     1
 66
     0
277
    -2
287
     1
 67
     0
278
    -2
288
     1
 68
     0
279
    -2
289
     1
 69
     0
  7
Standard
140
0.25
170
     5
 62
     0
 63
     7
283
     0
 90
      512
 91
        0
  1

274
    -2
284
     1
 64
     0
275
    -2
285
     1
 65
     0
276
    -2
286
     1
 66
     0
277
    -2
287
     1
 67
     0
278
    -2
288
     1
 68
     0
279
    -2
289
     1
 69
     0
  7
Standard
140
0.18
170
     5
 62
     0
 63
     7
283
     0
 90
      512
 91
        0
  1

274
    -2
284
     1
 64
     0
275
    -2
285
     1
 65
     0
276
    -2
286
     1
 66
     0
277
    -2
287
     1
 67
     0
278
    -2
288
     1
 68
     0
279
    -2
289
     1
 69
     0
  0
VISUALSTYLE
  5
C9
102
{ACAD_XDICTIONARY
360
15D
102
}
102
{ACAD_REACTORS
330
C3
102
}
330
C3
100
AcDbVisualStyle
  2
2dWireframe
 70
     4
177
     2
291
     0
 71
     0
176
     1
 72
     2
176
     1
 73
     0
176
     1
 90
        0
176
     1
 40
0.6
176
     1
 41
30.0
176
     1
 63
     7
421
 16777215
176
     1
 74
     1
176
     1
 91
        4
176
     1
 64
     7
176
     1
 65
   257
176
     1
 75
     1
176
     1
175
     1
176
     1
 42
1.0
176
     1
 92
        0
176
     1
 66
   257
176
     1
 43
1.0
176
     1
 76
     1
176
     1
 77
     6
176
     1
 78
     2
176
     1
 67
     7
176
     1
 79
     5
176
     1
170
     0
176
     1
171
     0
176
     1
290
     0
176
     1
 93
        1
176
     1
 44
0.0
176
     1
173
     0
176
     1
1001
ACAD
1000
AcDbSavedByObjectVersion
1070
     0
  0
VISUALSTYLE
  5
C8
102
{ACAD_XDICTIONARY
360
15B
102
}
102
{ACAD_REACTORS
330
C3
102
}
330
C3
100
AcDbVisualStyle
  2
Basic
 70
     7
177
     2
291
     1
 71
     1
176
     1
 72
     0
176
     1
 73
     1
176
     1
 90
        0
176
     1
 40
0.6
176
     1
 41
30.0
176
     1
 63
     7
421
 16777215
176
     1
 74
     0
176
     1
 91
        4
176
     1
 64
     7
176
     1
 65
   257
176
     1
 75
     1
176
     1
175
     1
176
     1
 42
1.0
176
     1
 92
        8
176
     1
 66
     7
176
     1
 43
1.0
176
     1
 76
     1
176
     1
 77
     6
176
     1
 78
     2
176
     1
 67
     7
176
     1
 79
     5
176
     1
170
     0
176
     1
171
     0
176
     1
290
     0
176
     1
 93
        1
176
     1
 44
0.0
176
     1
173
     0
176
     1
1001
ACAD
1000
AcDbSavedByObjectVersion
1070
     0
  0
VISUALSTYLE
  5
CF
102
{ACAD_XDICTIONARY
360
169
102
}
102
{ACAD_REACTORS
330
C3
102
}
330
C3
100
AcDbVisualStyle
  2
Brighten
 70
    12
177
     2
291
     1
 71
     2
176
     1
 72
     2
176
     1
 73
     0
176
     1
 90
        0
176
     1
 40
0.6
176
     1
 41
30.0
176
     1
 63
     7
421
 16777215
176
     1
 74
     1
176
     1
 91
        4
176
     1
 64
     7
176
     1
 65
   257
176
     1
 75
     1
176
     1
175
     1
176
     1
 42
1.0
176
     1
 92
        8
176
     1
 66
     7
176
     1
 43
1.0
176
     1
 76
     1
176
     1
 77
     6
176
     1
 78
     2
176
     1
 67
     7
176
     1
 79
     5
176
     1
170
     0
176
     1
171
     0
176
     1
290
     0
176
     1
 93
        1
176
     1
 44
50.0
176
     1
173
     0
176
     1
1001
ACAD
1000
AcDbSavedByObjectVersion
1070
     0
  0
VISUALSTYLE
  5
D3
102
{ACAD_XDICTIONARY
360
171
102
}
102
{ACAD_REACTORS
330
C3
102
}
330
C3
100
AcDbVisualStyle
  2
ColorChange
 70
    16
177
     2
291
     1
 71
     2
176
     1
 72
     2
176
     1
 73
     3
176
     1
 90
        0
176
     1
 40
0.6
176
     1
 41
30.0
176
     1
 63
     8
421
  8421504
176
     1
 74
     1
176
     1
 91
        4
176
     1
 64
     7
176
     1
 65
   257
176
     1
 75
     1
176
     1
175
     1
176
     1
 42
1.0
176
     1
 92
        8
176
     1
 66
     8
424
  8421504
176
     1
 43
1.0
176
     1
 76
     1
176
     1
 77
     6
176
     1
 78
     2
176
     1
 67
     7
176
     1
 79
     5
176
     1
170
     0
176
     1
171
     0
176
     1
290
     0
176
     1
 93
        1
176
     1
 44
0.0
176
     1
173
     0
176
     1
1001
ACAD
1000
AcDbSavedByObjectVersion
1070
     0
  0
VISUALSTYLE
  5
CC
102
{ACAD_XDICTIONARY
360
163
102
}
102
{ACAD_REACTORS
330
C3
102
}
330
C3
100
AcDbVisualStyle
  2
Conceptual
 70
     9
177
     2
291
     0
 71
     3
176
     1
 72
     2
176
     1
 73
     0
176
     1
 90
        0
176
     1
 40
0.6
176
     1
 41
30.0
176
     1
 63
     7
421
 16777215
176
     1
 74
     2
176
     1
 91
        2
176
     1
 64
     7
176
     1
 65
   257
176
     1
 75
     1
176
     1
175
     1
176
     1
 42
179.0
176
     1
 92
        8
176
     1
 66
     7
176
     1
 43
1.0
176
     1
 76
     1
176
     1
 77
     6
176
     1
 78
     2
176
     1
 67
     7
176
     1
 79
     3
176
     1
170
     0
176
     1
171
     0
176
     1
290
     0
176
     1
 93
        1
176
     1
 44
0.0
176
     1
173
     0
176
     1
1001
ACAD
1000
AcDbSavedByObjectVersion
1070
     0
  0
VISUALSTYLE
  5
CE
102
{ACAD_XDICTIONARY
360
167
102
}
102
{ACAD_REACTORS
330
C3
102
}
330
C3
100
AcDbVisualStyle
  2
Dim
 70
    11
177
     2
291
     1
 71
     2
176
     1
 72
     2
176
     1
 73
     0
176
     1
 90
        0
176
     1
 40
0.6
176
     1
 41
30.0
176
     1
 63
     7
421
 16777215
176
     1
 74
     1
176
     1
 91
        4
176
     1
 64
     7
176
     1
 65
   257
176
     1
 75
     1
176
     1
175
     1
176
     1
 42
1.0
176
     1
 92
        8
176
     1
 66
     7
176
     1
 43
1.0
176
     1
 76
     1
176
     1
 77
     6
176
     1
 78
     2
176
     1
 67
     7
176
     1
 79
     5
176
     1
170
     0
176
     1
171
     0
176
     1
290
     0
176
     1
 93
        1
176
     1
 44
-50.0
176
     1
173
     0
176
     1
1001
ACAD
1000
AcDbSavedByObjectVersion
1070
     0
  0
VISUALSTYLE
  5
DB
102
{ACAD_XDICTIONARY
360
181
102
}
102
{ACAD_REACTORS
330
C3
102
}
330
C3
100
AcDbVisualStyle
  2
EdgeColorOff
 70
    22
177
     2
291
     1
 71
     2
176
     0
 72
     2
176
     0
 73
     0
176
     0
 90
        0
176
     0
 40
0.6
176
     0
 41
30.0
176
     0
 63
     7
421
 16777215
176
     0
 74
     1
176
     0
 91
        4
176
     0
 64
     7
176
     0
 65
   257
176
     0
 75
     1
176
     0
175
     1
176
     0
 42
1.0
176
     0
 92
        8
176
     2
 66
     7
176
     0
 43
1.0
176
     0
 76
     1
176
     0
 77
     6
176
     0
 78
     2
176
     0
 67
     7
176
     0
 79
     5
176
     0
170
     0
176
     0
171
     0
176
     0
290
     0
176
     0
 93
        1
176
     0
 44
0.0
176
     0
173
     0
176
     0
1001
ACAD
1000
AcDbSavedByObjectVersion
1070
     0
  0
VISUALSTYLE
  5
D2
102
{ACAD_XDICTIONARY
360
16F
102
}
102
{ACAD_REACTORS
330
C3
102
}
330
C3
100
AcDbVisualStyle
  2
Facepattern
 70
    15
177
     2
291
     1
 71
     2
176
     1
 72
     2
176
     1
 73
     0
176
     1
 90
        0
176
     1
 40
0.6
176
     1
 41
30.0
176
     1
 63
     7
421
 16777215
176
     1
 74
     1
176
     1
 91
        4
176
     1
 64
     7
176
     1
 65
   257
176
     1
 75
     1
176
     1
175
     1
176
     1
 42
1.0
176
     1
 92
        8
176
     1
 66
     7
176
     1
 43
1.0
176
     1
 76
     1
176
     1
 77
     6
176
     1
 78
     2
176
     1
 67
     7
176
     1
 79
     5
176
     1
170
     0
176
     1
171
     0
176
     1
290
     0
176
     1
 93
        1
176
     1
 44
0.0
176
     1
173
     0
176
     1
1001
ACAD
1000
AcDbSavedByObjectVersion
1070
     0
  0
VISUALSTYLE
  5
C4
102
{ACAD_XDICTIONARY
360
153
102
}
102
{ACAD_REACTORS
330
C3
102
}
330
C3
100
AcDbVisualStyle
  2
Flat
 70
     0
177
     2
291
     1
 71
     2
176
     1
 72
     1
176
     1
 73
     1
176
     1
 90
        2
176
     1
 40
0.6
176
     1
 41
30.0
176
     1
 63
     7
421
 16777215
176
     1
 74
     0
176
     1
 91
        0
176
     1
 64
     7
176
     1
 65
   257
176
     1
 75
     1
176
     1
175
     1
176
     1
 42
1.0
176
     1
 92
        8
176
     1
 66
     7
176
     1
 43
1.0
176
     1
 76
     1
176
     1
 77
     6
176
     1
 78
     2
176
     1
 67
     7
176
     1
 79
     5
176
     1
170
     0
176
     1
171
     0
176
     1
290
     0
176
     1
 93
       13
176
     1
 44
0.0
176
     1
173
     0
176
     1
1001
ACAD
1000
AcDbSavedByObjectVersion
1070
     0
  0
VISUALSTYLE
  5
C5
102
{ACAD_XDICTIONARY
360
155
102
}
102
{ACAD_REACTORS
330
C3
102
}
330
C3
100
AcDbVisualStyle
  2
FlatWithEdges
 70
     1
177
     2
291
     1
 71
     2
176
     1
 72
     1
176
     1
 73
     1
176
     1
 90
        2
176
     1
 40
0.6
176
     1
 41
30.0
176
     1
 63
     7
421
 16777215
176
     1
 74
     1
176
     1
 91
        0
176
     1
 64
     7
176
     1
 65
   257
176
     1
 75
     1
176
     1
175
     1
176
     1
 42
1.0
176
     1
 92
        0
176
     1
 66
   257
176
     1
 43
1.0
176
     1
 76
     1
176
     1
 77
     6
176
     1
 78
     2
176
     1
 67
     7
176
     1
 79
     5
176
     1
170
     0
176
     1
171
     0
176
     1
290
     0
176
     1
 93
       13
176
     1
 44
0.0
176
     1
173
     0
176
     1
1001
ACAD
1000
AcDbSavedByObjectVersion
1070
     0
  0
VISUALSTYLE
  5
C6
102
{ACAD_XDICTIONARY
360
157
102
}
102
{ACAD_REACTORS
330
C3
102
}
330
C3
100
AcDbVisualStyle
  2
Gouraud
 70
     2
177
     2
291
     1
 71
     2
176
     1
 72
     2
176
     1
 73
     1
176
     1
 90
        2
176
     1
 40
0.6
176
     1
 41
30.0
176
     1
 63
     7
421
 16777215
176
     1
 74
     0
176
     1
 91
        0
176
     1
 64
     7
176
     1
 65
   257
176
     1
 75
     1
176
     1
175
     1
176
     1
 42
1.0
176
     1
 92
        0
176
     1
 66
     7
176
     1
 43
1.0
176
     1
 76
     1
176
     1
 77
     6
176
     1
 78
     2
176
     1
 67
     7
176
     1
 79
     5
176
     1
170
     0
176
     1
171
     0
176
     1
290
     0
176
     1
 93
       13
176
     1
 44
0.0
176
     1
173
     0
176
     1
1001
ACAD
1000
AcDbSavedByObjectVersion
1070
     0
  0
VISUALSTYLE
  5
C7
102
{ACAD_XDICTIONARY
360
159
102
}
102
{ACAD_REACTORS
330
C3
102
}
330
C3
100
AcDbVisualStyle
  2
GouraudWithEdges
 70
     3
177
     2
291
     1
 71
     2
176
     1
 72
     2
176
     1
 73
     1
176
     1
 90
        2
176
     1
 40
0.6
176
     1
 41
30.0
176
     1
 63
     7
421
 16777215
176
     1
 74
     1
176
     1
 91
        0
176
     1
 64
     7
176
     1
 65
   257
176
     1
 75
     1
176
     1
175
     1
176
     1
 42
1.0
176
     1
 92
        0
176
     1
 66
   257
176
     1
 43
1.0
176
     1
 76
     1
176
     1
 77
     6
176
     1
 78
     2
176
     1
 67
     7
176
     1
 79
     5
176
     1
170
     0
176
     1
171
     0
176
     1
290
     0
176
     1
 93
       13
176
     1
 44
0.0
176
     1
173
     0
176
     1
1001
ACAD
1000
AcDbSavedByObjectVersion
1070
     0
  0
VISUALSTYLE
  5
CB
102
{ACAD_XDICTIONARY
360
161
102
}
102
{ACAD_REACTORS
330
C3
102
}
330
C3
100
AcDbVisualStyle
  2
Hidden
 70
     6
177
     2
291
     0
 71
     1
176
     1
 72
     2
176
     1
 73
     2
176
     1
 90
        0
176
     1
 40
0.6
176
     1
 41
30.0
176
     1
 63
     7
421
 16777215
176
     1
 74
     2
176
     1
 91
        2
176
     1
 64
     7
176
     1
 65
   257
176
     1
 75
     2
176
     1
175
     1
176
     1
 42
40.0
176
     1
 92
        0
176
     1
 66
   257
176
     1
 43
1.0
176
     1
 76
     1
176
     1
 77
     6
176
     1
 78
     2
176
     1
 67
     7
176
     1
 79
     3
176
     1
170
     0
176
     1
171
     0
176
     1
290
     0
176
     1
 93
        1
176
     1
 44
0.0
176
     1
173
     0
176
     1
1001
ACAD
1000
AcDbSavedByObjectVersion
1070
     0
  0
VISUALSTYLE
  5
D9
102
{ACAD_XDICTIONARY
360
17D
102
}
102
{ACAD_REACTORS
330
C3
102
}
330
C3
100
AcDbVisualStyle
  2
JitterOff
 70
    20
177
     2
291
     1
 71
     2
176
     0
 72
     2
176
     0
 73
     0
176
     0
 90
        0
176
     0
 40
0.6
176
     0
 41
30.0
176
     0
 63
     7
421
 16777215
176
     0
 74
     1
176
     0
 91
        4
176
     0
 64
     7
176
     0
 65
   257
176
     0
 75
     1
176
     0
175
     1
176
     0
 42
1.0
176
     0
 92
       10
176
     2
 66
     7
176
     0
 43
1.0
176
     0
 76
     1
176
     0
 77
     6
176
     0
 78
     2
176
     0
 67
     7
176
     0
 79
     5
176
     0
170
     0
176
     0
171
     0
176
     0
290
     0
176
     0
 93
        1
176
     0
 44
0.0
176
     0
173
     0
176
     0
1001
ACAD
1000
AcDbSavedByObjectVersion
1070
     0
  0
VISUALSTYLE
  5
D1
102
{ACAD_XDICTIONARY
360
16D
102
}
102
{ACAD_REACTORS
330
C3
102
}
330
C3
100
AcDbVisualStyle
  2
Linepattern
 70
    14
177
     2
291
     1
 71
     2
176
     1
 72
     2
176
     1
 73
     0
176
     1
 90
        0
176
     1
 40
0.6
176
     1
 41
30.0
176
     1
 63
     7
421
 16777215
176
     1
 74
     1
176
     1
 91
        4
176
     1
 64
     7
176
     1
 65
   257
176
     1
 75
     7
176
     1
175
     7
176
     1
 42
1.0
176
     1
 92
        8
176
     1
 66
     7
176
     1
 43
1.0
176
     1
 76
     1
176
     1
 77
     6
176
     1
 78
     2
176
     1
 67
     7
176
     1
 79
     5
176
     1
170
     0
176
     1
171
     0
176
     1
290
     0
176
     1
 93
        1
176
     1
 44
0.0
176
     1
173
     0
176
     1
1001
ACAD
1000
AcDbSavedByObjectVersion
1070
     0
  0
VISUALSTYLE
  5
DA
102
{ACAD_XDICTIONARY
360
17F
102
}
102
{ACAD_REACTORS
330
C3
102
}
330
C3
100
AcDbVisualStyle
  2
OverhangOff
 70
    21
177
     2
291
     1
 71
     2
176
     0
 72
     2
176
     0
 73
     0
176
     0
 90
        0
176
     0
 40
0.6
176
     0
 41
30.0
176
     0
 63
     7
421
 16777215
176
     0
 74
     1
176
     0
 91
        4
176
     0
 64
     7
176
     0
 65
   257
176
     0
 75
     1
176
     0
175
     1
176
     0
 42
1.0
176
     0
 92
        9
176
     2
 66
     7
176
     0
 43
1.0
176
     0
 76
     1
176
     0
 77
     6
176
     0
 78
     2
176
     0
 67
     7
176
     0
 79
     5
176
     0
170
     0
176
     0
171
     0
176
     0
290
     0
176
     0
 93
        1
176
     0
 44
0.0
176
     0
173
     0
176
     0
1001
ACAD
1000
AcDbSavedByObjectVersion
1070
     0
  0
VISUALSTYLE
  5
CD
102
{ACAD_XDICTIONARY
360
165
102
}
102
{ACAD_REACTORS
330
C3
102
}
330
C3
100
AcDbVisualStyle
  2
Realistic
 70
     8
177
     2
291
     0
 71
     2
176
     1
 72
     3
176
     1
 73
     0
176
     1
 90
        2
176
     1
 40
0.6
176
     1
 41
30.0
176
     1
 63
     7
421
 16777215
176
     1
 74
     0
176
     1
 91
        0
176
     1
 64
     7
176
     1
 65
   257
176
     1
 75
     1
176
     1
175
     1
176
     1
 42
1.0
176
     1
 92
        8
176
     1
 66
   257
176
     1
 43
1.0
176
     1
 76
     1
176
     1
 77
     6
176
     1
 78
     2
176
     1
 67
     7
176
     1
 79
     3
176
     1
170
     0
176
     1
171
     0
176
     1
290
     0
176
     1
 93
       13
176
     1
 44
0.0
176
     1
173
     0
176
     1
1001
ACAD
1000
AcDbSavedByObjectVersion
1070
     0
  0
VISUALSTYLE
  5
D8
102
{ACAD_XDICTIONARY
360
17B
102
}
102
{ACAD_REACTORS
330
C3
102
}
330
C3
100
AcDbVisualStyle
  2
Shaded
 70
    27
177
     2
291
     0
 71
     2
176
     1
 72
     2
176
     1
 73
     1
176
     1
 90
        2
176
     1
 40
0.6
176
     1
 41
30.0
176
     1
 63
     7
421
 16777215
176
     1
 74
     0
176
     1
 91
        4
176
     1
 64
     7
176
     1
 65
   257
176
     1
 75
     1
176
     1
175
     1
176
     1
 42
1.0
176
     1
 92
        8
176
     1
 66
   257
176
     1
 43
1.0
176
     1
 76
     1
176
     1
 77
     6
176
     1
 78
     2
176
     1
 67
     8
425
  7895160
176
     1
 79
     3
176
     1
170
     0
176
     1
171
     0
176
     1
290
     0
176
     1
 93
        5
176
     1
 44
0.0
176
     1
173
     0
176
     1
1001
ACAD
1000
AcDbSavedByObjectVersion
1070
     0
  0
VISUALSTYLE
  5
D7
102
{ACAD_XDICTIONARY
360
179
102
}
102
{ACAD_REACTORS
330
C3
102
}
330
C3
100
AcDbVisualStyle
  2
Shaded with edges
 70
    26
177
     2
291
     0
 71
     2
176
     1
 72
     2
176
     1
 73
     1
176
     1
 90
        2
176
     1
 40
0.6
176
     1
 41
30.0
176
     1
 63
     7
421
 16777215
176
     1
 74
     1
176
     1
 91
       10
176
     1
 64
     7
176
     1
 65
   257
176
     1
 75
     2
176
     1
175
     1
176
     1
 42
1.0
176
     1
 92
        8
176
     1
 66
   257
176
     1
 43
1.0
176
     1
 76
     1
176
     1
 77
     6
176
     1
 78
     2
176
     1
 67
     7
176
     1
 79
     3
176
     1
170
     0
176
     1
171
     0
176
     1
290
     0
176
     1
 93
        5
176
     1
 44
0.0
176
     1
173
     0
176
     1
1001
ACAD
1000
AcDbSavedByObjectVersion
1070
     0
  0
VISUALSTYLE
  5
D4
102
{ACAD_XDICTIONARY
360
173
102
}
102
{ACAD_REACTORS
330
C3
102
}
330
C3
100
AcDbVisualStyle
  2
Shades of Gray
 70
    23
177
     2
291
     0
 71
     2
176
     1
 72
     2
176
     1
 73
     3
176
     1
 90
        0
176
     1
 40
0.6
176
     1
 41
30.0
176
     1
 63
     7
421
 16777215
176
     1
 74
     2
176
     1
 91
        2
176
     1
 64
     7
176
     1
 65
     7
176
     1
 75
     1
176
     1
175
     1
176
     1
 42
40.0
176
     1
 92
        8
176
     1
 66
     7
176
     1
 43
1.0
176
     1
 76
     1
176
     1
 77
     6
176
     1
 78
     2
176
     1
 67
     7
176
     1
 79
     3
176
     1
170
     0
176
     1
171
     0
176
     1
290
     0
176
     1
 93
        1
176
     1
 44
0.0
176
     1
173
     0
176
     1
1001
ACAD
1000
AcDbSavedByObjectVersion
1070
     0
  0
VISUALSTYLE
  5
D5
102
{ACAD_XDICTIONARY
360
175
102
}
102
{ACAD_REACTORS
330
C3
102
}
330
C3
100
AcDbVisualStyle
  2
Sketchy
 70
    24
177
     2
291
     0
 71
     1
176
     1
 72
     2
176
     1
 73
     2
176
     1
 90
        0
176
     1
 40
0.6
176
     1
 41
30.0
176
     1
 63
     7
421
 16777215
176
     1
 74
     2
176
     1
 91
        2
176
     1
 64
     7
176
     1
 65
     7
176
     1
 75
     1
176
     1
175
     1
176
     1
 42
40.0
176
     1
 92
       11
176
     1
 66
     7
176
     1
 43
1.0
176
     1
 76
     1
176
     1
 77
     6
176
     1
 78
     2
176
     1
 67
     7
176
     1
 79
     6
176
     1
170
     0
176
     1
171
     0
176
     1
290
     0
176
     1
 93
        1
176
     1
 44
0.0
176
     1
173
     0
176
     1
1001
ACAD
1000
AcDbSavedByObjectVersion
1070
     0
  0
VISUALSTYLE
  5
D0
102
{ACAD_XDICTIONARY
360
16B
102
}
102
{ACAD_REACTORS
330
C3
102
}
330
C3
100
AcDbVisualStyle
  2
Thicken
 70
    13
177
     2
291
     1
 71
     2
176
     1
 72
     2
176
     1
 73
     0
176
     1
 90
        0
176
     1
 40
0.6
176
     1
 41
30.0
176
     1
 63
     7
421
 16777215
176
     1
 74
     1
176
     1
 91
        4
176
     1
 64
     7
176
     1
 65
   257
176
     1
 75
     1
176
     1
175
     1
176
     1
 42
1.0
176
     1
 92
       12
176
     1
 66
     7
176
     1
 43
1.0
176
     1
 76
     1
176
     1
 77
     6
176
     1
 78
     2
176
     1
 67
     7
176
     1
 79
     5
176
     1
170
     0
176
     1
171
     0
176
     1
290
     0
176
     1
 93
        1
176
     1
 44
0.0
176
     1
173
     0
176
     1
1001
ACAD
1000
AcDbSavedByObjectVersion
1070
     0
  0
VISUALSTYLE
  5
CA
102
{ACAD_XDICTIONARY
360
15F
102
}
102
{ACAD_REACTORS
330
C3
102
}
330
C3
100
AcDbVisualStyle
  2
Wireframe
 70
     5
177
     2
291
     0
 71
     0
176
     1
 72
     2
176
     1
 73
     0
176
     1
 90
        0
176
     1
 40
0.6
176
     1
 41
30.0
176
     1
 63
     7
421
 16777215
176
     1
 74
     1
176
     1
 91
        4
176
     1
 64
     7
176
     1
 65
   257
176
     1
 75
     1
176
     1
175
     1
176
     1
 42
1.0
176
     1
 92
        0
176
     1
 66
   257
176
     1
 43
1.0
176
     1
 76
     1
176
     1
 77
     6
176
     1
 78
     2
176
     1
 67
     7
176
     1
 79
     3
176
     1
170
     0
176
     1
171
     0
176
     1
290
     0
176
     1
 93
        1
176
     1
 44
0.0
176
     1
173
     0
176
     1
1001
ACAD
1000
AcDbSavedByObjectVersion
1070
     0
  0
VISUALSTYLE
  5
D6
102
{ACAD_XDICTIONARY
360
177
102
}
102
{ACAD_REACTORS
330
C3
102
}
330
C3
100
AcDbVisualStyle
  2
X-Ray
 70
    25
177
     2
291
     0
 71
     2
176
     1
 72
     2
176
     1
 73
     1
176
     1
 90
        1
176
     1
 40
0.5
176
     1
 41
30.0
176
     1
 63
     7
421
 16777215
176
     1
 74
     1
176
     1
 91
        0
176
     1
 64
     7
176
     1
 65
   257
176
     1
 75
     1
176
     1
175
     1
176
     1
 42
1.0
176
     1
 92
        8
176
     1
 66
     7
176
     1
 43
1.0
176
     1
 76
     1
176
     1
 77
     6
176
     1
 78
     2
176
     1
 67
     7
176
     1
 79
     3
176
     1
170
     0
176
     1
171
     0
176
     1
290
     0
176
     1
 93
       13
176
     1
 44
0.0
176
     1
173
     0
176
     1
1001
ACAD
1000
AcDbSavedByObjectVersion
1070
     0
  0
DICTIONARYVAR
  5
14C
102
{ACAD_REACTORS
330
146
102
}
330
146
100
DictionaryVariables
280
     0
  1
1:1
  0
DICTIONARYVAR
  5
148
102
{ACAD_REACTORS
330
146
102
}
330
146
100
DictionaryVariables
280
     0
  1
STANDARD
  0
DICTIONARYVAR
  5
147
102
{ACAD_REACTORS
330
146
102
}
330
146
100
DictionaryVariables
280
     0
  1
STANDARD
  0
DICTIONARYVAR
  5
149
102
{ACAD_REACTORS
330
146
102
}
330
146
100
DictionaryVariables
280
     0
  1
Imperial24
  0
DICTIONARYVAR
  5
14A
102
{ACAD_REACTORS
330
146
102
}
330
146
100
DictionaryVariables
280
     0
  1
Imperial24
  0
DICTIONARYVAR
  5
14E
102
{ACAD_REACTORS
330
146
102
}
330
146
100
DictionaryVariables
280
     0
  1
1
  0
DICTIONARYVAR
  5
14F
102
{ACAD_REACTORS
330
146
102
}
330
146
100
DictionaryVariables
280
     0
  1
15
  0
DICTIONARYVAR
  5
14D
102
{ACAD_REACTORS
330
146
102
}
330
146
100
DictionaryVariables
280
     0
  1
0
  0
DICTIONARYVAR
  5
14B
102
{ACAD_REACTORS
330
146
102
}
330
146
100
DictionaryVariables
280
     0
  1
0
  0
DICTIONARY
  5
187
330
F6
100
AcDbDictionary
280
     1
281
     1
  3
ACAD_XREC_ROUNDTRIP
360
188
  0
DICTIONARY
  5
B4
330
B3
100
AcDbDictionary
280
     1
281
     1
  3
BUMPTILE
360
B6
  3
DIFFUSETILE
360
B5
  3
OPACITYTILE
360
B9
  3
REFLECTIONTILE
360
B8
  3
REFRACTIONTILE
360
BA
  3
SPECULARTILE
360
B7
  0
DICTIONARY
  5
AC
330
AB
100
AcDbDictionary
280
     1
281
     1
  3
BUMPTILE
360
AE
  3
DIFFUSETILE
360
AD
  3
OPACITYTILE
360
B1
  3
REFLECTIONTILE
360
B0
  3
REFRACTIONTILE
360
B2
  3
SPECULARTILE
360
AF
  0
DICTIONARY
  5
BC
330
BB
100
AcDbDictionary
280
     1
281
     1
  3
BUMPTILE
360
BE
  3
DIFFUSETILE
360
BD
  3
OPACITYTILE
360
C1
  3
REFLECTIONTILE
360
C0
  3
REFRACTIONTILE
360
C2
  3
SPECULARTILE
360
BF
  0
DICTIONARY
  5
183
330
F2
100
AcDbDictionary
280
     1
281
     1
  3
ACAD_XREC_ROUNDTRIP
360
184
  0
DICTIONARY
  5
185
330
F4
100
AcDbDictionary
280
     1
281
     1
  3
ACAD_XREC_ROUNDTRIP
360
186
  0
DICTIONARY
  5
150
330
DE
100
AcDbDictionary
280
     1
281
     1
  3
ACAD_ROUNDTRIP_2008_TABLESTYLE_CELLSTYLEMAP
360
151
  0
DICTIONARY
  5
15D
330
C9
100
AcDbDictionary
280
     1
281
     1
  3
ACAD_XREC_ROUNDTRIP
360
15E
  0
DICTIONARY
  5
15B
330
C8
100
AcDbDictionary
280
     1
281
     1
  3
ACAD_XREC_ROUNDTRIP
360
15C
  0
DICTIONARY
  5
169
330
CF
100
AcDbDictionary
280
     1
281
     1
  3
ACAD_XREC_ROUNDTRIP
360
16A
  0
DICTIONARY
  5
171
330
D3
100
AcDbDictionary
280
     1
281
     1
  3
ACAD_XREC_ROUNDTRIP
360
172
  0
DICTIONARY
  5
163
330
CC
100
AcDbDictionary
280
     1
281
     1
  3
ACAD_XREC_ROUNDTRIP
360
164
  0
DICTIONARY
  5
167
330
CE
100
AcDbDictionary
280
     1
281
     1
  3
ACAD_XREC_ROUNDTRIP
360
168
  0
DICTIONARY
  5
181
330
DB
100
AcDbDictionary
280
     1
281
     1
  3
ACAD_XREC_ROUNDTRIP
360
182
  0
DICTIONARY
  5
16F
330
D2
100
AcDbDictionary
280
     1
281
     1
  3
ACAD_XREC_ROUNDTRIP
360
170
  0
DICTIONARY
  5
153
330
C4
100
AcDbDictionary
280
     1
281
     1
  3
ACAD_XREC_ROUNDTRIP
360
154
  0
DICTIONARY
  5
155
330
C5
100
AcDbDictionary
280
     1
281
     1
  3
ACAD_XREC_ROUNDTRIP
360
156
  0
DICTIONARY
  5
157
330
C6
100
AcDbDictionary
280
     1
281
     1
  3
ACAD_XREC_ROUNDTRIP
360
158
  0
DICTIONARY
  5
159
330
C7
100
AcDbDictionary
280
     1
281
     1
  3
ACAD_XREC_ROUNDTRIP
360
15A
  0
DICTIONARY
  5
161
330
CB
100
AcDbDictionary
280
     1
281
     1
  3
ACAD_XREC_ROUNDTRIP
360
162
  0
DICTIONARY
  5
17D
330
D9
100
AcDbDictionary
280
     1
281
     1
  3
ACAD_XREC_ROUNDTRIP
360
17E
  0
DICTIONARY
  5
16D
330
D1
100
AcDbDictionary
280
     1
281
     1
  3
ACAD_XREC_ROUNDTRIP
360
16E
  0
DICTIONARY
  5
17F
330
DA
100
AcDbDictionary
280
     1
281
     1
  3
ACAD_XREC_ROUNDTRIP
360
180
  0
DICTIONARY
  5
165
330
CD
100
AcDbDictionary
280
     1
281
     1
  3
ACAD_XREC_ROUNDTRIP
360
166
  0
DICTIONARY
  5
17B
330
D8
100
AcDbDictionary
280
     1
281
     1
  3
ACAD_XREC_ROUNDTRIP
360
17C
  0
DICTIONARY
  5
179
330
D7
100
AcDbDictionary
280
     1
281
     1
  3
ACAD_XREC_ROUNDTRIP
360
17A
  0
DICTIONARY
  5
173
330
D4
100
AcDbDictionary
280
     1
281
     1
  3
ACAD_XREC_ROUNDTRIP
360
174
  0
DICTIONARY
  5
175
330
D5
100
AcDbDictionary
280
     1
281
     1
  3
ACAD_XREC_ROUNDTRIP
360
176
  0
DICTIONARY
  5
16B
330
D0
100
AcDbDictionary
280
     1
281
     1
  3
ACAD_XREC_ROUNDTRIP
360
16C
  0
DICTIONARY
  5
15F
330
CA
100
AcDbDictionary
280
     1
281
     1
  3
ACAD_XREC_ROUNDTRIP
360
160
  0
DICTIONARY
  5
177
330
D6
100
AcDbDictionary
280
     1
281
     1
  3
ACAD_XREC_ROUNDTRIP
360
178
  0
XRECORD
  5
188
102
{ACAD_REACTORS
330
187
102
}
330
187
100
AcDbXrecord
280
     1
102
DISPLAYNAME
  1
Imperial24
102
FLAGS
 90
        0
  0
XRECORD
  5
B6
102
{ACAD_REACTORS
330
B4
102
}
330
B4
100
AcDbXrecord
280
     1
270
     1
271
     1
  0
XRECORD
  5
B5
102
{ACAD_REACTORS
330
B4
102
}
330
B4
100
AcDbXrecord
280
     1
270
     1
271
     1
  0
XRECORD
  5
B9
102
{ACAD_REACTORS
330
B4
102
}
330
B4
100
AcDbXrecord
280
     1
270
     1
271
     1
  0
XRECORD
  5
B8
102
{ACAD_REACTORS
330
B4
102
}
330
B4
100
AcDbXrecord
280
     1
270
     1
271
     1
  0
XRECORD
  5
BA
102
{ACAD_REACTORS
330
B4
102
}
330
B4
100
AcDbXrecord
280
     1
270
     1
271
     1
  0
XRECORD
  5
B7
102
{ACAD_REACTORS
330
B4
102
}
330
B4
100
AcDbXrecord
280
     1
270
     1
271
     1
  0
XRECORD
  5
AE
102
{ACAD_REACTORS
330
AC
102
}
330
AC
100
AcDbXrecord
280
     1
270
     1
271
     1
  0
XRECORD
  5
AD
102
{ACAD_REACTORS
330
AC
102
}
330
AC
100
AcDbXrecord
280
     1
270
     1
271
     1
  0
XRECORD
  5
B1
102
{ACAD_REACTORS
330
AC
102
}
330
AC
100
AcDbXrecord
280
     1
270
     1
271
     1
  0
XRECORD
  5
B0
102
{ACAD_REACTORS
330
AC
102
}
330
AC
100
AcDbXrecord
280
     1
270
     1
271
     1
  0
XRECORD
  5
B2
102
{ACAD_REACTORS
330
AC
102
}
330
AC
100
AcDbXrecord
280
     1
270
     1
271
     1
  0
XRECORD
  5
AF
102
{ACAD_REACTORS
330
AC
102
}
330
AC
100
AcDbXrecord
280
     1
270
     1
271
     1
  0
XRECORD
  5
BE
102
{ACAD_REACTORS
330
BC
102
}
330
BC
100
AcDbXrecord
280
     1
270
     1
271
     1
  0
XRECORD
  5
BD
102
{ACAD_REACTORS
330
BC
102
}
330
BC
100
AcDbXrecord
280
     1
270
     1
271
     1
  0
XRECORD
  5
C1
102
{ACAD_REACTORS
330
BC
102
}
330
BC
100
AcDbXrecord
280
     1
270
     1
271
     1
  0
XRECORD
  5
C0
102
{ACAD_REACTORS
330
BC
102
}
330
BC
100
AcDbXrecord
280
     1
270
     1
271
     1
  0
XRECORD
  5
C2
102
{ACAD_REACTORS
330
BC
102
}
330
BC
100
AcDbXrecord
280
     1
270
     1
271
     1
  0
XRECORD
  5
BF
102
{ACAD_REACTORS
330
BC
102
}
330
BC
100
AcDbXrecord
280
     1
270
     1
271
     1
  0
XRECORD
  5
184
102
{ACAD_REACTORS
330
183
102
}
330
183
100
AcDbXrecord
280
     1
102
ACAD_ROUNDTRIP_2012_MLEADER_STYLE
298
     1
  0
XRECORD
  5
186
102
{ACAD_REACTORS
330
185
102
}
330
185
100
AcDbXrecord
280
     1
102
DISPLAYNAME
  1
Imperial24
102
FLAGS
 90
        0
  0
CELLSTYLEMAP
  5
151
102
{ACAD_REACTORS
330
150
102
}
330
150
100
AcDbCellStyleMap
 90
        3
300
CELLSTYLE
  1
TABLEFORMAT_BEGIN
 90
        5
170
     1
 91
        0
 92
    32768
 62
   257
 93
        1
300
CONTENTFORMAT
  1
CONTENTFORMAT_BEGIN
 90
        0
 91
        0
 92
      512
 93
        0
300

 40
0.0
140
1.0
 94
        5
 62
     0
340
11
144
0.25
309
CONTENTFORMAT_END
171
     0
 94
        0
309
TABLEFORMAT_END
  1
CELLSTYLE_BEGIN
 90
        1
 91
        1
300
_TITLE
309
CELLSTYLE_END
300
CELLSTYLE
  1
TABLEFORMAT_BEGIN
 90
        5
170
     1
 91
        0
 92
        0
 62
   257
 93
        1
300
CONTENTFORMAT
  1
CONTENTFORMAT_BEGIN
 90
        0
 91
        0
 92
      512
 93
        0
300

 40
0.0
140
1.0
 94
        5
 62
     0
340
11
144
0.18
309
CONTENTFORMAT_END
171
     0
 94
        0
309
TABLEFORMAT_END
  1
CELLSTYLE_BEGIN
 90
        2
 91
        1
300
_HEADER
309
CELLSTYLE_END
300
CELLSTYLE
  1
TABLEFORMAT_BEGIN
 90
        5
170
     1
 91
        0
 92
        0
 62
   257
 93
        1
300
CONTENTFORMAT
  1
CONTENTFORMAT_BEGIN
 90
        0
 91
        0
 92
      512
 93
        0
300

 40
0.0
140
1.0
 94
        2
 62
     0
340
11
144
0.18
309
CONTENTFORMAT_END
171
     0
 94
        0
309
TABLEFORMAT_END
  1
CELLSTYLE_BEGIN
 90
        3
 91
        2
300
_DATA
309
CELLSTYLE_END
  0
XRECORD
  5
15E
102
{ACAD_REACTORS
330
15D
102
}
330
15D
100
AcDbXrecord
280
     1
102
RTVSPost2010Prop28
280
     1
102
RTVSPost2010PropOp28
 70
     1
102
RTVSPost2010Prop29
280
     1
102
RTVSPost2010PropOp29
 70
     1
102
RTVSPost2010Prop30
280
     0
102
RTVSPost2010PropOp30
 70
     1
102
RTVSPost2010Prop31
280
     0
102
RTVSPost2010PropOp31
 70
     1
102
RTVSPost2010Prop32
280
     0
102
RTVSPost2010PropOp32
 70
     1
102
RTVSPost2010Prop33
280
     0
102
RTVSPost2010PropOp33
 70
     1
102
RTVSPost2010Prop34
280
     0
102
RTVSPost2010PropOp34
 70
     1
102
RTVSPost2010Prop35
280
     0
102
RTVSPost2010PropOp35
 70
     1
102
RTVSPost2010Prop36
280
     0
102
RTVSPost2010PropOp36
 70
     1
102
RTVSPost2010Prop37
 90
       50
102
RTVSPost2010PropOp37
 70
     1
102
RTVSPost2010Prop38
140
0.0
102
RTVSPost2010PropOp38
 70
     1
102
RTVSPost2010Prop39
140
1.0
102
RTVSPost2010PropOp39
 70
     1
102
RTVSPost2010Prop40
 90
        0
102
RTVSPost2010PropOp40
 70
     1
102
RTVSPost2010Prop41ColorIndex
 90
       18
102
RTVSPost2010Prop41ColorRGB
 90
        0
102
RTVSPost2010PropOp41
 70
     1
102
RTVSPost2010Prop42
 90
       50
102
RTVSPost2010PropOp42
 70
     1
102
RTVSPost2010Prop43
 90
        3
102
RTVSPost2010PropOp43
 70
     1
102
RTVSPost2010Prop44ColorIndex
 90
        5
102
RTVSPost2010Prop44ColorRGB
 90
      255
102
RTVSPost2010PropOp44
 70
     1
102
RTVSPost2010Prop45
280
     0
102
RTVSPost2010PropOp45
 70
     1
102
RTVSPost2010Prop46
 90
       50
102
RTVSPost2010PropOp46
 70
     1
102
RTVSPost2010Prop47
 90
       50
102
RTVSPost2010PropOp47
 70
     1
102
RTVSPost2010Prop48
 90
       50
102
RTVSPost2010PropOp48
 70
     1
102
RTVSPost2010Prop49
280
     0
102
RTVSPost2010PropOp49
 70
     1
102
RTVSPost2010Prop50
 90
       50
102
RTVSPost2010PropOp50
 70
     1
102
RTVSPost2010Prop51ColorIndex
 90
      256
102
RTVSPost2010Prop51ColorRGB
 90
-16777216
102
RTVSPost2010PropOp51
 70
     0
102
RTVSPost2010Prop52
140
1.0
102
RTVSPost2010PropOp52
 70
     0
102
RTVSPost2010Prop53
 90
        2
102
RTVSPost2010PropOp53
 70
     1
102
RTVSPost2010Prop54
  1
strokes_ogs.tif
102
RTVSPost2010PropOp54
 70
     1
102
RTVSPost2010Prop55
280
     0
102
RTVSPost2010PropOp55
 70
     1
102
RTVSPost2010Prop56
140
1.0
102
RTVSPost2010PropOp56
 70
     1
102
RTVSPost2010Prop57
140
1.0
102
RTVSPost2010PropOp57
 70
     1
  0
XRECORD
  5
15C
102
{ACAD_REACTORS
330
15B
102
}
330
15B
100
AcDbXrecord
280
     1
102
RTVSPost2010Prop28
280
     0
102
RTVSPost2010PropOp28
 70
     1
102
RTVSPost2010Prop29
280
     1
102
RTVSPost2010PropOp29
 70
     1
102
RTVSPost2010Prop30
280
     1
102
RTVSPost2010PropOp30
 70
     1
102
RTVSPost2010Prop31
280
     0
102
RTVSPost2010PropOp31
 70
     1
102
RTVSPost2010Prop32
280
     0
102
RTVSPost2010PropOp32
 70
     1
102
RTVSPost2010Prop33
280
     0
102
RTVSPost2010PropOp33
 70
     1
102
RTVSPost2010Prop34
280
     0
102
RTVSPost2010PropOp34
 70
     1
102
RTVSPost2010Prop35
280
     0
102
RTVSPost2010PropOp35
 70
     1
102
RTVSPost2010Prop36
280
     0
102
RTVSPost2010PropOp36
 70
     1
102
RTVSPost2010Prop37
 90
       50
102
RTVSPost2010PropOp37
 70
     1
102
RTVSPost2010Prop38
140
0.0
102
RTVSPost2010PropOp38
 70
     1
102
RTVSPost2010Prop39
140
1.0
102
RTVSPost2010PropOp39
 70
     1
102
RTVSPost2010Prop40
 90
        0
102
RTVSPost2010PropOp40
 70
     1
102
RTVSPost2010Prop41ColorIndex
 90
       18
102
RTVSPost2010Prop41ColorRGB
 90
        0
102
RTVSPost2010PropOp41
 70
     1
102
RTVSPost2010Prop42
 90
       50
102
RTVSPost2010PropOp42
 70
     1
102
RTVSPost2010Prop43
 90
        3
102
RTVSPost2010PropOp43
 70
     1
102
RTVSPost2010Prop44ColorIndex
 90
        5
102
RTVSPost2010Prop44ColorRGB
 90
      255
102
RTVSPost2010PropOp44
 70
     1
102
RTVSPost2010Prop45
280
     0
102
RTVSPost2010PropOp45
 70
     1
102
RTVSPost2010Prop46
 90
       50
102
RTVSPost2010PropOp46
 70
     1
102
RTVSPost2010Prop47
 90
       50
102
RTVSPost2010PropOp47
 70
     1
102
RTVSPost2010Prop48
 90
       50
102
RTVSPost2010PropOp48
 70
     1
102
RTVSPost2010Prop49
280
     0
102
RTVSPost2010PropOp49
 70
     1
102
RTVSPost2010Prop50
 90
       50
102
RTVSPost2010PropOp50
 70
     1
102
RTVSPost2010Prop51ColorIndex
 90
      256
102
RTVSPost2010Prop51ColorRGB
 90
-16777216
102
RTVSPost2010PropOp51
 70
     0
102
RTVSPost2010Prop52
140
1.0
102
RTVSPost2010PropOp52
 70
     0
102
RTVSPost2010Prop53
 90
        2
102
RTVSPost2010PropOp53
 70
     1
102
RTVSPost2010Prop54
  1
strokes_ogs.tif
102
RTVSPost2010PropOp54
 70
     1
102
RTVSPost2010Prop55
280
     0
102
RTVSPost2010PropOp55
 70
     1
102
RTVSPost2010Prop56
140
1.0
102
RTVSPost2010PropOp56
 70
     1
102
RTVSPost2010Prop57
140
1.0
102
RTVSPost2010PropOp57
 70
     1
  0
XRECORD
  5
16A
102
{ACAD_REACTORS
330
169
102
}
330
169
100
AcDbXrecord
280
     1
102
RTVSPost2010Prop28
280
     0
102
RTVSPost2010PropOp28
 70
     1
102
RTVSPost2010Prop29
280
     1
102
RTVSPost2010PropOp29
 70
     1
102
RTVSPost2010Prop30
280
     1
102
RTVSPost2010PropOp30
 70
     1
102
RTVSPost2010Prop31
280
     0
102
RTVSPost2010PropOp31
 70
     1
102
RTVSPost2010Prop32
280
     0
102
RTVSPost2010PropOp32
 70
     1
102
RTVSPost2010Prop33
280
     0
102
RTVSPost2010PropOp33
 70
     1
102
RTVSPost2010Prop34
280
     0
102
RTVSPost2010PropOp34
 70
     1
102
RTVSPost2010Prop35
280
     0
102
RTVSPost2010PropOp35
 70
     1
102
RTVSPost2010Prop36
280
     0
102
RTVSPost2010PropOp36
 70
     1
102
RTVSPost2010Prop37
 90
       50
102
RTVSPost2010PropOp37
 70
     1
102
RTVSPost2010Prop38
140
0.0
102
RTVSPost2010PropOp38
 70
     1
102
RTVSPost2010Prop39
140
1.0
102
RTVSPost2010PropOp39
 70
     1
102
RTVSPost2010Prop40
 90
        0
102
RTVSPost2010PropOp40
 70
     1
102
RTVSPost2010Prop41ColorIndex
 90
       18
102
RTVSPost2010Prop41ColorRGB
 90
        0
102
RTVSPost2010PropOp41
 70
     1
102
RTVSPost2010Prop42
 90
       50
102
RTVSPost2010PropOp42
 70
     1
102
RTVSPost2010Prop43
 90
        3
102
RTVSPost2010PropOp43
 70
     1
102
RTVSPost2010Prop44ColorIndex
 90
        5
102
RTVSPost2010Prop44ColorRGB
 90
      255
102
RTVSPost2010PropOp44
 70
     1
102
RTVSPost2010Prop45
280
     0
102
RTVSPost2010PropOp45
 70
     1
102
RTVSPost2010Prop46
 90
       50
102
RTVSPost2010PropOp46
 70
     1
102
RTVSPost2010Prop47
 90
       50
102
RTVSPost2010PropOp47
 70
     1
102
RTVSPost2010Prop48
 90
       50
102
RTVSPost2010PropOp48
 70
     1
102
RTVSPost2010Prop49
280
     0
102
RTVSPost2010PropOp49
 70
     1
102
RTVSPost2010Prop50
 90
       50
102
RTVSPost2010PropOp50
 70
     1
102
RTVSPost2010Prop51ColorIndex
 90
      256
102
RTVSPost2010Prop51ColorRGB
 90
-16777216
102
RTVSPost2010PropOp51
 70
     0
102
RTVSPost2010Prop52
140
1.0
102
RTVSPost2010PropOp52
 70
     0
102
RTVSPost2010Prop53
 90
        2
102
RTVSPost2010PropOp53
 70
     1
102
RTVSPost2010Prop54
  1
strokes_ogs.tif
102
RTVSPost2010PropOp54
 70
     1
102
RTVSPost2010Prop55
280
     0
102
RTVSPost2010PropOp55
 70
     1
102
RTVSPost2010Prop56
140
1.0
102
RTVSPost2010PropOp56
 70
     1
102
RTVSPost2010Prop57
140
1.0
102
RTVSPost2010PropOp57
 70
     1
  0
XRECORD
  5
172
102
{ACAD_REACTORS
330
171
102
}
330
171
100
AcDbXrecord
280
     1
102
RTVSPost2010Prop28
280
     0
102
RTVSPost2010PropOp28
 70
     1
102
RTVSPost2010Prop29
280
     1
102
RTVSPost2010PropOp29
 70
     1
102
RTVSPost2010Prop30
280
     1
102
RTVSPost2010PropOp30
 70
     1
102
RTVSPost2010Prop31
280
     0
102
RTVSPost2010PropOp31
 70
     1
102
RTVSPost2010Prop32
280
     0
102
RTVSPost2010PropOp32
 70
     1
102
RTVSPost2010Prop33
280
     0
102
RTVSPost2010PropOp33
 70
     1
102
RTVSPost2010Prop34
280
     0
102
RTVSPost2010PropOp34
 70
     1
102
RTVSPost2010Prop35
280
     0
102
RTVSPost2010PropOp35
 70
     1
102
RTVSPost2010Prop36
280
     0
102
RTVSPost2010PropOp36
 70
     1
102
RTVSPost2010Prop37
 90
       50
102
RTVSPost2010PropOp37
 70
     1
102
RTVSPost2010Prop38
140
0.0
102
RTVSPost2010PropOp38
 70
     1
102
RTVSPost2010Prop39
140
1.0
102
RTVSPost2010PropOp39
 70
     1
102
RTVSPost2010Prop40
 90
        0
102
RTVSPost2010PropOp40
 70
     1
102
RTVSPost2010Prop41ColorIndex
 90
       18
102
RTVSPost2010Prop41ColorRGB
 90
        0
102
RTVSPost2010PropOp41
 70
     1
102
RTVSPost2010Prop42
 90
       50
102
RTVSPost2010PropOp42
 70
     1
102
RTVSPost2010Prop43
 90
        3
102
RTVSPost2010PropOp43
 70
     1
102
RTVSPost2010Prop44ColorIndex
 90
        5
102
RTVSPost2010Prop44ColorRGB
 90
      255
102
RTVSPost2010PropOp44
 70
     1
102
RTVSPost2010Prop45
280
     0
102
RTVSPost2010PropOp45
 70
     1
102
RTVSPost2010Prop46
 90
       50
102
RTVSPost2010PropOp46
 70
     1
102
RTVSPost2010Prop47
 90
       50
102
RTVSPost2010PropOp47
 70
     1
102
RTVSPost2010Prop48
 90
       50
102
RTVSPost2010PropOp48
 70
     1
102
RTVSPost2010Prop49
280
     0
102
RTVSPost2010PropOp49
 70
     1
102
RTVSPost2010Prop50
 90
       50
102
RTVSPost2010PropOp50
 70
     1
102
RTVSPost2010Prop51ColorIndex
 90
      256
102
RTVSPost2010Prop51ColorRGB
 90
-16777216
102
RTVSPost2010PropOp51
 70
     0
102
RTVSPost2010Prop52
140
1.0
102
RTVSPost2010PropOp52
 70
     0
102
RTVSPost2010Prop53
 90
        2
102
RTVSPost2010PropOp53
 70
     1
102
RTVSPost2010Prop54
  1
strokes_ogs.tif
102
RTVSPost2010PropOp54
 70
     1
102
RTVSPost2010Prop55
280
     0
102
RTVSPost2010PropOp55
 70
     1
102
RTVSPost2010Prop56
140
1.0
102
RTVSPost2010PropOp56
 70
     1
102
RTVSPost2010Prop57
140
1.0
102
RTVSPost2010PropOp57
 70
     1
  0
XRECORD
  5
164
102
{ACAD_REACTORS
330
163
102
}
330
163
100
AcDbXrecord
280
     1
102
RTVSPost2010Prop28
280
     0
102
RTVSPost2010PropOp28
 70
     1
102
RTVSPost2010Prop29
280
     1
102
RTVSPost2010PropOp29
 70
     1
102
RTVSPost2010Prop30
280
     1
102
RTVSPost2010PropOp30
 70
     1
102
RTVSPost2010Prop31
280
     0
102
RTVSPost2010PropOp31
 70
     1
102
RTVSPost2010Prop32
280
     0
102
RTVSPost2010PropOp32
 70
     1
102
RTVSPost2010Prop33
280
     0
102
RTVSPost2010PropOp33
 70
     1
102
RTVSPost2010Prop34
280
     0
102
RTVSPost2010PropOp34
 70
     1
102
RTVSPost2010Prop35
280
     0
102
RTVSPost2010PropOp35
 70
     1
102
RTVSPost2010Prop36
280
     0
102
RTVSPost2010PropOp36
 70
     1
102
RTVSPost2010Prop37
 90
       50
102
RTVSPost2010PropOp37
 70
     1
102
RTVSPost2010Prop38
140
0.0
102
RTVSPost2010PropOp38
 70
     1
102
RTVSPost2010Prop39
140
1.0
102
RTVSPost2010PropOp39
 70
     1
102
RTVSPost2010Prop40
 90
        0
102
RTVSPost2010PropOp40
 70
     1
102
RTVSPost2010Prop41ColorIndex
 90
       18
102
RTVSPost2010Prop41ColorRGB
 90
        0
102
RTVSPost2010PropOp41
 70
     1
102
RTVSPost2010Prop42
 90
       50
102
RTVSPost2010PropOp42
 70
     1
102
RTVSPost2010Prop43
 90
        3
102
RTVSPost2010PropOp43
 70
     1
102
RTVSPost2010Prop44ColorIndex
 90
        5
102
RTVSPost2010Prop44ColorRGB
 90
      255
102
RTVSPost2010PropOp44
 70
     1
102
RTVSPost2010Prop45
280
     0
102
RTVSPost2010PropOp45
 70
     1
102
RTVSPost2010Prop46
 90
       50
102
RTVSPost2010PropOp46
 70
     1
102
RTVSPost2010Prop47
 90
       50
102
RTVSPost2010PropOp47
 70
     1
102
RTVSPost2010Prop48
 90
       50
102
RTVSPost2010PropOp48
 70
     1
102
RTVSPost2010Prop49
280
     0
102
RTVSPost2010PropOp49
 70
     1
102
RTVSPost2010Prop50
 90
       50
102
RTVSPost2010PropOp50
 70
     1
102
RTVSPost2010Prop51ColorIndex
 90
      256
102
RTVSPost2010Prop51ColorRGB
 90
-16777216
102
RTVSPost2010PropOp51
 70
     0
102
RTVSPost2010Prop52
140
1.0
102
RTVSPost2010PropOp52
 70
     0
102
RTVSPost2010Prop53
 90
        2
102
RTVSPost2010PropOp53
 70
     1
102
RTVSPost2010Prop54
  1
strokes_ogs.tif
102
RTVSPost2010PropOp54
 70
     1
102
RTVSPost2010Prop55
280
     0
102
RTVSPost2010PropOp55
 70
     1
102
RTVSPost2010Prop56
140
1.0
102
RTVSPost2010PropOp56
 70
     1
102
RTVSPost2010Prop57
140
1.0
102
RTVSPost2010PropOp57
 70
     1
  0
XRECORD
  5
168
102
{ACAD_REACTORS
330
167
102
}
330
167
100
AcDbXrecord
280
     1
102
RTVSPost2010Prop28
280
     0
102
RTVSPost2010PropOp28
 70
     1
102
RTVSPost2010Prop29
280
     1
102
RTVSPost2010PropOp29
 70
     1
102
RTVSPost2010Prop30
280
     1
102
RTVSPost2010PropOp30
 70
     1
102
RTVSPost2010Prop31
280
     0
102
RTVSPost2010PropOp31
 70
     1
102
RTVSPost2010Prop32
280
     0
102
RTVSPost2010PropOp32
 70
     1
102
RTVSPost2010Prop33
280
     0
102
RTVSPost2010PropOp33
 70
     1
102
RTVSPost2010Prop34
280
     0
102
RTVSPost2010PropOp34
 70
     1
102
RTVSPost2010Prop35
280
     0
102
RTVSPost2010PropOp35
 70
     1
102
RTVSPost2010Prop36
280
     0
102
RTVSPost2010PropOp36
 70
     1
102
RTVSPost2010Prop37
 90
       50
102
RTVSPost2010PropOp37
 70
     1
102
RTVSPost2010Prop38
140
0.0
102
RTVSPost2010PropOp38
 70
     1
102
RTVSPost2010Prop39
140
1.0
102
RTVSPost2010PropOp39
 70
     1
102
RTVSPost2010Prop40
 90
        0
102
RTVSPost2010PropOp40
 70
     1
102
RTVSPost2010Prop41ColorIndex
 90
       18
102
RTVSPost2010Prop41ColorRGB
 90
        0
102
RTVSPost2010PropOp41
 70
     1
102
RTVSPost2010Prop42
 90
       50
102
RTVSPost2010PropOp42
 70
     1
102
RTVSPost2010Prop43
 90
        3
102
RTVSPost2010PropOp43
 70
     1
102
RTVSPost2010Prop44ColorIndex
 90
        5
102
RTVSPost2010Prop44ColorRGB
 90
      255
102
RTVSPost2010PropOp44
 70
     1
102
RTVSPost2010Prop45
280
     0
102
RTVSPost2010PropOp45
 70
     1
102
RTVSPost2010Prop46
 90
       50
102
RTVSPost2010PropOp46
 70
     1
102
RTVSPost2010Prop47
 90
       50
102
RTVSPost2010PropOp47
 70
     1
102
RTVSPost2010Prop48
 90
       50
102
RTVSPost2010PropOp48
 70
     1
102
RTVSPost2010Prop49
280
     0
102
RTVSPost2010PropOp49
 70
     1
102
RTVSPost2010Prop50
 90
       50
102
RTVSPost2010PropOp50
 70
     1
102
RTVSPost2010Prop51ColorIndex
 90
      256
102
RTVSPost2010Prop51ColorRGB
 90
-16777216
102
RTVSPost2010PropOp51
 70
     0
102
RTVSPost2010Prop52
140
1.0
102
RTVSPost2010PropOp52
 70
     0
102
RTVSPost2010Prop53
 90
        2
102
RTVSPost2010PropOp53
 70
     1
102
RTVSPost2010Prop54
  1
strokes_ogs.tif
102
RTVSPost2010PropOp54
 70
     1
102
RTVSPost2010Prop55
280
     0
102
RTVSPost2010PropOp55
 70
     1
102
RTVSPost2010Prop56
140
1.0
102
RTVSPost2010PropOp56
 70
     1
102
RTVSPost2010Prop57
140
1.0
102
RTVSPost2010PropOp57
 70
     1
  0
XRECORD
  5
182
102
{ACAD_REACTORS
330
181
102
}
330
181
100
AcDbXrecord
280
     1
102
RTVSPost2010Prop28
280
     0
102
RTVSPost2010PropOp28
 70
     0
102
RTVSPost2010Prop29
280
     1
102
RTVSPost2010PropOp29
 70
     0
102
RTVSPost2010Prop30
280
     1
102
RTVSPost2010PropOp30
 70
     0
102
RTVSPost2010Prop31
280
     0
102
RTVSPost2010PropOp31
 70
     0
102
RTVSPost2010Prop32
280
     0
102
RTVSPost2010PropOp32
 70
     0
102
RTVSPost2010Prop33
280
     0
102
RTVSPost2010PropOp33
 70
     0
102
RTVSPost2010Prop34
280
     0
102
RTVSPost2010PropOp34
 70
     0
102
RTVSPost2010Prop35
280
     0
102
RTVSPost2010PropOp35
 70
     0
102
RTVSPost2010Prop36
280
     0
102
RTVSPost2010PropOp36
 70
     0
102
RTVSPost2010Prop37
 90
       50
102
RTVSPost2010PropOp37
 70
     0
102
RTVSPost2010Prop38
140
0.0
102
RTVSPost2010PropOp38
 70
     0
102
RTVSPost2010Prop39
140
1.0
102
RTVSPost2010PropOp39
 70
     0
102
RTVSPost2010Prop40
 90
        0
102
RTVSPost2010PropOp40
 70
     0
102
RTVSPost2010Prop41ColorIndex
 90
       18
102
RTVSPost2010Prop41ColorRGB
 90
        0
102
RTVSPost2010PropOp41
 70
     0
102
RTVSPost2010Prop42
 90
       50
102
RTVSPost2010PropOp42
 70
     0
102
RTVSPost2010Prop43
 90
        3
102
RTVSPost2010PropOp43
 70
     0
102
RTVSPost2010Prop44ColorIndex
 90
        5
102
RTVSPost2010Prop44ColorRGB
 90
      255
102
RTVSPost2010PropOp44
 70
     0
102
RTVSPost2010Prop45
280
     0
102
RTVSPost2010PropOp45
 70
     0
102
RTVSPost2010Prop46
 90
       50
102
RTVSPost2010PropOp46
 70
     0
102
RTVSPost2010Prop47
 90
       50
102
RTVSPost2010PropOp47
 70
     0
102
RTVSPost2010Prop48
 90
       50
102
RTVSPost2010PropOp48
 70
     0
102
RTVSPost2010Prop49
280
     0
102
RTVSPost2010PropOp49
 70
     0
102
RTVSPost2010Prop50
 90
       50
102
RTVSPost2010PropOp50
 70
     0
102
RTVSPost2010Prop51ColorIndex
 90
      256
102
RTVSPost2010Prop51ColorRGB
 90
-16777216
102
RTVSPost2010PropOp51
 70
     0
102
RTVSPost2010Prop52
140
1.0
102
RTVSPost2010PropOp52
 70
     0
102
RTVSPost2010Prop53
 90
        2
102
RTVSPost2010PropOp53
 70
     0
102
RTVSPost2010Prop54
  1
strokes_ogs.tif
102
RTVSPost2010PropOp54
 70
     0
102
RTVSPost2010Prop55
280
     0
102
RTVSPost2010PropOp55
 70
     0
102
RTVSPost2010Prop56
140
1.0
102
RTVSPost2010PropOp56
 70
     0
102
RTVSPost2010Prop57
140
1.0
102
RTVSPost2010PropOp57
 70
     0
  0
XRECORD
  5
170
102
{ACAD_REACTORS
330
16F
102
}
330
16F
100
AcDbXrecord
280
     1
102
RTVSPost2010Prop28
280
     0
102
RTVSPost2010PropOp28
 70
     1
102
RTVSPost2010Prop29
280
     1
102
RTVSPost2010PropOp29
 70
     1
102
RTVSPost2010Prop30
280
     1
102
RTVSPost2010PropOp30
 70
     1
102
RTVSPost2010Prop31
280
     0
102
RTVSPost2010PropOp31
 70
     1
102
RTVSPost2010Prop32
280
     0
102
RTVSPost2010PropOp32
 70
     1
102
RTVSPost2010Prop33
280
     0
102
RTVSPost2010PropOp33
 70
     1
102
RTVSPost2010Prop34
280
     0
102
RTVSPost2010PropOp34
 70
     1
102
RTVSPost2010Prop35
280
     0
102
RTVSPost2010PropOp35
 70
     1
102
RTVSPost2010Prop36
280
     0
102
RTVSPost2010PropOp36
 70
     1
102
RTVSPost2010Prop37
 90
       50
102
RTVSPost2010PropOp37
 70
     1
102
RTVSPost2010Prop38
140
0.0
102
RTVSPost2010PropOp38
 70
     1
102
RTVSPost2010Prop39
140
1.0
102
RTVSPost2010PropOp39
 70
     1
102
RTVSPost2010Prop40
 90
        0
102
RTVSPost2010PropOp40
 70
     1
102
RTVSPost2010Prop41ColorIndex
 90
       18
102
RTVSPost2010Prop41ColorRGB
 90
        0
102
RTVSPost2010PropOp41
 70
     1
102
RTVSPost2010Prop42
 90
       50
102
RTVSPost2010PropOp42
 70
     1
102
RTVSPost2010Prop43
 90
        3
102
RTVSPost2010PropOp43
 70
     1
102
RTVSPost2010Prop44ColorIndex
 90
        5
102
RTVSPost2010Prop44ColorRGB
 90
      255
102
RTVSPost2010PropOp44
 70
     1
102
RTVSPost2010Prop45
280
     0
102
RTVSPost2010PropOp45
 70
     1
102
RTVSPost2010Prop46
 90
       50
102
RTVSPost2010PropOp46
 70
     1
102
RTVSPost2010Prop47
 90
       50
102
RTVSPost2010PropOp47
 70
     1
102
RTVSPost2010Prop48
 90
       50
102
RTVSPost2010PropOp48
 70
     1
102
RTVSPost2010Prop49
280
     0
102
RTVSPost2010PropOp49
 70
     1
102
RTVSPost2010Prop50
 90
       50
102
RTVSPost2010PropOp50
 70
     1
102
RTVSPost2010Prop51ColorIndex
 90
      256
102
RTVSPost2010Prop51ColorRGB
 90
-16777216
102
RTVSPost2010PropOp51
 70
     0
102
RTVSPost2010Prop52
140
1.0
102
RTVSPost2010PropOp52
 70
     0
102
RTVSPost2010Prop53
 90
        2
102
RTVSPost2010PropOp53
 70
     1
102
RTVSPost2010Prop54
  1
strokes_ogs.tif
102
RTVSPost2010PropOp54
 70
     1
102
RTVSPost2010Prop55
280
     0
102
RTVSPost2010PropOp55
 70
     1
102
RTVSPost2010Prop56
140
1.0
102
RTVSPost2010PropOp56
 70
     1
102
RTVSPost2010Prop57
140
1.0
102
RTVSPost2010PropOp57
 70
     1
  0
XRECORD
  5
154
102
{ACAD_REACTORS
330
153
102
}
330
153
100
AcDbXrecord
280
     1
102
RTVSPost2010Prop28
280
     0
102
RTVSPost2010PropOp28
 70
     1
102
RTVSPost2010Prop29
280
     1
102
RTVSPost2010PropOp29
 70
     1
102
RTVSPost2010Prop30
280
     1
102
RTVSPost2010PropOp30
 70
     1
102
RTVSPost2010Prop31
280
     0
102
RTVSPost2010PropOp31
 70
     1
102
RTVSPost2010Prop32
280
     0
102
RTVSPost2010PropOp32
 70
     1
102
RTVSPost2010Prop33
280
     0
102
RTVSPost2010PropOp33
 70
     1
102
RTVSPost2010Prop34
280
     0
102
RTVSPost2010PropOp34
 70
     1
102
RTVSPost2010Prop35
280
     0
102
RTVSPost2010PropOp35
 70
     1
102
RTVSPost2010Prop36
280
     0
102
RTVSPost2010PropOp36
 70
     1
102
RTVSPost2010Prop37
 90
       50
102
RTVSPost2010PropOp37
 70
     1
102
RTVSPost2010Prop38
140
0.0
102
RTVSPost2010PropOp38
 70
     1
102
RTVSPost2010Prop39
140
1.0
102
RTVSPost2010PropOp39
 70
     1
102
RTVSPost2010Prop40
 90
        0
102
RTVSPost2010PropOp40
 70
     1
102
RTVSPost2010Prop41ColorIndex
 90
       18
102
RTVSPost2010Prop41ColorRGB
 90
        0
102
RTVSPost2010PropOp41
 70
     1
102
RTVSPost2010Prop42
 90
       50
102
RTVSPost2010PropOp42
 70
     1
102
RTVSPost2010Prop43
 90
        3
102
RTVSPost2010PropOp43
 70
     1
102
RTVSPost2010Prop44ColorIndex
 90
        5
102
RTVSPost2010Prop44ColorRGB
 90
      255
102
RTVSPost2010PropOp44
 70
     1
102
RTVSPost2010Prop45
280
     0
102
RTVSPost2010PropOp45
 70
     1
102
RTVSPost2010Prop46
 90
       50
102
RTVSPost2010PropOp46
 70
     1
102
RTVSPost2010Prop47
 90
       50
102
RTVSPost2010PropOp47
 70
     1
102
RTVSPost2010Prop48
 90
       50
102
RTVSPost2010PropOp48
 70
     1
102
RTVSPost2010Prop49
280
     0
102
RTVSPost2010PropOp49
 70
     1
102
RTVSPost2010Prop50
 90
       50
102
RTVSPost2010PropOp50
 70
     1
102
RTVSPost2010Prop51ColorIndex
 90
      256
102
RTVSPost2010Prop51ColorRGB
 90
-16777216
102
RTVSPost2010PropOp51
 70
     0
102
RTVSPost2010Prop52
140
1.0
102
RTVSPost2010PropOp52
 70
     0
102
RTVSPost2010Prop53
 90
        2
102
RTVSPost2010PropOp53
 70
     1
102
RTVSPost2010Prop54
  1
strokes_ogs.tif
102
RTVSPost2010PropOp54
 70
     1
102
RTVSPost2010Prop55
280
     0
102
RTVSPost2010PropOp55
 70
     1
102
RTVSPost2010Prop56
140
1.0
102
RTVSPost2010PropOp56
 70
     1
102
RTVSPost2010Prop57
140
1.0
102
RTVSPost2010PropOp57
 70
     1
  0
XRECORD
  5
156
102
{ACAD_REACTORS
330
155
102
}
330
155
100
AcDbXrecord
280
     1
102
RTVSPost2010Prop28
280
     0
102
RTVSPost2010PropOp28
 70
     1
102
RTVSPost2010Prop29
280
     1
102
RTVSPost2010PropOp29
 70
     1
102
RTVSPost2010Prop30
280
     1
102
RTVSPost2010PropOp30
 70
     1
102
RTVSPost2010Prop31
280
     0
102
RTVSPost2010PropOp31
 70
     1
102
RTVSPost2010Prop32
280
     0
102
RTVSPost2010PropOp32
 70
     1
102
RTVSPost2010Prop33
280
     0
102
RTVSPost2010PropOp33
 70
     1
102
RTVSPost2010Prop34
280
     0
102
RTVSPost2010PropOp34
 70
     1
102
RTVSPost2010Prop35
280
     0
102
RTVSPost2010PropOp35
 70
     1
102
RTVSPost2010Prop36
280
     0
102
RTVSPost2010PropOp36
 70
     1
102
RTVSPost2010Prop37
 90
       50
102
RTVSPost2010PropOp37
 70
     1
102
RTVSPost2010Prop38
140
0.0
102
RTVSPost2010PropOp38
 70
     1
102
RTVSPost2010Prop39
140
1.0
102
RTVSPost2010PropOp39
 70
     1
102
RTVSPost2010Prop40
 90
        0
102
RTVSPost2010PropOp40
 70
     1
102
RTVSPost2010Prop41ColorIndex
 90
       18
102
RTVSPost2010Prop41ColorRGB
 90
        0
102
RTVSPost2010PropOp41
 70
     1
102
RTVSPost2010Prop42
 90
       50
102
RTVSPost2010PropOp42
 70
     1
102
RTVSPost2010Prop43
 90
        3
102
RTVSPost2010PropOp43
 70
     1
102
RTVSPost2010Prop44ColorIndex
 90
        5
102
RTVSPost2010Prop44ColorRGB
 90
      255
102
RTVSPost2010PropOp44
 70
     1
102
RTVSPost2010Prop45
280
     0
102
RTVSPost2010PropOp45
 70
     1
102
RTVSPost2010Prop46
 90
       50
102
RTVSPost2010PropOp46
 70
     1
102
RTVSPost2010Prop47
 90
       50
102
RTVSPost2010PropOp47
 70
     1
102
RTVSPost2010Prop48
 90
       50
102
RTVSPost2010PropOp48
 70
     1
102
RTVSPost2010Prop49
280
     0
102
RTVSPost2010PropOp49
 70
     1
102
RTVSPost2010Prop50
 90
       50
102
RTVSPost2010PropOp50
 70
     1
102
RTVSPost2010Prop51ColorIndex
 90
      256
102
RTVSPost2010Prop51ColorRGB
 90
-16777216
102
RTVSPost2010PropOp51
 70
     0
102
RTVSPost2010Prop52
140
1.0
102
RTVSPost2010PropOp52
 70
     0
102
RTVSPost2010Prop53
 90
        2
102
RTVSPost2010PropOp53
 70
     1
102
RTVSPost2010Prop54
  1
strokes_ogs.tif
102
RTVSPost2010PropOp54
 70
     1
102
RTVSPost2010Prop55
280
     0
102
RTVSPost2010PropOp55
 70
     1
102
RTVSPost2010Prop56
140
1.0
102
RTVSPost2010PropOp56
 70
     1
102
RTVSPost2010Prop57
140
1.0
102
RTVSPost2010PropOp57
 70
     1
  0
XRECORD
  5
158
102
{ACAD_REACTORS
330
157
102
}
330
157
100
AcDbXrecord
280
     1
102
RTVSPost2010Prop28
280
     0
102
RTVSPost2010PropOp28
 70
     1
102
RTVSPost2010Prop29
280
     1
102
RTVSPost2010PropOp29
 70
     1
102
RTVSPost2010Prop30
280
     1
102
RTVSPost2010PropOp30
 70
     1
102
RTVSPost2010Prop31
280
     0
102
RTVSPost2010PropOp31
 70
     1
102
RTVSPost2010Prop32
280
     0
102
RTVSPost2010PropOp32
 70
     1
102
RTVSPost2010Prop33
280
     0
102
RTVSPost2010PropOp33
 70
     1
102
RTVSPost2010Prop34
280
     0
102
RTVSPost2010PropOp34
 70
     1
102
RTVSPost2010Prop35
280
     0
102
RTVSPost2010PropOp35
 70
     1
102
RTVSPost2010Prop36
280
     0
102
RTVSPost2010PropOp36
 70
     1
102
RTVSPost2010Prop37
 90
       50
102
RTVSPost2010PropOp37
 70
     1
102
RTVSPost2010Prop38
140
0.0
102
RTVSPost2010PropOp38
 70
     1
102
RTVSPost2010Prop39
140
1.0
102
RTVSPost2010PropOp39
 70
     1
102
RTVSPost2010Prop40
 90
        0
102
RTVSPost2010PropOp40
 70
     1
102
RTVSPost2010Prop41ColorIndex
 90
       18
102
RTVSPost2010Prop41ColorRGB
 90
        0
102
RTVSPost2010PropOp41
 70
     1
102
RTVSPost2010Prop42
 90
       50
102
RTVSPost2010PropOp42
 70
     1
102
RTVSPost2010Prop43
 90
        3
102
RTVSPost2010PropOp43
 70
     1
102
RTVSPost2010Prop44ColorIndex
 90
        5
102
RTVSPost2010Prop44ColorRGB
 90
      255
102
RTVSPost2010PropOp44
 70
     1
102
RTVSPost2010Prop45
280
     0
102
RTVSPost2010PropOp45
 70
     1
102
RTVSPost2010Prop46
 90
       50
102
RTVSPost2010PropOp46
 70
     1
102
RTVSPost2010Prop47
 90
       50
102
RTVSPost2010PropOp47
 70
     1
102
RTVSPost2010Prop48
 90
       50
102
RTVSPost2010PropOp48
 70
     1
102
RTVSPost2010Prop49
280
     0
102
RTVSPost2010PropOp49
 70
     1
102
RTVSPost2010Prop50
 90
       50
102
RTVSPost2010PropOp50
 70
     1
102
RTVSPost2010Prop51ColorIndex
 90
      256
102
RTVSPost2010Prop51ColorRGB
 90
-16777216
102
RTVSPost2010PropOp51
 70
     0
102
RTVSPost2010Prop52
140
1.0
102
RTVSPost2010PropOp52
 70
     0
102
RTVSPost2010Prop53
 90
        2
102
RTVSPost2010PropOp53
 70
     1
102
RTVSPost2010Prop54
  1
strokes_ogs.tif
102
RTVSPost2010PropOp54
 70
     1
102
RTVSPost2010Prop55
280
     0
102
RTVSPost2010PropOp55
 70
     1
102
RTVSPost2010Prop56
140
1.0
102
RTVSPost2010PropOp56
 70
     1
102
RTVSPost2010Prop57
140
1.0
102
RTVSPost2010PropOp57
 70
     1
  0
XRECORD
  5
15A
102
{ACAD_REACTORS
330
159
102
}
330
159
100
AcDbXrecord
280
     1
102
RTVSPost2010Prop28
280
     0
102
RTVSPost2010PropOp28
 70
     1
102
RTVSPost2010Prop29
280
     1
102
RTVSPost2010PropOp29
 70
     1
102
RTVSPost2010Prop30
280
     1
102
RTVSPost2010PropOp30
 70
     1
102
RTVSPost2010Prop31
280
     0
102
RTVSPost2010PropOp31
 70
     1
102
RTVSPost2010Prop32
280
     0
102
RTVSPost2010PropOp32
 70
     1
102
RTVSPost2010Prop33
280
     0
102
RTVSPost2010PropOp33
 70
     1
102
RTVSPost2010Prop34
280
     0
102
RTVSPost2010PropOp34
 70
     1
102
RTVSPost2010Prop35
280
     0
102
RTVSPost2010PropOp35
 70
     1
102
RTVSPost2010Prop36
280
     0
102
RTVSPost2010PropOp36
 70
     1
102
RTVSPost2010Prop37
 90
       50
102
RTVSPost2010PropOp37
 70
     1
102
RTVSPost2010Prop38
140
0.0
102
RTVSPost2010PropOp38
 70
     1
102
RTVSPost2010Prop39
140
1.0
102
RTVSPost2010PropOp39
 70
     1
102
RTVSPost2010Prop40
 90
        0
102
RTVSPost2010PropOp40
 70
     1
102
RTVSPost2010Prop41ColorIndex
 90
       18
102
RTVSPost2010Prop41ColorRGB
 90
        0
102
RTVSPost2010PropOp41
 70
     1
102
RTVSPost2010Prop42
 90
       50
102
RTVSPost2010PropOp42
 70
     1
102
RTVSPost2010Prop43
 90
        3
102
RTVSPost2010PropOp43
 70
     1
102
RTVSPost2010Prop44ColorIndex
 90
        5
102
RTVSPost2010Prop44ColorRGB
 90
      255
102
RTVSPost2010PropOp44
 70
     1
102
RTVSPost2010Prop45
280
     0
102
RTVSPost2010PropOp45
 70
     1
102
RTVSPost2010Prop46
 90
       50
102
RTVSPost2010PropOp46
 70
     1
102
RTVSPost2010Prop47
 90
       50
102
RTVSPost2010PropOp47
 70
     1
102
RTVSPost2010Prop48
 90
       50
102
RTVSPost2010PropOp48
 70
     1
102
RTVSPost2010Prop49
280
     0
102
RTVSPost2010PropOp49
 70
     1
102
RTVSPost2010Prop50
 90
       50
102
RTVSPost2010PropOp50
 70
     1
102
RTVSPost2010Prop51ColorIndex
 90
      256
102
RTVSPost2010Prop51ColorRGB
 90
-16777216
102
RTVSPost2010PropOp51
 70
     0
102
RTVSPost2010Prop52
140
1.0
102
RTVSPost2010PropOp52
 70
     0
102
RTVSPost2010Prop53
 90
        2
102
RTVSPost2010PropOp53
 70
     1
102
RTVSPost2010Prop54
  1
strokes_ogs.tif
102
RTVSPost2010PropOp54
 70
     1
102
RTVSPost2010Prop55
280
     0
102
RTVSPost2010PropOp55
 70
     1
102
RTVSPost2010Prop56
140
1.0
102
RTVSPost2010PropOp56
 70
     1
102
RTVSPost2010Prop57
140
1.0
102
RTVSPost2010PropOp57
 70
     1
  0
XRECORD
  5
162
102
{ACAD_REACTORS
330
161
102
}
330
161
100
AcDbXrecord
280
     1
102
RTVSPost2010Prop28
280
     0
102
RTVSPost2010PropOp28
 70
     1
102
RTVSPost2010Prop29
280
     1
102
RTVSPost2010PropOp29
 70
     1
102
RTVSPost2010Prop30
280
     1
102
RTVSPost2010PropOp30
 70
     1
102
RTVSPost2010Prop31
280
     0
102
RTVSPost2010PropOp31
 70
     1
102
RTVSPost2010Prop32
280
     0
102
RTVSPost2010PropOp32
 70
     1
102
RTVSPost2010Prop33
280
     0
102
RTVSPost2010PropOp33
 70
     1
102
RTVSPost2010Prop34
280
     0
102
RTVSPost2010PropOp34
 70
     1
102
RTVSPost2010Prop35
280
     0
102
RTVSPost2010PropOp35
 70
     1
102
RTVSPost2010Prop36
280
     0
102
RTVSPost2010PropOp36
 70
     1
102
RTVSPost2010Prop37
 90
       50
102
RTVSPost2010PropOp37
 70
     1
102
RTVSPost2010Prop38
140
0.0
102
RTVSPost2010PropOp38
 70
     1
102
RTVSPost2010Prop39
140
1.0
102
RTVSPost2010PropOp39
 70
     1
102
RTVSPost2010Prop40
 90
        0
102
RTVSPost2010PropOp40
 70
     1
102
RTVSPost2010Prop41ColorIndex
 90
       18
102
RTVSPost2010Prop41ColorRGB
 90
        0
102
RTVSPost2010PropOp41
 70
     1
102
RTVSPost2010Prop42
 90
       50
102
RTVSPost2010PropOp42
 70
     1
102
RTVSPost2010Prop43
 90
        3
102
RTVSPost2010PropOp43
 70
     1
102
RTVSPost2010Prop44ColorIndex
 90
        5
102
RTVSPost2010Prop44ColorRGB
 90
      255
102
RTVSPost2010PropOp44
 70
     1
102
RTVSPost2010Prop45
280
     0
102
RTVSPost2010PropOp45
 70
     1
102
RTVSPost2010Prop46
 90
       50
102
RTVSPost2010PropOp46
 70
     1
102
RTVSPost2010Prop47
 90
       50
102
RTVSPost2010PropOp47
 70
     1
102
RTVSPost2010Prop48
 90
       50
102
RTVSPost2010PropOp48
 70
     1
102
RTVSPost2010Prop49
280
     0
102
RTVSPost2010PropOp49
 70
     1
102
RTVSPost2010Prop50
 90
       50
102
RTVSPost2010PropOp50
 70
     1
102
RTVSPost2010Prop51ColorIndex
 90
      256
102
RTVSPost2010Prop51ColorRGB
 90
-16777216
102
RTVSPost2010PropOp51
 70
     0
102
RTVSPost2010Prop52
140
1.0
102
RTVSPost2010PropOp52
 70
     0
102
RTVSPost2010Prop53
 90
        2
102
RTVSPost2010PropOp53
 70
     1
102
RTVSPost2010Prop54
  1
strokes_ogs.tif
102
RTVSPost2010PropOp54
 70
     1
102
RTVSPost2010Prop55
280
     0
102
RTVSPost2010PropOp55
 70
     1
102
RTVSPost2010Prop56
140
1.0
102
RTVSPost2010PropOp56
 70
     1
102
RTVSPost2010Prop57
140
1.0
102
RTVSPost2010PropOp57
 70
     1
  0
XRECORD
  5
17E
102
{ACAD_REACTORS
330
17D
102
}
330
17D
100
AcDbXrecord
280
     1
102
RTVSPost2010Prop28
280
     0
102
RTVSPost2010PropOp28
 70
     0
102
RTVSPost2010Prop29
280
     1
102
RTVSPost2010PropOp29
 70
     0
102
RTVSPost2010Prop30
280
     1
102
RTVSPost2010PropOp30
 70
     0
102
RTVSPost2010Prop31
280
     0
102
RTVSPost2010PropOp31
 70
     0
102
RTVSPost2010Prop32
280
     0
102
RTVSPost2010PropOp32
 70
     0
102
RTVSPost2010Prop33
280
     0
102
RTVSPost2010PropOp33
 70
     0
102
RTVSPost2010Prop34
280
     0
102
RTVSPost2010PropOp34
 70
     0
102
RTVSPost2010Prop35
280
     0
102
RTVSPost2010PropOp35
 70
     0
102
RTVSPost2010Prop36
280
     0
102
RTVSPost2010PropOp36
 70
     0
102
RTVSPost2010Prop37
 90
       50
102
RTVSPost2010PropOp37
 70
     0
102
RTVSPost2010Prop38
140
0.0
102
RTVSPost2010PropOp38
 70
     0
102
RTVSPost2010Prop39
140
1.0
102
RTVSPost2010PropOp39
 70
     0
102
RTVSPost2010Prop40
 90
        0
102
RTVSPost2010PropOp40
 70
     0
102
RTVSPost2010Prop41ColorIndex
 90
       18
102
RTVSPost2010Prop41ColorRGB
 90
        0
102
RTVSPost2010PropOp41
 70
     0
102
RTVSPost2010Prop42
 90
       50
102
RTVSPost2010PropOp42
 70
     0
102
RTVSPost2010Prop43
 90
        3
102
RTVSPost2010PropOp43
 70
     0
102
RTVSPost2010Prop44ColorIndex
 90
        5
102
RTVSPost2010Prop44ColorRGB
 90
      255
102
RTVSPost2010PropOp44
 70
     0
102
RTVSPost2010Prop45
280
     0
102
RTVSPost2010PropOp45
 70
     0
102
RTVSPost2010Prop46
 90
       50
102
RTVSPost2010PropOp46
 70
     0
102
RTVSPost2010Prop47
 90
       50
102
RTVSPost2010PropOp47
 70
     0
102
RTVSPost2010Prop48
 90
       50
102
RTVSPost2010PropOp48
 70
     0
102
RTVSPost2010Prop49
280
     0
102
RTVSPost2010PropOp49
 70
     0
102
RTVSPost2010Prop50
 90
       50
102
RTVSPost2010PropOp50
 70
     0
102
RTVSPost2010Prop51ColorIndex
 90
      256
102
RTVSPost2010Prop51ColorRGB
 90
-16777216
102
RTVSPost2010PropOp51
 70
     0
102
RTVSPost2010Prop52
140
1.0
102
RTVSPost2010PropOp52
 70
     0
102
RTVSPost2010Prop53
 90
        2
102
RTVSPost2010PropOp53
 70
     0
102
RTVSPost2010Prop54
  1
strokes_ogs.tif
102
RTVSPost2010PropOp54
 70
     0
102
RTVSPost2010Prop55
280
     0
102
RTVSPost2010PropOp55
 70
     0
102
RTVSPost2010Prop56
140
1.0
102
RTVSPost2010PropOp56
 70
     0
102
RTVSPost2010Prop57
140
1.0
102
RTVSPost2010PropOp57
 70
     0
  0
XRECORD
  5
16E
102
{ACAD_REACTORS
330
16D
102
}
330
16D
100
AcDbXrecord
280
     1
102
RTVSPost2010Prop28
280
     0
102
RTVSPost2010PropOp28
 70
     1
102
RTVSPost2010Prop29
280
     1
102
RTVSPost2010PropOp29
 70
     1
102
RTVSPost2010Prop30
280
     1
102
RTVSPost2010PropOp30
 70
     1
102
RTVSPost2010Prop31
280
     0
102
RTVSPost2010PropOp31
 70
     1
102
RTVSPost2010Prop32
280
     0
102
RTVSPost2010PropOp32
 70
     1
102
RTVSPost2010Prop33
280
     0
102
RTVSPost2010PropOp33
 70
     1
102
RTVSPost2010Prop34
280
     0
102
RTVSPost2010PropOp34
 70
     1
102
RTVSPost2010Prop35
280
     0
102
RTVSPost2010PropOp35
 70
     1
102
RTVSPost2010Prop36
280
     0
102
RTVSPost2010PropOp36
 70
     1
102
RTVSPost2010Prop37
 90
       50
102
RTVSPost2010PropOp37
 70
     1
102
RTVSPost2010Prop38
140
0.0
102
RTVSPost2010PropOp38
 70
     1
102
RTVSPost2010Prop39
140
1.0
102
RTVSPost2010PropOp39
 70
     1
102
RTVSPost2010Prop40
 90
        0
102
RTVSPost2010PropOp40
 70
     1
102
RTVSPost2010Prop41ColorIndex
 90
       18
102
RTVSPost2010Prop41ColorRGB
 90
        0
102
RTVSPost2010PropOp41
 70
     1
102
RTVSPost2010Prop42
 90
       50
102
RTVSPost2010PropOp42
 70
     1
102
RTVSPost2010Prop43
 90
        3
102
RTVSPost2010PropOp43
 70
     1
102
RTVSPost2010Prop44ColorIndex
 90
        5
102
RTVSPost2010Prop44ColorRGB
 90
      255
102
RTVSPost2010PropOp44
 70
     1
102
RTVSPost2010Prop45
280
     0
102
RTVSPost2010PropOp45
 70
     1
102
RTVSPost2010Prop46
 90
       50
102
RTVSPost2010PropOp46
 70
     1
102
RTVSPost2010Prop47
 90
       50
102
RTVSPost2010PropOp47
 70
     1
102
RTVSPost2010Prop48
 90
       50
102
RTVSPost2010PropOp48
 70
     1
102
RTVSPost2010Prop49
280
     0
102
RTVSPost2010PropOp49
 70
     1
102
RTVSPost2010Prop50
 90
       50
102
RTVSPost2010PropOp50
 70
     1
102
RTVSPost2010Prop51ColorIndex
 90
      256
102
RTVSPost2010Prop51ColorRGB
 90
-16777216
102
RTVSPost2010PropOp51
 70
     0
102
RTVSPost2010Prop52
140
1.0
102
RTVSPost2010PropOp52
 70
     0
102
RTVSPost2010Prop53
 90
        2
102
RTVSPost2010PropOp53
 70
     1
102
RTVSPost2010Prop54
  1
strokes_ogs.tif
102
RTVSPost2010PropOp54
 70
     1
102
RTVSPost2010Prop55
280
     0
102
RTVSPost2010PropOp55
 70
     1
102
RTVSPost2010Prop56
140
1.0
102
RTVSPost2010PropOp56
 70
     1
102
RTVSPost2010Prop57
140
1.0
102
RTVSPost2010PropOp57
 70
     1
  0
XRECORD
  5
180
102
{ACAD_REACTORS
330
17F
102
}
330
17F
100
AcDbXrecord
280
     1
102
RTVSPost2010Prop28
280
     0
102
RTVSPost2010PropOp28
 70
     0
102
RTVSPost2010Prop29
280
     1
102
RTVSPost2010PropOp29
 70
     0
102
RTVSPost2010Prop30
280
     1
102
RTVSPost2010PropOp30
 70
     0
102
RTVSPost2010Prop31
280
     0
102
RTVSPost2010PropOp31
 70
     0
102
RTVSPost2010Prop32
280
     0
102
RTVSPost2010PropOp32
 70
     0
102
RTVSPost2010Prop33
280
     0
102
RTVSPost2010PropOp33
 70
     0
102
RTVSPost2010Prop34
280
     0
102
RTVSPost2010PropOp34
 70
     0
102
RTVSPost2010Prop35
280
     0
102
RTVSPost2010PropOp35
 70
     0
102
RTVSPost2010Prop36
280
     0
102
RTVSPost2010PropOp36
 70
     0
102
RTVSPost2010Prop37
 90
       50
102
RTVSPost2010PropOp37
 70
     0
102
RTVSPost2010Prop38
140
0.0
102
RTVSPost2010PropOp38
 70
     0
102
RTVSPost2010Prop39
140
1.0
102
RTVSPost2010PropOp39
 70
     0
102
RTVSPost2010Prop40
 90
        0
102
RTVSPost2010PropOp40
 70
     0
102
RTVSPost2010Prop41ColorIndex
 90
       18
102
RTVSPost2010Prop41ColorRGB
 90
        0
102
RTVSPost2010PropOp41
 70
     0
102
RTVSPost2010Prop42
 90
       50
102
RTVSPost2010PropOp42
 70
     0
102
RTVSPost2010Prop43
 90
        3
102
RTVSPost2010PropOp43
 70
     0
102
RTVSPost2010Prop44ColorIndex
 90
        5
102
RTVSPost2010Prop44ColorRGB
 90
      255
102
RTVSPost2010PropOp44
 70
     0
102
RTVSPost2010Prop45
280
     0
102
RTVSPost2010PropOp45
 70
     0
102
RTVSPost2010Prop46
 90
       50
102
RTVSPost2010PropOp46
 70
     0
102
RTVSPost2010Prop47
 90
       50
102
RTVSPost2010PropOp47
 70
     0
102
RTVSPost2010Prop48
 90
       50
102
RTVSPost2010PropOp48
 70
     0
102
RTVSPost2010Prop49
280
     0
102
RTVSPost2010PropOp49
 70
     0
102
RTVSPost2010Prop50
 90
       50
102
RTVSPost2010PropOp50
 70
     0
102
RTVSPost2010Prop51ColorIndex
 90
      256
102
RTVSPost2010Prop51ColorRGB
 90
-16777216
102
RTVSPost2010PropOp51
 70
     0
102
RTVSPost2010Prop52
140
1.0
102
RTVSPost2010PropOp52
 70
     0
102
RTVSPost2010Prop53
 90
        2
102
RTVSPost2010PropOp53
 70
     0
102
RTVSPost2010Prop54
  1
strokes_ogs.tif
102
RTVSPost2010PropOp54
 70
     0
102
RTVSPost2010Prop55
280
     0
102
RTVSPost2010PropOp55
 70
     0
102
RTVSPost2010Prop56
140
1.0
102
RTVSPost2010PropOp56
 70
     0
102
RTVSPost2010Prop57
140
1.0
102
RTVSPost2010PropOp57
 70
     0
  0
XRECORD
  5
166
102
{ACAD_REACTORS
330
165
102
}
330
165
100
AcDbXrecord
280
     1
102
RTVSPost2010Prop28
280
     0
102
RTVSPost2010PropOp28
 70
     1
102
RTVSPost2010Prop29
280
     1
102
RTVSPost2010PropOp29
 70
     1
102
RTVSPost2010Prop30
280
     1
102
RTVSPost2010PropOp30
 70
     1
102
RTVSPost2010Prop31
280
     0
102
RTVSPost2010PropOp31
 70
     1
102
RTVSPost2010Prop32
280
     0
102
RTVSPost2010PropOp32
 70
     1
102
RTVSPost2010Prop33
280
     0
102
RTVSPost2010PropOp33
 70
     1
102
RTVSPost2010Prop34
280
     0
102
RTVSPost2010PropOp34
 70
     1
102
RTVSPost2010Prop35
280
     0
102
RTVSPost2010PropOp35
 70
     1
102
RTVSPost2010Prop36
280
     0
102
RTVSPost2010PropOp36
 70
     1
102
RTVSPost2010Prop37
 90
       50
102
RTVSPost2010PropOp37
 70
     1
102
RTVSPost2010Prop38
140
0.0
102
RTVSPost2010PropOp38
 70
     1
102
RTVSPost2010Prop39
140
1.0
102
RTVSPost2010PropOp39
 70
     1
102
RTVSPost2010Prop40
 90
        0
102
RTVSPost2010PropOp40
 70
     1
102
RTVSPost2010Prop41ColorIndex
 90
       18
102
RTVSPost2010Prop41ColorRGB
 90
        0
102
RTVSPost2010PropOp41
 70
     1
102
RTVSPost2010Prop42
 90
       50
102
RTVSPost2010PropOp42
 70
     1
102
RTVSPost2010Prop43
 90
        3
102
RTVSPost2010PropOp43
 70
     1
102
RTVSPost2010Prop44ColorIndex
 90
        5
102
RTVSPost2010Prop44ColorRGB
 90
      255
102
RTVSPost2010PropOp44
 70
     1
102
RTVSPost2010Prop45
280
     0
102
RTVSPost2010PropOp45
 70
     1
102
RTVSPost2010Prop46
 90
       50
102
RTVSPost2010PropOp46
 70
     1
102
RTVSPost2010Prop47
 90
       50
102
RTVSPost2010PropOp47
 70
     1
102
RTVSPost2010Prop48
 90
       50
102
RTVSPost2010PropOp48
 70
     1
102
RTVSPost2010Prop49
280
     0
102
RTVSPost2010PropOp49
 70
     1
102
RTVSPost2010Prop50
 90
       50
102
RTVSPost2010PropOp50
 70
     1
102
RTVSPost2010Prop51ColorIndex
 90
      256
102
RTVSPost2010Prop51ColorRGB
 90
-16777216
102
RTVSPost2010PropOp51
 70
     0
102
RTVSPost2010Prop52
140
1.0
102
RTVSPost2010PropOp52
 70
     0
102
RTVSPost2010Prop53
 90
        2
102
RTVSPost2010PropOp53
 70
     1
102
RTVSPost2010Prop54
  1
strokes_ogs.tif
102
RTVSPost2010PropOp54
 70
     1
102
RTVSPost2010Prop55
280
     0
102
RTVSPost2010PropOp55
 70
     1
102
RTVSPost2010Prop56
140
1.0
102
RTVSPost2010PropOp56
 70
     1
102
RTVSPost2010Prop57
140
1.0
102
RTVSPost2010PropOp57
 70
     1
  0
XRECORD
  5
17C
102
{ACAD_REACTORS
330
17B
102
}
330
17B
100
AcDbXrecord
280
     1
102
RTVSPost2010Prop28
280
     0
102
RTVSPost2010PropOp28
 70
     1
102
RTVSPost2010Prop29
280
     1
102
RTVSPost2010PropOp29
 70
     1
102
RTVSPost2010Prop30
280
     1
102
RTVSPost2010PropOp30
 70
     1
102
RTVSPost2010Prop31
280
     0
102
RTVSPost2010PropOp31
 70
     1
102
RTVSPost2010Prop32
280
     0
102
RTVSPost2010PropOp32
 70
     1
102
RTVSPost2010Prop33
280
     0
102
RTVSPost2010PropOp33
 70
     1
102
RTVSPost2010Prop34
280
     0
102
RTVSPost2010PropOp34
 70
     1
102
RTVSPost2010Prop35
280
     0
102
RTVSPost2010PropOp35
 70
     1
102
RTVSPost2010Prop36
280
     0
102
RTVSPost2010PropOp36
 70
     1
102
RTVSPost2010Prop37
 90
       50
102
RTVSPost2010PropOp37
 70
     1
102
RTVSPost2010Prop38
140
0.0
102
RTVSPost2010PropOp38
 70
     1
102
RTVSPost2010Prop39
140
1.0
102
RTVSPost2010PropOp39
 70
     1
102
RTVSPost2010Prop40
 90
        0
102
RTVSPost2010PropOp40
 70
     1
102
RTVSPost2010Prop41ColorIndex
 90
       18
102
RTVSPost2010Prop41ColorRGB
 90
        0
102
RTVSPost2010PropOp41
 70
     1
102
RTVSPost2010Prop42
 90
       50
102
RTVSPost2010PropOp42
 70
     1
102
RTVSPost2010Prop43
 90
        3
102
RTVSPost2010PropOp43
 70
     1
102
RTVSPost2010Prop44ColorIndex
 90
        5
102
RTVSPost2010Prop44ColorRGB
 90
      255
102
RTVSPost2010PropOp44
 70
     1
102
RTVSPost2010Prop45
280
     0
102
RTVSPost2010PropOp45
 70
     1
102
RTVSPost2010Prop46
 90
       50
102
RTVSPost2010PropOp46
 70
     1
102
RTVSPost2010Prop47
 90
       50
102
RTVSPost2010PropOp47
 70
     1
102
RTVSPost2010Prop48
 90
       50
102
RTVSPost2010PropOp48
 70
     1
102
RTVSPost2010Prop49
280
     0
102
RTVSPost2010PropOp49
 70
     1
102
RTVSPost2010Prop50
 90
       50
102
RTVSPost2010PropOp50
 70
     1
102
RTVSPost2010Prop51ColorIndex
 90
      256
102
RTVSPost2010Prop51ColorRGB
 90
-16777216
102
RTVSPost2010PropOp51
 70
     0
102
RTVSPost2010Prop52
140
1.0
102
RTVSPost2010PropOp52
 70
     0
102
RTVSPost2010Prop53
 90
        2
102
RTVSPost2010PropOp53
 70
     1
102
RTVSPost2010Prop54
  1
strokes_ogs.tif
102
RTVSPost2010PropOp54
 70
     1
102
RTVSPost2010Prop55
280
     0
102
RTVSPost2010PropOp55
 70
     1
102
RTVSPost2010Prop56
140
1.0
102
RTVSPost2010PropOp56
 70
     1
102
RTVSPost2010Prop57
140
1.0
102
RTVSPost2010PropOp57
 70
     1
  0
XRECORD
  5
17A
102
{ACAD_REACTORS
330
179
102
}
330
179
100
AcDbXrecord
280
     1
102
RTVSPost2010Prop28
280
     0
102
RTVSPost2010PropOp28
 70
     1
102
RTVSPost2010Prop29
280
     1
102
RTVSPost2010PropOp29
 70
     1
102
RTVSPost2010Prop30
280
     1
102
RTVSPost2010PropOp30
 70
     1
102
RTVSPost2010Prop31
280
     0
102
RTVSPost2010PropOp31
 70
     1
102
RTVSPost2010Prop32
280
     0
102
RTVSPost2010PropOp32
 70
     1
102
RTVSPost2010Prop33
280
     0
102
RTVSPost2010PropOp33
 70
     1
102
RTVSPost2010Prop34
280
     0
102
RTVSPost2010PropOp34
 70
     1
102
RTVSPost2010Prop35
280
     0
102
RTVSPost2010PropOp35
 70
     1
102
RTVSPost2010Prop36
280
     0
102
RTVSPost2010PropOp36
 70
     1
102
RTVSPost2010Prop37
 90
       50
102
RTVSPost2010PropOp37
 70
     1
102
RTVSPost2010Prop38
140
0.0
102
RTVSPost2010PropOp38
 70
     1
102
RTVSPost2010Prop39
140
1.0
102
RTVSPost2010PropOp39
 70
     1
102
RTVSPost2010Prop40
 90
        0
102
RTVSPost2010PropOp40
 70
     1
102
RTVSPost2010Prop41ColorIndex
 90
       18
102
RTVSPost2010Prop41ColorRGB
 90
        0
102
RTVSPost2010PropOp41
 70
     1
102
RTVSPost2010Prop42
 90
       50
102
RTVSPost2010PropOp42
 70
     1
102
RTVSPost2010Prop43
 90
        3
102
RTVSPost2010PropOp43
 70
     1
102
RTVSPost2010Prop44ColorIndex
 90
        5
102
RTVSPost2010Prop44ColorRGB
 90
      255
102
RTVSPost2010PropOp44
 70
     1
102
RTVSPost2010Prop45
280
     0
102
RTVSPost2010PropOp45
 70
     1
102
RTVSPost2010Prop46
 90
       50
102
RTVSPost2010PropOp46
 70
     1
102
RTVSPost2010Prop47
 90
       50
102
RTVSPost2010PropOp47
 70
     1
102
RTVSPost2010Prop48
 90
       50
102
RTVSPost2010PropOp48
 70
     1
102
RTVSPost2010Prop49
280
     0
102
RTVSPost2010PropOp49
 70
     1
102
RTVSPost2010Prop50
 90
       50
102
RTVSPost2010PropOp50
 70
     1
102
RTVSPost2010Prop51ColorIndex
 90
      256
102
RTVSPost2010Prop51ColorRGB
 90
-16777216
102
RTVSPost2010PropOp51
 70
     0
102
RTVSPost2010Prop52
140
1.0
102
RTVSPost2010PropOp52
 70
     0
102
RTVSPost2010Prop53
 90
        2
102
RTVSPost2010PropOp53
 70
     1
102
RTVSPost2010Prop54
  1
strokes_ogs.tif
102
RTVSPost2010PropOp54
 70
     1
102
RTVSPost2010Prop55
280
     0
102
RTVSPost2010PropOp55
 70
     1
102
RTVSPost2010Prop56
140
1.0
102
RTVSPost2010PropOp56
 70
     1
102
RTVSPost2010Prop57
140
1.0
102
RTVSPost2010PropOp57
 70
     1
  0
XRECORD
  5
174
102
{ACAD_REACTORS
330
173
102
}
330
173
100
AcDbXrecord
280
     1
102
RTVSPost2010Prop28
280
     0
102
RTVSPost2010PropOp28
 70
     1
102
RTVSPost2010Prop29
280
     1
102
RTVSPost2010PropOp29
 70
     1
102
RTVSPost2010Prop30
280
     1
102
RTVSPost2010PropOp30
 70
     1
102
RTVSPost2010Prop31
280
     0
102
RTVSPost2010PropOp31
 70
     1
102
RTVSPost2010Prop32
280
     0
102
RTVSPost2010PropOp32
 70
     1
102
RTVSPost2010Prop33
280
     0
102
RTVSPost2010PropOp33
 70
     1
102
RTVSPost2010Prop34
280
     0
102
RTVSPost2010PropOp34
 70
     1
102
RTVSPost2010Prop35
280
     0
102
RTVSPost2010PropOp35
 70
     1
102
RTVSPost2010Prop36
280
     0
102
RTVSPost2010PropOp36
 70
     1
102
RTVSPost2010Prop37
 90
       50
102
RTVSPost2010PropOp37
 70
     1
102
RTVSPost2010Prop38
140
0.0
102
RTVSPost2010PropOp38
 70
     1
102
RTVSPost2010Prop39
140
1.0
102
RTVSPost2010PropOp39
 70
     1
102
RTVSPost2010Prop40
 90
        0
102
RTVSPost2010PropOp40
 70
     1
102
RTVSPost2010Prop41ColorIndex
 90
       18
102
RTVSPost2010Prop41ColorRGB
 90
        0
102
RTVSPost2010PropOp41
 70
     1
102
RTVSPost2010Prop42
 90
       50
102
RTVSPost2010PropOp42
 70
     1
102
RTVSPost2010Prop43
 90
        3
102
RTVSPost2010PropOp43
 70
     1
102
RTVSPost2010Prop44ColorIndex
 90
        5
102
RTVSPost2010Prop44ColorRGB
 90
      255
102
RTVSPost2010PropOp44
 70
     1
102
RTVSPost2010Prop45
280
     0
102
RTVSPost2010PropOp45
 70
     1
102
RTVSPost2010Prop46
 90
       50
102
RTVSPost2010PropOp46
 70
     1
102
RTVSPost2010Prop47
 90
       50
102
RTVSPost2010PropOp47
 70
     1
102
RTVSPost2010Prop48
 90
       50
102
RTVSPost2010PropOp48
 70
     1
102
RTVSPost2010Prop49
280
     0
102
RTVSPost2010PropOp49
 70
     1
102
RTVSPost2010Prop50
 90
       50
102
RTVSPost2010PropOp50
 70
     1
102
RTVSPost2010Prop51ColorIndex
 90
      256
102
RTVSPost2010Prop51ColorRGB
 90
-16777216
102
RTVSPost2010PropOp51
 70
     0
102
RTVSPost2010Prop52
140
1.0
102
RTVSPost2010PropOp52
 70
     0
102
RTVSPost2010Prop53
 90
        2
102
RTVSPost2010PropOp53
 70
     1
102
RTVSPost2010Prop54
  1
strokes_ogs.tif
102
RTVSPost2010PropOp54
 70
     1
102
RTVSPost2010Prop55
280
     0
102
RTVSPost2010PropOp55
 70
     1
102
RTVSPost2010Prop56
140
1.0
102
RTVSPost2010PropOp56
 70
     1
102
RTVSPost2010Prop57
140
1.0
102
RTVSPost2010PropOp57
 70
     1
  0
XRECORD
  5
176
102
{ACAD_REACTORS
330
175
102
}
330
175
100
AcDbXrecord
280
     1
102
RTVSPost2010Prop28
280
     0
102
RTVSPost2010PropOp28
 70
     1
102
RTVSPost2010Prop29
280
     1
102
RTVSPost2010PropOp29
 70
     1
102
RTVSPost2010Prop30
280
     1
102
RTVSPost2010PropOp30
 70
     1
102
RTVSPost2010Prop31
280
     0
102
RTVSPost2010PropOp31
 70
     1
102
RTVSPost2010Prop32
280
     0
102
RTVSPost2010PropOp32
 70
     1
102
RTVSPost2010Prop33
280
     0
102
RTVSPost2010PropOp33
 70
     1
102
RTVSPost2010Prop34
280
     0
102
RTVSPost2010PropOp34
 70
     1
102
RTVSPost2010Prop35
280
     0
102
RTVSPost2010PropOp35
 70
     1
102
RTVSPost2010Prop36
280
     0
102
RTVSPost2010PropOp36
 70
     1
102
RTVSPost2010Prop37
 90
       50
102
RTVSPost2010PropOp37
 70
     1
102
RTVSPost2010Prop38
140
0.0
102
RTVSPost2010PropOp38
 70
     1
102
RTVSPost2010Prop39
140
1.0
102
RTVSPost2010PropOp39
 70
     1
102
RTVSPost2010Prop40
 90
        0
102
RTVSPost2010PropOp40
 70
     1
102
RTVSPost2010Prop41ColorIndex
 90
       18
102
RTVSPost2010Prop41ColorRGB
 90
        0
102
RTVSPost2010PropOp41
 70
     1
102
RTVSPost2010Prop42
 90
       50
102
RTVSPost2010PropOp42
 70
     1
102
RTVSPost2010Prop43
 90
        3
102
RTVSPost2010PropOp43
 70
     1
102
RTVSPost2010Prop44ColorIndex
 90
        5
102
RTVSPost2010Prop44ColorRGB
 90
      255
102
RTVSPost2010PropOp44
 70
     1
102
RTVSPost2010Prop45
280
     0
102
RTVSPost2010PropOp45
 70
     1
102
RTVSPost2010Prop46
 90
       50
102
RTVSPost2010PropOp46
 70
     1
102
RTVSPost2010Prop47
 90
       50
102
RTVSPost2010PropOp47
 70
     1
102
RTVSPost2010Prop48
 90
       50
102
RTVSPost2010PropOp48
 70
     1
102
RTVSPost2010Prop49
280
     0
102
RTVSPost2010PropOp49
 70
     1
102
RTVSPost2010Prop50
 90
       50
102
RTVSPost2010PropOp50
 70
     1
102
RTVSPost2010Prop51ColorIndex
 90
      256
102
RTVSPost2010Prop51ColorRGB
 90
-16777216
102
RTVSPost2010PropOp51
 70
     0
102
RTVSPost2010Prop52
140
1.0
102
RTVSPost2010PropOp52
 70
     0
102
RTVSPost2010Prop53
 90
        2
102
RTVSPost2010PropOp53
 70
     1
102
RTVSPost2010Prop54
  1
strokes_ogs.tif
102
RTVSPost2010PropOp54
 70
     1
102
RTVSPost2010Prop55
280
     0
102
RTVSPost2010PropOp55
 70
     1
102
RTVSPost2010Prop56
140
1.0
102
RTVSPost2010PropOp56
 70
     1
102
RTVSPost2010Prop57
140
1.0
102
RTVSPost2010PropOp57
 70
     1
  0
XRECORD
  5
16C
102
{ACAD_REACTORS
330
16B
102
}
330
16B
100
AcDbXrecord
280
     1
102
RTVSPost2010Prop28
280
     0
102
RTVSPost2010PropOp28
 70
     1
102
RTVSPost2010Prop29
280
     1
102
RTVSPost2010PropOp29
 70
     1
102
RTVSPost2010Prop30
280
     1
102
RTVSPost2010PropOp30
 70
     1
102
RTVSPost2010Prop31
280
     0
102
RTVSPost2010PropOp31
 70
     1
102
RTVSPost2010Prop32
280
     0
102
RTVSPost2010PropOp32
 70
     1
102
RTVSPost2010Prop33
280
     0
102
RTVSPost2010PropOp33
 70
     1
102
RTVSPost2010Prop34
280
     0
102
RTVSPost2010PropOp34
 70
     1
102
RTVSPost2010Prop35
280
     0
102
RTVSPost2010PropOp35
 70
     1
102
RTVSPost2010Prop36
280
     0
102
RTVSPost2010PropOp36
 70
     1
102
RTVSPost2010Prop37
 90
       50
102
RTVSPost2010PropOp37
 70
     1
102
RTVSPost2010Prop38
140
0.0
102
RTVSPost2010PropOp38
 70
     1
102
RTVSPost2010Prop39
140
1.0
102
RTVSPost2010PropOp39
 70
     1
102
RTVSPost2010Prop40
 90
        0
102
RTVSPost2010PropOp40
 70
     1
102
RTVSPost2010Prop41ColorIndex
 90
       18
102
RTVSPost2010Prop41ColorRGB
 90
        0
102
RTVSPost2010PropOp41
 70
     1
102
RTVSPost2010Prop42
 90
       50
102
RTVSPost2010PropOp42
 70
     1
102
RTVSPost2010Prop43
 90
        3
102
RTVSPost2010PropOp43
 70
     1
102
RTVSPost2010Prop44ColorIndex
 90
        5
102
RTVSPost2010Prop44ColorRGB
 90
      255
102
RTVSPost2010PropOp44
 70
     1
102
RTVSPost2010Prop45
280
     0
102
RTVSPost2010PropOp45
 70
     1
102
RTVSPost2010Prop46
 90
       50
102
RTVSPost2010PropOp46
 70
     1
102
RTVSPost2010Prop47
 90
       50
102
RTVSPost2010PropOp47
 70
     1
102
RTVSPost2010Prop48
 90
       50
102
RTVSPost2010PropOp48
 70
     1
102
RTVSPost2010Prop49
280
     0
102
RTVSPost2010PropOp49
 70
     1
102
RTVSPost2010Prop50
 90
       50
102
RTVSPost2010PropOp50
 70
     1
102
RTVSPost2010Prop51ColorIndex
 90
      256
102
RTVSPost2010Prop51ColorRGB
 90
-16777216
102
RTVSPost2010PropOp51
 70
     0
102
RTVSPost2010Prop52
140
1.0
102
RTVSPost2010PropOp52
 70
     0
102
RTVSPost2010Prop53
 90
        2
102
RTVSPost2010PropOp53
 70
     1
102
RTVSPost2010Prop54
  1
strokes_ogs.tif
102
RTVSPost2010PropOp54
 70
     1
102
RTVSPost2010Prop55
280
     0
102
RTVSPost2010PropOp55
 70
     1
102
RTVSPost2010Prop56
140
1.0
102
RTVSPost2010PropOp56
 70
     1
102
RTVSPost2010Prop57
140
1.0
102
RTVSPost2010PropOp57
 70
     1
  0
XRECORD
  5
160
102
{ACAD_REACTORS
330
15F
102
}
330
15F
100
AcDbXrecord
280
     1
102
RTVSPost2010Prop28
280
     0
102
RTVSPost2010PropOp28
 70
     1
102
RTVSPost2010Prop29
280
     1
102
RTVSPost2010PropOp29
 70
     1
102
RTVSPost2010Prop30
280
     1
102
RTVSPost2010PropOp30
 70
     1
102
RTVSPost2010Prop31
280
     0
102
RTVSPost2010PropOp31
 70
     1
102
RTVSPost2010Prop32
280
     0
102
RTVSPost2010PropOp32
 70
     1
102
RTVSPost2010Prop33
280
     0
102
RTVSPost2010PropOp33
 70
     1
102
RTVSPost2010Prop34
280
     0
102
RTVSPost2010PropOp34
 70
     1
102
RTVSPost2010Prop35
280
     0
102
RTVSPost2010PropOp35
 70
     1
102
RTVSPost2010Prop36
280
     0
102
RTVSPost2010PropOp36
 70
     1
102
RTVSPost2010Prop37
 90
       50
102
RTVSPost2010PropOp37
 70
     1
102
RTVSPost2010Prop38
140
0.0
102
RTVSPost2010PropOp38
 70
     1
102
RTVSPost2010Prop39
140
1.0
102
RTVSPost2010PropOp39
 70
     1
102
RTVSPost2010Prop40
 90
        0
102
RTVSPost2010PropOp40
 70
     1
102
RTVSPost2010Prop41ColorIndex
 90
       18
102
RTVSPost2010Prop41ColorRGB
 90
        0
102
RTVSPost2010PropOp41
 70
     1
102
RTVSPost2010Prop42
 90
       50
102
RTVSPost2010PropOp42
 70
     1
102
RTVSPost2010Prop43
 90
        3
102
RTVSPost2010PropOp43
 70
     1
102
RTVSPost2010Prop44ColorIndex
 90
        5
102
RTVSPost2010Prop44ColorRGB
 90
      255
102
RTVSPost2010PropOp44
 70
     1
102
RTVSPost2010Prop45
280
     0
102
RTVSPost2010PropOp45
 70
     1
102
RTVSPost2010Prop46
 90
       50
102
RTVSPost2010PropOp46
 70
     1
102
RTVSPost2010Prop47
 90
       50
102
RTVSPost2010PropOp47
 70
     1
102
RTVSPost2010Prop48
 90
       50
102
RTVSPost2010PropOp48
 70
     1
102
RTVSPost2010Prop49
280
     0
102
RTVSPost2010PropOp49
 70
     1
102
RTVSPost2010Prop50
 90
       50
102
RTVSPost2010PropOp50
 70
     1
102
RTVSPost2010Prop51ColorIndex
 90
      256
102
RTVSPost2010Prop51ColorRGB
 90
-16777216
102
RTVSPost2010PropOp51
 70
     0
102
RTVSPost2010Prop52
140
1.0
102
RTVSPost2010PropOp52
 70
     0
102
RTVSPost2010Prop53
 90
        2
102
RTVSPost2010PropOp53
 70
     1
102
RTVSPost2010Prop54
  1
strokes_ogs.tif
102
RTVSPost2010PropOp54
 70
     1
102
RTVSPost2010Prop55
280
     0
102
RTVSPost2010PropOp55
 70
     1
102
RTVSPost2010Prop56
140
1.0
102
RTVSPost2010PropOp56
 70
     1
102
RTVSPost2010Prop57
140
1.0
102
RTVSPost2010PropOp57
 70
     1
  0
XRECORD
  5
178
102
{ACAD_REACTORS
330
177
102
}
330
177
100
AcDbXrecord
280
     1
102
RTVSPost2010Prop28
280
     0
102
RTVSPost2010PropOp28
 70
     1
102
RTVSPost2010Prop29
280
     1
102
RTVSPost2010PropOp29
 70
     1
102
RTVSPost2010Prop30
280
     1
102
RTVSPost2010PropOp30
 70
     1
102
RTVSPost2010Prop31
280
     0
102
RTVSPost2010PropOp31
 70
     1
102
RTVSPost2010Prop32
280
     0
102
RTVSPost2010PropOp32
 70
     1
102
RTVSPost2010Prop33
280
     0
102
RTVSPost2010PropOp33
 70
     1
102
RTVSPost2010Prop34
280
     0
102
RTVSPost2010PropOp34
 70
     1
102
RTVSPost2010Prop35
280
     0
102
RTVSPost2010PropOp35
 70
     1
102
RTVSPost2010Prop36
280
     0
102
RTVSPost2010PropOp36
 70
     1
102
RTVSPost2010Prop37
 90
       50
102
RTVSPost2010PropOp37
 70
     1
102
RTVSPost2010Prop38
140
0.0
102
RTVSPost2010PropOp38
 70
     1
102
RTVSPost2010Prop39
140
1.0
102
RTVSPost2010PropOp39
 70
     1
102
RTVSPost2010Prop40
 90
        0
102
RTVSPost2010PropOp40
 70
     1
102
RTVSPost2010Prop41ColorIndex
 90
       18
102
RTVSPost2010Prop41ColorRGB
 90
        0
102
RTVSPost2010PropOp41
 70
     1
102
RTVSPost2010Prop42
 90
       50
102
RTVSPost2010PropOp42
 70
     1
102
RTVSPost2010Prop43
 90
        3
102
RTVSPost2010PropOp43
 70
     1
102
RTVSPost2010Prop44ColorIndex
 90
        5
102
RTVSPost2010Prop44ColorRGB
 90
      255
102
RTVSPost2010PropOp44
 70
     1
102
RTVSPost2010Prop45
280
     0
102
RTVSPost2010PropOp45
 70
     1
102
RTVSPost2010Prop46
 90
       50
102
RTVSPost2010PropOp46
 70
     1
102
RTVSPost2010Prop47
 90
       50
102
RTVSPost2010PropOp47
 70
     1
102
RTVSPost2010Prop48
 90
       50
102
RTVSPost2010PropOp48
 70
     1
102
RTVSPost2010Prop49
280
     0
102
RTVSPost2010PropOp49
 70
     1
102
RTVSPost2010Prop50
 90
       50
102
RTVSPost2010PropOp50
 70
     1
102
RTVSPost2010Prop51ColorIndex
 90
      256
102
RTVSPost2010Prop51ColorRGB
 90
-16777216
102
RTVSPost2010PropOp51
 70
     0
102
RTVSPost2010Prop52
140
1.0
102
RTVSPost2010PropOp52
 70
     0
102
RTVSPost2010Prop53
 90
        2
102
RTVSPost2010PropOp53
 70
     1
102
RTVSPost2010Prop54
  1
strokes_ogs.tif
102
RTVSPost2010PropOp54
 70
     1
102
RTVSPost2010Prop55
280
     0
102
RTVSPost2010PropOp55
 70
     1
102
RTVSPost2010Prop56
140
1.0
102
RTVSPost2010PropOp56
 70
     1
102
RTVSPost2010Prop57
140
1.0
102
RTVSPost2010PropOp57
 70
     1
  0
ENDSEC
  0
EOF
