  0
SECTION
  2
HEADER
  9
$ACADVER
  1
AC1024
  9
$ACADMAINTVER
 70
   205
  9
$DWGCODEPAGE
  3
ANSI_1251
  9
$INSBASE
 10
0.0
 20
0.0
 30
0.0
  9
$EXTMIN
 10
1.000000000000000E+20
 20
1.000000000000000E+20
 30
1.000000000000000E+20
  9
$EXTMAX
 10
-1.000000000000000E+20
 20
-1.000000000000000E+20
 30
-1.000000000000000E+20
  9
$LIMMIN
 10
0.0
 20
0.0
  9
$LIMMAX
 10
12.0
 20
9.0
  9
$ORTHOMODE
 70
     0
  9
$REGENMODE
 70
     1
  9
$FILLMODE
 70
     1
  9
$QTEXTMODE
 70
     0
  9
$MIRRTEXT
 70
     1
  9
$LTSCALE
 40
1.0
  9
$ATTMODE
 70
     1
  9
$TEXTSIZE
 40
0.2
  9
$TRACEWID
 40
0.05
  9
$TEXTSTYLE
  7
Standard
  9
$CLAYER
  8
OracDecor_cornice_mouldings
  9
$CELTYPE
  6
ByLayer
  9
$CECOLOR
 62
   256
  9
$CELTSCALE
 40
1.0
  9
$DISPSILH
 70
     0
  9
$DIMSCALE
 40
1.0
  9
$DIMASZ
 40
0.18
  9
$DIMEXO
 40
0.0625
  9
$DIMDLI
 40
0.38
  9
$DIMRND
 40
0.0
  9
$DIMDLE
 40
0.0
  9
$DIMEXE
 40
0.18
  9
$DIMTP
 40
0.0
  9
$DIMTM
 40
0.0
  9
$DIMTXT
 40
0.18
  9
$DIMCEN
 40
0.09
  9
$DIMTSZ
 40
0.0
  9
$DIMTOL
 70
     0
  9
$DIMLIM
 70
     0
  9
$DIMTIH
 70
     1
  9
$DIMTOH
 70
     1
  9
$DIMSE1
 70
     0
  9
$DIMSE2
 70
     0
  9
$DIMTAD
 70
     0
  9
$DIMZIN
 70
     0
  9
$DIMBLK
  1

  9
$DIMASO
 70
     1
  9
$DIMSHO
 70
     1
  9
$DIMPOST
  1

  9
$DIMAPOST
  1

  9
$DIMALT
 70
     0
  9
$DIMALTD
 70
     2
  9
$DIMALTF
 40
25.4
  9
$DIMLFAC
 40
1.0
  9
$DIMTOFL
 70
     0
  9
$DIMTVP
 40
0.0
  9
$DIMTIX
 70
     0
  9
$DIMSOXD
 70
     0
  9
$DIMSAH
 70
     0
  9
$DIMBLK1
  1

  9
$DIMBLK2
  1

  9
$DIMSTYLE
  2
Standard
  9
$DIMCLRD
 70
     0
  9
$DIMCLRE
 70
     0
  9
$DIMCLRT
 70
     0
  9
$DIMTFAC
 40
1.0
  9
$DIMGAP
 40
0.09
  9
$DIMJUST
 70
     0
  9
$DIMSD1
 70
     0
  9
$DIMSD2
 70
     0
  9
$DIMTOLJ
 70
     1
  9
$DIMTZIN
 70
     0
  9
$DIMALTZ
 70
     0
  9
$DIMALTTZ
 70
     0
  9
$DIMUPT
 70
     0
  9
$DIMDEC
 70
     4
  9
$DIMTDEC
 70
     4
  9
$DIMALTU
 70
     2
  9
$DIMALTTD
 70
     2
  9
$DIMTXSTY
  7
Standard
  9
$DIMAUNIT
 70
     0
  9
$DIMADEC
 70
     0
  9
$DIMALTRND
 40
0.0
  9
$DIMAZIN
 70
     0
  9
$DIMDSEP
 70
    46
  9
$DIMATFIT
 70
     3
  9
$DIMFRAC
 70
     0
  9
$DIMLDRBLK
  1

  9
$DIMLUNIT
 70
     2
  9
$DIMLWD
 70
    -2
  9
$DIMLWE
 70
    -2
  9
$DIMTMOVE
 70
     0
  9
$DIMFXL
 40
1.0
  9
$DIMFXLON
 70
     0
  9
$DIMJOGANG
 40
0.7853981633974483
  9
$DIMTFILL
 70
     0
  9
$DIMTFILLCLR
 70
     0
  9
$DIMARCSYM
 70
     0
  9
$DIMLTYPE
  6

  9
$DIMLTEX1
  6

  9
$DIMLTEX2
  6

  9
$DIMTXTDIRECTION
 70
     0
  9
$LUNITS
 70
     2
  9
$LUPREC
 70
     4
  9
$SKETCHINC
 40
0.1
  9
$FILLETRAD
 40
0.5
  9
$AUNITS
 70
     0
  9
$AUPREC
 70
     0
  9
$MENU
  1
.
  9
$ELEVATION
 40
0.0
  9
$PELEVATION
 40
0.0
  9
$THICKNESS
 40
0.0
  9
$LIMCHECK
 70
     0
  9
$CHAMFERA
 40
0.5
  9
$CHAMFERB
 40
0.5
  9
$CHAMFERC
 40
1.0
  9
$CHAMFERD
 40
0.0
  9
$SKPOLY
 70
     0
  9
$TDCREATE
 40
2451380.930432396
  9
$TDUCREATE
 40
2451380.805432396
  9
$TDUPDATE
 40
2451380.966180555
  9
$TDUUPDATE
 40
2451380.841180556
  9
$TDINDWG
 40
0.0075617940
  9
$TDUSRTIMER
 40
0.0075527546
  9
$USRTIMER
 70
     1
  9
$ANGBASE
 50
0.0
  9
$ANGDIR
 70
     0
  9
$PDMODE
 70
     0
  9
$PDSIZE
 40
0.0
  9
$PLINEWID
 40
0.0
  9
$SPLFRAME
 70
     0
  9
$SPLINETYPE
 70
     6
  9
$SPLINESEGS
 70
     8
  9
$HANDSEED
  5
13D
  9
$SURFTAB1
 70
     6
  9
$SURFTAB2
 70
     6
  9
$SURFTYPE
 70
     6
  9
$SURFU
 70
     6
  9
$SURFV
 70
     6
  9
$UCSBASE
  2

  9
$UCSNAME
  2

  9
$UCSORG
 10
0.0
 20
0.0
 30
0.0
  9
$UCSXDIR
 10
1.0
 20
0.0
 30
0.0
  9
$UCSYDIR
 10
0.0
 20
1.0
 30
0.0
  9
$UCSORTHOREF
  2

  9
$UCSORTHOVIEW
 70
     0
  9
$UCSORGTOP
 10
0.0
 20
0.0
 30
0.0
  9
$UCSORGBOTTOM
 10
0.0
 20
0.0
 30
0.0
  9
$UCSORGLEFT
 10
0.0
 20
0.0
 30
0.0
  9
$UCSORGRIGHT
 10
0.0
 20
0.0
 30
0.0
  9
$UCSORGFRONT
 10
0.0
 20
0.0
 30
0.0
  9
$UCSORGBACK
 10
0.0
 20
0.0
 30
0.0
  9
$PUCSBASE
  2

  9
$PUCSNAME
  2

  9
$PUCSORG
 10
0.0
 20
0.0
 30
0.0
  9
$PUCSXDIR
 10
1.0
 20
0.0
 30
0.0
  9
$PUCSYDIR
 10
0.0
 20
1.0
 30
0.0
  9
$PUCSORTHOREF
  2

  9
$PUCSORTHOVIEW
 70
     0
  9
$PUCSORGTOP
 10
0.0
 20
0.0
 30
0.0
  9
$PUCSORGBOTTOM
 10
0.0
 20
0.0
 30
0.0
  9
$PUCSORGLEFT
 10
0.0
 20
0.0
 30
0.0
  9
$PUCSORGRIGHT
 10
0.0
 20
0.0
 30
0.0
  9
$PUCSORGFRONT
 10
0.0
 20
0.0
 30
0.0
  9
$PUCSORGBACK
 10
0.0
 20
0.0
 30
0.0
  9
$USERI1
 70
     0
  9
$USERI2
 70
     0
  9
$USERI3
 70
     0
  9
$USERI4
 70
     0
  9
$USERI5
 70
     0
  9
$USERR1
 40
0.0
  9
$USERR2
 40
0.0
  9
$USERR3
 40
0.0
  9
$USERR4
 40
0.0
  9
$USERR5
 40
0.0
  9
$WORLDVIEW
 70
     1
  9
$SHADEDGE
 70
     3
  9
$SHADEDIF
 70
    70
  9
$TILEMODE
 70
     1
  9
$MAXACTVP
 70
    64
  9
$PINSBASE
 10
0.0
 20
0.0
 30
0.0
  9
$PLIMCHECK
 70
     0
  9
$PEXTMIN
 10
1.000000000000000E+20
 20
1.000000000000000E+20
 30
1.000000000000000E+20
  9
$PEXTMAX
 10
-1.000000000000000E+20
 20
-1.000000000000000E+20
 30
-1.000000000000000E+20
  9
$PLIMMIN
 10
0.0
 20
0.0
  9
$PLIMMAX
 10
12.0
 20
9.0
  9
$UNITMODE
 70
     0
  9
$VISRETAIN
 70
     1
  9
$PLINEGEN
 70
     0
  9
$PSLTSCALE
 70
     1
  9
$TREEDEPTH
 70
  3020
  9
$CMLSTYLE
  2
Standard
  9
$CMLJUST
 70
     0
  9
$CMLSCALE
 40
1.0
  9
$PROXYGRAPHICS
 70
     1
  9
$MEASUREMENT
 70
     1
  9
$CELWEIGHT
370
    -1
  9
$ENDCAPS
280
     0
  9
$JOINSTYLE
280
     0
  9
$LWDISPLAY
290
     0
  9
$INSUNITS
 70
     4
  9
$HYPERLINKBASE
  1

  9
$STYLESHEET
  1

  9
$XEDIT
290
     1
  9
$CEPSNTYPE
380
     0
  9
$PSTYLEMODE
290
     1
  9
$FINGERPRINTGUID
  2
{12F50282-3ED8-11D3-A8B7-0060B0F84BC6}
  9
$VERSIONGUID
  2
{12F50293-3ED8-11D3-A8B7-0060B0F84BC6}
  9
$EXTNAMES
290
     1
  9
$PSVPSCALE
 40
0.0
  9
$OLESTARTUP
290
     0
  9
$SORTENTS
280
   127
  9
$INDEXCTL
280
     0
  9
$HIDETEXT
280
     0
  9
$XCLIPFRAME
280
     2
  9
$HALOGAP
280
     0
  9
$OBSCOLOR
 70
   257
  9
$OBSLTYPE
280
     0
  9
$INTERSECTIONDISPLAY
280
     0
  9
$INTERSECTIONCOLOR
 70
   257
  9
$DIMASSOC
280
     1
  9
$PROJECTNAME
  1

  9
$CAMERADISPLAY
290
     0
  9
$LENSLENGTH
 40
50.0
  9
$CAMERAHEIGHT
 40
0.0
  9
$STEPSPERSEC
 40
2.0
  9
$STEPSIZE
 40
6.0
  9
$3DDWFPREC
 40
2.0
  9
$PSOLWIDTH
 40
0.25
  9
$PSOLHEIGHT
 40
4.0
  9
$LOFTANG1
 40
1.570796326794896
  9
$LOFTANG2
 40
1.570796326794896
  9
$LOFTMAG1
 40
0.0
  9
$LOFTMAG2
 40
0.0
  9
$LOFTPARAM
 70
     7
  9
$LOFTNORMALS
280
     1
  9
$LATITUDE
 40
37.795
  9
$LONGITUDE
 40
-122.394
  9
$NORTHDIRECTION
 40
0.0
  9
$TIMEZONE
 70
 -8000
  9
$LIGHTGLYPHDISPLAY
280
     1
  9
$TILEMODELIGHTSYNCH
280
     1
  9
$CMATERIAL
347
AB
  9
$SOLIDHIST
280
     0
  9
$SHOWHIST
280
     1
  9
$DWFFRAME
280
     2
  9
$DGNFRAME
280
     0
  9
$REALWORLDSCALE
290
     1
  9
$INTERFERECOLOR
 62
     1
  9
$INTERFEREOBJVS
345
CD
  9
$INTERFEREVPVS
346
CA
  9
$CSHADOW
280
     0
  9
$SHADOWPLANELOCATION
 40
0.0
  0
ENDSEC
  0
SECTION
  2
CLASSES
  0
CLASS
  1
ACDBDICTIONARYWDFLT
  2
AcDbDictionaryWithDefault
  3
ObjectDBX Classes
 90
        0
 91
        1
280
     0
281
     0
  0
CLASS
  1
ACDBPLACEHOLDER
  2
AcDbPlaceHolder
  3
ObjectDBX Classes
 90
        0
 91
        2
280
     0
281
     0
  0
CLASS
  1
LAYOUT
  2
AcDbLayout
  3
ObjectDBX Classes
 90
        0
 91
        3
280
     0
281
     0
  0
CLASS
  1
MATERIAL
  2
AcDbMaterial
  3
ObjectDBX Classes
 90
     1153
 91
        3
280
     0
281
     0
  0
CLASS
  1
VISUALSTYLE
  2
AcDbVisualStyle
  3
ObjectDBX Classes
 90
     4095
 91
       24
280
     0
281
     0
  0
CLASS
  1
TABLESTYLE
  2
AcDbTableStyle
  3
ObjectDBX Classes
 90
     4095
 91
        1
280
     0
281
     0
  0
CLASS
  1
SCALE
  2
AcDbScale
  3
ObjectDBX Classes
 90
     1153
 91
       17
280
     0
281
     0
  0
CLASS
  1
MLEADERSTYLE
  2
AcDbMLeaderStyle
  3
ACDB_MLEADERSTYLE_CLASS
 90
     4095
 91
        1
280
     0
281
     0
  0
CLASS
  1
ACDBSECTIONVIEWSTYLE
  2
AcDbSectionViewStyle
  3
ObjectDBX Classes
 90
     1025
 91
        1
280
     0
281
     0
  0
CLASS
  1
ACDBDETAILVIEWSTYLE
  2
AcDbDetailViewStyle
  3
ObjectDBX Classes
 90
     1025
 91
        1
280
     0
281
     0
  0
CLASS
  1
MESH
  2
AcDbSubDMesh
  3
ObjectDBX Classes
 90
        0
 91
        1
280
     0
281
     1
  0
CLASS
  1
DICTIONARYVAR
  2
AcDbDictionaryVar
  3
ObjectDBX Classes
 90
        0
 91
        9
280
     0
281
     0
  0
CLASS
  1
CELLSTYLEMAP
  2
AcDbCellStyleMap
  3
ObjectDBX Classes
 90
     1152
 91
        1
280
     0
281
     0
  0
ENDSEC
  0
SECTION
  2
TABLES
  0
TABLE
  2
VPORT
  5
8
330
0
100
AcDbSymbolTable
 70
     1
  0
VPORT
  5
A8
330
8
100
AcDbSymbolTableRecord
100
AcDbViewportTableRecord
  2
*Active
 70
     0
 10
0.0
 20
0.0
 11
1.0
 21
1.0
 12
14.14226913452148
 22
-54.2972412109375
 13
0.0
 23
0.0
 14
0.5
 24
0.5
 15
0.5
 25
0.5
 16
-1.0
 26
-1.0
 36
1.0
 17
0.0
 27
0.0
 37
0.0
 40
1133.000534031177
 41
1.559303826555067
 42
50.0
 43
0.0
 44
0.0
 50
0.0
 51
0.0
 71
     0
 72
   100
 73
     1
 74
     3
 75
     0
 76
     0
 77
     0
 78
     0
281
     0
 65
     1
110
0.0
120
0.0
130
0.0
111
1.0
121
0.0
131
0.0
112
0.0
122
1.0
132
0.0
 79
     0
146
0.0
348
C9
 60
     3
 61
     5
292
     1
282
     1
141
0.0
142
0.0
 63
   250
421
  3355443
  0
ENDTAB
  0
TABLE
  2
LTYPE
  5
5
330
0
100
AcDbSymbolTable
 70
     1
  0
LTYPE
  5
14
330
5
100
AcDbSymbolTableRecord
100
AcDbLinetypeTableRecord
  2
ByBlock
 70
     0
  3

 72
    65
 73
     0
 40
0.0
  0
LTYPE
  5
15
330
5
100
AcDbSymbolTableRecord
100
AcDbLinetypeTableRecord
  2
ByLayer
 70
     0
  3

 72
    65
 73
     0
 40
0.0
  0
LTYPE
  5
16
330
5
100
AcDbSymbolTableRecord
100
AcDbLinetypeTableRecord
  2
Continuous
 70
     0
  3
Solid line
 72
    65
 73
     0
 40
0.0
  0
ENDTAB
  0
TABLE
  2
LAYER
  5
2
330
0
100
AcDbSymbolTable
 70
     3
  0
LAYER
  5
10
330
2
100
AcDbSymbolTableRecord
100
AcDbLayerTableRecord
  2
0
 70
     0
 62
     7
  6
Continuous
370
    -3
390
F
347
BB
  0
LAYER
  5
2B
330
2
100
AcDbSymbolTableRecord
100
AcDbLayerTableRecord
  2
ASHADE
 70
     4
 62
     7
  6
Continuous
370
    -3
390
2D
347
BB
  0
LAYER
  5
F8
330
2
100
AcDbSymbolTableRecord
100
AcDbLayerTableRecord
  2
OracDecor_cornice_mouldings
 70
     0
 62
   156
420
   540042
  6
Continuous
370
    -3
390
F
347
BB
  0
ENDTAB
  0
TABLE
  2
STYLE
  5
3
330
0
100
AcDbSymbolTable
 70
     2
  0
STYLE
  5
11
330
3
100
AcDbSymbolTableRecord
100
AcDbTextStyleTableRecord
  2
Standard
 70
     0
 40
0.0
 41
1.0
 50
0.0
 71
     0
 42
0.2
  3
txt
  4

  0
STYLE
  5
2C
330
3
100
AcDbSymbolTableRecord
100
AcDbTextStyleTableRecord
  2
ASHADE
 70
     0
 40
0.2
 41
1.0
 50
0.0
 71
     0
 42
0.2
  3
simplex
  4

  0
ENDTAB
  0
TABLE
  2
VIEW
  5
6
330
0
100
AcDbSymbolTable
 70
     0
  0
ENDTAB
  0
TABLE
  2
UCS
  5
7
330
0
100
AcDbSymbolTable
 70
     0
  0
ENDTAB
  0
TABLE
  2
APPID
  5
9
330
0
100
AcDbSymbolTable
 70
     6
  0
APPID
  5
12
330
9
100
AcDbSymbolTableRecord
100
AcDbRegAppTableRecord
  2
ACAD
 70
     0
  0
APPID
  5
8F
330
9
100
AcDbSymbolTableRecord
100
AcDbRegAppTableRecord
  2
AVE_RENDER
 70
     0
  0
APPID
  5
90
330
9
100
AcDbSymbolTableRecord
100
AcDbRegAppTableRecord
  2
AVE_ENTITY_MATERIAL
 70
     0
  0
APPID
  5
9C
330
9
100
AcDbSymbolTableRecord
100
AcDbRegAppTableRecord
  2
AVE_FINISH
 70
     0
  0
APPID
  5
9D
330
9
100
AcDbSymbolTableRecord
100
AcDbRegAppTableRecord
  2
AVE_MATERIAL
 70
     0
  0
APPID
  5
9E
330
9
100
AcDbSymbolTableRecord
100
AcDbRegAppTableRecord
  2
AVE_GLOBAL
 70
     0
  0
ENDTAB
  0
TABLE
  2
DIMSTYLE
  5
A
330
0
100
AcDbSymbolTable
 70
     1
100
AcDbDimStyleTable
 71
     0
  0
DIMSTYLE
105
27
330
A
100
AcDbSymbolTableRecord
100
AcDbDimStyleTableRecord
  2
Standard
 70
     0
340
11
  0
ENDTAB
  0
TABLE
  2
BLOCK_RECORD
  5
1
330
0
100
AcDbSymbolTable
 70
     6
  0
BLOCK_RECORD
  5
1F
330
1
100
AcDbSymbolTableRecord
100
AcDbBlockTableRecord
  2
*Model_Space
340
22
 70
     0
280
     1
281
     0
  0
BLOCK_RECORD
  5
1B
330
1
100
AcDbSymbolTableRecord
100
AcDbBlockTableRecord
  2
*Paper_Space
340
1E
 70
     0
280
     1
281
     0
  0
BLOCK_RECORD
  5
23
330
1
100
AcDbSymbolTableRecord
100
AcDbBlockTableRecord
  2
*Paper_Space0
340
26
 70
     0
280
     1
281
     0
  0
BLOCK_RECORD
  5
2E
330
1
100
AcDbSymbolTableRecord
100
AcDbBlockTableRecord
  2
direct
340
0
 70
     0
280
     1
281
     0
  0
BLOCK_RECORD
  5
42
330
1
100
AcDbSymbolTableRecord
100
AcDbBlockTableRecord
  2
overhead
340
0
 70
     0
280
     1
281
     0
  0
BLOCK_RECORD
  5
5F
330
1
100
AcDbSymbolTableRecord
100
AcDbBlockTableRecord
  2
sh_spot
340
0
 70
     0
280
     1
281
     0
  0
BLOCK_RECORD
  5
91
330
1
100
AcDbSymbolTableRecord
100
AcDbBlockTableRecord
  2
AVE_RENDER
340
0
102
{BLKREFS
331
94
331
95
331
96
331
97
331
98
331
99
331
9A
331
9B
102
}
 70
     0
280
     1
281
     0
  0
BLOCK_RECORD
  5
9F
330
1
100
AcDbSymbolTableRecord
100
AcDbBlockTableRecord
  2
AVE_GLOBAL
340
0
102
{BLKREFS
331
A2
102
}
 70
     0
280
     1
281
     0
  0
ENDTAB
  0
ENDSEC
  0
SECTION
  2
BLOCKS
  0
BLOCK
  5
20
330
1F
100
AcDbEntity
  8
0
100
AcDbBlockBegin
  2
*Model_Space
 70
     0
 10
0.0
 20
0.0
 30
0.0
  3
*Model_Space
  1

  0
ENDBLK
  5
21
330
1F
100
AcDbEntity
  8
0
100
AcDbBlockEnd
  0
BLOCK
  5
1C
330
1B
100
AcDbEntity
 67
     1
  8
0
100
AcDbBlockBegin
  2
*Paper_Space
 70
     0
 10
0.0
 20
0.0
 30
0.0
  3
*Paper_Space
  1

  0
ENDBLK
  5
1D
330
1B
100
AcDbEntity
 67
     1
  8
0
100
AcDbBlockEnd
  0
BLOCK
  5
24
330
23
100
AcDbEntity
 67
     1
  8
0
100
AcDbBlockBegin
  2
*Paper_Space0
 70
     0
 10
0.0
 20
0.0
 30
0.0
  3
*Paper_Space0
  1

  0
ENDBLK
  5
25
330
23
100
AcDbEntity
 67
     1
  8
0
100
AcDbBlockEnd
  0
BLOCK
  5
40
330
2E
100
AcDbEntity
  8
0
100
AcDbBlockBegin
  2
direct
 70
     2
 10
0.0
 20
0.0
 30
0.0
  3
direct
  1

  0
ATTDEF
  5
2F
330
2E
100
AcDbEntity
  8
ASHADE
  6
Continuous
 62
     1
100
AcDbText
 10
0.0
 20
-0.1
 30
0.0
 40
0.2
  1

  7
ASHADE
 72
     1
 11
0.0
 21
-0.1
 31
0.0
100
AcDbAttributeDefinition
280
     0
  3
Light Name
  2
SNAME
 70
     0
280
     0
  0
ARC
  5
30
330
2E
100
AcDbEntity
  8
ASHADE
  6
Continuous
 62
     7
100
AcDbCircle
 10
0.0
 20
0.0
 30
0.0
 40
0.3
100
AcDbArc
 50
205.6792886194569
 51
334.3207113805431
  0
ARC
  5
31
330
2E
100
AcDbEntity
  8
ASHADE
  6
Continuous
 62
     7
100
AcDbCircle
 10
0.0
 20
0.0
 30
0.0
 40
0.3
100
AcDbArc
 50
25.67928861945685
 51
154.3207113805431
  0
LINE
  5
32
330
2E
100
AcDbEntity
  8
ASHADE
  6
Continuous
 62
     7
100
AcDbLine
 10
-0.21
 20
0.2142428528562855
 30
0.0
 11
-0.21
 21
0.5
 31
0.0
  0
LINE
  5
33
330
2E
100
AcDbEntity
  8
ASHADE
  6
Continuous
 62
     7
100
AcDbLine
 10
-0.11
 20
0.2791057147390572
 30
0.0
 11
-0.11
 21
0.5
 31
0.0
  0
LINE
  5
34
330
2E
100
AcDbEntity
  8
ASHADE
  6
Continuous
 62
     7
100
AcDbLine
 10
0.21
 20
0.2142428528562855
 30
0.0
 11
0.21
 21
0.5
 31
0.0
  0
ATTDEF
  5
35
330
2E
100
AcDbEntity
  8
ASHADE
  6
Continuous
 62
     7
100
AcDbText
 10
0.0
 20
0.25
 30
0.0
 40
0.01
  1

100
AcDbAttributeDefinition
280
     0
  3
Look-at Y
  2
LAY
 70
     1
280
     0
  0
ATTDEF
  5
36
330
2E
100
AcDbEntity
  8
ASHADE
  6
Continuous
 62
     7
100
AcDbText
 10
0.0
 20
0.22
 30
0.0
 40
0.01
  1
1
100
AcDbAttributeDefinition
280
     0
  3
Light Intensity
  2
INTENSITY
 70
     1
280
     0
  0
ATTDEF
  5
37
330
2E
100
AcDbEntity
  8
ASHADE
  6
Continuous
 62
     7
100
AcDbText
 10
0.0
 20
0.16
 30
0.0
 40
0.01
  1
-1
100
AcDbAttributeDefinition
280
     0
  3
*not used*
  2
BEAMD
 70
     1
280
     0
  0
ATTDEF
  5
38
330
2E
100
AcDbEntity
  8
ASHADE
  6
Continuous
 62
     7
100
AcDbText
 10
0.0
 20
0.175
 30
0.0
 40
0.01
  1
-1
100
AcDbAttributeDefinition
280
     0
  3
*not used*
  2
CONED
 70
     1
280
     0
  0
ATTDEF
  5
39
330
2E
100
AcDbEntity
  8
ASHADE
  6
Continuous
 62
     7
100
AcDbText
 10
0.0
 20
0.19
 30
0.0
 40
0.01
  1
0
100
AcDbAttributeDefinition
280
     0
  3
Depth Map Size
  2
CONEA
 70
     1
280
     0
  0
ATTDEF
  5
3A
330
2E
100
AcDbEntity
  8
ASHADE
  6
Continuous
 62
     7
100
AcDbText
 10
0.0
 20
0.2050000000000001
 30
0.0
 40
0.01
  1
1,1,1
100
AcDbAttributeDefinition
280
     0
  3
Light Color (RGB)
  2
COLOR
 70
     1
280
     0
  0
ATTDEF
  5
3B
330
2E
100
AcDbEntity
  8
ASHADE
  6
Continuous
 62
     7
100
AcDbText
 10
0.0
 20
0.235
 30
0.0
 40
0.01
  1

100
AcDbAttributeDefinition
280
     0
  3
Look-at Z
  2
LAZ
 70
     1
280
     0
  0
LINE
  5
3C
330
2E
100
AcDbEntity
  8
ASHADE
  6
Continuous
 62
     7
100
AcDbLine
 10
0.0
 20
0.3
 30
0.0
 11
0.0
 21
0.5
 31
0.0
  0
LINE
  5
3D
330
2E
100
AcDbEntity
  8
ASHADE
  6
Continuous
 62
     7
100
AcDbLine
 10
0.11
 20
0.2791057147390572
 30
0.0
 11
0.11
 21
0.5
 31
0.0
  0
ATTDEF
  5
3E
330
2E
100
AcDbEntity
  8
ASHADE
  6
Continuous
 62
     7
100
AcDbText
 10
0.0
 20
0.265
 30
0.0
 40
0.01
  1

100
AcDbAttributeDefinition
280
     0
  3
Look-at X
  2
LAX
 70
     1
280
     0
  0
ATTDEF
  5
3F
330
2E
100
AcDbEntity
  8
ASHADE
  6
Continuous
 62
     7
100
AcDbText
 10
0.0
 20
0.28
 30
0.0
 40
0.01
  1

100
AcDbAttributeDefinition
280
     0
  3

  2
GNAME
 70
     1
280
     0
  0
ENDBLK
  5
41
330
2E
100
AcDbEntity
  8
0
100
AcDbBlockEnd
  0
BLOCK
  5
5D
330
42
100
AcDbEntity
  8
0
100
AcDbBlockBegin
  2
overhead
 70
     2
 10
0.0
 20
0.0
 30
0.0
  3
overhead
  1

  0
ATTDEF
  5
43
330
42
100
AcDbEntity
  8
ASHADE
  6
Continuous
 62
     1
100
AcDbText
 10
0.0
 20
-0.1
 30
0.0
 40
0.2
  1

  7
ASHADE
 72
     1
 11
0.0
 21
-0.1
 31
0.0
100
AcDbAttributeDefinition
280
     0
  3
Light Name
  2
SNAME
 70
     0
280
     0
  0
ARC
  5
44
330
42
100
AcDbEntity
  8
ASHADE
  6
Continuous
 62
     7
100
AcDbCircle
 10
0.0
 20
0.0
 30
0.0
 40
0.3
100
AcDbArc
 50
205.6792886194569
 51
334.3207113805431
  0
LINE
  5
45
330
42
100
AcDbEntity
  8
ASHADE
  6
Continuous
 62
     7
100
AcDbLine
 10
-0.2041413561583015
 20
-0.2198324514393848
 30
0.0
 11
-0.2721884748777353
 21
-0.2931099352525131
 31
0.0
  0
LINE
  5
46
330
42
100
AcDbEntity
  8
ASHADE
  6
Continuous
 62
     7
100
AcDbLine
 10
-0.1096591641591904
 20
-0.2792398032442862
 30
0.0
 11
-0.1279356915190555
 21
-0.3257797704516673
 31
0.0
  0
LINE
  5
47
330
42
100
AcDbEntity
  8
ASHADE
  6
Continuous
 62
     7
100
AcDbLine
 10
0.0
 20
-0.2999999999999999
 30
0.0
 11
0.0
 21
-0.4
 31
0.0
  0
LINE
  5
48
330
42
100
AcDbEntity
  8
ASHADE
  6
Continuous
 62
     7
100
AcDbLine
 10
0.1096591641591904
 20
-0.2792398032442862
 30
0.0
 11
0.1279356915190555
 21
-0.3257797704516673
 31
0.0
  0
LINE
  5
49
330
42
100
AcDbEntity
  8
ASHADE
  6
Continuous
 62
     7
100
AcDbLine
 10
0.2041413561583015
 20
-0.2198324514393848
 30
0.0
 11
0.2721884748777353
 21
-0.2931099352525131
 31
0.0
  0
ARC
  5
4A
330
42
100
AcDbEntity
  8
ASHADE
  6
Continuous
 62
     7
100
AcDbCircle
 10
0.0
 20
0.0
 30
0.0
 40
0.3
100
AcDbArc
 50
25.67928861945685
 51
154.3207113805431
  0
LINE
  5
4B
330
42
100
AcDbEntity
  8
ASHADE
  6
Continuous
 62
     7
100
AcDbLine
 10
-0.2703701166919155
 20
0.13
 30
0.0
 11
-0.3154318028072347
 21
0.1516666666666666
 31
0.0
  0
LINE
  5
4C
330
42
100
AcDbEntity
  8
ASHADE
  6
Continuous
 62
     7
100
AcDbLine
 10
-0.2703701166919155
 20
-0.13
 30
0.0
 11
-0.3154318028072347
 21
-0.1516666666666666
 31
0.0
  0
LINE
  5
4D
330
42
100
AcDbEntity
  8
ASHADE
  6
Continuous
 62
     7
100
AcDbLine
 10
-0.2041413561583015
 20
0.2198324514393849
 30
0.0
 11
-0.2721884748777353
 21
0.2931099352525131
 31
0.0
  0
LINE
  5
4E
330
42
100
AcDbEntity
  8
ASHADE
  6
Continuous
 62
     7
100
AcDbLine
 10
-0.1096591641591904
 20
0.2792398032442862
 30
0.0
 11
-0.1279356915190555
 21
0.3257797704516674
 31
0.0
  0
LINE
  5
4F
330
42
100
AcDbEntity
  8
ASHADE
  6
Continuous
 62
     7
100
AcDbLine
 10
0.2703701166919155
 20
-0.13
 30
0.0
 11
0.3154318028072347
 21
-0.1516666666666666
 31
0.0
  0
LINE
  5
50
330
42
100
AcDbEntity
  8
ASHADE
  6
Continuous
 62
     7
100
AcDbLine
 10
0.2703701166919155
 20
0.13
 30
0.0
 11
0.3154318028072347
 21
0.1516666666666666
 31
0.0
  0
LINE
  5
51
330
42
100
AcDbEntity
  8
ASHADE
  6
Continuous
 62
     7
100
AcDbLine
 10
0.0
 20
0.3
 30
0.0
 11
0.0
 21
0.4
 31
0.0
  0
ATTDEF
  5
52
330
42
100
AcDbEntity
  8
ASHADE
  6
Continuous
 62
     7
100
AcDbText
 10
0.0
 20
0.22
 30
0.0
 40
0.01
  1
1
100
AcDbAttributeDefinition
280
     0
  3
Light Intensity
  2
INTENSITY
 70
     1
280
     0
  0
ATTDEF
  5
53
330
42
100
AcDbEntity
  8
ASHADE
  6
Continuous
 62
     7
100
AcDbText
 10
0.0
 20
0.16
 30
0.0
 40
0.01
  1
-1
100
AcDbAttributeDefinition
280
     0
  3
*not used*
  2
BEAMD
 70
     1
280
     0
  0
ATTDEF
  5
54
330
42
100
AcDbEntity
  8
ASHADE
  6
Continuous
 62
     7
100
AcDbText
 10
0.0
 20
0.175
 30
0.0
 40
0.01
  1
-1
100
AcDbAttributeDefinition
280
     0
  3
*not used*
  2
CONED
 70
     1
280
     0
  0
ATTDEF
  5
55
330
42
100
AcDbEntity
  8
ASHADE
  6
Continuous
 62
     7
100
AcDbText
 10
0.0
 20
0.19
 30
0.0
 40
0.01
  1
0
100
AcDbAttributeDefinition
280
     0
  3
Depth Map Size
  2
CONEA
 70
     1
280
     0
  0
ATTDEF
  5
56
330
42
100
AcDbEntity
  8
ASHADE
  6
Continuous
 62
     7
100
AcDbText
 10
0.0
 20
0.2050000000000001
 30
0.0
 40
0.01
  1
1,1,1
100
AcDbAttributeDefinition
280
     0
  3
Light Color (RGB)
  2
COLOR
 70
     1
280
     0
  0
ATTDEF
  5
57
330
42
100
AcDbEntity
  8
ASHADE
  6
Continuous
 62
     7
100
AcDbText
 10
0.0
 20
0.235
 30
0.0
 40
0.01
  1

100
AcDbAttributeDefinition
280
     0
  3
Look-at Z
  2
LAZ
 70
     1
280
     0
  0
ATTDEF
  5
58
330
42
100
AcDbEntity
  8
ASHADE
  6
Continuous
 62
     7
100
AcDbText
 10
0.0
 20
0.25
 30
0.0
 40
0.01
  1

100
AcDbAttributeDefinition
280
     0
  3
Look-at Y
  2
LAY
 70
     1
280
     0
  0
ATTDEF
  5
59
330
42
100
AcDbEntity
  8
ASHADE
  6
Continuous
 62
     7
100
AcDbText
 10
0.0
 20
0.265
 30
0.0
 40
0.01
  1

100
AcDbAttributeDefinition
280
     0
  3
Look-at X
  2
LAX
 70
     1
280
     0
  0
ATTDEF
  5
5A
330
42
100
AcDbEntity
  8
ASHADE
  6
Continuous
 62
     7
100
AcDbText
 10
0.0
 20
0.28
 30
0.0
 40
0.01
  1

100
AcDbAttributeDefinition
280
     0
  3

  2
GNAME
 70
     1
280
     0
  0
LINE
  5
5B
330
42
100
AcDbEntity
  8
ASHADE
  6
Continuous
 62
     7
100
AcDbLine
 10
0.1096591641591904
 20
0.2792398032442862
 30
0.0
 11
0.1279356915190555
 21
0.3257797704516674
 31
0.0
  0
LINE
  5
5C
330
42
100
AcDbEntity
  8
ASHADE
  6
Continuous
 62
     7
100
AcDbLine
 10
0.2041413561583015
 20
0.2198324514393849
 30
0.0
 11
0.2721884748777353
 21
0.2931099352525131
 31
0.0
  0
ENDBLK
  5
5E
330
42
100
AcDbEntity
  8
0
100
AcDbBlockEnd
  0
BLOCK
  5
85
330
5F
100
AcDbEntity
  8
0
100
AcDbBlockBegin
  2
sh_spot
 70
     2
 10
0.0
 20
0.0
 30
0.0
  3
sh_spot
  1

  0
LINE
  5
60
330
5F
100
AcDbEntity
  8
ASHADE
  6
Continuous
 62
     7
100
AcDbLine
 10
0.25
 20
0.26
 30
0.0
 11
-0.25
 21
0.26
 31
0.0
  0
LINE
  5
61
330
5F
100
AcDbEntity
  8
ASHADE
  6
Continuous
 62
     7
100
AcDbLine
 10
-0.25
 20
-0.3399999999999999
 30
0.0
 11
0.25
 21
-0.3399999999999999
 31
0.0
  0
ATTDEF
  5
62
330
5F
100
AcDbEntity
  8
ASHADE
  6
Continuous
 62
     1
100
AcDbText
 10
0.0
 20
-0.1
 30
0.0
 40
0.2
  1

  7
ASHADE
 72
     1
 11
0.0
 21
-0.1
 31
0.0
100
AcDbAttributeDefinition
280
     0
  3
Light Name
  2
SNAME
 70
     0
280
     0
  0
LINE
  5
63
330
5F
100
AcDbEntity
  8
ASHADE
  6
Continuous
 62
     7
100
AcDbLine
 10
-0.25
 20
-0.13
 30
0.0
 11
-0.25
 21
-0.3399999999999999
 31
0.0
  0
LINE
  5
64
330
5F
100
AcDbEntity
  8
ASHADE
  6
Continuous
 62
     7
100
AcDbLine
 10
-0.25
 20
-0.18
 30
0.0
 11
-0.29
 21
-0.18
 31
0.0
  0
LINE
  5
65
330
5F
100
AcDbEntity
  8
ASHADE
  6
Continuous
 62
     7
100
AcDbLine
 10
-0.29
 20
-0.22
 30
0.0
 11
-0.25
 21
-0.22
 31
0.0
  0
LINE
  5
66
330
5F
100
AcDbEntity
  8
ASHADE
  6
Continuous
 62
     7
100
AcDbLine
 10
-0.29
 20
-0.18
 30
0.0
 11
-0.29
 21
-0.22
 31
0.0
  0
LINE
  5
67
330
5F
100
AcDbEntity
  8
ASHADE
  6
Continuous
 62
     7
100
AcDbLine
 10
-0.1045454545454545
 20
0.26
 30
0.0
 11
-0.15
 21
0.46
 31
0.0
  0
LINE
  5
68
330
5F
100
AcDbEntity
  8
ASHADE
  6
Continuous
 62
     7
100
AcDbLine
 10
-0.21
 20
0.26
 30
0.0
 11
-0.301304347826087
 21
0.46
 31
0.0
  0
LINE
  5
69
330
5F
100
AcDbEntity
  8
ASHADE
  6
Continuous
 62
     7
100
AcDbLine
 10
-0.25
 20
0.26
 30
0.0
 11
-0.25
 21
0.13
 31
0.0
  0
LINE
  5
6A
330
5F
100
AcDbEntity
  8
ASHADE
  6
Continuous
 62
     7
100
AcDbLine
 10
-0.25
 20
0.22
 30
0.0
 11
-0.29
 21
0.22
 31
0.0
  0
LINE
  5
6B
330
5F
100
AcDbEntity
  8
ASHADE
  6
Continuous
 62
     7
100
AcDbLine
 10
-0.29
 20
0.1799999999999999
 30
0.0
 11
-0.25
 21
0.1799999999999999
 31
0.0
  0
LINE
  5
6C
330
5F
100
AcDbEntity
  8
ASHADE
  6
Continuous
 62
     7
100
AcDbLine
 10
-0.29
 20
0.22
 30
0.0
 11
-0.29
 21
0.1799999999999999
 31
0.0
  0
ATTDEF
  5
6D
330
5F
100
AcDbEntity
  8
ASHADE
  6
Continuous
 62
     7
100
AcDbText
 10
0.0
 20
-0.24
 30
0.0
 40
0.01
  1
0
100
AcDbAttributeDefinition
280
     0
  3
Depth Map Size
  2
ZSIZE
 70
     1
280
     0
  0
ATTDEF
  5
6E
330
5F
100
AcDbEntity
  8
ASHADE
  6
Continuous
 62
     7
100
AcDbText
 10
0.0
 20
-0.3300000000000001
 30
0.0
 40
0.01
  1
0,0,0
100
AcDbAttributeDefinition
280
     0
  3
Look-from XYZ
  2
LFXYZ
 70
     1
280
     0
  0
ATTDEF
  5
6F
330
5F
100
AcDbEntity
  8
ASHADE
  6
Continuous
 62
     7
100
AcDbText
 10
0.0
 20
-0.315
 30
0.0
 40
0.01
  1
0.0
100
AcDbAttributeDefinition
280
     0
  3
Beam Distribution
  2
BEAMDI
 70
     1
280
     0
  0
ATTDEF
  5
70
330
5F
100
AcDbEntity
  8
ASHADE
  6
Continuous
 62
     7
100
AcDbText
 10
0.0
 20
-0.3
 30
0.0
 40
0.01
  1
0.0
100
AcDbAttributeDefinition
280
     0
  3
Cone Delta
  2
CONEDE
 70
     1
280
     0
  0
ATTDEF
  5
71
330
5F
100
AcDbEntity
  8
ASHADE
  6
Continuous
 62
     7
100
AcDbText
 10
0.0
 20
-0.2850000000000001
 30
0.0
 40
0.01
  1
10.0
100
AcDbAttributeDefinition
280
     0
  3
Cone Angle
  2
CONEAN
 70
     1
280
     0
  0
ATTDEF
  5
72
330
5F
100
AcDbEntity
  8
ASHADE
  6
Continuous
 62
     7
100
AcDbText
 10
0.0
 20
-0.27
 30
0.0
 40
0.01
  1
-1
100
AcDbAttributeDefinition
280
     0
  3
*not used*
  2
BIASMAX
 70
     1
280
     0
  0
ATTDEF
  5
73
330
5F
100
AcDbEntity
  8
ASHADE
  6
Continuous
 62
     7
100
AcDbText
 10
0.0
 20
-0.255
 30
0.0
 40
0.01
  1
-1
100
AcDbAttributeDefinition
280
     0
  3
*not used*
  2
BIASMIN
 70
     1
280
     0
  0
ATTDEF
  5
74
330
5F
100
AcDbEntity
  8
ASHADE
  6
Continuous
 62
     7
100
AcDbText
 10
0.0
 20
-0.225
 30
0.0
 40
0.01
  1
1,1,1
100
AcDbAttributeDefinition
280
     0
  3
Light Color (RGB)
  2
COLOR
 70
     1
280
     0
  0
ATTDEF
  5
75
330
5F
100
AcDbEntity
  8
ASHADE
  6
Continuous
 62
     7
100
AcDbText
 10
0.0
 20
-0.21
 30
0.0
 40
0.01
  1
1
100
AcDbAttributeDefinition
280
     0
  3
Light Intensity
  2
INTENSITY
 70
     1
280
     0
  0
ATTDEF
  5
76
330
5F
100
AcDbEntity
  8
ASHADE
  6
Continuous
 62
     7
100
AcDbText
 10
0.0
 20
-0.15
 30
0.0
 40
0.01
  1

100
AcDbAttributeDefinition
280
     0
  3

  2
GNAME
 70
     1
280
     0
  0
ATTDEF
  5
77
330
5F
100
AcDbEntity
  8
ASHADE
  6
Continuous
 62
     7
100
AcDbText
 10
0.0
 20
-0.195
 30
0.0
 40
0.01
  1

100
AcDbAttributeDefinition
280
     0
  3
Look-at Z
  2
LAZ
 70
     1
280
     0
  0
ATTDEF
  5
78
330
5F
100
AcDbEntity
  8
ASHADE
  6
Continuous
 62
     7
100
AcDbText
 10
0.0
 20
-0.18
 30
0.0
 40
0.01
  1

100
AcDbAttributeDefinition
280
     0
  3
Look-at Y
  2
LAY
 70
     1
280
     0
  0
ATTDEF
  5
79
330
5F
100
AcDbEntity
  8
ASHADE
  6
Continuous
 62
     7
100
AcDbText
 10
0.0
 20
-0.165
 30
0.0
 40
0.01
  1

100
AcDbAttributeDefinition
280
     0
  3
Look-at X
  2
LAX
 70
     1
280
     0
  0
LINE
  5
7A
330
5F
100
AcDbEntity
  8
ASHADE
  6
Continuous
 62
     7
100
AcDbLine
 10
0.25
 20
-0.3399999999999999
 30
0.0
 11
0.25
 21
-0.13
 31
0.0
  0
LINE
  5
7B
330
5F
100
AcDbEntity
  8
ASHADE
  6
Continuous
 62
     7
100
AcDbLine
 10
0.25
 20
-0.18
 30
0.0
 11
0.29
 21
-0.18
 31
0.0
  0
LINE
  5
7C
330
5F
100
AcDbEntity
  8
ASHADE
  6
Continuous
 62
     7
100
AcDbLine
 10
0.29
 20
-0.22
 30
0.0
 11
0.25
 21
-0.22
 31
0.0
  0
LINE
  5
7D
330
5F
100
AcDbEntity
  8
ASHADE
  6
Continuous
 62
     7
100
AcDbLine
 10
0.29
 20
-0.18
 30
0.0
 11
0.29
 21
-0.22
 31
0.0
  0
LINE
  5
7E
330
5F
100
AcDbEntity
  8
ASHADE
  6
Continuous
 62
     7
100
AcDbLine
 10
0.21
 20
0.26
 30
0.0
 11
0.301304347826087
 21
0.46
 31
0.0
  0
LINE
  5
7F
330
5F
100
AcDbEntity
  8
ASHADE
  6
Continuous
 62
     7
100
AcDbLine
 10
0.1045454545454545
 20
0.26
 30
0.0
 11
0.15
 21
0.46
 31
0.0
  0
LINE
  5
80
330
5F
100
AcDbEntity
  8
ASHADE
  6
Continuous
 62
     7
100
AcDbLine
 10
0.0
 20
0.26
 30
0.0
 11
0.0
 21
0.46
 31
0.0
  0
LINE
  5
81
330
5F
100
AcDbEntity
  8
ASHADE
  6
Continuous
 62
     7
100
AcDbLine
 10
0.25
 20
0.13
 30
0.0
 11
0.25
 21
0.26
 31
0.0
  0
LINE
  5
82
330
5F
100
AcDbEntity
  8
ASHADE
  6
Continuous
 62
     7
100
AcDbLine
 10
0.25
 20
0.22
 30
0.0
 11
0.29
 21
0.22
 31
0.0
  0
LINE
  5
83
330
5F
100
AcDbEntity
  8
ASHADE
  6
Continuous
 62
     7
100
AcDbLine
 10
0.29
 20
0.1799999999999999
 30
0.0
 11
0.25
 21
0.1799999999999999
 31
0.0
  0
LINE
  5
84
330
5F
100
AcDbEntity
  8
ASHADE
  6
Continuous
 62
     7
100
AcDbLine
 10
0.29
 20
0.22
 30
0.0
 11
0.29
 21
0.1799999999999999
 31
0.0
  0
ENDBLK
  5
86
330
5F
100
AcDbEntity
  8
0
100
AcDbBlockEnd
  0
BLOCK
  5
92
330
91
100
AcDbEntity
  8
ASHADE
100
AcDbBlockBegin
  2
AVE_RENDER
 70
     0
 10
0.0
 20
0.0
 30
0.0
  3
AVE_RENDER
  1
AVE_RENDER
  0
ENDBLK
  5
93
330
91
100
AcDbEntity
  8
0
100
AcDbBlockEnd
  0
BLOCK
  5
A0
330
9F
100
AcDbEntity
  8
ASHADE
100
AcDbBlockBegin
  2
AVE_GLOBAL
 70
     0
 10
0.0
 20
0.0
 30
0.0
  3
AVE_GLOBAL
  1
AVE_GLOBAL
  0
ENDBLK
  5
A1
330
9F
100
AcDbEntity
  8
0
100
AcDbBlockEnd
  0
ENDSEC
  0
SECTION
  2
ENTITIES
  0
INSERT
  5
94
330
1F
100
AcDbEntity
  8
ASHADE
 62
     1
100
AcDbBlockReference
  2
AVE_RENDER
 10
0.0
 20
0.0
 30
0.0
1001
AVE_RENDER
1002
{
1070
     7
1000
Pref
1070
    30
1070
    20
1070
     1
1070
     0
1000

1070
    10
1070
     1
1070
    10
1040
1.0
1070
     1
1040
0.3
1040
0.7
1040
0.0
1040
10.0
1010
-1.0
1020
-1.0
1030
-1.0
1040
0.3
1070
    49
1070
     0
1070
     0
1010
1.0
1020
1.0
1030
1.0
1040
45.0
1070
     1
1070
     0
1000
WCS
1040
0.0
1070
     0
1040
10.0
1002
}
  0
INSERT
  5
95
330
1F
100
AcDbEntity
  8
ASHADE
 62
     3
100
AcDbBlockReference
  2
AVE_RENDER
 10
0.0
 20
0.0
 30
0.0
1001
AVE_RENDER
1002
{
1070
     0
1000
Full Opt
1070
     0
1070
     1
1070
     1
1070
     1
1070
     0
1070
     0
1070
     0
1070
     1
1070
     1
1040
0.0001
1040
0.0001
1002
}
  0
INSERT
  5
96
330
1F
100
AcDbEntity
  8
ASHADE
 62
     4
100
AcDbBlockReference
  2
AVE_RENDER
 10
0.0
 20
0.0
 30
0.0
1001
AVE_RENDER
1002
{
1070
     0
1000
Quick Opt
1070
     0
1070
     1
1070
     1
1070
     1
1070
     0
1070
     0
1070
     1
1002
}
  0
INSERT
  5
97
330
1F
100
AcDbEntity
  8
ASHADE
 62
     5
100
AcDbBlockReference
  2
AVE_RENDER
 10
0.0
 20
0.0
 30
0.0
1001
AVE_RENDER
1002
{
1070
     1
1000
Scanl Opt
1070
     2
1070
     0
1070
     2
1040
2.0
1040
4.0
1070
     0
1070
     1
1070
     0
1040
0.03
1002
}
  0
INSERT
  5
98
330
1F
100
AcDbEntity
  8
ASHADE
 62
     6
100
AcDbBlockReference
  2
AVE_RENDER
 10
0.0
 20
0.0
 30
0.0
1001
AVE_RENDER
1002
{
1070
     2
1000
Raytr Opt
1070
     2
1070
     0
1070
     2
1040
2.0
1040
4.0
1070
     0
1070
     1
1070
     1
1040
0.03
1070
     3
1040
0.03
1002
}
  0
INSERT
  5
99
330
1F
100
AcDbEntity
  8
ASHADE
 62
     7
100
AcDbBlockReference
  2
AVE_RENDER
 10
0.0
 20
0.0
 30
0.0
1001
AVE_RENDER
1002
{
1070
     0
1000
RFile Opt
1070
     1
1070
   640
1070
   480
1070
 10000
1070
     1
1070
     8
1070
     8
1070
     0
1070
     0
1070
     0
1070
     0
1070
     0
1070
     0
1070
     0
1002
}
  0
INSERT
  5
9A
330
1F
100
AcDbEntity
  8
ASHADE
 62
     8
100
AcDbBlockReference
  2
AVE_RENDER
 10
0.0
 20
0.0
 30
0.0
1001
AVE_RENDER
1002
{
1070
     0
1000
Fog Opt
1070
     0
1070
     0
1040
0.0
1040
1.0
1040
0.0
1040
1.0
1010
0.5
1020
0.5
1030
0.5
1002
}
  0
INSERT
  5
9B
330
1F
100
AcDbEntity
  8
ASHADE
 62
     9
100
AcDbBlockReference
  2
AVE_RENDER
 10
0.0
 20
0.0
 30
0.0
1001
AVE_RENDER
1002
{
1070
     0
1000
BG Opt
1070
     0
1070
     1
1010
0.0
1020
0.0
1030
0.0
1010
1.0
1020
0.0
1030
0.0
1010
0.0
1020
1.0
1030
0.0
1010
0.0
1020
0.0
1030
1.0
1040
0.5
1040
0.33
1040
0.0
1000

1070
     1
1000

1070
     1
1070
     1
1040
1.0
1040
1.0
1040
0.0
1040
0.0
1070
     0
1002
}
  0
INSERT
  5
A2
330
1F
100
AcDbEntity
  8
ASHADE
 62
     1
100
AcDbBlockReference
  2
AVE_GLOBAL
 10
0.0
 20
0.0
 30
0.0
1001
AVE_MATERIAL
1002
{
1000
*GLOBAL*
1000
2
1000
Global finish.
1002
{
1002
}
1002
{
1070
    63
1002
{
1002
{
1010
-1.0
1020
-1.0
1030
-1.0
1002
}
1040
0.1000000014901161
1000

1040
0.0
1002
{
1002
}
1040
0.0
1002
{
1002
}
1040
0.0
1002
}
1002
{
1002
{
1010
-1.0
1020
-1.0
1030
-1.0
1002
}
1040
0.6999999880790711
1000

1040
0.0
1002
{
1002
}
1040
0.0
1002
{
1002
}
1040
0.0
1002
}
1002
{
1002
{
1010
-1.0
1020
-1.0
1030
-1.0
1002
}
1040
0.2000000029802322
1000

1040
0.0
1002
{
1002
}
1040
0.0
1002
{
1002
}
1040
0.0
1002
}
1002
{
1070
     0
1002
{
1070
     1
1002
{
1040
1.0
1040
1.0
1000

1040
0.0
1002
{
1002
}
1040
0.0
1002
{
1002
}
1040
0.0
1002
}
1002
}
1040
1.0
1040
0.0
1040
0.0
1002
}
1002
{
1040
1.0
1040
1.0
1000

1040
0.0
1002
{
1002
}
1040
0.0
1002
{
1002
}
1040
0.0
1002
}
1002
{
1040
0.5
1040
1.0
1000

1040
0.0
1002
{
1002
}
1040
0.0
1002
{
1002
}
1040
0.0
1002
}
1002
{
1070
     0
1040
0.0
1002
{
1002
}
1040
1.0
1002
{
1002
}
1040
0.0
1002
}
1002
{
1040
0.0
1002
{
1002
{
1010
0.0
1020
0.0
1030
0.0
1002
}
1040
1.0
1000

1040
0.0
1002
{
1002
}
1040
0.0
1002
{
1002
}
1040
0.0
1002
}
1002
}
1002
{
1002
{
1070
     1
1002
{
1040
0.0
1040
1.0
1000

1040
0.0
1002
{
1002
}
1040
0.0
1002
{
1002
}
1040
0.0
1002
}
1002
}
1040
0.0
1002
{
1002
}
1010
1.0
1020
0.0
1030
0.0
1010
0.0
1020
1.0
1030
0.0
1010
0.0
1020
0.0
1030
1.0
1070
     0
1002
}
1002
{
1002
{
1040
1.0
1040
1.0
1002
{
1070
     1
1002
{
1040
1.0
1040
1.0
1000

1040
0.0
1002
{
1002
}
1040
0.0
1002
{
1002
}
1040
0.0
1002
}
1002
}
1002
}
1070
     0
1040
0.0
1002
{
1002
}
1002
}
1002
{
1002
}
1002
}
1002
{
1071
        3
1070
     3
1070
     0
1002
{
1070
     2
1070
     0
1070
     0
1040
0.0
1002
}
1070
     0
1070
     2
1002
{
1002
}
1002
}
1002
{
1040
8030.0
1040
190.3000030517578
1040
0.3050000071525574
1040
228.0
1040
545.0
1040
14.0
1040
17.39999961853027
1040
0.4560000002384186
1002
}
1002
}
  0
MESH
  5
F9
330
1F
100
AcDbEntity
  8
OracDecor_cornice_mouldings
 62
    34
420
 11622427
160
             25928
310
48650000D00200000C00000013000000020000003C0000000600000002000000000000E0FF3F8FC00000000058D414C00000000000405CC0000000E0FF3F8FC000000000CE4F14C000000080E83E5CC00C000000130000000A0000003C00000006000000020000000000002000408F4000000000964F14C000000000EF3E5C
310
C0000000E0FF3F8FC000000000CE4F14C000000080E83E5CC00C00000013000000120000003C00000006000000020000000000002000408F400000000020D414C00000008006405CC00000002000408F4000000000964F14C000000000EF3E5CC00C000000130000001A0000003C0000000600000002000000000000200040
310
8F400000000020D414C00000008006405CC0000000E0FF3F8FC00000000058D414C00000000000405CC00C00000013000000220000003C0000000600000002000000000000E0FF3F8FC000000000CE4F14C000000080E83E5CC0000000E0FF3F8FC0000000005ED413C000000080B63B5CC00C000000130000002A0000003C
310
00000006000000020000000000002000408F400000000026D413C000000000BD3B5CC0000000E0FF3F8FC0000000005ED413C000000080B63B5CC00C00000013000000320000003C00000006000000020000000000002000408F400000000026D413C000000000BD3B5CC00000002000408F4000000000964F14C000000000
310
EF3E5CC00C000000130000003A0000003C0000000600000002000000000000E0FF3F8FC0000000005ED413C000000080B63B5CC0000000E0FF3F8FC0000000004E6A13C000000080A0365CC00C00000013000000420000003C00000006000000020000000000002000408F4000000000166A13C000000000A7365CC0000000
310
E0FF3F8FC0000000004E6A13C000000080A0365CC00C000000130000004A0000003C00000006000000020000000000002000408F4000000000166A13C000000000A7365CC00000002000408F400000000026D413C000000000BD3B5CC00C00000013000000520000003C0000000600000002000000000000E0FF3F8FC00000
310
00004E6A13C000000080A0365CC00000000000408FC000000000000031BF0000000000005BC00C000000130000005A0000003C00000006000000020000000000002000408F4000000000000008BF0000008006005BC00000000000408FC000000000000031BF0000000000005BC00C00000013000000620000003C00000006
310
000000020000000000002000408F4000000000000008BF0000008006005BC00000002000408F4000000000166A13C000000000A7365CC00C000000130000006A0000003C00000006000000020000000000000000408FC000000000000031BF0000000000005BC00000000000408FC00000000000B030BF00000040535C59C0
310
0C00000013000000720000003C00000006000000020000000000002000408F4000000000000008BF000000C0595C59C00000000000408FC00000000000B030BF00000040535C59C00C000000130000007A0000003C00000006000000020000000000002000408F4000000000000008BF000000C0595C59C00000002000408F
310
4000000000000008BF0000008006005BC00C00000013000000820000003C00000006000000020000000000000000408FC00000000000B030BF00000040535C59C00000000000408FC0000000004C82D6BF00000000C51759C00C000000130000008A0000003C00000006000000020000000000002000408F4000000000C07E
310
D6BF00000040CB1759C00000000000408FC0000000004C82D6BF00000000C51759C00C00000013000000920000003C00000006000000020000000000002000408F4000000000C07ED6BF00000040CB1759C00000002000408F4000000000000008BF000000C0595C59C00C000000130000009A0000003C0000000600000002
310
0000000000000000408FC0000000004C82D6BF00000000C51759C00000000000408FC0000000007C92DABF00000000000059C00C00000013000000A20000003C00000006000000020000000000002000408F4000000000F08EDABF00000080060059C00000000000408FC0000000007C92DABF00000000000059C00C000000
310
13000000AA0000003C00000006000000020000000000002000408F4000000000F08EDABF00000080060059C00000002000408F4000000000C07ED6BF00000040CB1759C00C00000013000000B20000003C00000006000000020000000000000000408FC0000000007C92DABF00000000000059C00000000000408FC0000000
310
006082D6BF000000403BE858C00C00000013000000BA0000003C00000006000000020000000000002000408F4000000000D47ED6BF0000008041E858C00000000000408FC0000000006082D6BF000000403BE858C00C00000013000000C20000003C00000006000000020000000000002000408F4000000000D47ED6BF0000
310
008041E858C00000002000408F4000000000F08EDABF00000080060059C00C00000013000000CA0000003C00000006000000020000000000000000408FC0000000006082D6BF000000403BE858C00000000000408FC000000000000031BF000000C0ACA358C00C00000013000000D20000003C000000060000000200000000
310
00002000408F400000000000800ABF00000040B3A358C00000000000408FC000000000000031BF000000C0ACA358C00C00000013000000DA0000003C00000006000000020000000000002000408F400000000000800ABF00000040B3A358C00000002000408F4000000000D47ED6BF0000008041E858C00C00000013000000
310
E20000003C00000006000000020000000000000000408FC000000000000031BF000000C0ACA358C00000000000408FC000000000000031BF00000000004058C00C00000013000000EA0000003C00000006000000020000000000002000408F400000000000800ABF00000080064058C00000000000408FC000000000000031
310
BF00000000004058C00C00000013000000F20000003C00000006000000020000000000002000408F400000000000800ABF00000080064058C00000002000408F400000000000800ABF00000040B3A358C00C00000013000000FA0000003C00000006000000020000000000000000408FC000000000000031BF000000000040
310
58C00000000000408FC000000000402EC1BF000000C0002058C00C00000013000000020100003C00000006000000020000000000002000408F40000000002827C1BF00000040072058C00000000000408FC000000000402EC1BF000000C0002058C00C000000130000000A0100003C00000006000000020000000000002000
310
408F40000000002827C1BF00000040072058C00000002000408F400000000000800ABF00000080064058C00C00000013000000120100003C00000006000000020000000000000000408FC000000000402EC1BF000000C0002058C00000000000408FC0000000009002E0BF000000C0920858C00C000000130000001A010000
310
3C00000006000000020000000000002000408F4000000000CA00E0BF00000040990858C00000000000408FC0000000009002E0BF000000C0920858C00C00000013000000220100003C00000006000000020000000000002000408F4000000000CA00E0BF00000040990858C00000002000408F40000000002827C1BF000000
310
40072058C00C000000130000002A0100003C00000006000000020000000000000000408FC0000000009002E0BF000000C0920858C00000000000408FC000000000E000F8BF000000406DF757C00C00000013000000320100003C00000006000000020000000000002000408F4000000000F9FFF7BF0000008073F757C00000
310
000000408FC000000000E000F8BF000000406DF757C00C000000130000003A0100003C00000006000000020000000000002000408F4000000000F9FFF7BF0000008073F757C00000002000408F4000000000CA00E0BF00000040990858C00C00000013000000420100003C00000006000000020000000000000000408FC000
310
000000E000F8BF000000406DF757C00000000000408FC00000000060DCFDBF00000040FFDF57C00C000000130000004A0100003C00000006000000020000000000002000408F40000000007DDBFDBF000000C005E057C00000000000408FC00000000060DCFDBF00000040FFDF57C00C00000013000000520100003C000000
310
06000000020000000000002000408F40000000007DDBFDBF000000C005E057C00000002000408F4000000000F9FFF7BF0000008073F757C00C000000130000005A0100003C00000006000000020000000000000000408FC00000000060DCFDBF00000040FFDF57C00000000000408FC000000000880000C00000000000C057
310
C00C00000013000000620100003C00000006000000020000000000002000408F4000000080160000C00000008006C057C00000000000408FC000000000880000C00000000000C057C00C000000130000006A0100003C00000006000000020000000000002000408F4000000080160000C00000008006C057C0000000200040
310
8F40000000007DDBFDBF000000C005E057C00C00000013000000720100003C00000006000000020000000000000000408FC000000000880000C00000000000C057C00000000000408FC0000000008E0000C0000000E0FF7F4AC00C000000130000007A0100003C00000006000000020000000000002000408F400000008020
310
0000C0000000A00C804AC00000000000408FC0000000008E0000C0000000E0FF7F4AC00C00000013000000820100003C00000006000000020000000000002000408F4000000080200000C0000000A00C804AC00000002000408F4000000080160000C00000008006C057C00C000000130000008A0100003C00000006000000
310
020000000000000000408FC0000000008E0000C0000000E0FF7F4AC00000000000408FC000000000EA1201C00000006001404AC00C00000013000000920100003C00000006000000020000000000002000408F4000000080781201C0000000200E404AC00000000000408FC000000000EA1201C00000006001404AC00C0000
310
00130000009A0100003C00000006000000020000000000002000408F4000000080781201C0000000200E404AC00000002000408F4000000080200000C0000000A00C804AC00C00000013000000A20100003C00000006000000020000000000000000408FC000000000EA1201C00000006001404AC00000000000408FC00000
310
0000A40004C00000006025114AC00C00000013000000AA0100003C00000006000000020000000000002000408F4000000080360004C00000002032114AC00000000000408FC000000000A40004C00000006025114AC00C00000013000000B20100003C00000006000000020000000000002000408F4000000080360004C000
310
00002032114AC00000002000408F4000000080781201C0000000200E404AC00C00000013000000BA0100003C00000006000000020000000000000000408FC000000000A40004C00000006025114AC00000000000408FC0000000008C0008C0000000E0FFFF49C00C00000013000000C20100003C0000000600000002000000
310
0000002000408F40000000801E0008C0000000A00C004AC00000000000408FC0000000008C0008C0000000E0FFFF49C00C00000013000000CA0100003C00000006000000020000000000002000408F40000000801E0008C0000000A00C004AC00000002000408F4000000080360004C00000002032114AC00C000000130000
310
00D20100003C00000006000000020000000000000000408FC0000000008C0008C0000000E0FFFF49C00000000000408FC000000000230026C0000000E0FFFF49C00C00000013000000DA0100003C00000006000000020000000000002000408F4000000000070026C0000000A00C004AC00000000000408FC0000000002300
310
26C0000000E0FFFF49C00C00000013000000E20100003C00000006000000020000000000002000408F4000000000070026C0000000A00C004AC00000002000408F40000000801E0008C0000000A00C004AC00C00000013000000EA0100003C00000006000000020000000000000000408FC000000000230026C0000000E0FF
310
FF49C00000000000408FC0000000001D0027C000000060DAEE49C00C00000013000000F20100003C00000006000000020000000000002000408F4000000000010027C0000000E0E6EE49C00000000000408FC0000000001D0027C000000060DAEE49C00C00000013000000FA0100003C000000060000000200000000000020
310
00408F4000000000010027C0000000E0E6EE49C00000002000408F4000000000070026C0000000A00C004AC00C00000013000000020200003C00000006000000020000000000000000408FC0000000001D0027C000000060DAEE49C00000000000408FC0000000008DBB27C000000060FEBF49C00C000000130000000A0200
310
003C00000006000000020000000000002000408F400000008070BB27C0000000200BC049C00000000000408FC0000000008DBB27C000000060FEBF49C00C00000013000000120200003C00000006000000020000000000002000408F400000008070BB27C0000000200BC049C00000002000408F4000000000010027C00000
310
00E0E6EE49C00C000000130000001A0200003C00000006000000020000000000000000408FC0000000008DBB27C000000060FEBF49C00000000000408FC000000000230028C0000000E0FF7F49C00C00000013000000220200003C00000006000000020000000000002000408F4000000000070028C0000000A00C8049C000
310
00000000408FC000000000230028C0000000E0FF7F49C00C000000130000002A0200003C00000006000000020000000000002000408F4000000000070028C0000000A00C8049C00000002000408F400000008070BB27C0000000200BC049C00C00000013000000320200003C00000006000000020000000000000000408FC0
310
00000000230028C0000000E0FF7F49C0000000C0FF3F8FC000000000240028C000000080FFFF3EC00C000000130000003A0200003C00000006000000020000000000002000408F4000000000080028C00000000019003FC0000000C0FF3F8FC000000000240028C000000080FFFF3EC00C00000013000000420200003C0000
310
0006000000020000000000002000408F4000000000080028C00000000019003FC00000002000408F4000000000070028C0000000A00C8049C00C000000130000004A0200003C0000000600000002000000000000C0FF3F8FC000000000240028C000000080FFFF3EC0000000C0FF3F8FC0000000808DBB27C0000000C00280
310
3EC00C00000013000000520200003C00000006000000020000000000002000408F400000008071BB27C0000000001C803EC0000000C0FF3F8FC0000000808DBB27C0000000C002803EC00C000000130000005A0200003C00000006000000020000000000002000408F400000008071BB27C0000000001C803EC00000002000
310
408F4000000000080028C00000000019003FC00C00000013000000620200003C0000000600000002000000000000C0FF3F8FC0000000808DBB27C0000000C002803EC0000000C0FF3F8FC0000000001E0027C0000000C04A223EC00C000000130000006A0200003C00000006000000020000000000002000408F4000000000
310
020027C00000004064223EC0000000C0FF3F8FC0000000001E0027C0000000C04A223EC00C00000013000000720200003C00000006000000020000000000002000408F4000000000020027C00000004064223EC00000002000408F400000008071BB27C0000000001C803EC00C000000130000007A0200003C000000060000
310
0002000000000000C0FF3F8FC0000000001E0027C0000000C04A223EC0000000C0FF3F8FC000000000240026C000000080FFFF3DC00C00000013000000820200003C00000006000000020000000000002000408F4000000000080026C00000000019003EC0000000C0FF3F8FC000000000240026C000000080FFFF3DC00C00
310
0000130000008A0200003C00000006000000020000000000002000408F4000000000080026C00000000019003EC00000002000408F4000000000020027C00000004064223EC00C00000013000000920200003C0000000600000002000000000000C0FF3F8FC000000000240026C000000080FFFF3DC0000000C0FF3F8FC000
310
0000002401F0BF00000040FFFF3DC00C000000130000009A0200003C00000006000000020000000000002000408F40000000003E00F0BF0000000019003EC0000000C0FF3F8FC0000000002401F0BF00000040FFFF3DC00C00000013000000A20200003C00000006000000020000000000002000408F40000000003E00F0BF
310
0000000019003EC00000002000408F4000000000080026C00000000019003EC00C00000013000000AA0200003C0000000600000002000000000000C0FF3F8FC0000000002401F0BF00000040FFFF3DC0000000C0FF3F8FC000000000A802E0BF00000000B4DD3DC00C00000013000000B20200003C00000006000000020000
310
000000002000408F4000000000E200E0BF000000C0CDDD3DC0000000C0FF3F8FC000000000A802E0BF00000000B4DD3DC00C00000013000000BA0200003C00000006000000020000000000002000408F4000000000E200E0BF000000C0CDDD3DC00000002000408F40000000003E00F0BF0000000019003EC00C0000001300
310
0000C20200003C0000000600000002000000000000C0FF3F8FC000000000A802E0BF00000000B4DD3DC0000000C0FF3F8FC000000000A02EC1BF00000080FC7F3DC00C00000013000000CA0200003C00000006000000020000000000002000408F4000000000B827C1BF000000C015803DC0000000C0FF3F8FC000000000A0
310
2EC1BF00000080FC7F3DC00C00000013000000D20200003C00000006000000020000000000002000408F4000000000B827C1BF000000C015803DC00000002000408F4000000000E200E0BF000000C0CDDD3DC00C00000013000000DA0200003C0000000600000002000000000000C0FF3F8FC000000000A02EC1BF00000080
310
FC7F3DC0000000C0FF3F8FC000000000004032BF00000080FFFF3CC00C00000013000000E20200003C00000006000000020000000000002000408F4000000000004011BF0000000019003DC0000000C0FF3F8FC000000000004032BF00000080FFFF3CC00C00000013000000EA0200003C0000000600000002000000000000
310
2000408F4000000000004011BF0000000019003DC00000002000408F4000000000B827C1BF000000C015803DC00C00000013000000F20200003C0000000600000002000000000000C0FF3F8FC000000000004032BF00000080FFFF3CC0000000C0FF3F8FC000000000004032BF000000804C713BC00C00000013000000FA02
310
00003C00000006000000020000000000002000408F4000000000000011BF0000000066713BC0000000C0FF3F8FC000000000004032BF000000804C713BC00C00000013000000020300003C00000006000000020000000000002000408F4000000000000011BF0000000066713BC00000002000408F4000000000004011BF00
310
00000019003DC00C000000130000000A0300003C0000000600000002000000000000C0FF3F8FC000000000004032BF000000804C713BC0000000C0FF3F8FC0000000008012A7BF000000408E293BC00C00000013000000120300003C00000006000000020000000000002000408F400000000080F5A6BF000000C0A7293BC0
310
000000C0FF3F8FC0000000008012A7BF000000408E293BC00C000000130000001A0300003C00000006000000020000000000002000408F400000000080F5A6BF000000C0A7293BC00000002000408F4000000000000011BF0000000066713BC00C00000013000000220300003C0000000600000002000000000000C0FF3F8F
310
C0000000008012A7BF000000408E293BC0000000C0FF3F8FC0000000009082D6BF00000000135F3AC00C000000130000002A0300003C00000006000000020000000000002000408F4000000000107FD6BF000000602C5F3AC0000000C0FF3F8FC0000000009082D6BF00000000135F3AC00C00000013000000320300003C00
310
000006000000020000000000002000408F4000000000107FD6BF000000602C5F3AC00000002000408F400000000080F5A6BF000000C0A7293BC00C000000130000003A0300003C0000000600000002000000000000C0FF3F8FC0000000009082D6BF00000000135F3AC0000000C0FF3F8FC000000000B092DABF00000080FF
310
FF39C00C00000013000000420300003C00000006000000020000000000002000408F4000000000308FDABF000000E018003AC0000000C0FF3F8FC000000000B092DABF00000080FFFF39C00C000000130000004A0300003C00000006000000020000000000002000408F4000000000308FDABF000000E018003AC000000020
310
00408F4000000000107FD6BF000000602C5F3AC00C00000013000000520300003C0000000600000002000000000000C0FF3F8FC000000000B092DABF00000080FFFF39C0000000C0FF3F8FC0000000009082D6BF00000000ECA039C00C000000130000005A0300003C00000006000000020000000000002000408F40000000
310
00107FD6BF0000006005A139C0000000C0FF3F8FC0000000009082D6BF00000000ECA039C00C00000013000000620300003C00000006000000020000000000002000408F4000000000107FD6BF0000006005A139C00000002000408F4000000000308FDABF000000E018003AC00C000000130000006A0300003C0000000600
310
000002000000000000C0FF3F8FC0000000009082D6BF00000000ECA039C0000000C0FF3F8FC0000000008012A7BF000000E070D638C00C00000013000000720300003C00000006000000020000000000002000408F400000000080F5A6BF000000208AD638C0000000C0FF3F8FC0000000008012A7BF000000E070D638C00C
310
000000130000007A0300003C00000006000000020000000000002000408F400000000080F5A6BF000000208AD638C00000002000408F4000000000107FD6BF0000006005A139C00C00000013000000820300003C0000000600000002000000000000C0FF3F8FC0000000008012A7BF000000E070D638C0000000C0FF3F8FC0
310
00000000004032BF00000080B28E38C00C000000130000008A0300003C00000006000000020000000000002000408F4000000000000011BF000000E0CB8E38C0000000C0FF3F8FC000000000004032BF00000080B28E38C00C00000013000000920300003C00000006000000020000000000002000408F4000000000000011
310
BF000000E0CB8E38C00000002000408F400000000080F5A6BF000000208AD638C00C000000130000009A0300003C0000000600000002000000000000C0FF3F8FC000000000004032BF00000080B28E38C0000000C0FF3F8FC000000000004032BF000000C0FFFF35C00C00000013000000A20300003C000000060000000200
310
00000000002000408F400000000000000EBF00000000190036C0000000C0FF3F8FC000000000004032BF000000C0FFFF35C00C00000013000000AA0300003C00000006000000020000000000002000408F400000000000000EBF00000000190036C00000002000408F4000000000000011BF000000E0CB8E38C00C00000013
310
000000B20300003C0000000600000002000000000000C0FF3F8FC000000000004032BF000000C0FFFF35C0000000C0FF3F8FC00000000012003FC000000000FFFF35C00C00000013000000BA0300003C00000006000000020000000000002000408F400000004004003FC000000080180036C0000000C0FF3F8FC000000000
310
12003FC000000000FFFF35C00C00000013000000C20300003C00000006000000020000000000002000408F400000004004003FC000000080180036C00000002000408F400000000000000EBF00000000190036C00C00000013000000CA0300003C0000000600000002000000000000C0FF3F8FC00000000012003FC0000000
310
00FFFF35C0000000C0FF3F8FC0000000C00E803FC0000000A0B3DD35C00C00000013000000D20300003C00000006000000020000000000002000408F400000000001803FC000000020CDDD35C0000000C0FF3F8FC0000000C00E803FC0000000A0B3DD35C00C00000013000000DA0300003C00000006000000020000000000
310
002000408F400000000001803FC000000020CDDD35C00000002000408F400000004004003FC000000080180036C00C00000013000000E20300003C0000000600000002000000000000C0FF3F8FC0000000C00E803FC0000000A0B3DD35C0000000C0FF3F8FC000000040C6DD3FC000000000FC7F35C00C00000013000000EA
310
0300003C00000006000000020000000000002000408F4000000000B9DD3FC000000080158035C0000000C0FF3F8FC000000040C6DD3FC000000000FC7F35C00C00000013000000F20300003C00000006000000020000000000002000408F4000000000B9DD3FC000000080158035C00000002000408F400000000001803FC0
310
00000020CDDD35C00C00000013000000FA0300003C0000000600000002000000000000C0FF3F8FC000000040C6DD3FC000000000FC7F35C0000000C0FF3F8FC0000000C0080040C000000000FFFF34C00C00000013000000020400003C00000006000000020000000000002000408F4000000020020040C000000080180035
310
C0000000C0FF3F8FC0000000C0080040C000000000FFFF34C00C000000130000000A0400003C00000006000000020000000000002000408F4000000020020040C000000080180035C00000002000408F4000000000B9DD3FC000000080158035C00C00000013000000120400003C0000000600000002000000000000C0FF3F
310
8FC0000000C0080040C000000000FFFF34C0000000C0FF3F8FC000000080080040C000000000B27421C00C000000130000001A0400003C00000006000000020000000000002000408F4000000020020040C000000000E47421C0000000C0FF3F8FC000000080080040C000000000B27421C00C00000013000000220400003C
310
00000006000000020000000000002000408F4000000020020040C000000000E47421C00000002000408F4000000020020040C000000080180035C00C000000130000002A0400003C0000000600000002000000000000C0FF3F8FC000000080080040C000000000B27421C0000000C0FF3F8FC0000000C08EEA3FC000000000
310
70B220C00C00000013000000320400003C00000006000000020000000000002000408F400000008081EA3FC000000080A2B220C0000000C0FF3F8FC0000000C08EEA3FC00000000070B220C00C000000130000003A0400003C00000006000000020000000000002000408F400000008081EA3FC000000080A2B220C0000000
310
2000408F4000000020020040C000000000E47421C00C00000013000000420400003C0000000600000002000000000000C0FF3F8FC0000000C08EEA3FC00000000070B220C0000000C0FF3F8FC0000000C016B53FC000000080A70A20C00C000000130000004A0400003C00000006000000020000000000002000408F400000
310
000009B53FC000000080DA0A20C0000000C0FF3F8FC0000000C016B53FC000000080A70A20C00C00000013000000520400003C00000006000000020000000000002000408F400000000009B53FC000000080DA0A20C00000002000408F400000008081EA3FC000000080A2B220C00C000000130000005A0400003C00000006
310
00000002000000000000C0FF3F8FC0000000C016B53FC000000080A70A20C0000000C0FF3F8FC0000000600D4B3EC000000000296D1AC00C00000013000000620400003C00000006000000020000000000002000408F40000000A0FF4A3EC0000000008D6D1AC0000000C0FF3F8FC0000000600D4B3EC000000000296D1AC0
310
0C000000130000006A0400003C00000006000000020000000000002000408F40000000A0FF4A3EC0000000008D6D1AC00000002000408F400000000009B53FC000000080DA0A20C00C00000013000000720400003C0000000600000002000000000000C0FF3F8FC0000000600D4B3EC000000000296D1AC0000000C0FF3F8F
310
C0000000E094153EC000000000981D19C00C000000130000007A0400003C00000006000000020000000000002000408F400000002087153EC000000000FD1D19C0000000C0FF3F8FC0000000E094153EC000000000981D19C00C00000013000000820400003C00000006000000020000000000002000408F40000000208715
310
3EC000000000FD1D19C00000002000408F40000000A0FF4A3EC0000000008D6D1AC00C000000130000008A0400003C0000000600000002000000000000C0FF3F8FC0000000E094153EC000000000981D19C0000000C0FF3F8FC0000000E011003EC000000000149917C00C00000013000000920400003C0000000600000002
310
0000000000002000408F400000002004003EC000000000799917C0000000C0FF3F8FC0000000E011003EC000000000149917C00C000000130000009A0400003C00000006000000020000000000002000408F400000002004003EC000000000799917C00000002000408F400000002087153EC000000000FD1D19C00C000000
310
13000000A20400003C0000000600000002000000000000C0FF3F8FC0000000E011003EC000000000149917C0000000C0FF3F8FC00000008012003EC0000000000000D0BE0C00000013000000AA0400003C00000006000000020000000000002000408F40000000C004003EC000000000004039BF000000C0FF3F8FC0000000
310
8012003EC0000000000000D0BE0C00000013000000B20400003C00000006000000020000000000002000408F40000000C004003EC000000000004039BF0000002000408F400000002004003EC000000000799917C00C00000013000000BA0400003C0000000600000002000000000000C0FF3F8FC00000008012003EC00000
310
00000000D0BE000000C0FF3F8FC000000080866541C0000000000000D0BE0C00000013000000C20400003C00000006000000020000000000002000408F40000000E07F6541C000000000004039BF000000C0FF3F8FC000000080866541C0000000000000D0BE0C00000013000000CA0400003C000000060000000200000000
310
00002000408F40000000E07F6541C000000000004039BF0000002000408F40000000C004003EC000000000004039BF0C00000013000000D20400003C0000000600000002000000000000C0FF3F8FC000000080866541C0000000000000D0BE000000C0FF3F8FC000000080177641C000000000007491BF0C00000013000000
310
DA0400003C00000006000000020000000000002000408F40000000E0107641C00000000000DA91BF000000C0FF3F8FC000000080177641C000000000007491BF0C00000013000000E20400003C00000006000000020000000000002000408F40000000E07F6541C000000000004039BF0000002000408F40000000E0107641
310
C00000000000DA91BF0C00000013000000EA0400003C0000000600000002000000000000C0FF3F8FC000000080177641C000000000007491BF000000C0FF3F8FC0000000C0858541C000000000C025B1BF0C00000013000000F20400003C00000006000000020000000000002000408F40000000207F8541C000000000C03E
310
B1BF000000C0FF3F8FC0000000C0858541C000000000C025B1BF0C00000013000000FA0400003C00000006000000020000000000002000408F40000000207F8541C000000000C03EB1BF0000002000408F40000000E0107641C00000000000DA91BF0C00000013000000020500003C0000000600000002000000000000C0FF
310
3F8FC0000000C0C79241C000000000E0BEC2BF000000C0FF3F8FC0000000C0858541C000000000C025B1BF0C000000130000000A0500003C0000000600000002000000000000C0FF3F8FC0000000C0C79241C000000000E0BEC2BF0000002000408F4000000020C19241C00000000060CBC2BF0C0000001300000012050000
310
3C00000006000000020000000000002000408F4000000020C19241C00000000060CBC2BF0000002000408F40000000207F8541C000000000C03EB1BF0C000000130000001A0500003C0000000600000002000000000000C0FF3F8FC0000000C0C79241C000000000E0BEC2BF000000C0FF3F8FC0000000004AED43C0000000
310
00066A13C00C00000013000000220500003C00000006000000020000000000002000408F400000006043ED43C0000000006C6A13C0000000C0FF3F8FC0000000004AED43C000000000066A13C00C000000130000002A0500003C00000006000000020000000000002000408F4000000020C19241C00000000060CBC2BF0000
310
002000408F400000006043ED43C0000000006C6A13C00C00000013000000320500003C0000000600000002000000000000C0FF3F8FC0000000004AED43C000000000066A13C0000000C0FF3F8FC00000000076F743C00000000016D413C00C000000130000003A0500003C00000006000000020000000000002000408F4000
310
0000606FF743C0000000007CD413C0000000C0FF3F8FC00000000076F743C00000000016D413C00C00000013000000420500003C00000006000000020000000000002000408F400000006043ED43C0000000006C6A13C00000002000408F40000000606FF743C0000000007CD413C00C000000130000004A0500003C000000
310
0600000002000000000000C0FF3F8FC00000000076F743C00000000016D413C0000000C0FF3F8FC000000040DAFD43C000000000844F14C00C00000013000000520500003C00000006000000020000000000002000408F4000000060D3FD43C000000000EC4F14C0000000C0FF3F8FC000000040DAFD43C000000000844F14
310
C00C000000130000005A0500003C00000006000000020000000000002000408F4000000060D3FD43C000000000EC4F14C00000002000408F40000000606FF743C0000000007CD413C00C00000013000000620500003C0000000600000002000000000000C0FF3F8FC0000000C0080044C00000000010D414C0000000C0FF3F
310
8FC000000040DAFD43C000000000844F14C00C000000130000006A0500003C0000000600000002000000000000C0FF3F8FC0000000C0080044C00000000010D414C00000002000408F4000000020020044C00000000076D414C00C00000013000000720500003C00000006000000020000000000002000408F400000002002
310
0044C00000000076D414C00000002000408F4000000060D3FD43C000000000EC4F14C00C000000130000007A0500003C0000000600000002000000000000C0FF3F8FC0000000C0080044C00000000010D414C0000000C0FF3F8FC000000060080044C00000000000803DC00C00000013000000820500003C00000006000000
310
020000000000002000408F40000000E0010044C00000004019803DC0000000C0FF3F8FC000000060080044C00000000000803DC00C000000130000008A0500003C00000006000000020000000000002000408F4000000020020044C00000000076D414C00000002000408F40000000E0010044C00000004019803DC00C0000
310
0013000000920500003C0000000600000002000000000000C0FF3F8FC000000060080044C00000000000803DC0000000C0FF3F8FC0000000E0E5FC43C00000008090A73DC00C000000130000009A0500003C00000006000000020000000000002000408F4000000060DFFC43C0000000C0A9A73DC0000000C0FF3F8FC00000
310
00E0E5FC43C00000008090A73DC00C00000013000000A20500003C00000006000000020000000000002000408F40000000E0010044C00000004019803DC00000002000408F4000000060DFFC43C0000000C0A9A73DC00C00000013000000AA0500003C0000000600000002000000000000C0FF3F8FC0000000E0E5FC43C000
310
00008090A73DC0000000C0FF3F8FC0000000A0CEF343C0000000003DCB3DC00C00000013000000B20500003C00000006000000020000000000002000408F4000000020C8F343C00000008056CB3DC0000000C0FF3F8FC0000000A0CEF343C0000000003DCB3DC00C00000013000000BA0500003C0000000600000002000000
310
0000002000408F4000000020C8F343C00000008056CB3DC00000002000408F4000000060DFFC43C0000000C0A9A73DC00C00000013000000C20500003C0000000600000002000000000000C0FF3F8FC0000000A0CEF343C0000000003DCB3DC0000000C0FF3F8FC0000000E0A6E543C0000000808CE73DC00C000000130000
310
00CA0500003C00000006000000020000000000002000408F4000000060A0E543C0000000C0A5E73DC0000000C0FF3F8FC0000000E0A6E543C0000000808CE73DC00C00000013000000D20500003C00000006000000020000000000002000408F4000000060A0E543C0000000C0A5E73DC00000002000408F4000000020C8F3
310
43C00000008056CB3DC00C00000013000000DA0500003C0000000600000002000000000000C0FF3F8FC0000000E0A6E543C0000000808CE73DC0000000C0FF3F8FC0000000A0D0D343C000000000BBF93DC00C00000013000000E20500003C00000006000000020000000000002000408F4000000020CAD343C000000080D4
310
F93DC0000000C0FF3F8FC0000000A0D0D343C000000000BBF93DC00C00000013000000EA0500003C00000006000000020000000000002000408F4000000020CAD343C000000080D4F93DC00000002000408F4000000060A0E543C0000000C0A5E73DC00C00000013000000F20500003C0000000600000002000000000000C0
310
FF3F8FC00000006008C043C00000000000003EC0000000C0FF3F8FC0000000A0D0D343C000000000BBF93DC00C00000013000000FA0500003C0000000600000002000000000000C0FF3F8FC00000006008C043C00000000000003EC00000002000408F40000000E001C043C00000004019003EC00C00000013000000020600
310
003C00000006000000020000000000002000408F40000000E001C043C00000004019003EC00000002000408F4000000020CAD343C000000080D4F93DC00C000000130000000A0600003C0000000600000002000000000000C0FF3F8FC00000006008C043C00000000000003EC0000000C0FF3F8FC0000000E0118034C00000
310
0080FFFF3DC00C00000013000000120600003C00000006000000020000000000002000408F4000000020048034C00000000019003EC0000000C0FF3F8FC0000000E0118034C000000080FFFF3DC00C000000130000001A0600003C00000006000000020000000000002000408F40000000E001C043C00000004019003EC000
310
00002000408F4000000020048034C00000000019003EC00C00000013000000220600003C0000000600000002000000000000C0FF3F8FC0000000E0118034C000000080FFFF3DC0000000C0FF3F8FC000000060815834C0000000C044063EC00C000000130000002A0600003C00000006000000020000000000002000408F40
310
000000A0735834C0000000005E063EC0000000C0FF3F8FC000000060815834C0000000C044063EC00C00000013000000320600003C00000006000000020000000000002000408F4000000020048034C00000000019003EC00000002000408F40000000A0735834C0000000005E063EC00C000000130000003A0600003C0000
310
000600000002000000000000C0FF3F8FC000000060815834C0000000C044063EC0000000C0FF3F8FC0000000A0D43434C00000000073183EC00C00000013000000420600003C00000006000000020000000000002000408F40000000E0C63434C0000000808C183EC0000000C0FF3F8FC0000000A0D43434C0000000007318
310
3EC00C000000130000004A0600003C00000006000000020000000000002000408F40000000E0C63434C0000000808C183EC00000002000408F40000000A0735834C0000000005E063EC00C00000013000000520600003C0000000600000002000000000000C0FF3F8FC0000000A0D43434C00000000073183EC0000000C0FF
310
3F8FC000000060851834C000000040C2343EC00C000000130000005A0600003C00000006000000020000000000002000408F40000000A0771834C0000000C0DB343EC0000000C0FF3F8FC000000060851834C000000040C2343EC00C00000013000000620600003C00000006000000020000000000002000408F40000000A0
310
771834C0000000C0DB343EC00000002000408F40000000E0C63434C0000000808C183EC00C000000130000006A0600003C0000000600000002000000000000C0FF3F8FC000000060851834C000000040C2343EC0000000C0FF3F8FC0000000A0560634C0000000406F583EC00C00000013000000720600003C000000060000
310
00020000000000002000408F40000000E0480634C0000000C088583EC0000000C0FF3F8FC0000000A0560634C0000000406F583EC00C000000130000007A0600003C00000006000000020000000000002000408F40000000E0480634C0000000C088583EC00000002000408F40000000A0771834C0000000C0DB343EC00C00
310
000013000000820600003C0000000600000002000000000000C0FF3F8FC0000000E0110034C000000080FF7F3EC0000000C0FF3F8FC0000000A0560634C0000000406F583EC00C000000130000008A0600003C0000000600000002000000000000C0FF3F8FC0000000E0110034C000000080FF7F3EC00000002000408F4000
310
000020040034C00000000019803EC00C00000013000000920600003C00000006000000020000000000002000408F4000000020040034C00000000019803EC00000002000408F40000000E0480634C0000000C088583EC00C000000130000009A0600003C0000000600000002000000000000C0FF3F8FC000000040110034C0
310
000000E0FFBF4DC0000000C0FF3F8FC0000000E0110034C000000080FF7F3EC00C00000013000000A20600003C0000000600000002000000000000C0FF3F8FC000000040110034C0000000E0FFBF4DC00000002000408F4000000080030034C0000000A00CC04DC00C00000013000000AA0600003C00000006000000020000
310
000000002000408F4000000020040034C00000000019803EC00000002000408F4000000080030034C0000000A00CC04DC00C00000013000000B20600003C0000000600000002000000000000C0FF3F8FC000000040110034C0000000E0FFBF4DC0000000C0FF3F8FC000000080CCF933C000000020C8D34DC00C0000001300
310
0000BA0600003C00000006000000020000000000002000408F40000000C0BEF933C0000000E0D4D34DC0000000C0FF3F8FC000000080CCF933C000000020C8D34DC00C00000013000000C20600003C00000006000000020000000000002000408F4000000080030034C0000000A00CC04DC00000002000408F40000000C0BE
310
F933C0000000E0D4D34DC00C00000013000000CA0600003C0000000600000002000000000000C0FF3F8FC000000080CCF933C000000020C8D34DC0000000C0FF3F8FC0000000C09DE733C0000000A09EE54DC00C00000013000000D20600003C00000006000000020000000000002000408F400000000090E733C000000060
310
ABE54DC0000000C0FF3F8FC0000000C09DE733C0000000A09EE54DC00C00000013000000DA0600003C00000006000000020000000000002000408F400000000090E733C000000060ABE54DC00000002000408F40000000C0BEF933C0000000E0D4D34DC00C00000013000000E20600003C0000000600000002000000000000
310
C0FF3F8FC0000000C09DE733C0000000A09EE54DC0000000C0FF3F8FC0000000804ECB33C000000020C6F34DC00C00000013000000EA0600003C00000006000000020000000000002000408F40000000C040CB33C0000000E0D2F34DC0000000C0FF3F8FC0000000804ECB33C000000020C6F34DC00C00000013000000F206
310
00003C00000006000000020000000000002000408F40000000C040CB33C0000000E0D2F34DC00000002000408F400000000090E733C000000060ABE54DC00C00000013000000FA0600003C0000000600000002000000000000C0FF3F8FC0000000804ECB33C000000020C6F34DC0000000C0FF3F8FC000000000A2A733C000
310
0000A0DDFC4DC00C00000013000000020700003C00000006000000020000000000002000408F400000000094A733C000000020EAFC4DC0000000C0FF3F8FC000000000A2A733C0000000A0DDFC4DC00C000000130000000A0700003C00000006000000020000000000002000408F400000000094A733C000000020EAFC4DC0
310
0000002000408F40000000C040CB33C0000000E0D2F34DC00C00000013000000120700003C0000000600000002000000000000C0FF3F8FC000000080118033C0000000E0FFFF4DC0000000C0FF3F8FC000000000A2A733C0000000A0DDFC4DC00C000000130000001A0700003C0000000600000002000000000000C0FF3F8F
310
C000000080118033C0000000E0FFFF4DC00000002000408F4000000080038033C0000000A00C004EC00C00000013000000220700003C00000006000000020000000000002000408F4000000080038033C0000000A00C004EC00000002000408F400000000094A733C000000020EAFC4DC00C000000130000002A0700003C00
310
00000600000002000000000000C0FF3F8FC000000080118033C0000000E0FFFF4DC0000000C0FF3F8FC000000080220025C0000000E0FFFF4DC00C00000013000000320700003C00000006000000020000000000002000408F4000000080060025C0000000A00C004EC0000000C0FF3F8FC000000080220025C0000000E0FF
310
FF4DC00C000000130000003A0700003C00000006000000020000000000002000408F4000000080038033C0000000A00C004EC00000002000408F4000000080060025C0000000A00C004EC00C00000013000000420700003C0000000600000002000000000000C0FF3F8FC000000080220025C0000000E0FFFF4DC0000000C0
310
FF3F8FC00000000002B124C00000006022034EC00C000000130000004A0700003C00000006000000020000000000002000408F4000000000E6B024C0000000E02E034EC0000000C0FF3F8FC00000000002B124C00000006022034EC00C00000013000000520700003C00000006000000020000000000002000408F40000000
310
80060025C0000000A00C004EC00000002000408F4000000000E6B024C0000000E02E034EC00C000000130000005A0700003C0000000600000002000000000000C0FF3F8FC00000000002B124C00000006022034EC0000000C0FF3F8FC000000000A86924C0000000A0390C4EC00C00000013000000620700003C0000000600
310
0000020000000000002000408F40000000008C6924C000000060460C4EC0000000C0FF3F8FC000000000A86924C0000000A0390C4EC00C000000130000006A0700003C00000006000000020000000000002000408F40000000008C6924C000000060460C4EC00000002000408F4000000000E6B024C0000000E02E034EC00C
310
00000013000000720700003C0000000600000002000000000000C0FF3F8FC000000000A86924C0000000A0390C4EC0000000C0FF3F8FC000000080093124C000000060611A4EC00C000000130000007A0700003C00000006000000020000000000002000408F4000000080ED3024C0000000E06D1A4EC0000000C0FF3F8FC0
310
00000080093124C000000060611A4EC00C00000013000000820700003C00000006000000020000000000002000408F4000000080ED3024C0000000E06D1A4EC00000002000408F40000000008C6924C000000060460C4EC00C000000130000008A0700003C0000000600000002000000000000C0FF3F8FC000000080093124
310
C000000060611A4EC0000000C0FF3F8FC000000080AC0C24C0000000A0372C4EC00C00000013000000920700003C00000006000000020000000000002000408F4000000080900C24C000000060442C4EC0000000C0FF3F8FC000000080AC0C24C0000000A0372C4EC00C000000130000009A0700003C000000060000000200
310
00000000002000408F4000000080900C24C000000060442C4EC00000002000408F4000000080ED3024C0000000E06D1A4EC00C00000013000000A20700003C0000000600000002000000000000C0FF3F8FC000000080AC0C24C0000000A0372C4EC0000000C0FF3F8FC000000080220024C0000000E0FF3F4EC00C00000013
310
000000AA0700003C00000006000000020000000000002000408F4000000080060024C0000000A00C404EC0000000C0FF3F8FC000000080220024C0000000E0FF3F4EC00C00000013000000B20700003C00000006000000020000000000002000408F4000000080060024C0000000A00C404EC00000002000408F4000000080
310
900C24C000000060442C4EC00C00000013000000BA0700003C0000000600000002000000000000E0FF3F8FC000000000220024C00000000000405CC0000000C0FF3F8FC000000080220024C0000000E0FF3F4EC00C00000013000000C20700003C0000000600000002000000000000E0FF3F8FC000000000220024C0000000
310
0000405CC00000002000408F4000000000060024C00000008006405CC00C00000013000000CA0700003C00000006000000020000000000002000408F4000000000060024C00000008006405CC00000002000408F4000000080060024C0000000A00C404EC00C00000013000000D20700003C00000006000000020000000000
310
00E0FF3F8FC00000000058D414C00000000000405CC0000000E0FF3F8FC000000000220024C00000000000405CC00C00000013000000DA0700003C00000006000000020000000000002000408F400000000020D414C00000008006405CC00000002000408F4000000000060024C00000008006405CC00C00000013000000E2
310
0700003C00000006000000020000000000002000408F400000006043ED43C0000000006C6A13C00000002000408F400000000009B53FC000000080DA0A20C00C00000013000000EA0700003C00000006000000020000000000002000408F4000000020C19241C00000000060CBC2BF0000002000408F40000000A0FF4A3EC0
310
000000008D6D1AC00C00000013000000F20700003C00000006000000020000000000002000408F4000000080060025C0000000A00C004EC00000002000408F40000000801E0008C0000000A00C004AC00C00000013000000FA0700003C00000006000000020000000000002000408F4000000080038033C0000000A00C004E
310
C00000002000408F4000000000070026C0000000A00C004AC00C00000013000000020800003C00000006000000020000000000002000408F400000008070BB27C0000000200BC049C00000002000408F40000000C0BEF933C0000000E0D4D34DC00C000000130000000A0800003C0000000600000002000000000000200040
310
8F4000000080030034C0000000A00CC04DC00000002000408F4000000000070028C0000000A00C8049C00C00000013000000120800003C00000006000000020000000000002000408F4000000080360004C00000002032114AC00000002000408F4000000000E6B024C0000000E02E034EC00C000000130000001A0800003C
310
00000006000000020000000000002000408F4000000000060024C00000008006405CC00000002000408F4000000080160000C00000008006C057C00C00000013000000220800003C00000006000000020000000000002000408F4000000080200000C0000000A00C804AC00000002000408F4000000080060024C0000000A0
310
0C404EC00C000000130000002A0800003C00000006000000020000000000002000408F4000000080360004C00000002032114AC00000002000408F40000000008C6924C000000060460C4EC00C00000013000000320800003C00000006000000020000000000002000408F4000000080781201C0000000200E404AC0000000
310
2000408F4000000080ED3024C0000000E06D1A4EC00C000000130000003A0800003C00000006000000020000000000002000408F4000000080781201C0000000200E404AC00000002000408F4000000080900C24C000000060442C4EC00C00000013000000420800003C00000006000000020000000000002000408F400000
310
0000010027C0000000E0E6EE49C00000002000408F400000000094A733C000000020EAFC4DC00C000000130000004A0800003C00000006000000020000000000002000408F4000000000010027C0000000E0E6EE49C00000002000408F40000000C040CB33C0000000E0D2F34DC00C00000013000000520800003C00000006
310
000000020000000000002000408F400000008070BB27C0000000200BC049C00000002000408F400000000090E733C000000060ABE54DC00C000000130000005A0800003C00000006000000020000000000002000408F4000000020040034C00000000019803EC00000002000408F4000000000080028C00000000019003FC0
310
0C00000013000000620800003C00000006000000020000000000002000408F400000000080F5A6BF000000208AD638C00000002000408F4000000000080026C00000000019003EC00C000000130000006A0800003C00000006000000020000000000002000408F4000000000000011BF000000E0CB8E38C00000002000408F
310
4000000000080026C00000000019003EC00C00000013000000720800003C00000006000000020000000000002000408F400000000000000EBF00000000190036C00000002000408F4000000000080026C00000000019003EC00C000000130000007A0800003C00000006000000020000000000002000408F40000000000200
310
27C00000004064223EC00000002000408F40000000A0735834C0000000005E063EC00C00000013000000820800003C00000006000000020000000000002000408F4000000020048034C00000000019003EC00000002000408F4000000000080026C00000000019003EC00C000000130000008A0800003C0000000600000002
310
0000000000002000408F4000000000020027C00000004064223EC00000002000408F40000000E0C63434C0000000808C183EC00C00000013000000920800003C00000006000000020000000000002000408F400000008071BB27C0000000001C803EC00000002000408F40000000E0480634C0000000C088583EC00C000000
310
130000009A0800003C00000006000000020000000000002000408F400000008071BB27C0000000001C803EC00000002000408F40000000A0771834C0000000C0DB343EC00C00000013000000A20800003C00000006000000020000000000002000408F4000000000308FDABF000000E018003AC00000002000408F40000000
310
00080026C00000000019003EC00C00000013000000AA0800003C00000006000000020000000000002000408F4000000000107FD6BF0000006005A139C00000002000408F4000000000080026C00000000019003EC00C00000013000000B20800003C00000006000000020000000000002000408F400000000080F5A6BF0000
310
00C0A7293BC00000002000408F4000000000080026C00000000019003EC00C00000013000000BA0800003C00000006000000020000000000002000408F4000000000107FD6BF000000602C5F3AC00000002000408F4000000000080026C00000000019003EC00C00000013000000C20800003C000000060000000200000000
310
00002000408F4000000000004011BF0000000019003DC00000002000408F4000000000080026C00000000019003EC00C00000013000000CA0800003C00000006000000020000000000002000408F4000000000000011BF0000000066713BC00000002000408F4000000000080026C00000000019003EC00C00000013000000
310
D20800003C00000006000000020000000000002000408F4000000000E200E0BF000000C0CDDD3DC00000002000408F4000000000080026C00000000019003EC00C00000013000000DA0800003C00000006000000020000000000002000408F4000000000B827C1BF000000C015803DC00000002000408F4000000000080026
310
C00000000019003EC00C00000013000000E20800003C00000006000000020000000000002000408F4000000020048034C00000000019003EC00000002000408F400000004004003FC000000080180036C00C00000013000000EA0800003C00000006000000020000000000002000408F40000000E001C043C0000000401900
310
3EC00000002000408F400000004004003FC000000080180036C00C00000013000000F20800003C00000006000000020000000000002000408F4000000000B9DD3FC000000080158035C00000002000408F4000000060DFFC43C0000000C0A9A73DC00C00000013000000FA0800003C00000006000000020000000000002000
310
408F40000000E0010044C00000004019803DC00000002000408F4000000020020040C000000080180035C00C00000013000000020900003C00000006000000020000000000002000408F4000000000B9DD3FC000000080158035C00000002000408F4000000020C8F343C00000008056CB3DC00C000000130000000A090000
310
3C00000006000000020000000000002000408F400000000001803FC000000020CDDD35C00000002000408F4000000060A0E543C0000000C0A5E73DC00C00000013000000120900003C00000006000000020000000000002000408F400000000001803FC000000020CDDD35C00000002000408F4000000020CAD343C0000000
310
80D4F93DC00C000000130000001A0900003C00000006000000020000000000002000408F40000000E07F6541C000000000004039BF0000002000408F400000002004003EC000000000799917C00C00000013000000220900003C00000006000000020000000000002000408F400000002087153EC000000000FD1D19C00000
310
002000408F40000000207F8541C000000000C03EB1BF0C000000130000002A0900003C00000006000000020000000000002000408F400000002087153EC000000000FD1D19C00000002000408F40000000E0107641C00000000000DA91BF0C00000013000000320900003C00000006000000020000000000002000408F4000
310
00008081EA3FC000000080A2B220C00000002000408F40000000606FF743C0000000007CD413C00C000000130000003A0900003C00000006000000020000000000002000408F4000000020020044C00000000076D414C00000002000408F4000000020020040C000000000E47421C00C00000013000000420900003C000000
310
06000000020000000000002000408F400000008081EA3FC000000080A2B220C00000002000408F4000000060D3FD43C000000000EC4F14C00C000000130000004A0900003C00000006000000020000000000002000408F4000000000060024C00000008006405CC00000002000408F4000000000F9FFF7BF0000008073F757
310
C00C00000013000000520900003C00000006000000020000000000002000408F4000000000060024C00000008006405CC00000002000408F40000000007DDBFDBF000000C005E057C00C000000130000005A0900003C00000006000000020000000000002000408F400000000020D414C00000008006405CC0000000200040
310
8F4000000000CA00E0BF00000040990858C00C00000013000000620900003C00000006000000020000000000002000408F40000000002827C1BF00000040072058C00000002000408F4000000000964F14C000000000EF3E5CC00C000000130000006A0900003C00000006000000020000000000002000408F400000000000
310
0008BF000000C0595C59C00000002000408F4000000000166A13C000000000A7365CC00C00000013000000720900003C00000006000000020000000000002000408F4000000000C07ED6BF00000040CB1759C00000002000408F4000000000166A13C000000000A7365CC00C000000130000007A0900003C00000006000000
310
020000000000002000408F4000000000F08EDABF00000080060059C00000002000408F4000000000166A13C000000000A7365CC00C00000013000000820900003C00000006000000020000000000002000408F40000000002827C1BF00000040072058C00000002000408F4000000000D47ED6BF0000008041E858C00C0000
310
00130000008A0900003C00000006000000020000000000002000408F40000000002827C1BF00000040072058C00000002000408F400000000026D413C000000000BD3B5CC00C00000013000000920900003C0000000600000002000000000000C0FF3F8FC0000000C0C79241C000000000E0BEC2BF000000C0FF3F8FC00000
310
00600D4B3EC000000000296D1AC00C000000130000009A0900003C0000000600000002000000000000C0FF3F8FC0000000004AED43C000000000066A13C0000000C0FF3F8FC0000000C016B53FC000000080A70A20C00C00000013000000A20900003C0000000600000002000000000000C0FF3F8FC000000080118033C000
310
0000E0FFFF4DC00000000000408FC000000000230026C0000000E0FFFF49C00C00000013000000AA0900003C0000000600000002000000000000C0FF3F8FC000000080220025C0000000E0FFFF4DC00000000000408FC0000000008C0008C0000000E0FFFF49C00C00000013000000B20900003C0000000600000002000000
310
000000C0FF3F8FC000000040110034C0000000E0FFBF4DC00000000000408FC000000000230028C0000000E0FF7F49C00C00000013000000BA0900003C0000000600000002000000000000C0FF3F8FC000000080CCF933C000000020C8D34DC00000000000408FC0000000008DBB27C000000060FEBF49C00C000000130000
310
00C20900003C0000000600000002000000000000C0FF3F8FC00000000002B124C00000006022034EC00000000000408FC000000000A40004C00000006025114AC00C00000013000000CA0900003C0000000600000002000000000000C0FF3F8FC000000080220024C0000000E0FF3F4EC00000000000408FC0000000008E00
310
00C0000000E0FF7F4AC00C00000013000000D20900003C0000000600000002000000000000E0FF3F8FC000000000220024C00000000000405CC00000000000408FC000000000880000C00000000000C057C00C00000013000000DA0900003C0000000600000002000000000000C0FF3F8FC000000000A86924C0000000A039
310
0C4EC00000000000408FC000000000A40004C00000006025114AC00C00000013000000E20900003C0000000600000002000000000000C0FF3F8FC000000080093124C000000060611A4EC00000000000408FC000000000EA1201C00000006001404AC00C00000013000000EA0900003C0000000600000002000000000000C0
310
FF3F8FC000000080AC0C24C0000000A0372C4EC00000000000408FC000000000EA1201C00000006001404AC00C00000013000000F20900003C0000000600000002000000000000C0FF3F8FC000000000A2A733C0000000A0DDFC4DC00000000000408FC0000000001D0027C000000060DAEE49C00C00000013000000FA0900
310
003C0000000600000002000000000000C0FF3F8FC0000000804ECB33C000000020C6F34DC00000000000408FC0000000001D0027C000000060DAEE49C00C00000013000000020A00003C0000000600000002000000000000C0FF3F8FC0000000C09DE733C0000000A09EE54DC00000000000408FC0000000008DBB27C00000
310
0060FEBF49C00C000000130000000A0A00003C0000000600000002000000000000C0FF3F8FC0000000E0110034C000000080FF7F3EC0000000C0FF3F8FC000000000240028C000000080FFFF3EC00C00000013000000120A00003C0000000600000002000000000000C0FF3F8FC000000000240026C000000080FFFF3DC000
310
0000C0FF3F8FC000000000004032BF00000080B28E38C00C000000130000001A0A00003C0000000600000002000000000000C0FF3F8FC000000000240026C000000080FFFF3DC0000000C0FF3F8FC0000000008012A7BF000000E070D638C00C00000013000000220A00003C0000000600000002000000000000C0FF3F8FC0
310
00000000240026C000000080FFFF3DC0000000C0FF3F8FC000000000004032BF000000C0FFFF35C00C000000130000002A0A00003C0000000600000002000000000000C0FF3F8FC0000000E0118034C000000080FFFF3DC0000000C0FF3F8FC000000000240026C000000080FFFF3DC00C00000013000000320A00003C0000
310
000600000002000000000000C0FF3F8FC000000060815834C0000000C044063EC0000000C0FF3F8FC0000000001E0027C0000000C04A223EC00C000000130000003A0A00003C0000000600000002000000000000C0FF3F8FC0000000A0D43434C00000000073183EC0000000C0FF3F8FC0000000001E0027C0000000C04A22
310
3EC00C00000013000000420A00003C0000000600000002000000000000C0FF3F8FC000000060851834C000000040C2343EC0000000C0FF3F8FC0000000808DBB27C0000000C002803EC00C000000130000004A0A00003C0000000600000002000000000000C0FF3F8FC0000000A0560634C0000000406F583EC0000000C0FF
310
3F8FC0000000808DBB27C0000000C002803EC00C00000013000000520A00003C0000000600000002000000000000C0FF3F8FC000000000240026C000000080FFFF3DC0000000C0FF3F8FC0000000009082D6BF00000000ECA039C00C000000130000005A0A00003C0000000600000002000000000000C0FF3F8FC000000000
310
240026C000000080FFFF3DC0000000C0FF3F8FC000000000B092DABF00000080FFFF39C00C00000013000000620A00003C0000000600000002000000000000C0FF3F8FC000000000240026C000000080FFFF3DC0000000C0FF3F8FC0000000009082D6BF00000000135F3AC00C000000130000006A0A00003C000000060000
310
0002000000000000C0FF3F8FC000000000240026C000000080FFFF3DC0000000C0FF3F8FC0000000008012A7BF000000408E293BC00C00000013000000720A00003C0000000600000002000000000000C0FF3F8FC000000000240026C000000080FFFF3DC0000000C0FF3F8FC000000000004032BF000000804C713BC00C00
310
0000130000007A0A00003C0000000600000002000000000000C0FF3F8FC000000000240026C000000080FFFF3DC0000000C0FF3F8FC000000000004032BF00000080FFFF3CC00C00000013000000820A00003C0000000600000002000000000000C0FF3F8FC000000000240026C000000080FFFF3DC0000000C0FF3F8FC000
310
000000A02EC1BF00000080FC7F3DC00C000000130000008A0A00003C0000000600000002000000000000C0FF3F8FC000000000240026C000000080FFFF3DC0000000C0FF3F8FC000000000A802E0BF00000000B4DD3DC00C00000013000000920A00003C0000000600000002000000000000C0FF3F8FC0000000E0118034C0
310
00000080FFFF3DC0000000C0FF3F8FC00000000012003FC000000000FFFF35C00C000000130000009A0A00003C0000000600000002000000000000C0FF3F8FC00000006008C043C00000000000003EC0000000C0FF3F8FC00000000012003FC000000000FFFF35C00C00000013000000A20A00003C00000006000000020000
310
00000000C0FF3F8FC000000060080044C00000000000803DC0000000C0FF3F8FC0000000C0080040C000000000FFFF34C00C00000013000000AA0A00003C0000000600000002000000000000C0FF3F8FC0000000E0E5FC43C00000008090A73DC0000000C0FF3F8FC000000040C6DD3FC000000000FC7F35C00C0000001300
310
0000B20A00003C0000000600000002000000000000C0FF3F8FC0000000A0CEF343C0000000003DCB3DC0000000C0FF3F8FC000000040C6DD3FC000000000FC7F35C00C00000013000000BA0A00003C0000000600000002000000000000C0FF3F8FC0000000E0A6E543C0000000808CE73DC0000000C0FF3F8FC0000000C00E
310
803FC0000000A0B3DD35C00C00000013000000C20A00003C0000000600000002000000000000C0FF3F8FC0000000A0D0D343C000000000BBF93DC0000000C0FF3F8FC0000000C00E803FC0000000A0B3DD35C00C00000013000000CA0A00003C0000000600000002000000000000C0FF3F8FC0000000E011003EC000000000
310
149917C0000000C0FF3F8FC000000080866541C0000000000000D0BE0C00000013000000D20A00003C0000000600000002000000000000C0FF3F8FC0000000E094153EC000000000981D19C0000000C0FF3F8FC0000000C0858541C000000000C025B1BF0C00000013000000DA0A00003C0000000600000002000000000000
310
C0FF3F8FC0000000E094153EC000000000981D19C0000000C0FF3F8FC000000080177641C000000000007491BF0C00000013000000E20A00003C0000000600000002000000000000C0FF3F8FC00000000076F743C00000000016D413C0000000C0FF3F8FC0000000C08EEA3FC00000000070B220C00C00000013000000EA0A
310
00003C0000000600000002000000000000C0FF3F8FC0000000C0080044C00000000010D414C0000000C0FF3F8FC000000080080040C000000000B27421C00C00000013000000F20A00003C0000000600000002000000000000C0FF3F8FC000000040DAFD43C000000000844F14C0000000C0FF3F8FC0000000C08EEA3FC000
310
00000070B220C00C00000013000000FA0A00003C0000000600000002000000000000E0FF3F8FC000000000220024C00000000000405CC00000000000408FC00000000060DCFDBF00000040FFDF57C00C00000013000000020B00003C0000000600000002000000000000E0FF3F8FC000000000220024C00000000000405CC0
310
0000000000408FC000000000E000F8BF000000406DF757C00C000000130000000A0B00003C0000000600000002000000000000E0FF3F8FC00000000058D414C00000000000405CC00000000000408FC0000000009002E0BF000000C0920858C00C00000013000000120B00003C0000000600000002000000000000E0FF3F8F
310
C000000000CE4F14C000000080E83E5CC00000000000408FC000000000402EC1BF000000C0002058C00C000000130000001A0B00003C0000000600000002000000000000E0FF3F8FC0000000004E6A13C000000080A0365CC00000000000408FC00000000000B030BF00000040535C59C00C00000013000000220B00003C00
310
00000600000002000000000000E0FF3F8FC0000000004E6A13C000000080A0365CC00000000000408FC0000000004C82D6BF00000000C51759C00C000000130000002A0B00003C0000000600000002000000000000E0FF3F8FC0000000004E6A13C000000080A0365CC00000000000408FC0000000007C92DABF0000000000
310
0059C00C00000013000000320B00003C00000006000000020000000000000000408FC0000000006082D6BF000000403BE858C00000000000408FC000000000402EC1BF000000C0002058C00C000000130000003A0B00003C0000000600000002000000000000E0FF3F8FC0000000005ED413C000000080B63B5CC000000000
310
00408FC000000000402EC1BF000000C0002058C0
100
AcDbSubDMesh
 71
     2
 72
     0
 91
        0
 92
      168
 10
-999.9998779296875
 20
-35.14672088623047
 30
-0.1464500427246094
 10
1000.000061035156
 20
-35.14651870727539
 30
-0.1468315124511719
 10
1000.000061035156
 20
-39.85361862182617
 30
-4.853927612304687
 10
-999.9998779296875
 20
-39.85382080078125
 30
-4.853538513183593
 10
-999.9998779296875
 20
-40.00026702880859
 30
-5.20709228515625
 10
1000.000061035156
 20
-40.00006484985351
 30
-5.207481384277343
 10
1000.000061035156
 20
-40.00005722045898
 30
-29.50038528442383
 10
-999.9998779296875
 20
-40.00025558471679
 30
-29.5
 10
-999.9998779296875
 20
-19.50026702880859
 30
-59.99999618530273
 10
1000.000061035156
 20
-19.50005340576172
 30
-60.00038528442383
 10
1000.000061035156
 20
-10.50004959106445
 30
-60.00038528442383
 10
-999.9998779296875
 20
-10.50026321411133
 30
-59.99999618530273
 10
-999.9998779296875
 20
-39.5002555847168
 30
-30.0
 10
1000.000061035156
 20
-39.50005722045899
 30
-30.00038528442383
 10
1000.000061035156
 20
-20.50006294250488
 30
-30.00038146972656
 10
-999.9998779296875
 20
-20.50027275085449
 30
-29.99999237060547
 10
-999.9998779296875
 20
-20.00026321411133
 30
-59.49999618530274
 10
-999.9998779296875
 20
-20.00027275085449
 30
-30.49999237060547
 10
1000.000061035156
 20
-20.00006294250488
 30
-30.50038146972656
 10
1000.000061035156
 20
-20.00005340576172
 30
-59.50038528442383
 10
1000.000061035156
 20
-5.2071533203125
 30
-113.0003967285156
 10
-999.9999389648436
 20
-5.207366943359375
 30
-113.0
 10
-999.9999389648436
 20
-10.00025939941406
 30
-113.0
 10
1000.000061035156
 20
-10.00004577636719
 30
-113.0003967285156
 10
1000.000061035156
 20
-34.79296493530274
 30
-0.0003852844238281
 10
1000.000061035156
 20
-30.00007247924805
 30
-0.0003852844238281
 10
1000.000061035156
 20
-30.00006294250488
 30
-5.89987564086914
 10
1000.000061035156
 20
-30.08409309387207
 30
-6.279285430908203
 10
1000.000061035156
 20
-30.2929630279541
 30
-6.606983184814453
 10
1000.000061035156
 20
-31.70716857910156
 30
-8.021198272705078
 10
1000.000061035156
 20
-31.91603851318359
 30
-8.348896026611328
 10
1000.000061035156
 20
-32.00006484985352
 30
-8.728302001953125
 10
1000.000061035156
 20
-32.00006484985352
 30
-21.00037384033203
 10
1000.000061035156
 20
-31.86610412597656
 30
-21.50032806396485
 10
1000.000061035156
 20
-31.50001525878906
 30
-21.86641120910644
 10
1000.000061035156
 20
-31.00006484985352
 30
-22.00037384033203
 10
1000.000061035156
 20
-0.0000572204589844
 30
-22.00038146972656
 10
1000.000061035156
 20
-0.0000648498535156
 30
-24.55779838562012
 10
1000.000061035156
 20
-0.0448417663574219
 30
-24.83804512023926
 10
1000.000061035156
 20
-0.3515052795410156
 30
-25.62898826599121
 10
1000.000061035156
 20
-0.4149894714355469
 30
-26.00037956237793
 10
1000.000061035156
 20
-0.3515052795410156
 30
-26.37177085876465
 10
1000.000061035156
 20
-0.0448417663574219
 30
-27.16271591186524
 10
1000.000061035156
 20
-0.0000648498535156
 30
-27.44296264648438
 10
1000.000061035156
 20
-0.000065803527832
 30
-29.00038146972656
 10
1000.000061035156
 20
-0.1340246200561523
 30
-29.50033187866211
 10
1000.000061035156
 20
-0.5001077651977539
 30
-29.86642074584961
 10
1000.000061035156
 20
-1.000059127807617
 30
-30.00038146972656
 10
1000.000061035156
 20
-11.00006103515625
 30
-30.00038146972656
 10
1000.000061035156
 20
-11.50001525878906
 30
-30.13434219360352
 10
1000.000061035156
 20
-11.86610031127929
 30
-30.50042724609375
 10
1000.000061035156
 20
-12.00006103515625
 30
-31.00038146972656
 10
1000.000061035156
 20
-12.00005340576172
 30
-51.00038528442382
 10
1000.000061035156
 20
-11.86609268188476
 30
-51.50033950805664
 10
1000.000061035156
 20
-11.50000762939453
 30
-51.86642074584961
 10
1000.000061035156
 20
-11.00005340576172
 30
-52.00038528442383
 10
1000.000061035156
 20
-3.0000581741333
 30
-52.00038528442383
 10
1000.000061035156
 20
-2.500103950500488
 30
-52.13434219360351
 10
1000.000061035156
 20
-2.134018898010253
 30
-52.50043106079101
 10
1000.000061035156
 20
-2.000061988830566
 30
-53.00038528442382
 10
1000.000061035156
 20
-2.000042915344238
 30
-95.00039672851562
 10
1000.000061035156
 20
-1.86608600616455
 30
-95.50035095214843
 10
1000.000061035156
 20
-1.499993324279785
 30
-95.86642456054688
 10
1000.000061035156
 20
-0.5000963211059571
 30
-96.13435363769532
 10
1000.000061035156
 20
-0.134007453918457
 30
-96.50044250488281
 10
1000.000061035156
 20
-0.0000505447387695
 30
-97.00039672851563
 10
1000.000061035156
 20
-0.0000505447387695
 30
-98.55781555175781
 10
1000.000061035156
 20
-0.3514909744262695
 30
-99.62899780273438
 10
1000.000061035156
 20
-0.4149742126464844
 30
-100.0003967285156
 10
1000.000061035156
 20
-0.3514862060546875
 30
-100.3717803955078
 10
1000.000061035156
 20
-0.0000457763671875
 30
-101.4429779052734
 10
1000.000061035156
 20
-0.0000457763671875
 30
-108.0003967285156
 10
1000.000061035156
 20
-4.853599548339843
 30
-112.8539428710937
 10
1000.000061035156
 20
-4.957176208496093
 30
-112.9334106445312
 10
1000.000061035156
 20
-5.077720642089843
 30
-112.9833374023437
 10
1000.000061035156
 20
-10.00004959106445
 30
-60.50038528442382
 10
1000.000061035156
 20
-10.02453994750976
 30
-60.3458366394043
 10
1000.000061035156
 20
-10.09556198120117
 30
-60.20647811889649
 10
1000.000061035156
 20
-10.20614624023437
 30
-60.09589767456055
 10
1000.000061035156
 20
-10.34550476074219
 30
-60.02486801147461
 10
1000.000061035156
 20
-19.65460205078125
 30
-59.97589492797851
 10
1000.000061035156
 20
-19.7939567565918
 30
-59.90487289428711
 10
1000.000061035156
 20
-19.904541015625
 30
-59.79429244995117
 10
1000.000061035156
 20
-19.97556686401367
 30
-59.65493392944336
 10
1000.000061035156
 20
-20.02454948425293
 30
-30.3458366394043
 10
1000.000061035156
 20
-20.0955753326416
 30
-30.20647811889649
 10
1000.000061035156
 20
-20.2061595916748
 30
-30.09589385986328
 10
1000.000061035156
 20
-20.34551429748535
 30
-30.02487182617187
 10
1000.000061035156
 20
-39.65460586547852
 30
-29.97589874267578
 10
1000.000061035156
 20
-39.7939567565918
 30
-29.90487289428711
 10
1000.000061035156
 20
-39.90454483032227
 30
-29.79428863525391
 10
1000.000061035156
 20
-39.97556686401367
 30
-29.65493392944336
 10
1000.000061035156
 20
-39.98301315307617
 30
-5.078048706054687
 10
1000.000061035156
 20
-39.93308639526367
 30
-4.957504272460937
 10
1000.000061035156
 20
-35.04294204711914
 30
-0.0673637390136719
 10
1000.000061035156
 20
-34.92238998413086
 30
-0.0174331665039063
 10
-999.9998779296875
 20
-39.93328857421875
 30
-4.957115173339843
 10
-999.9998779296875
 20
-39.98322296142578
 30
-5.077651977539062
 10
-999.9998779296875
 20
-39.97576522827149
 30
-29.65454864501953
 10
-999.9998779296875
 20
-39.90474319458008
 30
-29.79389953613281
 10
-999.9998779296875
 20
-39.79415512084961
 30
-29.90448760986328
 10
-999.9998779296875
 20
-39.65480422973633
 30
-29.97550964355469
 10
-999.9998779296875
 20
-20.34572410583496
 30
-30.02448654174805
 10
-999.9998779296875
 20
-20.20636940002441
 30
-30.09550476074219
 10
-999.9998779296875
 20
-20.09578514099121
 30
-30.20608901977539
 10
-999.9998779296875
 20
-20.02475929260254
 30
-30.34544754028321
 10
-999.9998779296875
 20
-19.97577667236328
 30
-59.65454483032226
 10
-999.9998779296875
 20
-19.90475082397461
 30
-59.79390335083007
 10
-999.9998779296875
 20
-19.7941665649414
 30
-59.90448379516601
 10
-999.9998779296875
 20
-19.65481567382812
 30
-59.97551345825195
 10
-999.9998779296875
 20
-10.34571838378906
 30
-60.02448654174805
 10
-999.9998779296875
 20
-10.20635986328125
 30
-60.09550857543946
 10
-999.9998779296875
 20
-10.09577560424804
 30
-60.20609664916992
 10
-999.9998779296875
 20
-10.02475357055664
 30
-60.34544754028321
 10
-999.9998779296875
 20
-10.00026321411133
 30
-60.49999618530273
 10
-999.9999389648436
 20
-5.077934265136718
 30
-112.9829406738281
 10
-999.9999389648436
 20
-4.957389831542968
 30
-112.9330139160156
 10
-999.9999389648436
 20
-4.853813171386718
 30
-112.8535461425781
 10
-1000.0
 20
-0.0002593994140625
 30
-108.0
 10
-1000.0
 20
-0.0002546310424805
 30
-101.4425811767578
 10
-1000.0
 20
-0.3517026901245117
 30
-100.3713989257812
 10
-1000.0
 20
-0.4151906967163086
 30
-100.0
 10
-1000.0
 20
-0.3517074584960937
 30
-99.62861633300782
 10
-1000.0
 20
-0.0002593994140625
 30
-98.55741882324219
 10
-1000.0
 20
-0.0002593994140625
 30
-97.0
 10
-1000.0
 20
-0.1342239379882812
 30
-96.50004577636719
 10
-1000.0
 20
-0.5003128051757813
 30
-96.13395690917968
 10
-1000.0
 20
-1.500213623046875
 30
-95.86604309082032
 10
-1000.0
 20
-1.866302490234375
 30
-95.49995422363281
 10
-1000.0
 20
-2.000259399414062
 30
-95.0
 10
-1000.0
 20
-2.000270843505859
 30
-52.99999618530273
 10
-1000.0
 20
-2.134235382080078
 30
-52.50004196166992
 10
-1000.0
 20
-2.500312805175781
 30
-52.13395309448242
 10
-1000.0
 20
-3.000267028808593
 30
-51.99999618530274
 10
-1000.0
 20
-11.00026702880859
 30
-51.99999618530274
 10
-1000.0
 20
-11.5002212524414
 30
-51.86603927612305
 10
-1000.0
 20
-11.8663101196289
 30
-51.49995040893554
 10
-1000.0
 20
-12.00026702880859
 30
-50.99999618530273
 10
-999.9998779296875
 20
-12.00027465820312
 30
-30.99999237060547
 10
-999.9998779296875
 20
-11.86631393432617
 30
-30.50004196166992
 10
-999.9998779296875
 20
-11.50022888183594
 30
-30.13395309448242
 10
-999.9998779296875
 20
-11.00027465820312
 30
-29.99999237060547
 10
-999.9998779296875
 20
-1.00027847290039
 30
-29.99998855590821
 10
-999.9998779296875
 20
-0.5003242492675782
 30
-29.86602783203125
 10
-999.9998779296875
 20
-0.1342353820800781
 30
-29.49994659423828
 10
-999.9998779296875
 20
-0.0002784729003906
 30
-28.99999237060547
 10
-999.9998779296875
 20
-0.0002784729003906
 30
-27.44257354736328
 10
-999.9998779296875
 20
-0.0450630187988281
 30
-27.16232681274414
 10
-999.9998779296875
 20
-0.3517189025878906
 30
-26.37138366699219
 10
-999.9998779296875
 20
-0.4152030944824219
 30
-25.99999237060547
 10
-999.9998779296875
 20
-0.3517189025878906
 30
-25.62860107421875
 10
-999.9998779296875
 20
-0.0450630187988281
 30
-24.83765983581543
 10
-999.9998779296875
 20
-0.0002784729003906
 30
-24.55741119384766
 10
-999.9998779296875
 20
-0.0002784729003906
 30
-21.99999618530274
 10
-999.9998779296875
 20
-31.00027465820313
 30
-21.99998474121094
 10
-999.9998779296875
 20
-31.50022506713867
 30
-21.86602210998535
 10
-999.9998779296875
 20
-31.86630630493164
 30
-21.49993896484375
 10
-999.9998779296875
 20
-32.00026702880859
 30
-20.99998474121094
 10
-999.9998779296875
 20
-32.00025939941407
 30
-8.727920532226562
 10
-999.9998779296875
 20
-31.91624069213867
 30
-8.3485107421875
 10
-999.9998779296875
 20
-31.70737838745117
 30
-8.020809173583984
 10
-999.9998779296875
 20
-30.29317283630371
 30
-6.60660171508789
 10
-999.9998779296875
 20
-30.08430290222168
 30
-6.278900146484375
 10
-999.9998779296875
 20
-30.00027275085449
 30
-5.899490356445312
 10
-999.9998779296875
 20
-30.00028228759766
 30
-0.0000038146972656
 10
-999.9998779296875
 20
-34.79316711425781
 30
-0.0000038146972656
 10
-999.9998779296875
 20
-34.92259216308594
 30
-0.0170440673828125
 10
-999.9998779296875
 20
-35.04314422607422
 30
-0.0669822692871094
 93
      914
 90
        4
 90
       21
 90
      115
 90
       74
 90
       20
 90
        4
 90
      115
 90
      116
 90
       73
 90
       74
 90
        4
 90
      116
 90
      117
 90
       72
 90
       73
 90
        4
 90
      117
 90
      118
 90
       71
 90
       72
 90
        4
 90
      118
 90
      119
 90
       70
 90
       71
 90
        4
 90
      119
 90
      120
 90
       69
 90
       70
 90
        4
 90
      120
 90
      121
 90
       68
 90
       69
 90
        4
 90
      121
 90
      122
 90
       67
 90
       68
 90
        4
 90
      122
 90
      123
 90
       66
 90
       67
 90
        4
 90
      123
 90
      124
 90
       65
 90
       66
 90
        4
 90
      124
 90
      125
 90
       64
 90
       65
 90
        4
 90
      125
 90
      126
 90
       63
 90
       64
 90
        4
 90
      126
 90
      127
 90
       62
 90
       63
 90
        4
 90
      127
 90
      128
 90
       61
 90
       62
 90
        4
 90
      128
 90
      129
 90
       60
 90
       61
 90
        4
 90
      129
 90
      130
 90
       59
 90
       60
 90
        4
 90
      130
 90
      131
 90
       58
 90
       59
 90
        4
 90
      131
 90
      132
 90
       57
 90
       58
 90
        4
 90
      132
 90
      133
 90
       56
 90
       57
 90
        4
 90
      133
 90
      134
 90
       55
 90
       56
 90
        4
 90
      134
 90
      135
 90
       54
 90
       55
 90
        4
 90
      135
 90
      136
 90
       53
 90
       54
 90
        4
 90
      136
 90
      137
 90
       52
 90
       53
 90
        4
 90
      137
 90
      138
 90
       51
 90
       52
 90
        4
 90
      138
 90
      139
 90
       50
 90
       51
 90
        4
 90
      139
 90
      140
 90
       49
 90
       50
 90
        4
 90
      140
 90
      141
 90
       48
 90
       49
 90
        4
 90
      141
 90
      142
 90
       47
 90
       48
 90
        4
 90
      142
 90
      143
 90
       46
 90
       47
 90
        4
 90
      143
 90
      144
 90
       45
 90
       46
 90
        4
 90
      144
 90
      145
 90
       44
 90
       45
 90
        4
 90
      145
 90
      146
 90
       43
 90
       44
 90
        4
 90
      146
 90
      147
 90
       42
 90
       43
 90
        4
 90
      147
 90
      148
 90
       41
 90
       42
 90
        4
 90
      148
 90
      149
 90
       40
 90
       41
 90
        4
 90
      149
 90
      150
 90
       39
 90
       40
 90
        4
 90
      150
 90
      151
 90
       38
 90
       39
 90
        4
 90
      151
 90
      152
 90
       37
 90
       38
 90
        4
 90
      152
 90
      153
 90
       36
 90
       37
 90
        4
 90
      153
 90
      154
 90
       35
 90
       36
 90
        4
 90
      154
 90
      155
 90
       34
 90
       35
 90
        4
 90
      155
 90
      156
 90
       33
 90
       34
 90
        4
 90
      156
 90
      157
 90
       32
 90
       33
 90
        4
 90
      157
 90
      158
 90
       31
 90
       32
 90
        4
 90
      158
 90
      159
 90
       30
 90
       31
 90
        4
 90
      159
 90
      160
 90
       29
 90
       30
 90
        4
 90
      160
 90
      161
 90
       28
 90
       29
 90
        4
 90
      161
 90
      162
 90
       27
 90
       28
 90
        4
 90
      162
 90
      163
 90
       26
 90
       27
 90
        4
 90
      163
 90
      164
 90
       25
 90
       26
 90
        4
 90
      164
 90
      165
 90
       24
 90
       25
 90
        4
 90
      165
 90
      166
 90
       95
 90
       24
 90
        4
 90
      166
 90
      167
 90
       94
 90
       95
 90
        4
 90
      167
 90
        0
 90
        1
 90
       94
 90
        4
 90
        0
 90
        3
 90
        2
 90
        1
 90
        4
 90
        3
 90
       96
 90
       93
 90
        2
 90
        4
 90
       96
 90
       97
 90
       92
 90
       93
 90
        4
 90
       97
 90
        4
 90
        5
 90
       92
 90
        4
 90
        4
 90
        7
 90
        6
 90
        5
 90
        4
 90
        7
 90
       98
 90
       91
 90
        6
 90
        4
 90
       98
 90
       99
 90
       90
 90
       91
 90
        4
 90
       99
 90
      100
 90
       89
 90
       90
 90
        4
 90
      100
 90
      101
 90
       88
 90
       89
 90
        4
 90
      101
 90
       12
 90
       13
 90
       88
 90
        4
 90
       12
 90
       15
 90
       14
 90
       13
 90
        4
 90
       15
 90
      102
 90
       87
 90
       14
 90
        4
 90
      102
 90
      103
 90
       86
 90
       87
 90
        4
 90
      103
 90
      104
 90
       85
 90
       86
 90
        4
 90
      104
 90
      105
 90
       84
 90
       85
 90
        4
 90
      105
 90
       17
 90
       18
 90
       84
 90
        4
 90
       17
 90
       16
 90
       19
 90
       18
 90
        4
 90
       16
 90
      106
 90
       83
 90
       19
 90
        4
 90
      106
 90
      107
 90
       82
 90
       83
 90
        4
 90
      107
 90
      108
 90
       81
 90
       82
 90
        4
 90
      108
 90
      109
 90
       80
 90
       81
 90
        4
 90
      109
 90
        8
 90
        9
 90
       80
 90
        4
 90
        8
 90
       11
 90
       10
 90
        9
 90
        4
 90
       11
 90
      110
 90
       79
 90
       10
 90
        4
 90
      110
 90
      111
 90
       78
 90
       79
 90
        4
 90
      111
 90
      112
 90
       77
 90
       78
 90
        4
 90
      112
 90
      113
 90
       76
 90
       77
 90
        4
 90
      113
 90
      114
 90
       75
 90
       76
 90
        4
 90
      114
 90
       22
 90
       23
 90
       75
 90
        4
 90
       22
 90
       21
 90
       20
 90
       23
 90
        4
 90
        2
 90
       29
 90
       28
 90
        1
 90
        4
 90
        9
 90
       10
 90
       56
 90
       55
 90
        4
 90
       19
 90
       83
 90
       53
 90
       52
 90
        4
 90
       10
 90
       79
 90
       57
 90
       56
 90
        4
 90
       75
 90
       23
 90
       60
 90
       59
 90
        3
 90
       79
 90
       78
 90
       57
 90
        4
 90
       78
 90
       77
 90
       58
 90
       57
 90
        3
 90
       77
 90
       76
 90
       58
 90
        4
 90
       76
 90
       75
 90
       59
 90
       58
 90
        4
 90
       80
 90
        9
 90
       55
 90
       54
 90
        3
 90
       81
 90
       80
 90
       54
 90
        3
 90
       83
 90
       82
 90
       53
 90
        4
 90
       82
 90
       81
 90
       54
 90
       53
 90
        4
 90
       18
 90
       19
 90
       52
 90
       51
 90
        3
 90
       48
 90
       38
 90
       37
 90
        3
 90
       48
 90
       37
 90
       36
 90
        4
 90
       14
 90
       87
 90
       49
 90
       48
 90
        3
 90
       87
 90
       86
 90
       49
 90
        3
 90
       85
 90
       84
 90
       50
 90
        4
 90
       84
 90
       18
 90
       51
 90
       50
 90
        4
 90
       86
 90
       85
 90
       50
 90
       49
 90
        3
 90
       48
 90
       40
 90
       39
 90
        3
 90
       48
 90
       39
 90
       38
 90
        3
 90
       48
 90
       42
 90
       41
 90
        3
 90
       48
 90
       41
 90
       40
 90
        3
 90
       48
 90
       44
 90
       43
 90
        3
 90
       48
 90
       43
 90
       42
 90
        3
 90
       48
 90
       46
 90
       45
 90
        3
 90
       48
 90
       45
 90
       44
 90
        3
 90
       48
 90
       47
 90
       46
 90
        4
 90
       14
 90
       48
 90
       36
 90
       35
 90
        3
 90
       13
 90
       14
 90
       35
 90
        4
 90
        6
 90
       91
 90
       33
 90
       32
 90
        3
 90
       91
 90
       90
 90
       33
 90
        4
 90
       90
 90
       89
 90
       34
 90
       33
 90
        3
 90
       89
 90
       88
 90
       34
 90
        4
 90
       88
 90
       13
 90
       35
 90
       34
 90
        3
 90
       26
 90
       25
 90
       24
 90
        4
 90
       28
 90
       27
 90
       94
 90
        1
 90
        4
 90
       27
 90
       26
 90
       24
 90
       95
 90
        3
 90
       27
 90
       95
 90
       94
 90
        4
 90
        2
 90
       93
 90
       30
 90
       29
 90
        4
 90
        5
 90
        6
 90
       32
 90
       31
 90
        3
 90
       93
 90
       92
 90
       30
 90
        4
 90
       92
 90
        5
 90
       31
 90
       30
 90
        3
 90
       23
 90
       62
 90
       61
 90
        3
 90
       23
 90
       61
 90
       60
 90
        4
 90
       23
 90
       20
 90
       63
 90
       62
 90
        4
 90
       20
 90
       74
 90
       64
 90
       63
 90
        3
 90
       72
 90
       71
 90
       70
 90
        3
 90
       72
 90
       70
 90
       69
 90
        3
 90
       72
 90
       69
 90
       68
 90
        4
 90
       67
 90
       66
 90
       65
 90
       64
 90
        3
 90
       74
 90
       73
 90
       64
 90
        5
 90
       73
 90
       72
 90
       68
 90
       67
 90
       64
 90
        4
 90
        3
 90
        0
 90
      161
 90
      160
 90
        4
 90
        8
 90
      134
 90
      133
 90
       11
 90
        4
 90
       16
 90
      137
 90
      136
 90
      106
 90
        4
 90
       11
 90
      133
 90
      132
 90
      110
 90
        4
 90
      114
 90
      130
 90
      129
 90
       22
 90
        3
 90
      110
 90
      132
 90
      111
 90
        4
 90
      111
 90
      132
 90
      131
 90
      112
 90
        3
 90
      112
 90
      131
 90
      113
 90
        4
 90
      113
 90
      131
 90
      130
 90
      114
 90
        4
 90
      109
 90
      135
 90
      134
 90
        8
 90
        3
 90
      108
 90
      135
 90
      109
 90
        3
 90
      106
 90
      136
 90
      107
 90
        4
 90
      107
 90
      136
 90
      135
 90
      108
 90
        4
 90
       17
 90
      138
 90
      137
 90
       16
 90
        3
 90
      141
 90
      152
 90
      151
 90
        3
 90
      141
 90
      153
 90
      152
 90
        4
 90
       15
 90
      141
 90
      140
 90
      102
 90
        3
 90
      102
 90
      140
 90
      103
 90
        3
 90
      104
 90
      139
 90
      105
 90
        4
 90
      105
 90
      139
 90
      138
 90
       17
 90
        4
 90
      103
 90
      140
 90
      139
 90
      104
 90
        3
 90
      141
 90
      150
 90
      149
 90
        3
 90
      141
 90
      151
 90
      150
 90
        3
 90
      141
 90
      148
 90
      147
 90
        3
 90
      141
 90
      149
 90
      148
 90
        3
 90
      141
 90
      146
 90
      145
 90
        3
 90
      141
 90
      147
 90
      146
 90
        3
 90
      141
 90
      144
 90
      143
 90
        3
 90
      141
 90
      145
 90
      144
 90
        3
 90
      141
 90
      143
 90
      142
 90
        4
 90
       15
 90
      154
 90
      153
 90
      141
 90
        3
 90
       12
 90
      154
 90
       15
 90
        4
 90
        7
 90
      157
 90
      156
 90
       98
 90
        3
 90
       98
 90
      156
 90
       99
 90
        4
 90
       99
 90
      156
 90
      155
 90
      100
 90
        3
 90
      100
 90
      155
 90
      101
 90
        4
 90
      101
 90
      155
 90
      154
 90
       12
 90
        3
 90
      163
 90
      165
 90
      164
 90
        4
 90
      161
 90
        0
 90
      167
 90
      162
 90
        4
 90
      162
 90
      166
 90
      165
 90
      163
 90
        3
 90
      162
 90
      167
 90
      166
 90
        4
 90
        3
 90
      160
 90
      159
 90
       96
 90
        4
 90
        4
 90
      158
 90
      157
 90
        7
 90
        3
 90
       96
 90
      159
 90
       97
 90
        4
 90
       97
 90
      159
 90
      158
 90
        4
 90
        3
 90
       22
 90
      128
 90
      127
 90
        3
 90
       22
 90
      129
 90
      128
 90
        4
 90
       22
 90
      127
 90
      126
 90
       21
 90
        4
 90
       21
 90
      126
 90
      125
 90
      115
 90
        3
 90
      117
 90
      119
 90
      118
 90
        3
 90
      117
 90
      120
 90
      119
 90
        3
 90
      117
 90
      121
 90
      120
 90
        4
 90
      122
 90
      125
 90
      124
 90
      123
 90
        3
 90
      115
 90
      125
 90
      116
 90
        5
 90
      116
 90
      125
 90
      122
 90
      121
 90
      117
 94
      360
 90
       21
 90
      115
 90
       74
 90
      115
 90
       20
 90
       74
 90
       20
 90
       21
 90
      115
 90
      116
 90
       73
 90
      116
 90
       73
 90
       74
 90
      116
 90
      117
 90
       72
 90
      117
 90
       72
 90
       73
 90
      117
 90
      118
 90
       71
 90
      118
 90
       71
 90
       72
 90
      118
 90
      119
 90
       70
 90
      119
 90
       70
 90
       71
 90
      119
 90
      120
 90
       69
 90
      120
 90
       69
 90
       70
 90
      120
 90
      121
 90
       68
 90
      121
 90
       68
 90
       69
 90
      121
 90
      122
 90
       67
 90
      122
 90
       67
 90
       68
 90
      122
 90
      123
 90
       66
 90
      123
 90
       66
 90
       67
 90
      123
 90
      124
 90
       65
 90
      124
 90
       65
 90
       66
 90
      124
 90
      125
 90
       64
 90
      125
 90
       64
 90
       65
 90
      125
 90
      126
 90
       63
 90
      126
 90
       63
 90
       64
 90
      126
 90
      127
 90
       62
 90
      127
 90
       62
 90
       63
 90
      127
 90
      128
 90
       61
 90
      128
 90
       61
 90
       62
 90
      128
 90
      129
 90
       60
 90
      129
 90
       60
 90
       61
 90
      129
 90
      130
 90
       59
 90
      130
 90
       59
 90
       60
 90
      130
 90
      131
 90
       58
 90
      131
 90
       58
 90
       59
 90
      131
 90
      132
 90
       57
 90
      132
 90
       57
 90
       58
 90
      132
 90
      133
 90
       56
 90
      133
 90
       56
 90
       57
 90
      133
 90
      134
 90
       55
 90
      134
 90
       55
 90
       56
 90
      134
 90
      135
 90
       54
 90
      135
 90
       54
 90
       55
 90
      135
 90
      136
 90
       53
 90
      136
 90
       53
 90
       54
 90
      136
 90
      137
 90
       52
 90
      137
 90
       52
 90
       53
 90
      137
 90
      138
 90
       51
 90
      138
 90
       51
 90
       52
 90
      138
 90
      139
 90
       50
 90
      139
 90
       50
 90
       51
 90
      139
 90
      140
 90
       49
 90
      140
 90
       49
 90
       50
 90
      140
 90
      141
 90
       48
 90
      141
 90
       48
 90
       49
 90
      141
 90
      142
 90
       47
 90
      142
 90
       47
 90
       48
 90
      142
 90
      143
 90
       46
 90
      143
 90
       46
 90
       47
 90
      143
 90
      144
 90
       45
 90
      144
 90
       45
 90
       46
 90
      144
 90
      145
 90
       44
 90
      145
 90
       44
 90
       45
 90
      145
 90
      146
 90
       43
 90
      146
 90
       43
 90
       44
 90
      146
 90
      147
 90
       42
 90
      147
 90
       42
 90
       43
 90
      147
 90
      148
 90
       41
 90
      148
 90
       41
 90
       42
 90
      148
 90
      149
 90
       40
 90
      149
 90
       40
 90
       41
 90
      149
 90
      150
 90
       39
 90
      150
 90
       39
 90
       40
 90
      150
 90
      151
 90
       38
 90
      151
 90
       38
 90
       39
 90
      151
 90
      152
 90
       37
 90
      152
 90
       37
 90
       38
 90
      152
 90
      153
 90
       36
 90
      153
 90
       36
 90
       37
 90
      153
 90
      154
 90
       35
 90
      154
 90
       35
 90
       36
 90
      154
 90
      155
 90
       34
 90
      155
 90
       34
 90
       35
 90
      155
 90
      156
 90
       33
 90
      156
 90
       33
 90
       34
 90
      156
 90
      157
 90
       32
 90
      157
 90
       32
 90
       33
 90
      157
 90
      158
 90
       31
 90
      158
 90
       31
 90
       32
 90
      158
 90
      159
 90
       30
 90
      159
 90
       30
 90
       31
 90
      159
 90
      160
 90
       29
 90
      160
 90
       29
 90
       30
 90
      160
 90
      161
 90
       28
 90
      161
 90
       28
 90
       29
 90
      161
 90
      162
 90
       27
 90
      162
 90
       27
 90
       28
 90
      162
 90
      163
 90
       26
 90
      163
 90
       26
 90
       27
 90
      163
 90
      164
 90
       25
 90
      164
 90
       25
 90
       26
 90
      164
 90
      165
 90
       24
 90
      165
 90
       24
 90
       25
 90
      165
 90
      166
 90
       95
 90
      166
 90
       24
 90
       95
 90
      166
 90
      167
 90
       94
 90
      167
 90
       94
 90
       95
 90
        0
 90
      167
 90
        0
 90
        1
 90
        1
 90
       94
 90
        0
 90
        3
 90
        2
 90
        3
 90
        1
 90
        2
 90
        3
 90
       96
 90
       93
 90
       96
 90
        2
 90
       93
 90
       96
 90
       97
 90
       92
 90
       97
 90
       92
 90
       93
 90
        4
 90
       97
 90
        4
 90
        5
 90
        5
 90
       92
 90
        4
 90
        7
 90
        6
 90
        7
 90
        5
 90
        6
 90
        7
 90
       98
 90
       91
 90
       98
 90
        6
 90
       91
 90
       98
 90
       99
 90
       90
 90
       99
 90
       90
 90
       91
 90
       99
 90
      100
 90
       89
 90
      100
 90
       89
 90
       90
 90
      100
 90
      101
 90
       88
 90
      101
 90
       88
 90
       89
 90
       12
 90
      101
 90
       12
 90
       13
 90
       13
 90
       88
 90
       12
 90
       15
 90
       14
 90
       15
 90
       13
 90
       14
 90
       15
 90
      102
 90
       87
 90
      102
 90
       14
 90
       87
 90
      102
 90
      103
 90
       86
 90
      103
 90
       86
 90
       87
 90
      103
 90
      104
 90
       85
 90
      104
 90
       85
 90
       86
 90
      104
 90
      105
 90
       84
 90
      105
 90
       84
 90
       85
 90
       17
 90
      105
 90
       17
 90
       18
 90
       18
 90
       84
 90
       16
 90
       17
 90
       16
 90
       19
 90
       18
 90
       19
 90
       16
 90
      106
 90
       83
 90
      106
 90
       19
 90
       83
 90
      106
 90
      107
 90
       82
 90
      107
 90
       82
 90
       83
 90
      107
 90
      108
 90
       81
 90
      108
 90
       81
 90
       82
 90
      108
 90
      109
 90
       80
 90
      109
 90
       80
 90
       81
 90
        8
 90
      109
 90
        8
 90
        9
 90
        9
 90
       80
 90
        8
 90
       11
 90
       10
 90
       11
 90
        9
 90
       10
 90
       11
 90
      110
 90
       79
 90
      110
 90
       10
 90
       79
 90
      110
 90
      111
 90
       78
 90
      111
 90
       78
 90
       79
 90
      111
 90
      112
 90
       77
 90
      112
 90
       77
 90
       78
 90
      112
 90
      113
 90
       76
 90
      113
 90
       76
 90
       77
 90
      113
 90
      114
 90
       75
 90
      114
 90
       75
 90
       76
 90
       22
 90
      114
 90
       22
 90
       23
 90
       23
 90
       75
 90
       21
 90
       22
 90
       20
 90
       23
 90
        2
 90
       29
 90
        1
 90
       28
 90
       10
 90
       56
 90
        9
 90
       55
 90
       53
 90
       83
 90
       19
 90
       52
 90
       57
 90
       79
 90
       23
 90
       60
 90
       59
 90
       75
 90
       57
 90
       78
 90
       58
 90
       77
 90
       58
 90
       76
 90
       54
 90
       80
 90
       54
 90
       81
 90
       53
 90
       82
 90
       18
 90
       51
 90
       38
 90
       48
 90
       37
 90
       48
 90
       36
 90
       48
 90
       49
 90
       87
 90
       14
 90
       48
 90
       49
 90
       86
 90
       50
 90
       84
 90
       50
 90
       85
 90
       40
 90
       48
 90
       39
 90
       48
 90
       42
 90
       48
 90
       41
 90
       48
 90
       44
 90
       48
 90
       43
 90
       48
 90
       46
 90
       48
 90
       45
 90
       48
 90
       14
 90
       35
 90
       13
 90
       35
 90
       33
 90
       91
 90
        6
 90
       32
 90
       33
 90
       90
 90
       34
 90
       89
 90
       34
 90
       88
 90
       24
 90
       26
 90
       27
 90
       94
 90
       27
 90
       95
 90
       30
 90
       93
 90
        5
 90
       31
 90
       30
 90
       92
 90
       23
 90
       62
 90
       23
 90
       61
 90
       20
 90
       63
 90
       64
 90
       74
 90
       70
 90
       72
 90
       69
 90
       72
 90
       68
 90
       72
 90
       64
 90
       67
 90
       64
 90
       73
 90
        0
 90
      161
 90
        3
 90
      160
 90
        8
 90
      134
 90
       11
 90
      133
 90
       16
 90
      137
 90
      106
 90
      136
 90
      110
 90
      132
 90
      114
 90
      130
 90
       22
 90
      129
 90
      111
 90
      132
 90
      112
 90
      131
 90
      113
 90
      131
 90
      109
 90
      135
 90
      108
 90
      135
 90
      107
 90
      136
 90
       17
 90
      138
 90
      141
 90
      152
 90
      141
 90
      151
 90
      141
 90
      153
 90
       15
 90
      141
 90
      102
 90
      140
 90
      103
 90
      140
 90
      104
 90
      139
 90
      105
 90
      139
 90
      141
 90
      150
 90
      141
 90
      149
 90
      141
 90
      148
 90
      141
 90
      147
 90
      141
 90
      146
 90
      141
 90
      145
 90
      141
 90
      144
 90
      141
 90
      143
 90
       15
 90
      154
 90
       12
 90
      154
 90
        7
 90
      157
 90
       98
 90
      156
 90
       99
 90
      156
 90
      100
 90
      155
 90
      101
 90
      155
 90
      163
 90
      165
 90
      162
 90
      167
 90
      162
 90
      166
 90
       96
 90
      159
 90
        4
 90
      158
 90
       97
 90
      159
 90
       22
 90
      128
 90
       22
 90
      127
 90
       21
 90
      126
 90
      115
 90
      125
 90
      117
 90
      119
 90
      117
 90
      120
 90
      117
 90
      121
 90
      122
 90
      125
 90
      116
 90
      125
 95
      360
140
0.0
140
0.0
140
0.0
140
0.0
140
0.0
140
0.0
140
0.0
140
0.0
140
0.0
140
0.0
140
0.0
140
0.0
140
0.0
140
0.0
140
0.0
140
0.0
140
0.0
140
0.0
140
0.0
140
0.0
140
0.0
140
0.0
140
0.0
140
0.0
140
0.0
140
0.0
140
0.0
140
0.0
140
0.0
140
0.0
140
0.0
140
0.0
140
0.0
140
0.0
140
0.0
140
0.0
140
0.0
140
0.0
140
0.0
140
0.0
140
0.0
140
0.0
140
0.0
140
0.0
140
0.0
140
0.0
140
0.0
140
0.0
140
0.0
140
0.0
140
0.0
140
0.0
140
0.0
140
0.0
140
0.0
140
0.0
140
0.0
140
0.0
140
0.0
140
0.0
140
0.0
140
0.0
140
0.0
140
0.0
140
0.0
140
0.0
140
0.0
140
0.0
140
0.0
140
0.0
140
0.0
140
0.0
140
0.0
140
0.0
140
0.0
140
0.0
140
0.0
140
0.0
140
0.0
140
0.0
140
0.0
140
0.0
140
0.0
140
0.0
140
0.0
140
0.0
140
0.0
140
0.0
140
0.0
140
0.0
140
0.0
140
0.0
140
0.0
140
0.0
140
0.0
140
0.0
140
0.0
140
0.0
140
0.0
140
0.0
140
0.0
140
0.0
140
0.0
140
0.0
140
0.0
140
0.0
140
0.0
140
0.0
140
0.0
140
0.0
140
0.0
140
0.0
140
0.0
140
0.0
140
0.0
140
0.0
140
0.0
140
0.0
140
0.0
140
0.0
140
0.0
140
0.0
140
0.0
140
0.0
140
0.0
140
0.0
140
0.0
140
0.0
140
0.0
140
0.0
140
0.0
140
0.0
140
0.0
140
0.0
140
0.0
140
0.0
140
0.0
140
0.0
140
0.0
140
0.0
140
0.0
140
0.0
140
0.0
140
0.0
140
0.0
140
0.0
140
0.0
140
0.0
140
0.0
140
0.0
140
0.0
140
0.0
140
0.0
140
0.0
140
0.0
140
0.0
140
0.0
140
0.0
140
0.0
140
0.0
140
0.0
140
0.0
140
0.0
140
0.0
140
0.0
140
0.0
140
0.0
140
0.0
140
0.0
140
0.0
140
0.0
140
0.0
140
0.0
140
0.0
140
0.0
140
0.0
140
0.0
140
0.0
140
0.0
140
0.0
140
0.0
140
0.0
140
0.0
140
0.0
140
0.0
140
0.0
140
0.0
140
0.0
140
0.0
140
0.0
140
0.0
140
0.0
140
0.0
140
0.0
140
0.0
140
0.0
140
0.0
140
0.0
140
0.0
140
0.0
140
0.0
140
0.0
140
0.0
140
0.0
140
0.0
140
0.0
140
0.0
140
0.0
140
0.0
140
0.0
140
0.0
140
0.0
140
0.0
140
0.0
140
0.0
140
0.0
140
0.0
140
0.0
140
0.0
140
0.0
140
0.0
140
0.0
140
0.0
140
0.0
140
0.0
140
0.0
140
0.0
140
0.0
140
0.0
140
0.0
140
0.0
140
0.0
140
0.0
140
0.0
140
0.0
140
0.0
140
0.0
140
0.0
140
0.0
140
0.0
140
0.0
140
0.0
140
0.0
140
0.0
140
0.0
140
0.0
140
0.0
140
0.0
140
0.0
140
0.0
140
0.0
140
0.0
140
0.0
140
0.0
140
0.0
140
0.0
140
0.0
140
0.0
140
0.0
140
0.0
140
0.0
140
0.0
140
0.0
140
0.0
140
0.0
140
0.0
140
0.0
140
0.0
140
0.0
140
0.0
140
0.0
140
0.0
140
0.0
140
0.0
140
0.0
140
0.0
140
0.0
140
0.0
140
0.0
140
0.0
140
0.0
140
0.0
140
0.0
140
0.0
140
0.0
140
0.0
140
0.0
140
0.0
140
0.0
140
0.0
140
0.0
140
0.0
140
0.0
140
0.0
140
0.0
140
0.0
140
0.0
140
0.0
140
0.0
140
0.0
140
0.0
140
0.0
140
0.0
140
0.0
140
0.0
140
0.0
140
0.0
140
0.0
140
0.0
140
0.0
140
0.0
140
0.0
140
0.0
140
0.0
140
0.0
140
0.0
140
0.0
140
0.0
140
0.0
140
0.0
140
0.0
140
0.0
140
0.0
140
0.0
140
0.0
140
0.0
140
0.0
140
0.0
140
0.0
140
0.0
140
0.0
140
0.0
140
0.0
140
0.0
140
0.0
140
0.0
140
0.0
140
0.0
140
0.0
140
0.0
140
0.0
140
0.0
140
0.0
140
0.0
140
0.0
140
0.0
140
0.0
140
0.0
140
0.0
140
0.0
140
0.0
140
0.0
140
0.0
140
0.0
140
0.0
140
0.0
140
0.0
140
0.0
140
0.0
140
0.0
 90
        0
  0
ENDSEC
  0
SECTION
  2
OBJECTS
  0
DICTIONARY
  5
C
330
0
100
AcDbDictionary
281
     1
  3
ACAD_COLOR
350
DC
  3
ACAD_DETAILVIEWSTYLE
350
F5
  3
ACAD_GROUP
350
D
  3
ACAD_LAYOUT
350
1A
  3
ACAD_MATERIAL
350
AA
  3
ACAD_MLEADERSTYLE
350
F1
  3
ACAD_MLINESTYLE
350
17
  3
ACAD_PLOTSETTINGS
350
19
  3
ACAD_PLOTSTYLENAME
350
E
  3
ACAD_SCALELIST
350
DF
  3
ACAD_SECTIONVIEWSTYLE
350
F3
  3
ACAD_TABLESTYLE
350
DD
  3
ACAD_VISUALSTYLE
350
C3
  3
ACDB_RECOMPOSE_DATA
350
106
  3
AcDbVariableDictionary
350
FA
  0
DICTIONARY
  5
DC
102
{ACAD_REACTORS
330
C
102
}
330
C
100
AcDbDictionary
281
     1
  0
DICTIONARY
  5
F5
102
{ACAD_REACTORS
330
C
102
}
330
C
100
AcDbDictionary
281
     1
  3
Imperial24
350
F6
  0
DICTIONARY
  5
D
102
{ACAD_REACTORS
330
C
102
}
330
C
100
AcDbDictionary
281
     1
  0
DICTIONARY
  5
1A
102
{ACAD_REACTORS
330
C
102
}
330
C
100
AcDbDictionary
281
     1
  3
Layout1
350
1E
  3
Layout2
350
26
  3
Model
350
22
  0
DICTIONARY
  5
AA
102
{ACAD_REACTORS
330
C
102
}
330
C
100
AcDbDictionary
281
     1
  3
ByBlock
350
B3
  3
ByLayer
350
AB
  3
Global
350
BB
  0
DICTIONARY
  5
F1
102
{ACAD_REACTORS
330
C
102
}
330
C
100
AcDbDictionary
281
     1
  3
Standard
350
F2
  0
DICTIONARY
  5
17
102
{ACAD_REACTORS
330
C
102
}
330
C
100
AcDbDictionary
281
     1
  3
Standard
350
18
  0
DICTIONARY
  5
19
102
{ACAD_REACTORS
330
C
102
}
330
C
100
AcDbDictionary
281
     1
  0
ACDBDICTIONARYWDFLT
  5
E
102
{ACAD_REACTORS
330
C
102
}
330
C
100
AcDbDictionary
281
     1
  3
ByLayer
350
2D
  3
Normal
350
F
100
AcDbDictionaryWithDefault
340
F
  0
DICTIONARY
  5
DF
102
{ACAD_REACTORS
330
C
102
}
330
C
100
AcDbDictionary
281
     1
  3
A0
350
E0
  3
A1
350
E1
  3
A2
350
E2
  3
A3
350
E3
  3
A4
350
E4
  3
A5
350
E5
  3
A6
350
E6
  3
A7
350
E7
  3
A8
350
E8
  3
A9
350
E9
  3
B0
350
EA
  3
B1
350
EB
  3
B2
350
EC
  3
B3
350
ED
  3
B4
350
EE
  3
B5
350
EF
  3
B6
350
F0
  0
DICTIONARY
  5
F3
102
{ACAD_REACTORS
330
C
102
}
330
C
100
AcDbDictionary
281
     1
  3
Imperial24
350
F4
  0
DICTIONARY
  5
DD
102
{ACAD_REACTORS
330
C
102
}
330
C
100
AcDbDictionary
281
     1
  3
Standard
350
DE
  0
DICTIONARY
  5
C3
102
{ACAD_REACTORS
330
C
102
}
330
C
100
AcDbDictionary
281
     1
  3
2dWireframe
350
C9
  3
Basic
350
C8
  3
Brighten
350
CF
  3
ColorChange
350
D3
  3
Conceptual
350
CC
  3
Dim
350
CE
  3
EdgeColorOff
350
DB
  3
Facepattern
350
D2
  3
Flat
350
C4
  3
FlatWithEdges
350
C5
  3
Gouraud
350
C6
  3
GouraudWithEdges
350
C7
  3
Hidden
350
CB
  3
JitterOff
350
D9
  3
Linepattern
350
D1
  3
OverhangOff
350
DA
  3
Realistic
350
CD
  3
Shaded
350
D8
  3
Shaded with edges
350
D7
  3
Shades of Gray
350
D4
  3
Sketchy
350
D5
  3
Thicken
350
D0
  3
Wireframe
350
CA
  3
X-Ray
350
D6
  0
XRECORD
  5
106
102
{ACAD_REACTORS
330
C
102
}
330
C
100
AcDbXrecord
280
     1
 90
        1
330
DE
  0
DICTIONARY
  5
FA
102
{ACAD_REACTORS
330
C
102
}
330
C
100
AcDbDictionary
281
     1
  3
CANNOSCALE
350
100
  3
CMLEADERSTYLE
350
FC
  3
CTABLESTYLE
350
FB
  3
CVIEWDETAILSTYLE
350
FD
  3
CVIEWSECTIONSTYLE
350
FE
  3
LAYEREVAL
350
102
  3
LAYERNOTIFY
350
103
  3
LIGHTINGUNITS
350
101
  3
MSLTSCALE
350
FF
  0
ACDBDETAILVIEWSTYLE
  5
F6
102
{ACAD_XDICTIONARY
360
13B
102
}
102
{ACAD_REACTORS
330
F5
102
}
330
F5
100
AcDbModelDocViewStyle
 70
     0
  3
Imperial24
290
     0
100
AcDbDetailViewStyle
 70
     0
 71
     0
 90
        3
 71
     1
340
11
 62
   256
 40
0.24
340
0
 62
   256
 40
0.24
300

 40
0.36
280
     3
 71
     2
340
16
 90
       25
 62
   256
 71
     3
340
11
 62
   256
 40
0.24
 90
        1
 40
0.75
 90
        1
300
%<\AcVar ViewType \f "%tc1">% %<\AcVar ViewDetailId>%\PSCALE %<\AcVar ViewScale \f "%sn">%
 71
     4
340
16
 90
       25
 62
   256
340
16
 90
       25
 62
   256
280
     0
  0
LAYOUT
  5
1E
102
{ACAD_REACTORS
330
1A
102
}
330
1A
100
AcDbPlotSettings
  1

  2
\\KTXNTBDC\CASF2PN1
  4

  6

 40
0.0
 41
0.0
 42
0.0
 43
0.0
 44
0.0
 45
0.0
 46
0.0
 47
0.0
 48
0.0
 49
0.0
140
0.0
141
0.0
142
1.0
143
1.0
 70
   688
 72
     0
 73
     0
 74
     5
  7

 75
    16
147
1.0
 76
     0
 77
     2
 78
   300
148
0.0
149
0.0
100
AcDbLayout
  1
Layout1
 70
     1
 71
     1
 10
0.0
 20
0.0
 11
12.0
 21
9.0
 12
0.0
 22
0.0
 32
0.0
 14
1.000000000000000E+20
 24
1.000000000000000E+20
 34
1.000000000000000E+20
 15
-1.000000000000000E+20
 25
-1.000000000000000E+20
 35
-1.000000000000000E+20
146
0.0
 13
0.0
 23
0.0
 33
0.0
 16
1.0
 26
0.0
 36
0.0
 17
0.0
 27
1.0
 37
0.0
 76
     0
330
1B
  0
LAYOUT
  5
26
102
{ACAD_REACTORS
330
1A
102
}
330
1A
100
AcDbPlotSettings
  1

  2
\\KTXNTBDC\CASF2PN1
  4

  6

 40
0.0
 41
0.0
 42
0.0
 43
0.0
 44
0.0
 45
0.0
 46
0.0
 47
0.0
 48
0.0
 49
0.0
140
0.0
141
0.0
142
1.0
143
1.0
 70
   688
 72
     0
 73
     0
 74
     5
  7

 75
    16
147
1.0
 76
     0
 77
     2
 78
   300
148
0.0
149
0.0
100
AcDbLayout
  1
Layout2
 70
     1
 71
     2
 10
0.0
 20
0.0
 11
12.0
 21
9.0
 12
0.0
 22
0.0
 32
0.0
 14
0.0
 24
0.0
 34
0.0
 15
0.0
 25
0.0
 35
0.0
146
0.0
 13
0.0
 23
0.0
 33
0.0
 16
1.0
 26
0.0
 36
0.0
 17
0.0
 27
1.0
 37
0.0
 76
     0
330
23
  0
LAYOUT
  5
22
102
{ACAD_REACTORS
330
1A
102
}
330
1A
100
AcDbPlotSettings
  1

  2
\\KTXNTBDC\CASF2PN1
  4

  6

 40
0.0
 41
0.0
 42
0.0
 43
0.0
 44
0.0
 45
0.0
 46
0.0
 47
0.0
 48
0.0
 49
0.0
140
0.0
141
0.0
142
1.0
143
1.0
 70
  1712
 72
     0
 73
     0
 74
     0
  7

 75
     0
147
1.0
 76
     0
 77
     2
 78
   300
148
0.0
149
0.0
100
AcDbLayout
  1
Model
 70
     1
 71
     0
 10
0.0
 20
0.0
 11
12.0
 21
9.0
 12
0.0
 22
0.0
 32
0.0
 14
0.0
 24
0.0
 34
0.0
 15
0.0
 25
0.0
 35
0.0
146
0.0
 13
0.0
 23
0.0
 33
0.0
 16
1.0
 26
0.0
 36
0.0
 17
0.0
 27
1.0
 37
0.0
 76
     0
330
1F
  0
MATERIAL
  5
B3
102
{ACAD_XDICTIONARY
360
B4
102
}
102
{ACAD_REACTORS
330
AA
102
}
330
AA
100
AcDbMaterial
  1
ByBlock
 72
     0
 43
0.0208333333333333
 43
0.0
 43
0.0
 43
0.0
 43
0.0
 43
0.0208333333333333
 43
0.0
 43
0.0
 43
0.0
 43
0.0
 43
1.0
 43
0.0
 43
0.0
 43
0.0
 43
0.0
 43
1.0
 77
     0
 47
0.0208333333333333
 47
0.0
 47
0.0
 47
0.0
 47
0.0
 47
0.0208333333333333
 47
0.0
 47
0.0
 47
0.0
 47
0.0
 47
1.0
 47
0.0
 47
0.0
 47
0.0
 47
0.0
 47
1.0
171
     0
 49
0.0208333333333333
 49
0.0
 49
0.0
 49
0.0
 49
0.0
 49
0.0208333333333333
 49
0.0
 49
0.0
 49
0.0
 49
0.0
 49
1.0
 49
0.0
 49
0.0
 49
0.0
 49
0.0
 49
1.0
175
     0
142
0.0208333333333333
142
0.0
142
0.0
142
0.0
142
0.0
142
0.0208333333333333
142
0.0
142
0.0
142
0.0
142
0.0
142
1.0
142
0.0
142
0.0
142
0.0
142
0.0
142
1.0
179
     0
144
0.0208333333333333
144
0.0
144
0.0
144
0.0
144
0.0
144
0.0208333333333333
144
0.0
144
0.0
144
0.0
144
0.0
144
1.0
144
0.0
144
0.0
144
0.0
144
0.0
144
1.0
147
0.0208333333333333
147
0.0
147
0.0
147
0.0
147
0.0
147
0.0208333333333333
147
0.0
147
0.0
147
0.0
147
0.0
147
1.0
147
0.0
147
0.0
147
0.0
147
0.0
147
1.0
  0
MATERIAL
  5
AB
102
{ACAD_XDICTIONARY
360
AC
102
}
102
{ACAD_REACTORS
330
AA
102
}
330
AA
100
AcDbMaterial
  1
ByLayer
 72
     0
 43
0.0208333333333333
 43
0.0
 43
0.0
 43
0.0
 43
0.0
 43
0.0208333333333333
 43
0.0
 43
0.0
 43
0.0
 43
0.0
 43
1.0
 43
0.0
 43
0.0
 43
0.0
 43
0.0
 43
1.0
 77
     0
 47
0.0208333333333333
 47
0.0
 47
0.0
 47
0.0
 47
0.0
 47
0.0208333333333333
 47
0.0
 47
0.0
 47
0.0
 47
0.0
 47
1.0
 47
0.0
 47
0.0
 47
0.0
 47
0.0
 47
1.0
171
     0
 49
0.0208333333333333
 49
0.0
 49
0.0
 49
0.0
 49
0.0
 49
0.0208333333333333
 49
0.0
 49
0.0
 49
0.0
 49
0.0
 49
1.0
 49
0.0
 49
0.0
 49
0.0
 49
0.0
 49
1.0
175
     0
142
0.0208333333333333
142
0.0
142
0.0
142
0.0
142
0.0
142
0.0208333333333333
142
0.0
142
0.0
142
0.0
142
0.0
142
1.0
142
0.0
142
0.0
142
0.0
142
0.0
142
1.0
179
     0
144
0.0208333333333333
144
0.0
144
0.0
144
0.0
144
0.0
144
0.0208333333333333
144
0.0
144
0.0
144
0.0
144
0.0
144
1.0
144
0.0
144
0.0
144
0.0
144
0.0
144
1.0
147
0.0208333333333333
147
0.0
147
0.0
147
0.0
147
0.0
147
0.0208333333333333
147
0.0
147
0.0
147
0.0
147
0.0
147
1.0
147
0.0
147
0.0
147
0.0
147
0.0
147
1.0
  0
MATERIAL
  5
BB
102
{ACAD_XDICTIONARY
360
BC
102
}
102
{ACAD_REACTORS
330
AA
102
}
330
AA
100
AcDbMaterial
  1
Global
 72
     0
 43
0.0208333333333333
 43
0.0
 43
0.0
 43
0.0
 43
0.0
 43
0.0208333333333333
 43
0.0
 43
0.0
 43
0.0
 43
0.0
 43
1.0
 43
0.0
 43
0.0
 43
0.0
 43
0.0
 43
1.0
 77
     0
 47
0.0208333333333333
 47
0.0
 47
0.0
 47
0.0
 47
0.0
 47
0.0208333333333333
 47
0.0
 47
0.0
 47
0.0
 47
0.0
 47
1.0
 47
0.0
 47
0.0
 47
0.0
 47
0.0
 47
1.0
171
     0
 49
0.0208333333333333
 49
0.0
 49
0.0
 49
0.0
 49
0.0
 49
0.0208333333333333
 49
0.0
 49
0.0
 49
0.0
 49
0.0
 49
1.0
 49
0.0
 49
0.0
 49
0.0
 49
0.0
 49
1.0
175
     0
142
0.0208333333333333
142
0.0
142
0.0
142
0.0
142
0.0
142
0.0208333333333333
142
0.0
142
0.0
142
0.0
142
0.0
142
1.0
142
0.0
142
0.0
142
0.0
142
0.0
142
1.0
179
     0
144
0.0208333333333333
144
0.0
144
0.0
144
0.0
144
0.0
144
0.0208333333333333
144
0.0
144
0.0
144
0.0
144
0.0
144
1.0
144
0.0
144
0.0
144
0.0
144
0.0
144
1.0
147
0.0208333333333333
147
0.0
147
0.0
147
0.0
147
0.0
147
0.0208333333333333
147
0.0
147
0.0
147
0.0
147
0.0
147
1.0
147
0.0
147
0.0
147
0.0
147
0.0
147
1.0
  0
MLEADERSTYLE
  5
F2
102
{ACAD_XDICTIONARY
360
137
102
}
102
{ACAD_REACTORS
330
F1
102
}
330
F1
100
AcDbMLeaderStyle
179
     2
170
     2
171
     1
172
     0
 90
        2
 40
0.0
 41
0.0
173
     1
 91
-1056964608
340
14
 92
       -2
290
     1
 42
0.09
291
     1
 43
0.36
  3
Standard
 44
0.18
300

342
11
174
     1
178
     6
175
     1
176
     0
 93
-1056964608
 45
0.18
292
     0
297
     0
 46
0.18
 94
-1056964608
 47
1.0
 49
1.0
140
1.0
293
     1
141
0.0
294
     1
177
     0
142
1.0
295
     0
296
     0
143
0.125
271
     0
272
     9
273
     9
  0
MLINESTYLE
  5
18
102
{ACAD_REACTORS
330
17
102
}
330
17
100
AcDbMlineStyle
  2
STANDARD
 70
     0
  3

 62
   256
 51
90.0
 52
90.0
 71
     2
 49
0.5
 62
   256
  6
BYLAYER
 49
-0.5
 62
   256
  6
BYLAYER
  0
ACDBPLACEHOLDER
  5
2D
102
{ACAD_REACTORS
330
E
102
}
330
E
  0
ACDBPLACEHOLDER
  5
F
102
{ACAD_REACTORS
330
E
102
}
330
E
  0
SCALE
  5
E0
102
{ACAD_REACTORS
330
DF
102
}
330
DF
100
AcDbScale
 70
     0
300
1:1
140
1.0
141
1.0
290
     1
  0
SCALE
  5
E1
102
{ACAD_REACTORS
330
DF
102
}
330
DF
100
AcDbScale
 70
     0
300
1/128" = 1'-0"
140
0.0078125
141
12.0
290
     0
  0
SCALE
  5
E2
102
{ACAD_REACTORS
330
DF
102
}
330
DF
100
AcDbScale
 70
     0
300
1/64" = 1'-0"
140
0.015625
141
12.0
290
     0
  0
SCALE
  5
E3
102
{ACAD_REACTORS
330
DF
102
}
330
DF
100
AcDbScale
 70
     0
300
1/32" = 1'-0"
140
0.03125
141
12.0
290
     0
  0
SCALE
  5
E4
102
{ACAD_REACTORS
330
DF
102
}
330
DF
100
AcDbScale
 70
     0
300
1/16" = 1'-0"
140
0.0625
141
12.0
290
     0
  0
SCALE
  5
E5
102
{ACAD_REACTORS
330
DF
102
}
330
DF
100
AcDbScale
 70
     0
300
3/32" = 1'-0"
140
0.09375
141
12.0
290
     0
  0
SCALE
  5
E6
102
{ACAD_REACTORS
330
DF
102
}
330
DF
100
AcDbScale
 70
     0
300
1/8" = 1'-0"
140
0.125
141
12.0
290
     0
  0
SCALE
  5
E7
102
{ACAD_REACTORS
330
DF
102
}
330
DF
100
AcDbScale
 70
     0
300
3/16" = 1'-0"
140
0.1875
141
12.0
290
     0
  0
SCALE
  5
E8
102
{ACAD_REACTORS
330
DF
102
}
330
DF
100
AcDbScale
 70
     0
300
1/4" = 1'-0"
140
0.25
141
12.0
290
     0
  0
SCALE
  5
E9
102
{ACAD_REACTORS
330
DF
102
}
330
DF
100
AcDbScale
 70
     0
300
3/8" = 1'-0"
140
0.375
141
12.0
290
     0
  0
SCALE
  5
EA
102
{ACAD_REACTORS
330
DF
102
}
330
DF
100
AcDbScale
 70
     0
300
1/2" = 1'-0"
140
0.5
141
12.0
290
     0
  0
SCALE
  5
EB
102
{ACAD_REACTORS
330
DF
102
}
330
DF
100
AcDbScale
 70
     0
300
3/4" = 1'-0"
140
0.75
141
12.0
290
     0
  0
SCALE
  5
EC
102
{ACAD_REACTORS
330
DF
102
}
330
DF
100
AcDbScale
 70
     0
300
1" = 1'-0"
140
1.0
141
12.0
290
     0
  0
SCALE
  5
ED
102
{ACAD_REACTORS
330
DF
102
}
330
DF
100
AcDbScale
 70
     0
300
1-1/2" = 1'-0"
140
1.5
141
12.0
290
     0
  0
SCALE
  5
EE
102
{ACAD_REACTORS
330
DF
102
}
330
DF
100
AcDbScale
 70
     0
300
3" = 1'-0"
140
3.0
141
12.0
290
     0
  0
SCALE
  5
EF
102
{ACAD_REACTORS
330
DF
102
}
330
DF
100
AcDbScale
 70
     0
300
6" = 1'-0"
140
6.0
141
12.0
290
     0
  0
SCALE
  5
F0
102
{ACAD_REACTORS
330
DF
102
}
330
DF
100
AcDbScale
 70
     0
300
1'-0" = 1'-0"
140
12.0
141
12.0
290
     0
  0
ACDBSECTIONVIEWSTYLE
  5
F4
102
{ACAD_XDICTIONARY
360
139
102
}
102
{ACAD_REACTORS
330
F3
102
}
330
F3
100
AcDbModelDocViewStyle
 70
     0
  3
Imperial24
290
     0
100
AcDbSectionViewStyle
 70
     0
 71
     0
 90
       78
 71
     1
340
11
 62
   256
 40
0.24
340
0
340
0
 62
   256
 40
0.24
300
I, O, Q, S, X, Z
 40
0.48
 90
        3
 40
0.18
 90
        1
 71
     2
340
16
 90
       25
 62
   256
340
16
 90
       50
 62
   256
 40
0.24
 40
0.0
 40
0.24
 71
     3
340
11
 62
   256
 40
0.24
 90
        1
 40
0.75
 90
        1
300
%<\AcVar ViewType \f "%tc1">% %<\AcVar ViewSectionStartId>%-%<\AcVar ViewSectionEndId>%\PSCALE %<\AcVar ViewScale \f "%sn">%
 71
     4
 62
   256
 62
   257
300
ANSI31
 40
1.0
 90
        0
290
     0
290
     0
 90
        6
 40
0.0
 40
1.570796326794896
 40
0.2617993877991494
 40
1.308996938995747
 40
-0.2617993877991494
 40
1.832595714594046
  0
TABLESTYLE
  5
DE
102
{ACAD_XDICTIONARY
360
104
102
}
102
{ACAD_REACTORS
330
DD
102
}
330
DD
100
AcDbTableStyle
280
     0
  3
Standard
 70
     0
 71
     0
 40
0.06
 41
0.06
280
     0
281
     0
  7
Standard
140
0.18
170
     2
 62
     0
 63
     7
283
     0
 90
      512
 91
        0
  1

274
    -2
284
     1
 64
     0
275
    -2
285
     1
 65
     0
276
    -2
286
     1
 66
     0
277
    -2
287
     1
 67
     0
278
    -2
288
     1
 68
     0
279
    -2
289
     1
 69
     0
  7
Standard
140
0.25
170
     5
 62
     0
 63
     7
283
     0
 90
      512
 91
        0
  1

274
    -2
284
     1
 64
     0
275
    -2
285
     1
 65
     0
276
    -2
286
     1
 66
     0
277
    -2
287
     1
 67
     0
278
    -2
288
     1
 68
     0
279
    -2
289
     1
 69
     0
  7
Standard
140
0.18
170
     5
 62
     0
 63
     7
283
     0
 90
      512
 91
        0
  1

274
    -2
284
     1
 64
     0
275
    -2
285
     1
 65
     0
276
    -2
286
     1
 66
     0
277
    -2
287
     1
 67
     0
278
    -2
288
     1
 68
     0
279
    -2
289
     1
 69
     0
  0
VISUALSTYLE
  5
C9
102
{ACAD_XDICTIONARY
360
111
102
}
102
{ACAD_REACTORS
330
C3
102
}
330
C3
100
AcDbVisualStyle
  2
2dWireframe
 70
     4
177
     2
291
     0
 71
     0
176
     1
 72
     2
176
     1
 73
     0
176
     1
 90
        0
176
     1
 40
0.6
176
     1
 41
30.0
176
     1
 63
     7
421
 16777215
176
     1
 74
     1
176
     1
 91
        4
176
     1
 64
     7
176
     1
 65
   257
176
     1
 75
     1
176
     1
175
     1
176
     1
 42
1.0
176
     1
 92
        0
176
     1
 66
   257
176
     1
 43
1.0
176
     1
 76
     1
176
     1
 77
     6
176
     1
 78
     2
176
     1
 67
     7
176
     1
 79
     5
176
     1
170
     0
176
     1
171
     0
176
     1
290
     0
176
     1
 93
        1
176
     1
 44
0.0
176
     1
173
     0
176
     1
1001
ACAD
1000
AcDbSavedByObjectVersion
1070
     0
  0
VISUALSTYLE
  5
C8
102
{ACAD_XDICTIONARY
360
10F
102
}
102
{ACAD_REACTORS
330
C3
102
}
330
C3
100
AcDbVisualStyle
  2
Basic
 70
     7
177
     2
291
     1
 71
     1
176
     1
 72
     0
176
     1
 73
     1
176
     1
 90
        0
176
     1
 40
0.6
176
     1
 41
30.0
176
     1
 63
     7
421
 16777215
176
     1
 74
     0
176
     1
 91
        4
176
     1
 64
     7
176
     1
 65
   257
176
     1
 75
     1
176
     1
175
     1
176
     1
 42
1.0
176
     1
 92
        8
176
     1
 66
     7
176
     1
 43
1.0
176
     1
 76
     1
176
     1
 77
     6
176
     1
 78
     2
176
     1
 67
     7
176
     1
 79
     5
176
     1
170
     0
176
     1
171
     0
176
     1
290
     0
176
     1
 93
        1
176
     1
 44
0.0
176
     1
173
     0
176
     1
1001
ACAD
1000
AcDbSavedByObjectVersion
1070
     0
  0
VISUALSTYLE
  5
CF
102
{ACAD_XDICTIONARY
360
11D
102
}
102
{ACAD_REACTORS
330
C3
102
}
330
C3
100
AcDbVisualStyle
  2
Brighten
 70
    12
177
     2
291
     1
 71
     2
176
     1
 72
     2
176
     1
 73
     0
176
     1
 90
        0
176
     1
 40
0.6
176
     1
 41
30.0
176
     1
 63
     7
421
 16777215
176
     1
 74
     1
176
     1
 91
        4
176
     1
 64
     7
176
     1
 65
   257
176
     1
 75
     1
176
     1
175
     1
176
     1
 42
1.0
176
     1
 92
        8
176
     1
 66
     7
176
     1
 43
1.0
176
     1
 76
     1
176
     1
 77
     6
176
     1
 78
     2
176
     1
 67
     7
176
     1
 79
     5
176
     1
170
     0
176
     1
171
     0
176
     1
290
     0
176
     1
 93
        1
176
     1
 44
50.0
176
     1
173
     0
176
     1
1001
ACAD
1000
AcDbSavedByObjectVersion
1070
     0
  0
VISUALSTYLE
  5
D3
102
{ACAD_XDICTIONARY
360
125
102
}
102
{ACAD_REACTORS
330
C3
102
}
330
C3
100
AcDbVisualStyle
  2
ColorChange
 70
    16
177
     2
291
     1
 71
     2
176
     1
 72
     2
176
     1
 73
     3
176
     1
 90
        0
176
     1
 40
0.6
176
     1
 41
30.0
176
     1
 63
     8
421
  8421504
176
     1
 74
     1
176
     1
 91
        4
176
     1
 64
     7
176
     1
 65
   257
176
     1
 75
     1
176
     1
175
     1
176
     1
 42
1.0
176
     1
 92
        8
176
     1
 66
     8
424
  8421504
176
     1
 43
1.0
176
     1
 76
     1
176
     1
 77
     6
176
     1
 78
     2
176
     1
 67
     7
176
     1
 79
     5
176
     1
170
     0
176
     1
171
     0
176
     1
290
     0
176
     1
 93
        1
176
     1
 44
0.0
176
     1
173
     0
176
     1
1001
ACAD
1000
AcDbSavedByObjectVersion
1070
     0
  0
VISUALSTYLE
  5
CC
102
{ACAD_XDICTIONARY
360
117
102
}
102
{ACAD_REACTORS
330
C3
102
}
330
C3
100
AcDbVisualStyle
  2
Conceptual
 70
     9
177
     2
291
     0
 71
     3
176
     1
 72
     2
176
     1
 73
     0
176
     1
 90
        0
176
     1
 40
0.6
176
     1
 41
30.0
176
     1
 63
     7
421
 16777215
176
     1
 74
     2
176
     1
 91
        2
176
     1
 64
     7
176
     1
 65
   257
176
     1
 75
     1
176
     1
175
     1
176
     1
 42
179.0
176
     1
 92
        8
176
     1
 66
     7
176
     1
 43
1.0
176
     1
 76
     1
176
     1
 77
     6
176
     1
 78
     2
176
     1
 67
     7
176
     1
 79
     3
176
     1
170
     0
176
     1
171
     0
176
     1
290
     0
176
     1
 93
        1
176
     1
 44
0.0
176
     1
173
     0
176
     1
1001
ACAD
1000
AcDbSavedByObjectVersion
1070
     0
  0
VISUALSTYLE
  5
CE
102
{ACAD_XDICTIONARY
360
11B
102
}
102
{ACAD_REACTORS
330
C3
102
}
330
C3
100
AcDbVisualStyle
  2
Dim
 70
    11
177
     2
291
     1
 71
     2
176
     1
 72
     2
176
     1
 73
     0
176
     1
 90
        0
176
     1
 40
0.6
176
     1
 41
30.0
176
     1
 63
     7
421
 16777215
176
     1
 74
     1
176
     1
 91
        4
176
     1
 64
     7
176
     1
 65
   257
176
     1
 75
     1
176
     1
175
     1
176
     1
 42
1.0
176
     1
 92
        8
176
     1
 66
     7
176
     1
 43
1.0
176
     1
 76
     1
176
     1
 77
     6
176
     1
 78
     2
176
     1
 67
     7
176
     1
 79
     5
176
     1
170
     0
176
     1
171
     0
176
     1
290
     0
176
     1
 93
        1
176
     1
 44
-50.0
176
     1
173
     0
176
     1
1001
ACAD
1000
AcDbSavedByObjectVersion
1070
     0
  0
VISUALSTYLE
  5
DB
102
{ACAD_XDICTIONARY
360
135
102
}
102
{ACAD_REACTORS
330
C3
102
}
330
C3
100
AcDbVisualStyle
  2
EdgeColorOff
 70
    22
177
     2
291
     1
 71
     2
176
     0
 72
     2
176
     0
 73
     0
176
     0
 90
        0
176
     0
 40
0.6
176
     0
 41
30.0
176
     0
 63
     7
421
 16777215
176
     0
 74
     1
176
     0
 91
        4
176
     0
 64
     7
176
     0
 65
   257
176
     0
 75
     1
176
     0
175
     1
176
     0
 42
1.0
176
     0
 92
        8
176
     2
 66
     7
176
     0
 43
1.0
176
     0
 76
     1
176
     0
 77
     6
176
     0
 78
     2
176
     0
 67
     7
176
     0
 79
     5
176
     0
170
     0
176
     0
171
     0
176
     0
290
     0
176
     0
 93
        1
176
     0
 44
0.0
176
     0
173
     0
176
     0
1001
ACAD
1000
AcDbSavedByObjectVersion
1070
     0
  0
VISUALSTYLE
  5
D2
102
{ACAD_XDICTIONARY
360
123
102
}
102
{ACAD_REACTORS
330
C3
102
}
330
C3
100
AcDbVisualStyle
  2
Facepattern
 70
    15
177
     2
291
     1
 71
     2
176
     1
 72
     2
176
     1
 73
     0
176
     1
 90
        0
176
     1
 40
0.6
176
     1
 41
30.0
176
     1
 63
     7
421
 16777215
176
     1
 74
     1
176
     1
 91
        4
176
     1
 64
     7
176
     1
 65
   257
176
     1
 75
     1
176
     1
175
     1
176
     1
 42
1.0
176
     1
 92
        8
176
     1
 66
     7
176
     1
 43
1.0
176
     1
 76
     1
176
     1
 77
     6
176
     1
 78
     2
176
     1
 67
     7
176
     1
 79
     5
176
     1
170
     0
176
     1
171
     0
176
     1
290
     0
176
     1
 93
        1
176
     1
 44
0.0
176
     1
173
     0
176
     1
1001
ACAD
1000
AcDbSavedByObjectVersion
1070
     0
  0
VISUALSTYLE
  5
C4
102
{ACAD_XDICTIONARY
360
107
102
}
102
{ACAD_REACTORS
330
C3
102
}
330
C3
100
AcDbVisualStyle
  2
Flat
 70
     0
177
     2
291
     1
 71
     2
176
     1
 72
     1
176
     1
 73
     1
176
     1
 90
        2
176
     1
 40
0.6
176
     1
 41
30.0
176
     1
 63
     7
421
 16777215
176
     1
 74
     0
176
     1
 91
        0
176
     1
 64
     7
176
     1
 65
   257
176
     1
 75
     1
176
     1
175
     1
176
     1
 42
1.0
176
     1
 92
        8
176
     1
 66
     7
176
     1
 43
1.0
176
     1
 76
     1
176
     1
 77
     6
176
     1
 78
     2
176
     1
 67
     7
176
     1
 79
     5
176
     1
170
     0
176
     1
171
     0
176
     1
290
     0
176
     1
 93
       13
176
     1
 44
0.0
176
     1
173
     0
176
     1
1001
ACAD
1000
AcDbSavedByObjectVersion
1070
     0
  0
VISUALSTYLE
  5
C5
102
{ACAD_XDICTIONARY
360
109
102
}
102
{ACAD_REACTORS
330
C3
102
}
330
C3
100
AcDbVisualStyle
  2
FlatWithEdges
 70
     1
177
     2
291
     1
 71
     2
176
     1
 72
     1
176
     1
 73
     1
176
     1
 90
        2
176
     1
 40
0.6
176
     1
 41
30.0
176
     1
 63
     7
421
 16777215
176
     1
 74
     1
176
     1
 91
        0
176
     1
 64
     7
176
     1
 65
   257
176
     1
 75
     1
176
     1
175
     1
176
     1
 42
1.0
176
     1
 92
        0
176
     1
 66
   257
176
     1
 43
1.0
176
     1
 76
     1
176
     1
 77
     6
176
     1
 78
     2
176
     1
 67
     7
176
     1
 79
     5
176
     1
170
     0
176
     1
171
     0
176
     1
290
     0
176
     1
 93
       13
176
     1
 44
0.0
176
     1
173
     0
176
     1
1001
ACAD
1000
AcDbSavedByObjectVersion
1070
     0
  0
VISUALSTYLE
  5
C6
102
{ACAD_XDICTIONARY
360
10B
102
}
102
{ACAD_REACTORS
330
C3
102
}
330
C3
100
AcDbVisualStyle
  2
Gouraud
 70
     2
177
     2
291
     1
 71
     2
176
     1
 72
     2
176
     1
 73
     1
176
     1
 90
        2
176
     1
 40
0.6
176
     1
 41
30.0
176
     1
 63
     7
421
 16777215
176
     1
 74
     0
176
     1
 91
        0
176
     1
 64
     7
176
     1
 65
   257
176
     1
 75
     1
176
     1
175
     1
176
     1
 42
1.0
176
     1
 92
        0
176
     1
 66
     7
176
     1
 43
1.0
176
     1
 76
     1
176
     1
 77
     6
176
     1
 78
     2
176
     1
 67
     7
176
     1
 79
     5
176
     1
170
     0
176
     1
171
     0
176
     1
290
     0
176
     1
 93
       13
176
     1
 44
0.0
176
     1
173
     0
176
     1
1001
ACAD
1000
AcDbSavedByObjectVersion
1070
     0
  0
VISUALSTYLE
  5
C7
102
{ACAD_XDICTIONARY
360
10D
102
}
102
{ACAD_REACTORS
330
C3
102
}
330
C3
100
AcDbVisualStyle
  2
GouraudWithEdges
 70
     3
177
     2
291
     1
 71
     2
176
     1
 72
     2
176
     1
 73
     1
176
     1
 90
        2
176
     1
 40
0.6
176
     1
 41
30.0
176
     1
 63
     7
421
 16777215
176
     1
 74
     1
176
     1
 91
        0
176
     1
 64
     7
176
     1
 65
   257
176
     1
 75
     1
176
     1
175
     1
176
     1
 42
1.0
176
     1
 92
        0
176
     1
 66
   257
176
     1
 43
1.0
176
     1
 76
     1
176
     1
 77
     6
176
     1
 78
     2
176
     1
 67
     7
176
     1
 79
     5
176
     1
170
     0
176
     1
171
     0
176
     1
290
     0
176
     1
 93
       13
176
     1
 44
0.0
176
     1
173
     0
176
     1
1001
ACAD
1000
AcDbSavedByObjectVersion
1070
     0
  0
VISUALSTYLE
  5
CB
102
{ACAD_XDICTIONARY
360
115
102
}
102
{ACAD_REACTORS
330
C3
102
}
330
C3
100
AcDbVisualStyle
  2
Hidden
 70
     6
177
     2
291
     0
 71
     1
176
     1
 72
     2
176
     1
 73
     2
176
     1
 90
        0
176
     1
 40
0.6
176
     1
 41
30.0
176
     1
 63
     7
421
 16777215
176
     1
 74
     2
176
     1
 91
        2
176
     1
 64
     7
176
     1
 65
   257
176
     1
 75
     2
176
     1
175
     1
176
     1
 42
40.0
176
     1
 92
        0
176
     1
 66
   257
176
     1
 43
1.0
176
     1
 76
     1
176
     1
 77
     6
176
     1
 78
     2
176
     1
 67
     7
176
     1
 79
     3
176
     1
170
     0
176
     1
171
     0
176
     1
290
     0
176
     1
 93
        1
176
     1
 44
0.0
176
     1
173
     0
176
     1
1001
ACAD
1000
AcDbSavedByObjectVersion
1070
     0
  0
VISUALSTYLE
  5
D9
102
{ACAD_XDICTIONARY
360
131
102
}
102
{ACAD_REACTORS
330
C3
102
}
330
C3
100
AcDbVisualStyle
  2
JitterOff
 70
    20
177
     2
291
     1
 71
     2
176
     0
 72
     2
176
     0
 73
     0
176
     0
 90
        0
176
     0
 40
0.6
176
     0
 41
30.0
176
     0
 63
     7
421
 16777215
176
     0
 74
     1
176
     0
 91
        4
176
     0
 64
     7
176
     0
 65
   257
176
     0
 75
     1
176
     0
175
     1
176
     0
 42
1.0
176
     0
 92
       10
176
     2
 66
     7
176
     0
 43
1.0
176
     0
 76
     1
176
     0
 77
     6
176
     0
 78
     2
176
     0
 67
     7
176
     0
 79
     5
176
     0
170
     0
176
     0
171
     0
176
     0
290
     0
176
     0
 93
        1
176
     0
 44
0.0
176
     0
173
     0
176
     0
1001
ACAD
1000
AcDbSavedByObjectVersion
1070
     0
  0
VISUALSTYLE
  5
D1
102
{ACAD_XDICTIONARY
360
121
102
}
102
{ACAD_REACTORS
330
C3
102
}
330
C3
100
AcDbVisualStyle
  2
Linepattern
 70
    14
177
     2
291
     1
 71
     2
176
     1
 72
     2
176
     1
 73
     0
176
     1
 90
        0
176
     1
 40
0.6
176
     1
 41
30.0
176
     1
 63
     7
421
 16777215
176
     1
 74
     1
176
     1
 91
        4
176
     1
 64
     7
176
     1
 65
   257
176
     1
 75
     7
176
     1
175
     7
176
     1
 42
1.0
176
     1
 92
        8
176
     1
 66
     7
176
     1
 43
1.0
176
     1
 76
     1
176
     1
 77
     6
176
     1
 78
     2
176
     1
 67
     7
176
     1
 79
     5
176
     1
170
     0
176
     1
171
     0
176
     1
290
     0
176
     1
 93
        1
176
     1
 44
0.0
176
     1
173
     0
176
     1
1001
ACAD
1000
AcDbSavedByObjectVersion
1070
     0
  0
VISUALSTYLE
  5
DA
102
{ACAD_XDICTIONARY
360
133
102
}
102
{ACAD_REACTORS
330
C3
102
}
330
C3
100
AcDbVisualStyle
  2
OverhangOff
 70
    21
177
     2
291
     1
 71
     2
176
     0
 72
     2
176
     0
 73
     0
176
     0
 90
        0
176
     0
 40
0.6
176
     0
 41
30.0
176
     0
 63
     7
421
 16777215
176
     0
 74
     1
176
     0
 91
        4
176
     0
 64
     7
176
     0
 65
   257
176
     0
 75
     1
176
     0
175
     1
176
     0
 42
1.0
176
     0
 92
        9
176
     2
 66
     7
176
     0
 43
1.0
176
     0
 76
     1
176
     0
 77
     6
176
     0
 78
     2
176
     0
 67
     7
176
     0
 79
     5
176
     0
170
     0
176
     0
171
     0
176
     0
290
     0
176
     0
 93
        1
176
     0
 44
0.0
176
     0
173
     0
176
     0
1001
ACAD
1000
AcDbSavedByObjectVersion
1070
     0
  0
VISUALSTYLE
  5
CD
102
{ACAD_XDICTIONARY
360
119
102
}
102
{ACAD_REACTORS
330
C3
102
}
330
C3
100
AcDbVisualStyle
  2
Realistic
 70
     8
177
     2
291
     0
 71
     2
176
     1
 72
     3
176
     1
 73
     0
176
     1
 90
        2
176
     1
 40
0.6
176
     1
 41
30.0
176
     1
 63
     7
421
 16777215
176
     1
 74
     0
176
     1
 91
        0
176
     1
 64
     7
176
     1
 65
   257
176
     1
 75
     1
176
     1
175
     1
176
     1
 42
1.0
176
     1
 92
        8
176
     1
 66
   257
176
     1
 43
1.0
176
     1
 76
     1
176
     1
 77
     6
176
     1
 78
     2
176
     1
 67
     7
176
     1
 79
     3
176
     1
170
     0
176
     1
171
     0
176
     1
290
     0
176
     1
 93
       13
176
     1
 44
0.0
176
     1
173
     0
176
     1
1001
ACAD
1000
AcDbSavedByObjectVersion
1070
     0
  0
VISUALSTYLE
  5
D8
102
{ACAD_XDICTIONARY
360
12F
102
}
102
{ACAD_REACTORS
330
C3
102
}
330
C3
100
AcDbVisualStyle
  2
Shaded
 70
    27
177
     2
291
     0
 71
     2
176
     1
 72
     2
176
     1
 73
     1
176
     1
 90
        2
176
     1
 40
0.6
176
     1
 41
30.0
176
     1
 63
     7
421
 16777215
176
     1
 74
     0
176
     1
 91
        4
176
     1
 64
     7
176
     1
 65
   257
176
     1
 75
     1
176
     1
175
     1
176
     1
 42
1.0
176
     1
 92
        8
176
     1
 66
   257
176
     1
 43
1.0
176
     1
 76
     1
176
     1
 77
     6
176
     1
 78
     2
176
     1
 67
     8
425
  7895160
176
     1
 79
     3
176
     1
170
     0
176
     1
171
     0
176
     1
290
     0
176
     1
 93
        5
176
     1
 44
0.0
176
     1
173
     0
176
     1
1001
ACAD
1000
AcDbSavedByObjectVersion
1070
     0
  0
VISUALSTYLE
  5
D7
102
{ACAD_XDICTIONARY
360
12D
102
}
102
{ACAD_REACTORS
330
C3
102
}
330
C3
100
AcDbVisualStyle
  2
Shaded with edges
 70
    26
177
     2
291
     0
 71
     2
176
     1
 72
     2
176
     1
 73
     1
176
     1
 90
        2
176
     1
 40
0.6
176
     1
 41
30.0
176
     1
 63
     7
421
 16777215
176
     1
 74
     1
176
     1
 91
       10
176
     1
 64
     7
176
     1
 65
   257
176
     1
 75
     2
176
     1
175
     1
176
     1
 42
1.0
176
     1
 92
        8
176
     1
 66
   257
176
     1
 43
1.0
176
     1
 76
     1
176
     1
 77
     6
176
     1
 78
     2
176
     1
 67
     7
176
     1
 79
     3
176
     1
170
     0
176
     1
171
     0
176
     1
290
     0
176
     1
 93
        5
176
     1
 44
0.0
176
     1
173
     0
176
     1
1001
ACAD
1000
AcDbSavedByObjectVersion
1070
     0
  0
VISUALSTYLE
  5
D4
102
{ACAD_XDICTIONARY
360
127
102
}
102
{ACAD_REACTORS
330
C3
102
}
330
C3
100
AcDbVisualStyle
  2
Shades of Gray
 70
    23
177
     2
291
     0
 71
     2
176
     1
 72
     2
176
     1
 73
     3
176
     1
 90
        0
176
     1
 40
0.6
176
     1
 41
30.0
176
     1
 63
     7
421
 16777215
176
     1
 74
     2
176
     1
 91
        2
176
     1
 64
     7
176
     1
 65
     7
176
     1
 75
     1
176
     1
175
     1
176
     1
 42
40.0
176
     1
 92
        8
176
     1
 66
     7
176
     1
 43
1.0
176
     1
 76
     1
176
     1
 77
     6
176
     1
 78
     2
176
     1
 67
     7
176
     1
 79
     3
176
     1
170
     0
176
     1
171
     0
176
     1
290
     0
176
     1
 93
        1
176
     1
 44
0.0
176
     1
173
     0
176
     1
1001
ACAD
1000
AcDbSavedByObjectVersion
1070
     0
  0
VISUALSTYLE
  5
D5
102
{ACAD_XDICTIONARY
360
129
102
}
102
{ACAD_REACTORS
330
C3
102
}
330
C3
100
AcDbVisualStyle
  2
Sketchy
 70
    24
177
     2
291
     0
 71
     1
176
     1
 72
     2
176
     1
 73
     2
176
     1
 90
        0
176
     1
 40
0.6
176
     1
 41
30.0
176
     1
 63
     7
421
 16777215
176
     1
 74
     2
176
     1
 91
        2
176
     1
 64
     7
176
     1
 65
     7
176
     1
 75
     1
176
     1
175
     1
176
     1
 42
40.0
176
     1
 92
       11
176
     1
 66
     7
176
     1
 43
1.0
176
     1
 76
     1
176
     1
 77
     6
176
     1
 78
     2
176
     1
 67
     7
176
     1
 79
     6
176
     1
170
     0
176
     1
171
     0
176
     1
290
     0
176
     1
 93
        1
176
     1
 44
0.0
176
     1
173
     0
176
     1
1001
ACAD
1000
AcDbSavedByObjectVersion
1070
     0
  0
VISUALSTYLE
  5
D0
102
{ACAD_XDICTIONARY
360
11F
102
}
102
{ACAD_REACTORS
330
C3
102
}
330
C3
100
AcDbVisualStyle
  2
Thicken
 70
    13
177
     2
291
     1
 71
     2
176
     1
 72
     2
176
     1
 73
     0
176
     1
 90
        0
176
     1
 40
0.6
176
     1
 41
30.0
176
     1
 63
     7
421
 16777215
176
     1
 74
     1
176
     1
 91
        4
176
     1
 64
     7
176
     1
 65
   257
176
     1
 75
     1
176
     1
175
     1
176
     1
 42
1.0
176
     1
 92
       12
176
     1
 66
     7
176
     1
 43
1.0
176
     1
 76
     1
176
     1
 77
     6
176
     1
 78
     2
176
     1
 67
     7
176
     1
 79
     5
176
     1
170
     0
176
     1
171
     0
176
     1
290
     0
176
     1
 93
        1
176
     1
 44
0.0
176
     1
173
     0
176
     1
1001
ACAD
1000
AcDbSavedByObjectVersion
1070
     0
  0
VISUALSTYLE
  5
CA
102
{ACAD_XDICTIONARY
360
113
102
}
102
{ACAD_REACTORS
330
C3
102
}
330
C3
100
AcDbVisualStyle
  2
Wireframe
 70
     5
177
     2
291
     0
 71
     0
176
     1
 72
     2
176
     1
 73
     0
176
     1
 90
        0
176
     1
 40
0.6
176
     1
 41
30.0
176
     1
 63
     7
421
 16777215
176
     1
 74
     1
176
     1
 91
        4
176
     1
 64
     7
176
     1
 65
   257
176
     1
 75
     1
176
     1
175
     1
176
     1
 42
1.0
176
     1
 92
        0
176
     1
 66
   257
176
     1
 43
1.0
176
     1
 76
     1
176
     1
 77
     6
176
     1
 78
     2
176
     1
 67
     7
176
     1
 79
     3
176
     1
170
     0
176
     1
171
     0
176
     1
290
     0
176
     1
 93
        1
176
     1
 44
0.0
176
     1
173
     0
176
     1
1001
ACAD
1000
AcDbSavedByObjectVersion
1070
     0
  0
VISUALSTYLE
  5
D6
102
{ACAD_XDICTIONARY
360
12B
102
}
102
{ACAD_REACTORS
330
C3
102
}
330
C3
100
AcDbVisualStyle
  2
X-Ray
 70
    25
177
     2
291
     0
 71
     2
176
     1
 72
     2
176
     1
 73
     1
176
     1
 90
        1
176
     1
 40
0.5
176
     1
 41
30.0
176
     1
 63
     7
421
 16777215
176
     1
 74
     1
176
     1
 91
        0
176
     1
 64
     7
176
     1
 65
   257
176
     1
 75
     1
176
     1
175
     1
176
     1
 42
1.0
176
     1
 92
        8
176
     1
 66
     7
176
     1
 43
1.0
176
     1
 76
     1
176
     1
 77
     6
176
     1
 78
     2
176
     1
 67
     7
176
     1
 79
     3
176
     1
170
     0
176
     1
171
     0
176
     1
290
     0
176
     1
 93
       13
176
     1
 44
0.0
176
     1
173
     0
176
     1
1001
ACAD
1000
AcDbSavedByObjectVersion
1070
     0
  0
DICTIONARYVAR
  5
100
102
{ACAD_REACTORS
330
FA
102
}
330
FA
100
DictionaryVariables
280
     0
  1
1:1
  0
DICTIONARYVAR
  5
FC
102
{ACAD_REACTORS
330
FA
102
}
330
FA
100
DictionaryVariables
280
     0
  1
STANDARD
  0
DICTIONARYVAR
  5
FB
102
{ACAD_REACTORS
330
FA
102
}
330
FA
100
DictionaryVariables
280
     0
  1
STANDARD
  0
DICTIONARYVAR
  5
FD
102
{ACAD_REACTORS
330
FA
102
}
330
FA
100
DictionaryVariables
280
     0
  1
Imperial24
  0
DICTIONARYVAR
  5
FE
102
{ACAD_REACTORS
330
FA
102
}
330
FA
100
DictionaryVariables
280
     0
  1
Imperial24
  0
DICTIONARYVAR
  5
102
102
{ACAD_REACTORS
330
FA
102
}
330
FA
100
DictionaryVariables
280
     0
  1
1
  0
DICTIONARYVAR
  5
103
102
{ACAD_REACTORS
330
FA
102
}
330
FA
100
DictionaryVariables
280
     0
  1
15
  0
DICTIONARYVAR
  5
101
102
{ACAD_REACTORS
330
FA
102
}
330
FA
100
DictionaryVariables
280
     0
  1
0
  0
DICTIONARYVAR
  5
FF
102
{ACAD_REACTORS
330
FA
102
}
330
FA
100
DictionaryVariables
280
     0
  1
0
  0
DICTIONARY
  5
13B
330
F6
100
AcDbDictionary
280
     1
281
     1
  3
ACAD_XREC_ROUNDTRIP
360
13C
  0
DICTIONARY
  5
B4
330
B3
100
AcDbDictionary
280
     1
281
     1
  3
BUMPTILE
360
B6
  3
DIFFUSETILE
360
B5
  3
OPACITYTILE
360
B9
  3
REFLECTIONTILE
360
B8
  3
REFRACTIONTILE
360
BA
  3
SPECULARTILE
360
B7
  0
DICTIONARY
  5
AC
330
AB
100
AcDbDictionary
280
     1
281
     1
  3
BUMPTILE
360
AE
  3
DIFFUSETILE
360
AD
  3
OPACITYTILE
360
B1
  3
REFLECTIONTILE
360
B0
  3
REFRACTIONTILE
360
B2
  3
SPECULARTILE
360
AF
  0
DICTIONARY
  5
BC
330
BB
100
AcDbDictionary
280
     1
281
     1
  3
BUMPTILE
360
BE
  3
DIFFUSETILE
360
BD
  3
OPACITYTILE
360
C1
  3
REFLECTIONTILE
360
C0
  3
REFRACTIONTILE
360
C2
  3
SPECULARTILE
360
BF
  0
DICTIONARY
  5
137
330
F2
100
AcDbDictionary
280
     1
281
     1
  3
ACAD_XREC_ROUNDTRIP
360
138
  0
DICTIONARY
  5
139
330
F4
100
AcDbDictionary
280
     1
281
     1
  3
ACAD_XREC_ROUNDTRIP
360
13A
  0
DICTIONARY
  5
104
330
DE
100
AcDbDictionary
280
     1
281
     1
  3
ACAD_ROUNDTRIP_2008_TABLESTYLE_CELLSTYLEMAP
360
105
  0
DICTIONARY
  5
111
330
C9
100
AcDbDictionary
280
     1
281
     1
  3
ACAD_XREC_ROUNDTRIP
360
112
  0
DICTIONARY
  5
10F
330
C8
100
AcDbDictionary
280
     1
281
     1
  3
ACAD_XREC_ROUNDTRIP
360
110
  0
DICTIONARY
  5
11D
330
CF
100
AcDbDictionary
280
     1
281
     1
  3
ACAD_XREC_ROUNDTRIP
360
11E
  0
DICTIONARY
  5
125
330
D3
100
AcDbDictionary
280
     1
281
     1
  3
ACAD_XREC_ROUNDTRIP
360
126
  0
DICTIONARY
  5
117
330
CC
100
AcDbDictionary
280
     1
281
     1
  3
ACAD_XREC_ROUNDTRIP
360
118
  0
DICTIONARY
  5
11B
330
CE
100
AcDbDictionary
280
     1
281
     1
  3
ACAD_XREC_ROUNDTRIP
360
11C
  0
DICTIONARY
  5
135
330
DB
100
AcDbDictionary
280
     1
281
     1
  3
ACAD_XREC_ROUNDTRIP
360
136
  0
DICTIONARY
  5
123
330
D2
100
AcDbDictionary
280
     1
281
     1
  3
ACAD_XREC_ROUNDTRIP
360
124
  0
DICTIONARY
  5
107
330
C4
100
AcDbDictionary
280
     1
281
     1
  3
ACAD_XREC_ROUNDTRIP
360
108
  0
DICTIONARY
  5
109
330
C5
100
AcDbDictionary
280
     1
281
     1
  3
ACAD_XREC_ROUNDTRIP
360
10A
  0
DICTIONARY
  5
10B
330
C6
100
AcDbDictionary
280
     1
281
     1
  3
ACAD_XREC_ROUNDTRIP
360
10C
  0
DICTIONARY
  5
10D
330
C7
100
AcDbDictionary
280
     1
281
     1
  3
ACAD_XREC_ROUNDTRIP
360
10E
  0
DICTIONARY
  5
115
330
CB
100
AcDbDictionary
280
     1
281
     1
  3
ACAD_XREC_ROUNDTRIP
360
116
  0
DICTIONARY
  5
131
330
D9
100
AcDbDictionary
280
     1
281
     1
  3
ACAD_XREC_ROUNDTRIP
360
132
  0
DICTIONARY
  5
121
330
D1
100
AcDbDictionary
280
     1
281
     1
  3
ACAD_XREC_ROUNDTRIP
360
122
  0
DICTIONARY
  5
133
330
DA
100
AcDbDictionary
280
     1
281
     1
  3
ACAD_XREC_ROUNDTRIP
360
134
  0
DICTIONARY
  5
119
330
CD
100
AcDbDictionary
280
     1
281
     1
  3
ACAD_XREC_ROUNDTRIP
360
11A
  0
DICTIONARY
  5
12F
330
D8
100
AcDbDictionary
280
     1
281
     1
  3
ACAD_XREC_ROUNDTRIP
360
130
  0
DICTIONARY
  5
12D
330
D7
100
AcDbDictionary
280
     1
281
     1
  3
ACAD_XREC_ROUNDTRIP
360
12E
  0
DICTIONARY
  5
127
330
D4
100
AcDbDictionary
280
     1
281
     1
  3
ACAD_XREC_ROUNDTRIP
360
128
  0
DICTIONARY
  5
129
330
D5
100
AcDbDictionary
280
     1
281
     1
  3
ACAD_XREC_ROUNDTRIP
360
12A
  0
DICTIONARY
  5
11F
330
D0
100
AcDbDictionary
280
     1
281
     1
  3
ACAD_XREC_ROUNDTRIP
360
120
  0
DICTIONARY
  5
113
330
CA
100
AcDbDictionary
280
     1
281
     1
  3
ACAD_XREC_ROUNDTRIP
360
114
  0
DICTIONARY
  5
12B
330
D6
100
AcDbDictionary
280
     1
281
     1
  3
ACAD_XREC_ROUNDTRIP
360
12C
  0
XRECORD
  5
13C
102
{ACAD_REACTORS
330
13B
102
}
330
13B
100
AcDbXrecord
280
     1
102
DISPLAYNAME
  1
Imperial24
102
FLAGS
 90
        0
  0
XRECORD
  5
B6
102
{ACAD_REACTORS
330
B4
102
}
330
B4
100
AcDbXrecord
280
     1
270
     1
271
     1
  0
XRECORD
  5
B5
102
{ACAD_REACTORS
330
B4
102
}
330
B4
100
AcDbXrecord
280
     1
270
     1
271
     1
  0
XRECORD
  5
B9
102
{ACAD_REACTORS
330
B4
102
}
330
B4
100
AcDbXrecord
280
     1
270
     1
271
     1
  0
XRECORD
  5
B8
102
{ACAD_REACTORS
330
B4
102
}
330
B4
100
AcDbXrecord
280
     1
270
     1
271
     1
  0
XRECORD
  5
BA
102
{ACAD_REACTORS
330
B4
102
}
330
B4
100
AcDbXrecord
280
     1
270
     1
271
     1
  0
XRECORD
  5
B7
102
{ACAD_REACTORS
330
B4
102
}
330
B4
100
AcDbXrecord
280
     1
270
     1
271
     1
  0
XRECORD
  5
AE
102
{ACAD_REACTORS
330
AC
102
}
330
AC
100
AcDbXrecord
280
     1
270
     1
271
     1
  0
XRECORD
  5
AD
102
{ACAD_REACTORS
330
AC
102
}
330
AC
100
AcDbXrecord
280
     1
270
     1
271
     1
  0
XRECORD
  5
B1
102
{ACAD_REACTORS
330
AC
102
}
330
AC
100
AcDbXrecord
280
     1
270
     1
271
     1
  0
XRECORD
  5
B0
102
{ACAD_REACTORS
330
AC
102
}
330
AC
100
AcDbXrecord
280
     1
270
     1
271
     1
  0
XRECORD
  5
B2
102
{ACAD_REACTORS
330
AC
102
}
330
AC
100
AcDbXrecord
280
     1
270
     1
271
     1
  0
XRECORD
  5
AF
102
{ACAD_REACTORS
330
AC
102
}
330
AC
100
AcDbXrecord
280
     1
270
     1
271
     1
  0
XRECORD
  5
BE
102
{ACAD_REACTORS
330
BC
102
}
330
BC
100
AcDbXrecord
280
     1
270
     1
271
     1
  0
XRECORD
  5
BD
102
{ACAD_REACTORS
330
BC
102
}
330
BC
100
AcDbXrecord
280
     1
270
     1
271
     1
  0
XRECORD
  5
C1
102
{ACAD_REACTORS
330
BC
102
}
330
BC
100
AcDbXrecord
280
     1
270
     1
271
     1
  0
XRECORD
  5
C0
102
{ACAD_REACTORS
330
BC
102
}
330
BC
100
AcDbXrecord
280
     1
270
     1
271
     1
  0
XRECORD
  5
C2
102
{ACAD_REACTORS
330
BC
102
}
330
BC
100
AcDbXrecord
280
     1
270
     1
271
     1
  0
XRECORD
  5
BF
102
{ACAD_REACTORS
330
BC
102
}
330
BC
100
AcDbXrecord
280
     1
270
     1
271
     1
  0
XRECORD
  5
138
102
{ACAD_REACTORS
330
137
102
}
330
137
100
AcDbXrecord
280
     1
102
ACAD_ROUNDTRIP_2012_MLEADER_STYLE
298
     1
  0
XRECORD
  5
13A
102
{ACAD_REACTORS
330
139
102
}
330
139
100
AcDbXrecord
280
     1
102
DISPLAYNAME
  1
Imperial24
102
FLAGS
 90
        0
  0
CELLSTYLEMAP
  5
105
102
{ACAD_REACTORS
330
104
102
}
330
104
100
AcDbCellStyleMap
 90
        3
300
CELLSTYLE
  1
TABLEFORMAT_BEGIN
 90
        5
170
     1
 91
        0
 92
    32768
 62
   257
 93
        1
300
CONTENTFORMAT
  1
CONTENTFORMAT_BEGIN
 90
        0
 91
        0
 92
      512
 93
        0
300

 40
0.0
140
1.0
 94
        5
 62
     0
340
11
144
0.25
309
CONTENTFORMAT_END
171
     0
 94
        0
309
TABLEFORMAT_END
  1
CELLSTYLE_BEGIN
 90
        1
 91
        1
300
_TITLE
309
CELLSTYLE_END
300
CELLSTYLE
  1
TABLEFORMAT_BEGIN
 90
        5
170
     1
 91
        0
 92
        0
 62
   257
 93
        1
300
CONTENTFORMAT
  1
CONTENTFORMAT_BEGIN
 90
        0
 91
        0
 92
      512
 93
        0
300

 40
0.0
140
1.0
 94
        5
 62
     0
340
11
144
0.18
309
CONTENTFORMAT_END
171
     0
 94
        0
309
TABLEFORMAT_END
  1
CELLSTYLE_BEGIN
 90
        2
 91
        1
300
_HEADER
309
CELLSTYLE_END
300
CELLSTYLE
  1
TABLEFORMAT_BEGIN
 90
        5
170
     1
 91
        0
 92
        0
 62
   257
 93
        1
300
CONTENTFORMAT
  1
CONTENTFORMAT_BEGIN
 90
        0
 91
        0
 92
      512
 93
        0
300

 40
0.0
140
1.0
 94
        2
 62
     0
340
11
144
0.18
309
CONTENTFORMAT_END
171
     0
 94
        0
309
TABLEFORMAT_END
  1
CELLSTYLE_BEGIN
 90
        3
 91
        2
300
_DATA
309
CELLSTYLE_END
  0
XRECORD
  5
112
102
{ACAD_REACTORS
330
111
102
}
330
111
100
AcDbXrecord
280
     1
102
RTVSPost2010Prop28
280
     1
102
RTVSPost2010PropOp28
 70
     1
102
RTVSPost2010Prop29
280
     1
102
RTVSPost2010PropOp29
 70
     1
102
RTVSPost2010Prop30
280
     0
102
RTVSPost2010PropOp30
 70
     1
102
RTVSPost2010Prop31
280
     0
102
RTVSPost2010PropOp31
 70
     1
102
RTVSPost2010Prop32
280
     0
102
RTVSPost2010PropOp32
 70
     1
102
RTVSPost2010Prop33
280
     0
102
RTVSPost2010PropOp33
 70
     1
102
RTVSPost2010Prop34
280
     0
102
RTVSPost2010PropOp34
 70
     1
102
RTVSPost2010Prop35
280
     0
102
RTVSPost2010PropOp35
 70
     1
102
RTVSPost2010Prop36
280
     0
102
RTVSPost2010PropOp36
 70
     1
102
RTVSPost2010Prop37
 90
       50
102
RTVSPost2010PropOp37
 70
     1
102
RTVSPost2010Prop38
140
0.0
102
RTVSPost2010PropOp38
 70
     1
102
RTVSPost2010Prop39
140
1.0
102
RTVSPost2010PropOp39
 70
     1
102
RTVSPost2010Prop40
 90
        0
102
RTVSPost2010PropOp40
 70
     1
102
RTVSPost2010Prop41ColorIndex
 90
       18
102
RTVSPost2010Prop41ColorRGB
 90
        0
102
RTVSPost2010PropOp41
 70
     1
102
RTVSPost2010Prop42
 90
       50
102
RTVSPost2010PropOp42
 70
     1
102
RTVSPost2010Prop43
 90
        3
102
RTVSPost2010PropOp43
 70
     1
102
RTVSPost2010Prop44ColorIndex
 90
        5
102
RTVSPost2010Prop44ColorRGB
 90
      255
102
RTVSPost2010PropOp44
 70
     1
102
RTVSPost2010Prop45
280
     0
102
RTVSPost2010PropOp45
 70
     1
102
RTVSPost2010Prop46
 90
       50
102
RTVSPost2010PropOp46
 70
     1
102
RTVSPost2010Prop47
 90
       50
102
RTVSPost2010PropOp47
 70
     1
102
RTVSPost2010Prop48
 90
       50
102
RTVSPost2010PropOp48
 70
     1
102
RTVSPost2010Prop49
280
     0
102
RTVSPost2010PropOp49
 70
     1
102
RTVSPost2010Prop50
 90
       50
102
RTVSPost2010PropOp50
 70
     1
102
RTVSPost2010Prop51ColorIndex
 90
      256
102
RTVSPost2010Prop51ColorRGB
 90
-16777216
102
RTVSPost2010PropOp51
 70
     0
102
RTVSPost2010Prop52
140
1.0
102
RTVSPost2010PropOp52
 70
     0
102
RTVSPost2010Prop53
 90
        2
102
RTVSPost2010PropOp53
 70
     1
102
RTVSPost2010Prop54
  1
strokes_ogs.tif
102
RTVSPost2010PropOp54
 70
     1
102
RTVSPost2010Prop55
280
     0
102
RTVSPost2010PropOp55
 70
     1
102
RTVSPost2010Prop56
140
1.0
102
RTVSPost2010PropOp56
 70
     1
102
RTVSPost2010Prop57
140
1.0
102
RTVSPost2010PropOp57
 70
     1
  0
XRECORD
  5
110
102
{ACAD_REACTORS
330
10F
102
}
330
10F
100
AcDbXrecord
280
     1
102
RTVSPost2010Prop28
280
     0
102
RTVSPost2010PropOp28
 70
     1
102
RTVSPost2010Prop29
280
     1
102
RTVSPost2010PropOp29
 70
     1
102
RTVSPost2010Prop30
280
     1
102
RTVSPost2010PropOp30
 70
     1
102
RTVSPost2010Prop31
280
     0
102
RTVSPost2010PropOp31
 70
     1
102
RTVSPost2010Prop32
280
     0
102
RTVSPost2010PropOp32
 70
     1
102
RTVSPost2010Prop33
280
     0
102
RTVSPost2010PropOp33
 70
     1
102
RTVSPost2010Prop34
280
     0
102
RTVSPost2010PropOp34
 70
     1
102
RTVSPost2010Prop35
280
     0
102
RTVSPost2010PropOp35
 70
     1
102
RTVSPost2010Prop36
280
     0
102
RTVSPost2010PropOp36
 70
     1
102
RTVSPost2010Prop37
 90
       50
102
RTVSPost2010PropOp37
 70
     1
102
RTVSPost2010Prop38
140
0.0
102
RTVSPost2010PropOp38
 70
     1
102
RTVSPost2010Prop39
140
1.0
102
RTVSPost2010PropOp39
 70
     1
102
RTVSPost2010Prop40
 90
        0
102
RTVSPost2010PropOp40
 70
     1
102
RTVSPost2010Prop41ColorIndex
 90
       18
102
RTVSPost2010Prop41ColorRGB
 90
        0
102
RTVSPost2010PropOp41
 70
     1
102
RTVSPost2010Prop42
 90
       50
102
RTVSPost2010PropOp42
 70
     1
102
RTVSPost2010Prop43
 90
        3
102
RTVSPost2010PropOp43
 70
     1
102
RTVSPost2010Prop44ColorIndex
 90
        5
102
RTVSPost2010Prop44ColorRGB
 90
      255
102
RTVSPost2010PropOp44
 70
     1
102
RTVSPost2010Prop45
280
     0
102
RTVSPost2010PropOp45
 70
     1
102
RTVSPost2010Prop46
 90
       50
102
RTVSPost2010PropOp46
 70
     1
102
RTVSPost2010Prop47
 90
       50
102
RTVSPost2010PropOp47
 70
     1
102
RTVSPost2010Prop48
 90
       50
102
RTVSPost2010PropOp48
 70
     1
102
RTVSPost2010Prop49
280
     0
102
RTVSPost2010PropOp49
 70
     1
102
RTVSPost2010Prop50
 90
       50
102
RTVSPost2010PropOp50
 70
     1
102
RTVSPost2010Prop51ColorIndex
 90
      256
102
RTVSPost2010Prop51ColorRGB
 90
-16777216
102
RTVSPost2010PropOp51
 70
     0
102
RTVSPost2010Prop52
140
1.0
102
RTVSPost2010PropOp52
 70
     0
102
RTVSPost2010Prop53
 90
        2
102
RTVSPost2010PropOp53
 70
     1
102
RTVSPost2010Prop54
  1
strokes_ogs.tif
102
RTVSPost2010PropOp54
 70
     1
102
RTVSPost2010Prop55
280
     0
102
RTVSPost2010PropOp55
 70
     1
102
RTVSPost2010Prop56
140
1.0
102
RTVSPost2010PropOp56
 70
     1
102
RTVSPost2010Prop57
140
1.0
102
RTVSPost2010PropOp57
 70
     1
  0
XRECORD
  5
11E
102
{ACAD_REACTORS
330
11D
102
}
330
11D
100
AcDbXrecord
280
     1
102
RTVSPost2010Prop28
280
     0
102
RTVSPost2010PropOp28
 70
     1
102
RTVSPost2010Prop29
280
     1
102
RTVSPost2010PropOp29
 70
     1
102
RTVSPost2010Prop30
280
     1
102
RTVSPost2010PropOp30
 70
     1
102
RTVSPost2010Prop31
280
     0
102
RTVSPost2010PropOp31
 70
     1
102
RTVSPost2010Prop32
280
     0
102
RTVSPost2010PropOp32
 70
     1
102
RTVSPost2010Prop33
280
     0
102
RTVSPost2010PropOp33
 70
     1
102
RTVSPost2010Prop34
280
     0
102
RTVSPost2010PropOp34
 70
     1
102
RTVSPost2010Prop35
280
     0
102
RTVSPost2010PropOp35
 70
     1
102
RTVSPost2010Prop36
280
     0
102
RTVSPost2010PropOp36
 70
     1
102
RTVSPost2010Prop37
 90
       50
102
RTVSPost2010PropOp37
 70
     1
102
RTVSPost2010Prop38
140
0.0
102
RTVSPost2010PropOp38
 70
     1
102
RTVSPost2010Prop39
140
1.0
102
RTVSPost2010PropOp39
 70
     1
102
RTVSPost2010Prop40
 90
        0
102
RTVSPost2010PropOp40
 70
     1
102
RTVSPost2010Prop41ColorIndex
 90
       18
102
RTVSPost2010Prop41ColorRGB
 90
        0
102
RTVSPost2010PropOp41
 70
     1
102
RTVSPost2010Prop42
 90
       50
102
RTVSPost2010PropOp42
 70
     1
102
RTVSPost2010Prop43
 90
        3
102
RTVSPost2010PropOp43
 70
     1
102
RTVSPost2010Prop44ColorIndex
 90
        5
102
RTVSPost2010Prop44ColorRGB
 90
      255
102
RTVSPost2010PropOp44
 70
     1
102
RTVSPost2010Prop45
280
     0
102
RTVSPost2010PropOp45
 70
     1
102
RTVSPost2010Prop46
 90
       50
102
RTVSPost2010PropOp46
 70
     1
102
RTVSPost2010Prop47
 90
       50
102
RTVSPost2010PropOp47
 70
     1
102
RTVSPost2010Prop48
 90
       50
102
RTVSPost2010PropOp48
 70
     1
102
RTVSPost2010Prop49
280
     0
102
RTVSPost2010PropOp49
 70
     1
102
RTVSPost2010Prop50
 90
       50
102
RTVSPost2010PropOp50
 70
     1
102
RTVSPost2010Prop51ColorIndex
 90
      256
102
RTVSPost2010Prop51ColorRGB
 90
-16777216
102
RTVSPost2010PropOp51
 70
     0
102
RTVSPost2010Prop52
140
1.0
102
RTVSPost2010PropOp52
 70
     0
102
RTVSPost2010Prop53
 90
        2
102
RTVSPost2010PropOp53
 70
     1
102
RTVSPost2010Prop54
  1
strokes_ogs.tif
102
RTVSPost2010PropOp54
 70
     1
102
RTVSPost2010Prop55
280
     0
102
RTVSPost2010PropOp55
 70
     1
102
RTVSPost2010Prop56
140
1.0
102
RTVSPost2010PropOp56
 70
     1
102
RTVSPost2010Prop57
140
1.0
102
RTVSPost2010PropOp57
 70
     1
  0
XRECORD
  5
126
102
{ACAD_REACTORS
330
125
102
}
330
125
100
AcDbXrecord
280
     1
102
RTVSPost2010Prop28
280
     0
102
RTVSPost2010PropOp28
 70
     1
102
RTVSPost2010Prop29
280
     1
102
RTVSPost2010PropOp29
 70
     1
102
RTVSPost2010Prop30
280
     1
102
RTVSPost2010PropOp30
 70
     1
102
RTVSPost2010Prop31
280
     0
102
RTVSPost2010PropOp31
 70
     1
102
RTVSPost2010Prop32
280
     0
102
RTVSPost2010PropOp32
 70
     1
102
RTVSPost2010Prop33
280
     0
102
RTVSPost2010PropOp33
 70
     1
102
RTVSPost2010Prop34
280
     0
102
RTVSPost2010PropOp34
 70
     1
102
RTVSPost2010Prop35
280
     0
102
RTVSPost2010PropOp35
 70
     1
102
RTVSPost2010Prop36
280
     0
102
RTVSPost2010PropOp36
 70
     1
102
RTVSPost2010Prop37
 90
       50
102
RTVSPost2010PropOp37
 70
     1
102
RTVSPost2010Prop38
140
0.0
102
RTVSPost2010PropOp38
 70
     1
102
RTVSPost2010Prop39
140
1.0
102
RTVSPost2010PropOp39
 70
     1
102
RTVSPost2010Prop40
 90
        0
102
RTVSPost2010PropOp40
 70
     1
102
RTVSPost2010Prop41ColorIndex
 90
       18
102
RTVSPost2010Prop41ColorRGB
 90
        0
102
RTVSPost2010PropOp41
 70
     1
102
RTVSPost2010Prop42
 90
       50
102
RTVSPost2010PropOp42
 70
     1
102
RTVSPost2010Prop43
 90
        3
102
RTVSPost2010PropOp43
 70
     1
102
RTVSPost2010Prop44ColorIndex
 90
        5
102
RTVSPost2010Prop44ColorRGB
 90
      255
102
RTVSPost2010PropOp44
 70
     1
102
RTVSPost2010Prop45
280
     0
102
RTVSPost2010PropOp45
 70
     1
102
RTVSPost2010Prop46
 90
       50
102
RTVSPost2010PropOp46
 70
     1
102
RTVSPost2010Prop47
 90
       50
102
RTVSPost2010PropOp47
 70
     1
102
RTVSPost2010Prop48
 90
       50
102
RTVSPost2010PropOp48
 70
     1
102
RTVSPost2010Prop49
280
     0
102
RTVSPost2010PropOp49
 70
     1
102
RTVSPost2010Prop50
 90
       50
102
RTVSPost2010PropOp50
 70
     1
102
RTVSPost2010Prop51ColorIndex
 90
      256
102
RTVSPost2010Prop51ColorRGB
 90
-16777216
102
RTVSPost2010PropOp51
 70
     0
102
RTVSPost2010Prop52
140
1.0
102
RTVSPost2010PropOp52
 70
     0
102
RTVSPost2010Prop53
 90
        2
102
RTVSPost2010PropOp53
 70
     1
102
RTVSPost2010Prop54
  1
strokes_ogs.tif
102
RTVSPost2010PropOp54
 70
     1
102
RTVSPost2010Prop55
280
     0
102
RTVSPost2010PropOp55
 70
     1
102
RTVSPost2010Prop56
140
1.0
102
RTVSPost2010PropOp56
 70
     1
102
RTVSPost2010Prop57
140
1.0
102
RTVSPost2010PropOp57
 70
     1
  0
XRECORD
  5
118
102
{ACAD_REACTORS
330
117
102
}
330
117
100
AcDbXrecord
280
     1
102
RTVSPost2010Prop28
280
     0
102
RTVSPost2010PropOp28
 70
     1
102
RTVSPost2010Prop29
280
     1
102
RTVSPost2010PropOp29
 70
     1
102
RTVSPost2010Prop30
280
     1
102
RTVSPost2010PropOp30
 70
     1
102
RTVSPost2010Prop31
280
     0
102
RTVSPost2010PropOp31
 70
     1
102
RTVSPost2010Prop32
280
     0
102
RTVSPost2010PropOp32
 70
     1
102
RTVSPost2010Prop33
280
     0
102
RTVSPost2010PropOp33
 70
     1
102
RTVSPost2010Prop34
280
     0
102
RTVSPost2010PropOp34
 70
     1
102
RTVSPost2010Prop35
280
     0
102
RTVSPost2010PropOp35
 70
     1
102
RTVSPost2010Prop36
280
     0
102
RTVSPost2010PropOp36
 70
     1
102
RTVSPost2010Prop37
 90
       50
102
RTVSPost2010PropOp37
 70
     1
102
RTVSPost2010Prop38
140
0.0
102
RTVSPost2010PropOp38
 70
     1
102
RTVSPost2010Prop39
140
1.0
102
RTVSPost2010PropOp39
 70
     1
102
RTVSPost2010Prop40
 90
        0
102
RTVSPost2010PropOp40
 70
     1
102
RTVSPost2010Prop41ColorIndex
 90
       18
102
RTVSPost2010Prop41ColorRGB
 90
        0
102
RTVSPost2010PropOp41
 70
     1
102
RTVSPost2010Prop42
 90
       50
102
RTVSPost2010PropOp42
 70
     1
102
RTVSPost2010Prop43
 90
        3
102
RTVSPost2010PropOp43
 70
     1
102
RTVSPost2010Prop44ColorIndex
 90
        5
102
RTVSPost2010Prop44ColorRGB
 90
      255
102
RTVSPost2010PropOp44
 70
     1
102
RTVSPost2010Prop45
280
     0
102
RTVSPost2010PropOp45
 70
     1
102
RTVSPost2010Prop46
 90
       50
102
RTVSPost2010PropOp46
 70
     1
102
RTVSPost2010Prop47
 90
       50
102
RTVSPost2010PropOp47
 70
     1
102
RTVSPost2010Prop48
 90
       50
102
RTVSPost2010PropOp48
 70
     1
102
RTVSPost2010Prop49
280
     0
102
RTVSPost2010PropOp49
 70
     1
102
RTVSPost2010Prop50
 90
       50
102
RTVSPost2010PropOp50
 70
     1
102
RTVSPost2010Prop51ColorIndex
 90
      256
102
RTVSPost2010Prop51ColorRGB
 90
-16777216
102
RTVSPost2010PropOp51
 70
     0
102
RTVSPost2010Prop52
140
1.0
102
RTVSPost2010PropOp52
 70
     0
102
RTVSPost2010Prop53
 90
        2
102
RTVSPost2010PropOp53
 70
     1
102
RTVSPost2010Prop54
  1
strokes_ogs.tif
102
RTVSPost2010PropOp54
 70
     1
102
RTVSPost2010Prop55
280
     0
102
RTVSPost2010PropOp55
 70
     1
102
RTVSPost2010Prop56
140
1.0
102
RTVSPost2010PropOp56
 70
     1
102
RTVSPost2010Prop57
140
1.0
102
RTVSPost2010PropOp57
 70
     1
  0
XRECORD
  5
11C
102
{ACAD_REACTORS
330
11B
102
}
330
11B
100
AcDbXrecord
280
     1
102
RTVSPost2010Prop28
280
     0
102
RTVSPost2010PropOp28
 70
     1
102
RTVSPost2010Prop29
280
     1
102
RTVSPost2010PropOp29
 70
     1
102
RTVSPost2010Prop30
280
     1
102
RTVSPost2010PropOp30
 70
     1
102
RTVSPost2010Prop31
280
     0
102
RTVSPost2010PropOp31
 70
     1
102
RTVSPost2010Prop32
280
     0
102
RTVSPost2010PropOp32
 70
     1
102
RTVSPost2010Prop33
280
     0
102
RTVSPost2010PropOp33
 70
     1
102
RTVSPost2010Prop34
280
     0
102
RTVSPost2010PropOp34
 70
     1
102
RTVSPost2010Prop35
280
     0
102
RTVSPost2010PropOp35
 70
     1
102
RTVSPost2010Prop36
280
     0
102
RTVSPost2010PropOp36
 70
     1
102
RTVSPost2010Prop37
 90
       50
102
RTVSPost2010PropOp37
 70
     1
102
RTVSPost2010Prop38
140
0.0
102
RTVSPost2010PropOp38
 70
     1
102
RTVSPost2010Prop39
140
1.0
102
RTVSPost2010PropOp39
 70
     1
102
RTVSPost2010Prop40
 90
        0
102
RTVSPost2010PropOp40
 70
     1
102
RTVSPost2010Prop41ColorIndex
 90
       18
102
RTVSPost2010Prop41ColorRGB
 90
        0
102
RTVSPost2010PropOp41
 70
     1
102
RTVSPost2010Prop42
 90
       50
102
RTVSPost2010PropOp42
 70
     1
102
RTVSPost2010Prop43
 90
        3
102
RTVSPost2010PropOp43
 70
     1
102
RTVSPost2010Prop44ColorIndex
 90
        5
102
RTVSPost2010Prop44ColorRGB
 90
      255
102
RTVSPost2010PropOp44
 70
     1
102
RTVSPost2010Prop45
280
     0
102
RTVSPost2010PropOp45
 70
     1
102
RTVSPost2010Prop46
 90
       50
102
RTVSPost2010PropOp46
 70
     1
102
RTVSPost2010Prop47
 90
       50
102
RTVSPost2010PropOp47
 70
     1
102
RTVSPost2010Prop48
 90
       50
102
RTVSPost2010PropOp48
 70
     1
102
RTVSPost2010Prop49
280
     0
102
RTVSPost2010PropOp49
 70
     1
102
RTVSPost2010Prop50
 90
       50
102
RTVSPost2010PropOp50
 70
     1
102
RTVSPost2010Prop51ColorIndex
 90
      256
102
RTVSPost2010Prop51ColorRGB
 90
-16777216
102
RTVSPost2010PropOp51
 70
     0
102
RTVSPost2010Prop52
140
1.0
102
RTVSPost2010PropOp52
 70
     0
102
RTVSPost2010Prop53
 90
        2
102
RTVSPost2010PropOp53
 70
     1
102
RTVSPost2010Prop54
  1
strokes_ogs.tif
102
RTVSPost2010PropOp54
 70
     1
102
RTVSPost2010Prop55
280
     0
102
RTVSPost2010PropOp55
 70
     1
102
RTVSPost2010Prop56
140
1.0
102
RTVSPost2010PropOp56
 70
     1
102
RTVSPost2010Prop57
140
1.0
102
RTVSPost2010PropOp57
 70
     1
  0
XRECORD
  5
136
102
{ACAD_REACTORS
330
135
102
}
330
135
100
AcDbXrecord
280
     1
102
RTVSPost2010Prop28
280
     0
102
RTVSPost2010PropOp28
 70
     0
102
RTVSPost2010Prop29
280
     1
102
RTVSPost2010PropOp29
 70
     0
102
RTVSPost2010Prop30
280
     1
102
RTVSPost2010PropOp30
 70
     0
102
RTVSPost2010Prop31
280
     0
102
RTVSPost2010PropOp31
 70
     0
102
RTVSPost2010Prop32
280
     0
102
RTVSPost2010PropOp32
 70
     0
102
RTVSPost2010Prop33
280
     0
102
RTVSPost2010PropOp33
 70
     0
102
RTVSPost2010Prop34
280
     0
102
RTVSPost2010PropOp34
 70
     0
102
RTVSPost2010Prop35
280
     0
102
RTVSPost2010PropOp35
 70
     0
102
RTVSPost2010Prop36
280
     0
102
RTVSPost2010PropOp36
 70
     0
102
RTVSPost2010Prop37
 90
       50
102
RTVSPost2010PropOp37
 70
     0
102
RTVSPost2010Prop38
140
0.0
102
RTVSPost2010PropOp38
 70
     0
102
RTVSPost2010Prop39
140
1.0
102
RTVSPost2010PropOp39
 70
     0
102
RTVSPost2010Prop40
 90
        0
102
RTVSPost2010PropOp40
 70
     0
102
RTVSPost2010Prop41ColorIndex
 90
       18
102
RTVSPost2010Prop41ColorRGB
 90
        0
102
RTVSPost2010PropOp41
 70
     0
102
RTVSPost2010Prop42
 90
       50
102
RTVSPost2010PropOp42
 70
     0
102
RTVSPost2010Prop43
 90
        3
102
RTVSPost2010PropOp43
 70
     0
102
RTVSPost2010Prop44ColorIndex
 90
        5
102
RTVSPost2010Prop44ColorRGB
 90
      255
102
RTVSPost2010PropOp44
 70
     0
102
RTVSPost2010Prop45
280
     0
102
RTVSPost2010PropOp45
 70
     0
102
RTVSPost2010Prop46
 90
       50
102
RTVSPost2010PropOp46
 70
     0
102
RTVSPost2010Prop47
 90
       50
102
RTVSPost2010PropOp47
 70
     0
102
RTVSPost2010Prop48
 90
       50
102
RTVSPost2010PropOp48
 70
     0
102
RTVSPost2010Prop49
280
     0
102
RTVSPost2010PropOp49
 70
     0
102
RTVSPost2010Prop50
 90
       50
102
RTVSPost2010PropOp50
 70
     0
102
RTVSPost2010Prop51ColorIndex
 90
      256
102
RTVSPost2010Prop51ColorRGB
 90
-16777216
102
RTVSPost2010PropOp51
 70
     0
102
RTVSPost2010Prop52
140
1.0
102
RTVSPost2010PropOp52
 70
     0
102
RTVSPost2010Prop53
 90
        2
102
RTVSPost2010PropOp53
 70
     0
102
RTVSPost2010Prop54
  1
strokes_ogs.tif
102
RTVSPost2010PropOp54
 70
     0
102
RTVSPost2010Prop55
280
     0
102
RTVSPost2010PropOp55
 70
     0
102
RTVSPost2010Prop56
140
1.0
102
RTVSPost2010PropOp56
 70
     0
102
RTVSPost2010Prop57
140
1.0
102
RTVSPost2010PropOp57
 70
     0
  0
XRECORD
  5
124
102
{ACAD_REACTORS
330
123
102
}
330
123
100
AcDbXrecord
280
     1
102
RTVSPost2010Prop28
280
     0
102
RTVSPost2010PropOp28
 70
     1
102
RTVSPost2010Prop29
280
     1
102
RTVSPost2010PropOp29
 70
     1
102
RTVSPost2010Prop30
280
     1
102
RTVSPost2010PropOp30
 70
     1
102
RTVSPost2010Prop31
280
     0
102
RTVSPost2010PropOp31
 70
     1
102
RTVSPost2010Prop32
280
     0
102
RTVSPost2010PropOp32
 70
     1
102
RTVSPost2010Prop33
280
     0
102
RTVSPost2010PropOp33
 70
     1
102
RTVSPost2010Prop34
280
     0
102
RTVSPost2010PropOp34
 70
     1
102
RTVSPost2010Prop35
280
     0
102
RTVSPost2010PropOp35
 70
     1
102
RTVSPost2010Prop36
280
     0
102
RTVSPost2010PropOp36
 70
     1
102
RTVSPost2010Prop37
 90
       50
102
RTVSPost2010PropOp37
 70
     1
102
RTVSPost2010Prop38
140
0.0
102
RTVSPost2010PropOp38
 70
     1
102
RTVSPost2010Prop39
140
1.0
102
RTVSPost2010PropOp39
 70
     1
102
RTVSPost2010Prop40
 90
        0
102
RTVSPost2010PropOp40
 70
     1
102
RTVSPost2010Prop41ColorIndex
 90
       18
102
RTVSPost2010Prop41ColorRGB
 90
        0
102
RTVSPost2010PropOp41
 70
     1
102
RTVSPost2010Prop42
 90
       50
102
RTVSPost2010PropOp42
 70
     1
102
RTVSPost2010Prop43
 90
        3
102
RTVSPost2010PropOp43
 70
     1
102
RTVSPost2010Prop44ColorIndex
 90
        5
102
RTVSPost2010Prop44ColorRGB
 90
      255
102
RTVSPost2010PropOp44
 70
     1
102
RTVSPost2010Prop45
280
     0
102
RTVSPost2010PropOp45
 70
     1
102
RTVSPost2010Prop46
 90
       50
102
RTVSPost2010PropOp46
 70
     1
102
RTVSPost2010Prop47
 90
       50
102
RTVSPost2010PropOp47
 70
     1
102
RTVSPost2010Prop48
 90
       50
102
RTVSPost2010PropOp48
 70
     1
102
RTVSPost2010Prop49
280
     0
102
RTVSPost2010PropOp49
 70
     1
102
RTVSPost2010Prop50
 90
       50
102
RTVSPost2010PropOp50
 70
     1
102
RTVSPost2010Prop51ColorIndex
 90
      256
102
RTVSPost2010Prop51ColorRGB
 90
-16777216
102
RTVSPost2010PropOp51
 70
     0
102
RTVSPost2010Prop52
140
1.0
102
RTVSPost2010PropOp52
 70
     0
102
RTVSPost2010Prop53
 90
        2
102
RTVSPost2010PropOp53
 70
     1
102
RTVSPost2010Prop54
  1
strokes_ogs.tif
102
RTVSPost2010PropOp54
 70
     1
102
RTVSPost2010Prop55
280
     0
102
RTVSPost2010PropOp55
 70
     1
102
RTVSPost2010Prop56
140
1.0
102
RTVSPost2010PropOp56
 70
     1
102
RTVSPost2010Prop57
140
1.0
102
RTVSPost2010PropOp57
 70
     1
  0
XRECORD
  5
108
102
{ACAD_REACTORS
330
107
102
}
330
107
100
AcDbXrecord
280
     1
102
RTVSPost2010Prop28
280
     0
102
RTVSPost2010PropOp28
 70
     1
102
RTVSPost2010Prop29
280
     1
102
RTVSPost2010PropOp29
 70
     1
102
RTVSPost2010Prop30
280
     1
102
RTVSPost2010PropOp30
 70
     1
102
RTVSPost2010Prop31
280
     0
102
RTVSPost2010PropOp31
 70
     1
102
RTVSPost2010Prop32
280
     0
102
RTVSPost2010PropOp32
 70
     1
102
RTVSPost2010Prop33
280
     0
102
RTVSPost2010PropOp33
 70
     1
102
RTVSPost2010Prop34
280
     0
102
RTVSPost2010PropOp34
 70
     1
102
RTVSPost2010Prop35
280
     0
102
RTVSPost2010PropOp35
 70
     1
102
RTVSPost2010Prop36
280
     0
102
RTVSPost2010PropOp36
 70
     1
102
RTVSPost2010Prop37
 90
       50
102
RTVSPost2010PropOp37
 70
     1
102
RTVSPost2010Prop38
140
0.0
102
RTVSPost2010PropOp38
 70
     1
102
RTVSPost2010Prop39
140
1.0
102
RTVSPost2010PropOp39
 70
     1
102
RTVSPost2010Prop40
 90
        0
102
RTVSPost2010PropOp40
 70
     1
102
RTVSPost2010Prop41ColorIndex
 90
       18
102
RTVSPost2010Prop41ColorRGB
 90
        0
102
RTVSPost2010PropOp41
 70
     1
102
RTVSPost2010Prop42
 90
       50
102
RTVSPost2010PropOp42
 70
     1
102
RTVSPost2010Prop43
 90
        3
102
RTVSPost2010PropOp43
 70
     1
102
RTVSPost2010Prop44ColorIndex
 90
        5
102
RTVSPost2010Prop44ColorRGB
 90
      255
102
RTVSPost2010PropOp44
 70
     1
102
RTVSPost2010Prop45
280
     0
102
RTVSPost2010PropOp45
 70
     1
102
RTVSPost2010Prop46
 90
       50
102
RTVSPost2010PropOp46
 70
     1
102
RTVSPost2010Prop47
 90
       50
102
RTVSPost2010PropOp47
 70
     1
102
RTVSPost2010Prop48
 90
       50
102
RTVSPost2010PropOp48
 70
     1
102
RTVSPost2010Prop49
280
     0
102
RTVSPost2010PropOp49
 70
     1
102
RTVSPost2010Prop50
 90
       50
102
RTVSPost2010PropOp50
 70
     1
102
RTVSPost2010Prop51ColorIndex
 90
      256
102
RTVSPost2010Prop51ColorRGB
 90
-16777216
102
RTVSPost2010PropOp51
 70
     0
102
RTVSPost2010Prop52
140
1.0
102
RTVSPost2010PropOp52
 70
     0
102
RTVSPost2010Prop53
 90
        2
102
RTVSPost2010PropOp53
 70
     1
102
RTVSPost2010Prop54
  1
strokes_ogs.tif
102
RTVSPost2010PropOp54
 70
     1
102
RTVSPost2010Prop55
280
     0
102
RTVSPost2010PropOp55
 70
     1
102
RTVSPost2010Prop56
140
1.0
102
RTVSPost2010PropOp56
 70
     1
102
RTVSPost2010Prop57
140
1.0
102
RTVSPost2010PropOp57
 70
     1
  0
XRECORD
  5
10A
102
{ACAD_REACTORS
330
109
102
}
330
109
100
AcDbXrecord
280
     1
102
RTVSPost2010Prop28
280
     0
102
RTVSPost2010PropOp28
 70
     1
102
RTVSPost2010Prop29
280
     1
102
RTVSPost2010PropOp29
 70
     1
102
RTVSPost2010Prop30
280
     1
102
RTVSPost2010PropOp30
 70
     1
102
RTVSPost2010Prop31
280
     0
102
RTVSPost2010PropOp31
 70
     1
102
RTVSPost2010Prop32
280
     0
102
RTVSPost2010PropOp32
 70
     1
102
RTVSPost2010Prop33
280
     0
102
RTVSPost2010PropOp33
 70
     1
102
RTVSPost2010Prop34
280
     0
102
RTVSPost2010PropOp34
 70
     1
102
RTVSPost2010Prop35
280
     0
102
RTVSPost2010PropOp35
 70
     1
102
RTVSPost2010Prop36
280
     0
102
RTVSPost2010PropOp36
 70
     1
102
RTVSPost2010Prop37
 90
       50
102
RTVSPost2010PropOp37
 70
     1
102
RTVSPost2010Prop38
140
0.0
102
RTVSPost2010PropOp38
 70
     1
102
RTVSPost2010Prop39
140
1.0
102
RTVSPost2010PropOp39
 70
     1
102
RTVSPost2010Prop40
 90
        0
102
RTVSPost2010PropOp40
 70
     1
102
RTVSPost2010Prop41ColorIndex
 90
       18
102
RTVSPost2010Prop41ColorRGB
 90
        0
102
RTVSPost2010PropOp41
 70
     1
102
RTVSPost2010Prop42
 90
       50
102
RTVSPost2010PropOp42
 70
     1
102
RTVSPost2010Prop43
 90
        3
102
RTVSPost2010PropOp43
 70
     1
102
RTVSPost2010Prop44ColorIndex
 90
        5
102
RTVSPost2010Prop44ColorRGB
 90
      255
102
RTVSPost2010PropOp44
 70
     1
102
RTVSPost2010Prop45
280
     0
102
RTVSPost2010PropOp45
 70
     1
102
RTVSPost2010Prop46
 90
       50
102
RTVSPost2010PropOp46
 70
     1
102
RTVSPost2010Prop47
 90
       50
102
RTVSPost2010PropOp47
 70
     1
102
RTVSPost2010Prop48
 90
       50
102
RTVSPost2010PropOp48
 70
     1
102
RTVSPost2010Prop49
280
     0
102
RTVSPost2010PropOp49
 70
     1
102
RTVSPost2010Prop50
 90
       50
102
RTVSPost2010PropOp50
 70
     1
102
RTVSPost2010Prop51ColorIndex
 90
      256
102
RTVSPost2010Prop51ColorRGB
 90
-16777216
102
RTVSPost2010PropOp51
 70
     0
102
RTVSPost2010Prop52
140
1.0
102
RTVSPost2010PropOp52
 70
     0
102
RTVSPost2010Prop53
 90
        2
102
RTVSPost2010PropOp53
 70
     1
102
RTVSPost2010Prop54
  1
strokes_ogs.tif
102
RTVSPost2010PropOp54
 70
     1
102
RTVSPost2010Prop55
280
     0
102
RTVSPost2010PropOp55
 70
     1
102
RTVSPost2010Prop56
140
1.0
102
RTVSPost2010PropOp56
 70
     1
102
RTVSPost2010Prop57
140
1.0
102
RTVSPost2010PropOp57
 70
     1
  0
XRECORD
  5
10C
102
{ACAD_REACTORS
330
10B
102
}
330
10B
100
AcDbXrecord
280
     1
102
RTVSPost2010Prop28
280
     0
102
RTVSPost2010PropOp28
 70
     1
102
RTVSPost2010Prop29
280
     1
102
RTVSPost2010PropOp29
 70
     1
102
RTVSPost2010Prop30
280
     1
102
RTVSPost2010PropOp30
 70
     1
102
RTVSPost2010Prop31
280
     0
102
RTVSPost2010PropOp31
 70
     1
102
RTVSPost2010Prop32
280
     0
102
RTVSPost2010PropOp32
 70
     1
102
RTVSPost2010Prop33
280
     0
102
RTVSPost2010PropOp33
 70
     1
102
RTVSPost2010Prop34
280
     0
102
RTVSPost2010PropOp34
 70
     1
102
RTVSPost2010Prop35
280
     0
102
RTVSPost2010PropOp35
 70
     1
102
RTVSPost2010Prop36
280
     0
102
RTVSPost2010PropOp36
 70
     1
102
RTVSPost2010Prop37
 90
       50
102
RTVSPost2010PropOp37
 70
     1
102
RTVSPost2010Prop38
140
0.0
102
RTVSPost2010PropOp38
 70
     1
102
RTVSPost2010Prop39
140
1.0
102
RTVSPost2010PropOp39
 70
     1
102
RTVSPost2010Prop40
 90
        0
102
RTVSPost2010PropOp40
 70
     1
102
RTVSPost2010Prop41ColorIndex
 90
       18
102
RTVSPost2010Prop41ColorRGB
 90
        0
102
RTVSPost2010PropOp41
 70
     1
102
RTVSPost2010Prop42
 90
       50
102
RTVSPost2010PropOp42
 70
     1
102
RTVSPost2010Prop43
 90
        3
102
RTVSPost2010PropOp43
 70
     1
102
RTVSPost2010Prop44ColorIndex
 90
        5
102
RTVSPost2010Prop44ColorRGB
 90
      255
102
RTVSPost2010PropOp44
 70
     1
102
RTVSPost2010Prop45
280
     0
102
RTVSPost2010PropOp45
 70
     1
102
RTVSPost2010Prop46
 90
       50
102
RTVSPost2010PropOp46
 70
     1
102
RTVSPost2010Prop47
 90
       50
102
RTVSPost2010PropOp47
 70
     1
102
RTVSPost2010Prop48
 90
       50
102
RTVSPost2010PropOp48
 70
     1
102
RTVSPost2010Prop49
280
     0
102
RTVSPost2010PropOp49
 70
     1
102
RTVSPost2010Prop50
 90
       50
102
RTVSPost2010PropOp50
 70
     1
102
RTVSPost2010Prop51ColorIndex
 90
      256
102
RTVSPost2010Prop51ColorRGB
 90
-16777216
102
RTVSPost2010PropOp51
 70
     0
102
RTVSPost2010Prop52
140
1.0
102
RTVSPost2010PropOp52
 70
     0
102
RTVSPost2010Prop53
 90
        2
102
RTVSPost2010PropOp53
 70
     1
102
RTVSPost2010Prop54
  1
strokes_ogs.tif
102
RTVSPost2010PropOp54
 70
     1
102
RTVSPost2010Prop55
280
     0
102
RTVSPost2010PropOp55
 70
     1
102
RTVSPost2010Prop56
140
1.0
102
RTVSPost2010PropOp56
 70
     1
102
RTVSPost2010Prop57
140
1.0
102
RTVSPost2010PropOp57
 70
     1
  0
XRECORD
  5
10E
102
{ACAD_REACTORS
330
10D
102
}
330
10D
100
AcDbXrecord
280
     1
102
RTVSPost2010Prop28
280
     0
102
RTVSPost2010PropOp28
 70
     1
102
RTVSPost2010Prop29
280
     1
102
RTVSPost2010PropOp29
 70
     1
102
RTVSPost2010Prop30
280
     1
102
RTVSPost2010PropOp30
 70
     1
102
RTVSPost2010Prop31
280
     0
102
RTVSPost2010PropOp31
 70
     1
102
RTVSPost2010Prop32
280
     0
102
RTVSPost2010PropOp32
 70
     1
102
RTVSPost2010Prop33
280
     0
102
RTVSPost2010PropOp33
 70
     1
102
RTVSPost2010Prop34
280
     0
102
RTVSPost2010PropOp34
 70
     1
102
RTVSPost2010Prop35
280
     0
102
RTVSPost2010PropOp35
 70
     1
102
RTVSPost2010Prop36
280
     0
102
RTVSPost2010PropOp36
 70
     1
102
RTVSPost2010Prop37
 90
       50
102
RTVSPost2010PropOp37
 70
     1
102
RTVSPost2010Prop38
140
0.0
102
RTVSPost2010PropOp38
 70
     1
102
RTVSPost2010Prop39
140
1.0
102
RTVSPost2010PropOp39
 70
     1
102
RTVSPost2010Prop40
 90
        0
102
RTVSPost2010PropOp40
 70
     1
102
RTVSPost2010Prop41ColorIndex
 90
       18
102
RTVSPost2010Prop41ColorRGB
 90
        0
102
RTVSPost2010PropOp41
 70
     1
102
RTVSPost2010Prop42
 90
       50
102
RTVSPost2010PropOp42
 70
     1
102
RTVSPost2010Prop43
 90
        3
102
RTVSPost2010PropOp43
 70
     1
102
RTVSPost2010Prop44ColorIndex
 90
        5
102
RTVSPost2010Prop44ColorRGB
 90
      255
102
RTVSPost2010PropOp44
 70
     1
102
RTVSPost2010Prop45
280
     0
102
RTVSPost2010PropOp45
 70
     1
102
RTVSPost2010Prop46
 90
       50
102
RTVSPost2010PropOp46
 70
     1
102
RTVSPost2010Prop47
 90
       50
102
RTVSPost2010PropOp47
 70
     1
102
RTVSPost2010Prop48
 90
       50
102
RTVSPost2010PropOp48
 70
     1
102
RTVSPost2010Prop49
280
     0
102
RTVSPost2010PropOp49
 70
     1
102
RTVSPost2010Prop50
 90
       50
102
RTVSPost2010PropOp50
 70
     1
102
RTVSPost2010Prop51ColorIndex
 90
      256
102
RTVSPost2010Prop51ColorRGB
 90
-16777216
102
RTVSPost2010PropOp51
 70
     0
102
RTVSPost2010Prop52
140
1.0
102
RTVSPost2010PropOp52
 70
     0
102
RTVSPost2010Prop53
 90
        2
102
RTVSPost2010PropOp53
 70
     1
102
RTVSPost2010Prop54
  1
strokes_ogs.tif
102
RTVSPost2010PropOp54
 70
     1
102
RTVSPost2010Prop55
280
     0
102
RTVSPost2010PropOp55
 70
     1
102
RTVSPost2010Prop56
140
1.0
102
RTVSPost2010PropOp56
 70
     1
102
RTVSPost2010Prop57
140
1.0
102
RTVSPost2010PropOp57
 70
     1
  0
XRECORD
  5
116
102
{ACAD_REACTORS
330
115
102
}
330
115
100
AcDbXrecord
280
     1
102
RTVSPost2010Prop28
280
     0
102
RTVSPost2010PropOp28
 70
     1
102
RTVSPost2010Prop29
280
     1
102
RTVSPost2010PropOp29
 70
     1
102
RTVSPost2010Prop30
280
     1
102
RTVSPost2010PropOp30
 70
     1
102
RTVSPost2010Prop31
280
     0
102
RTVSPost2010PropOp31
 70
     1
102
RTVSPost2010Prop32
280
     0
102
RTVSPost2010PropOp32
 70
     1
102
RTVSPost2010Prop33
280
     0
102
RTVSPost2010PropOp33
 70
     1
102
RTVSPost2010Prop34
280
     0
102
RTVSPost2010PropOp34
 70
     1
102
RTVSPost2010Prop35
280
     0
102
RTVSPost2010PropOp35
 70
     1
102
RTVSPost2010Prop36
280
     0
102
RTVSPost2010PropOp36
 70
     1
102
RTVSPost2010Prop37
 90
       50
102
RTVSPost2010PropOp37
 70
     1
102
RTVSPost2010Prop38
140
0.0
102
RTVSPost2010PropOp38
 70
     1
102
RTVSPost2010Prop39
140
1.0
102
RTVSPost2010PropOp39
 70
     1
102
RTVSPost2010Prop40
 90
        0
102
RTVSPost2010PropOp40
 70
     1
102
RTVSPost2010Prop41ColorIndex
 90
       18
102
RTVSPost2010Prop41ColorRGB
 90
        0
102
RTVSPost2010PropOp41
 70
     1
102
RTVSPost2010Prop42
 90
       50
102
RTVSPost2010PropOp42
 70
     1
102
RTVSPost2010Prop43
 90
        3
102
RTVSPost2010PropOp43
 70
     1
102
RTVSPost2010Prop44ColorIndex
 90
        5
102
RTVSPost2010Prop44ColorRGB
 90
      255
102
RTVSPost2010PropOp44
 70
     1
102
RTVSPost2010Prop45
280
     0
102
RTVSPost2010PropOp45
 70
     1
102
RTVSPost2010Prop46
 90
       50
102
RTVSPost2010PropOp46
 70
     1
102
RTVSPost2010Prop47
 90
       50
102
RTVSPost2010PropOp47
 70
     1
102
RTVSPost2010Prop48
 90
       50
102
RTVSPost2010PropOp48
 70
     1
102
RTVSPost2010Prop49
280
     0
102
RTVSPost2010PropOp49
 70
     1
102
RTVSPost2010Prop50
 90
       50
102
RTVSPost2010PropOp50
 70
     1
102
RTVSPost2010Prop51ColorIndex
 90
      256
102
RTVSPost2010Prop51ColorRGB
 90
-16777216
102
RTVSPost2010PropOp51
 70
     0
102
RTVSPost2010Prop52
140
1.0
102
RTVSPost2010PropOp52
 70
     0
102
RTVSPost2010Prop53
 90
        2
102
RTVSPost2010PropOp53
 70
     1
102
RTVSPost2010Prop54
  1
strokes_ogs.tif
102
RTVSPost2010PropOp54
 70
     1
102
RTVSPost2010Prop55
280
     0
102
RTVSPost2010PropOp55
 70
     1
102
RTVSPost2010Prop56
140
1.0
102
RTVSPost2010PropOp56
 70
     1
102
RTVSPost2010Prop57
140
1.0
102
RTVSPost2010PropOp57
 70
     1
  0
XRECORD
  5
132
102
{ACAD_REACTORS
330
131
102
}
330
131
100
AcDbXrecord
280
     1
102
RTVSPost2010Prop28
280
     0
102
RTVSPost2010PropOp28
 70
     0
102
RTVSPost2010Prop29
280
     1
102
RTVSPost2010PropOp29
 70
     0
102
RTVSPost2010Prop30
280
     1
102
RTVSPost2010PropOp30
 70
     0
102
RTVSPost2010Prop31
280
     0
102
RTVSPost2010PropOp31
 70
     0
102
RTVSPost2010Prop32
280
     0
102
RTVSPost2010PropOp32
 70
     0
102
RTVSPost2010Prop33
280
     0
102
RTVSPost2010PropOp33
 70
     0
102
RTVSPost2010Prop34
280
     0
102
RTVSPost2010PropOp34
 70
     0
102
RTVSPost2010Prop35
280
     0
102
RTVSPost2010PropOp35
 70
     0
102
RTVSPost2010Prop36
280
     0
102
RTVSPost2010PropOp36
 70
     0
102
RTVSPost2010Prop37
 90
       50
102
RTVSPost2010PropOp37
 70
     0
102
RTVSPost2010Prop38
140
0.0
102
RTVSPost2010PropOp38
 70
     0
102
RTVSPost2010Prop39
140
1.0
102
RTVSPost2010PropOp39
 70
     0
102
RTVSPost2010Prop40
 90
        0
102
RTVSPost2010PropOp40
 70
     0
102
RTVSPost2010Prop41ColorIndex
 90
       18
102
RTVSPost2010Prop41ColorRGB
 90
        0
102
RTVSPost2010PropOp41
 70
     0
102
RTVSPost2010Prop42
 90
       50
102
RTVSPost2010PropOp42
 70
     0
102
RTVSPost2010Prop43
 90
        3
102
RTVSPost2010PropOp43
 70
     0
102
RTVSPost2010Prop44ColorIndex
 90
        5
102
RTVSPost2010Prop44ColorRGB
 90
      255
102
RTVSPost2010PropOp44
 70
     0
102
RTVSPost2010Prop45
280
     0
102
RTVSPost2010PropOp45
 70
     0
102
RTVSPost2010Prop46
 90
       50
102
RTVSPost2010PropOp46
 70
     0
102
RTVSPost2010Prop47
 90
       50
102
RTVSPost2010PropOp47
 70
     0
102
RTVSPost2010Prop48
 90
       50
102
RTVSPost2010PropOp48
 70
     0
102
RTVSPost2010Prop49
280
     0
102
RTVSPost2010PropOp49
 70
     0
102
RTVSPost2010Prop50
 90
       50
102
RTVSPost2010PropOp50
 70
     0
102
RTVSPost2010Prop51ColorIndex
 90
      256
102
RTVSPost2010Prop51ColorRGB
 90
-16777216
102
RTVSPost2010PropOp51
 70
     0
102
RTVSPost2010Prop52
140
1.0
102
RTVSPost2010PropOp52
 70
     0
102
RTVSPost2010Prop53
 90
        2
102
RTVSPost2010PropOp53
 70
     0
102
RTVSPost2010Prop54
  1
strokes_ogs.tif
102
RTVSPost2010PropOp54
 70
     0
102
RTVSPost2010Prop55
280
     0
102
RTVSPost2010PropOp55
 70
     0
102
RTVSPost2010Prop56
140
1.0
102
RTVSPost2010PropOp56
 70
     0
102
RTVSPost2010Prop57
140
1.0
102
RTVSPost2010PropOp57
 70
     0
  0
XRECORD
  5
122
102
{ACAD_REACTORS
330
121
102
}
330
121
100
AcDbXrecord
280
     1
102
RTVSPost2010Prop28
280
     0
102
RTVSPost2010PropOp28
 70
     1
102
RTVSPost2010Prop29
280
     1
102
RTVSPost2010PropOp29
 70
     1
102
RTVSPost2010Prop30
280
     1
102
RTVSPost2010PropOp30
 70
     1
102
RTVSPost2010Prop31
280
     0
102
RTVSPost2010PropOp31
 70
     1
102
RTVSPost2010Prop32
280
     0
102
RTVSPost2010PropOp32
 70
     1
102
RTVSPost2010Prop33
280
     0
102
RTVSPost2010PropOp33
 70
     1
102
RTVSPost2010Prop34
280
     0
102
RTVSPost2010PropOp34
 70
     1
102
RTVSPost2010Prop35
280
     0
102
RTVSPost2010PropOp35
 70
     1
102
RTVSPost2010Prop36
280
     0
102
RTVSPost2010PropOp36
 70
     1
102
RTVSPost2010Prop37
 90
       50
102
RTVSPost2010PropOp37
 70
     1
102
RTVSPost2010Prop38
140
0.0
102
RTVSPost2010PropOp38
 70
     1
102
RTVSPost2010Prop39
140
1.0
102
RTVSPost2010PropOp39
 70
     1
102
RTVSPost2010Prop40
 90
        0
102
RTVSPost2010PropOp40
 70
     1
102
RTVSPost2010Prop41ColorIndex
 90
       18
102
RTVSPost2010Prop41ColorRGB
 90
        0
102
RTVSPost2010PropOp41
 70
     1
102
RTVSPost2010Prop42
 90
       50
102
RTVSPost2010PropOp42
 70
     1
102
RTVSPost2010Prop43
 90
        3
102
RTVSPost2010PropOp43
 70
     1
102
RTVSPost2010Prop44ColorIndex
 90
        5
102
RTVSPost2010Prop44ColorRGB
 90
      255
102
RTVSPost2010PropOp44
 70
     1
102
RTVSPost2010Prop45
280
     0
102
RTVSPost2010PropOp45
 70
     1
102
RTVSPost2010Prop46
 90
       50
102
RTVSPost2010PropOp46
 70
     1
102
RTVSPost2010Prop47
 90
       50
102
RTVSPost2010PropOp47
 70
     1
102
RTVSPost2010Prop48
 90
       50
102
RTVSPost2010PropOp48
 70
     1
102
RTVSPost2010Prop49
280
     0
102
RTVSPost2010PropOp49
 70
     1
102
RTVSPost2010Prop50
 90
       50
102
RTVSPost2010PropOp50
 70
     1
102
RTVSPost2010Prop51ColorIndex
 90
      256
102
RTVSPost2010Prop51ColorRGB
 90
-16777216
102
RTVSPost2010PropOp51
 70
     0
102
RTVSPost2010Prop52
140
1.0
102
RTVSPost2010PropOp52
 70
     0
102
RTVSPost2010Prop53
 90
        2
102
RTVSPost2010PropOp53
 70
     1
102
RTVSPost2010Prop54
  1
strokes_ogs.tif
102
RTVSPost2010PropOp54
 70
     1
102
RTVSPost2010Prop55
280
     0
102
RTVSPost2010PropOp55
 70
     1
102
RTVSPost2010Prop56
140
1.0
102
RTVSPost2010PropOp56
 70
     1
102
RTVSPost2010Prop57
140
1.0
102
RTVSPost2010PropOp57
 70
     1
  0
XRECORD
  5
134
102
{ACAD_REACTORS
330
133
102
}
330
133
100
AcDbXrecord
280
     1
102
RTVSPost2010Prop28
280
     0
102
RTVSPost2010PropOp28
 70
     0
102
RTVSPost2010Prop29
280
     1
102
RTVSPost2010PropOp29
 70
     0
102
RTVSPost2010Prop30
280
     1
102
RTVSPost2010PropOp30
 70
     0
102
RTVSPost2010Prop31
280
     0
102
RTVSPost2010PropOp31
 70
     0
102
RTVSPost2010Prop32
280
     0
102
RTVSPost2010PropOp32
 70
     0
102
RTVSPost2010Prop33
280
     0
102
RTVSPost2010PropOp33
 70
     0
102
RTVSPost2010Prop34
280
     0
102
RTVSPost2010PropOp34
 70
     0
102
RTVSPost2010Prop35
280
     0
102
RTVSPost2010PropOp35
 70
     0
102
RTVSPost2010Prop36
280
     0
102
RTVSPost2010PropOp36
 70
     0
102
RTVSPost2010Prop37
 90
       50
102
RTVSPost2010PropOp37
 70
     0
102
RTVSPost2010Prop38
140
0.0
102
RTVSPost2010PropOp38
 70
     0
102
RTVSPost2010Prop39
140
1.0
102
RTVSPost2010PropOp39
 70
     0
102
RTVSPost2010Prop40
 90
        0
102
RTVSPost2010PropOp40
 70
     0
102
RTVSPost2010Prop41ColorIndex
 90
       18
102
RTVSPost2010Prop41ColorRGB
 90
        0
102
RTVSPost2010PropOp41
 70
     0
102
RTVSPost2010Prop42
 90
       50
102
RTVSPost2010PropOp42
 70
     0
102
RTVSPost2010Prop43
 90
        3
102
RTVSPost2010PropOp43
 70
     0
102
RTVSPost2010Prop44ColorIndex
 90
        5
102
RTVSPost2010Prop44ColorRGB
 90
      255
102
RTVSPost2010PropOp44
 70
     0
102
RTVSPost2010Prop45
280
     0
102
RTVSPost2010PropOp45
 70
     0
102
RTVSPost2010Prop46
 90
       50
102
RTVSPost2010PropOp46
 70
     0
102
RTVSPost2010Prop47
 90
       50
102
RTVSPost2010PropOp47
 70
     0
102
RTVSPost2010Prop48
 90
       50
102
RTVSPost2010PropOp48
 70
     0
102
RTVSPost2010Prop49
280
     0
102
RTVSPost2010PropOp49
 70
     0
102
RTVSPost2010Prop50
 90
       50
102
RTVSPost2010PropOp50
 70
     0
102
RTVSPost2010Prop51ColorIndex
 90
      256
102
RTVSPost2010Prop51ColorRGB
 90
-16777216
102
RTVSPost2010PropOp51
 70
     0
102
RTVSPost2010Prop52
140
1.0
102
RTVSPost2010PropOp52
 70
     0
102
RTVSPost2010Prop53
 90
        2
102
RTVSPost2010PropOp53
 70
     0
102
RTVSPost2010Prop54
  1
strokes_ogs.tif
102
RTVSPost2010PropOp54
 70
     0
102
RTVSPost2010Prop55
280
     0
102
RTVSPost2010PropOp55
 70
     0
102
RTVSPost2010Prop56
140
1.0
102
RTVSPost2010PropOp56
 70
     0
102
RTVSPost2010Prop57
140
1.0
102
RTVSPost2010PropOp57
 70
     0
  0
XRECORD
  5
11A
102
{ACAD_REACTORS
330
119
102
}
330
119
100
AcDbXrecord
280
     1
102
RTVSPost2010Prop28
280
     0
102
RTVSPost2010PropOp28
 70
     1
102
RTVSPost2010Prop29
280
     1
102
RTVSPost2010PropOp29
 70
     1
102
RTVSPost2010Prop30
280
     1
102
RTVSPost2010PropOp30
 70
     1
102
RTVSPost2010Prop31
280
     0
102
RTVSPost2010PropOp31
 70
     1
102
RTVSPost2010Prop32
280
     0
102
RTVSPost2010PropOp32
 70
     1
102
RTVSPost2010Prop33
280
     0
102
RTVSPost2010PropOp33
 70
     1
102
RTVSPost2010Prop34
280
     0
102
RTVSPost2010PropOp34
 70
     1
102
RTVSPost2010Prop35
280
     0
102
RTVSPost2010PropOp35
 70
     1
102
RTVSPost2010Prop36
280
     0
102
RTVSPost2010PropOp36
 70
     1
102
RTVSPost2010Prop37
 90
       50
102
RTVSPost2010PropOp37
 70
     1
102
RTVSPost2010Prop38
140
0.0
102
RTVSPost2010PropOp38
 70
     1
102
RTVSPost2010Prop39
140
1.0
102
RTVSPost2010PropOp39
 70
     1
102
RTVSPost2010Prop40
 90
        0
102
RTVSPost2010PropOp40
 70
     1
102
RTVSPost2010Prop41ColorIndex
 90
       18
102
RTVSPost2010Prop41ColorRGB
 90
        0
102
RTVSPost2010PropOp41
 70
     1
102
RTVSPost2010Prop42
 90
       50
102
RTVSPost2010PropOp42
 70
     1
102
RTVSPost2010Prop43
 90
        3
102
RTVSPost2010PropOp43
 70
     1
102
RTVSPost2010Prop44ColorIndex
 90
        5
102
RTVSPost2010Prop44ColorRGB
 90
      255
102
RTVSPost2010PropOp44
 70
     1
102
RTVSPost2010Prop45
280
     0
102
RTVSPost2010PropOp45
 70
     1
102
RTVSPost2010Prop46
 90
       50
102
RTVSPost2010PropOp46
 70
     1
102
RTVSPost2010Prop47
 90
       50
102
RTVSPost2010PropOp47
 70
     1
102
RTVSPost2010Prop48
 90
       50
102
RTVSPost2010PropOp48
 70
     1
102
RTVSPost2010Prop49
280
     0
102
RTVSPost2010PropOp49
 70
     1
102
RTVSPost2010Prop50
 90
       50
102
RTVSPost2010PropOp50
 70
     1
102
RTVSPost2010Prop51ColorIndex
 90
      256
102
RTVSPost2010Prop51ColorRGB
 90
-16777216
102
RTVSPost2010PropOp51
 70
     0
102
RTVSPost2010Prop52
140
1.0
102
RTVSPost2010PropOp52
 70
     0
102
RTVSPost2010Prop53
 90
        2
102
RTVSPost2010PropOp53
 70
     1
102
RTVSPost2010Prop54
  1
strokes_ogs.tif
102
RTVSPost2010PropOp54
 70
     1
102
RTVSPost2010Prop55
280
     0
102
RTVSPost2010PropOp55
 70
     1
102
RTVSPost2010Prop56
140
1.0
102
RTVSPost2010PropOp56
 70
     1
102
RTVSPost2010Prop57
140
1.0
102
RTVSPost2010PropOp57
 70
     1
  0
XRECORD
  5
130
102
{ACAD_REACTORS
330
12F
102
}
330
12F
100
AcDbXrecord
280
     1
102
RTVSPost2010Prop28
280
     0
102
RTVSPost2010PropOp28
 70
     1
102
RTVSPost2010Prop29
280
     1
102
RTVSPost2010PropOp29
 70
     1
102
RTVSPost2010Prop30
280
     1
102
RTVSPost2010PropOp30
 70
     1
102
RTVSPost2010Prop31
280
     0
102
RTVSPost2010PropOp31
 70
     1
102
RTVSPost2010Prop32
280
     0
102
RTVSPost2010PropOp32
 70
     1
102
RTVSPost2010Prop33
280
     0
102
RTVSPost2010PropOp33
 70
     1
102
RTVSPost2010Prop34
280
     0
102
RTVSPost2010PropOp34
 70
     1
102
RTVSPost2010Prop35
280
     0
102
RTVSPost2010PropOp35
 70
     1
102
RTVSPost2010Prop36
280
     0
102
RTVSPost2010PropOp36
 70
     1
102
RTVSPost2010Prop37
 90
       50
102
RTVSPost2010PropOp37
 70
     1
102
RTVSPost2010Prop38
140
0.0
102
RTVSPost2010PropOp38
 70
     1
102
RTVSPost2010Prop39
140
1.0
102
RTVSPost2010PropOp39
 70
     1
102
RTVSPost2010Prop40
 90
        0
102
RTVSPost2010PropOp40
 70
     1
102
RTVSPost2010Prop41ColorIndex
 90
       18
102
RTVSPost2010Prop41ColorRGB
 90
        0
102
RTVSPost2010PropOp41
 70
     1
102
RTVSPost2010Prop42
 90
       50
102
RTVSPost2010PropOp42
 70
     1
102
RTVSPost2010Prop43
 90
        3
102
RTVSPost2010PropOp43
 70
     1
102
RTVSPost2010Prop44ColorIndex
 90
        5
102
RTVSPost2010Prop44ColorRGB
 90
      255
102
RTVSPost2010PropOp44
 70
     1
102
RTVSPost2010Prop45
280
     0
102
RTVSPost2010PropOp45
 70
     1
102
RTVSPost2010Prop46
 90
       50
102
RTVSPost2010PropOp46
 70
     1
102
RTVSPost2010Prop47
 90
       50
102
RTVSPost2010PropOp47
 70
     1
102
RTVSPost2010Prop48
 90
       50
102
RTVSPost2010PropOp48
 70
     1
102
RTVSPost2010Prop49
280
     0
102
RTVSPost2010PropOp49
 70
     1
102
RTVSPost2010Prop50
 90
       50
102
RTVSPost2010PropOp50
 70
     1
102
RTVSPost2010Prop51ColorIndex
 90
      256
102
RTVSPost2010Prop51ColorRGB
 90
-16777216
102
RTVSPost2010PropOp51
 70
     0
102
RTVSPost2010Prop52
140
1.0
102
RTVSPost2010PropOp52
 70
     0
102
RTVSPost2010Prop53
 90
        2
102
RTVSPost2010PropOp53
 70
     1
102
RTVSPost2010Prop54
  1
strokes_ogs.tif
102
RTVSPost2010PropOp54
 70
     1
102
RTVSPost2010Prop55
280
     0
102
RTVSPost2010PropOp55
 70
     1
102
RTVSPost2010Prop56
140
1.0
102
RTVSPost2010PropOp56
 70
     1
102
RTVSPost2010Prop57
140
1.0
102
RTVSPost2010PropOp57
 70
     1
  0
XRECORD
  5
12E
102
{ACAD_REACTORS
330
12D
102
}
330
12D
100
AcDbXrecord
280
     1
102
RTVSPost2010Prop28
280
     0
102
RTVSPost2010PropOp28
 70
     1
102
RTVSPost2010Prop29
280
     1
102
RTVSPost2010PropOp29
 70
     1
102
RTVSPost2010Prop30
280
     1
102
RTVSPost2010PropOp30
 70
     1
102
RTVSPost2010Prop31
280
     0
102
RTVSPost2010PropOp31
 70
     1
102
RTVSPost2010Prop32
280
     0
102
RTVSPost2010PropOp32
 70
     1
102
RTVSPost2010Prop33
280
     0
102
RTVSPost2010PropOp33
 70
     1
102
RTVSPost2010Prop34
280
     0
102
RTVSPost2010PropOp34
 70
     1
102
RTVSPost2010Prop35
280
     0
102
RTVSPost2010PropOp35
 70
     1
102
RTVSPost2010Prop36
280
     0
102
RTVSPost2010PropOp36
 70
     1
102
RTVSPost2010Prop37
 90
       50
102
RTVSPost2010PropOp37
 70
     1
102
RTVSPost2010Prop38
140
0.0
102
RTVSPost2010PropOp38
 70
     1
102
RTVSPost2010Prop39
140
1.0
102
RTVSPost2010PropOp39
 70
     1
102
RTVSPost2010Prop40
 90
        0
102
RTVSPost2010PropOp40
 70
     1
102
RTVSPost2010Prop41ColorIndex
 90
       18
102
RTVSPost2010Prop41ColorRGB
 90
        0
102
RTVSPost2010PropOp41
 70
     1
102
RTVSPost2010Prop42
 90
       50
102
RTVSPost2010PropOp42
 70
     1
102
RTVSPost2010Prop43
 90
        3
102
RTVSPost2010PropOp43
 70
     1
102
RTVSPost2010Prop44ColorIndex
 90
        5
102
RTVSPost2010Prop44ColorRGB
 90
      255
102
RTVSPost2010PropOp44
 70
     1
102
RTVSPost2010Prop45
280
     0
102
RTVSPost2010PropOp45
 70
     1
102
RTVSPost2010Prop46
 90
       50
102
RTVSPost2010PropOp46
 70
     1
102
RTVSPost2010Prop47
 90
       50
102
RTVSPost2010PropOp47
 70
     1
102
RTVSPost2010Prop48
 90
       50
102
RTVSPost2010PropOp48
 70
     1
102
RTVSPost2010Prop49
280
     0
102
RTVSPost2010PropOp49
 70
     1
102
RTVSPost2010Prop50
 90
       50
102
RTVSPost2010PropOp50
 70
     1
102
RTVSPost2010Prop51ColorIndex
 90
      256
102
RTVSPost2010Prop51ColorRGB
 90
-16777216
102
RTVSPost2010PropOp51
 70
     0
102
RTVSPost2010Prop52
140
1.0
102
RTVSPost2010PropOp52
 70
     0
102
RTVSPost2010Prop53
 90
        2
102
RTVSPost2010PropOp53
 70
     1
102
RTVSPost2010Prop54
  1
strokes_ogs.tif
102
RTVSPost2010PropOp54
 70
     1
102
RTVSPost2010Prop55
280
     0
102
RTVSPost2010PropOp55
 70
     1
102
RTVSPost2010Prop56
140
1.0
102
RTVSPost2010PropOp56
 70
     1
102
RTVSPost2010Prop57
140
1.0
102
RTVSPost2010PropOp57
 70
     1
  0
XRECORD
  5
128
102
{ACAD_REACTORS
330
127
102
}
330
127
100
AcDbXrecord
280
     1
102
RTVSPost2010Prop28
280
     0
102
RTVSPost2010PropOp28
 70
     1
102
RTVSPost2010Prop29
280
     1
102
RTVSPost2010PropOp29
 70
     1
102
RTVSPost2010Prop30
280
     1
102
RTVSPost2010PropOp30
 70
     1
102
RTVSPost2010Prop31
280
     0
102
RTVSPost2010PropOp31
 70
     1
102
RTVSPost2010Prop32
280
     0
102
RTVSPost2010PropOp32
 70
     1
102
RTVSPost2010Prop33
280
     0
102
RTVSPost2010PropOp33
 70
     1
102
RTVSPost2010Prop34
280
     0
102
RTVSPost2010PropOp34
 70
     1
102
RTVSPost2010Prop35
280
     0
102
RTVSPost2010PropOp35
 70
     1
102
RTVSPost2010Prop36
280
     0
102
RTVSPost2010PropOp36
 70
     1
102
RTVSPost2010Prop37
 90
       50
102
RTVSPost2010PropOp37
 70
     1
102
RTVSPost2010Prop38
140
0.0
102
RTVSPost2010PropOp38
 70
     1
102
RTVSPost2010Prop39
140
1.0
102
RTVSPost2010PropOp39
 70
     1
102
RTVSPost2010Prop40
 90
        0
102
RTVSPost2010PropOp40
 70
     1
102
RTVSPost2010Prop41ColorIndex
 90
       18
102
RTVSPost2010Prop41ColorRGB
 90
        0
102
RTVSPost2010PropOp41
 70
     1
102
RTVSPost2010Prop42
 90
       50
102
RTVSPost2010PropOp42
 70
     1
102
RTVSPost2010Prop43
 90
        3
102
RTVSPost2010PropOp43
 70
     1
102
RTVSPost2010Prop44ColorIndex
 90
        5
102
RTVSPost2010Prop44ColorRGB
 90
      255
102
RTVSPost2010PropOp44
 70
     1
102
RTVSPost2010Prop45
280
     0
102
RTVSPost2010PropOp45
 70
     1
102
RTVSPost2010Prop46
 90
       50
102
RTVSPost2010PropOp46
 70
     1
102
RTVSPost2010Prop47
 90
       50
102
RTVSPost2010PropOp47
 70
     1
102
RTVSPost2010Prop48
 90
       50
102
RTVSPost2010PropOp48
 70
     1
102
RTVSPost2010Prop49
280
     0
102
RTVSPost2010PropOp49
 70
     1
102
RTVSPost2010Prop50
 90
       50
102
RTVSPost2010PropOp50
 70
     1
102
RTVSPost2010Prop51ColorIndex
 90
      256
102
RTVSPost2010Prop51ColorRGB
 90
-16777216
102
RTVSPost2010PropOp51
 70
     0
102
RTVSPost2010Prop52
140
1.0
102
RTVSPost2010PropOp52
 70
     0
102
RTVSPost2010Prop53
 90
        2
102
RTVSPost2010PropOp53
 70
     1
102
RTVSPost2010Prop54
  1
strokes_ogs.tif
102
RTVSPost2010PropOp54
 70
     1
102
RTVSPost2010Prop55
280
     0
102
RTVSPost2010PropOp55
 70
     1
102
RTVSPost2010Prop56
140
1.0
102
RTVSPost2010PropOp56
 70
     1
102
RTVSPost2010Prop57
140
1.0
102
RTVSPost2010PropOp57
 70
     1
  0
XRECORD
  5
12A
102
{ACAD_REACTORS
330
129
102
}
330
129
100
AcDbXrecord
280
     1
102
RTVSPost2010Prop28
280
     0
102
RTVSPost2010PropOp28
 70
     1
102
RTVSPost2010Prop29
280
     1
102
RTVSPost2010PropOp29
 70
     1
102
RTVSPost2010Prop30
280
     1
102
RTVSPost2010PropOp30
 70
     1
102
RTVSPost2010Prop31
280
     0
102
RTVSPost2010PropOp31
 70
     1
102
RTVSPost2010Prop32
280
     0
102
RTVSPost2010PropOp32
 70
     1
102
RTVSPost2010Prop33
280
     0
102
RTVSPost2010PropOp33
 70
     1
102
RTVSPost2010Prop34
280
     0
102
RTVSPost2010PropOp34
 70
     1
102
RTVSPost2010Prop35
280
     0
102
RTVSPost2010PropOp35
 70
     1
102
RTVSPost2010Prop36
280
     0
102
RTVSPost2010PropOp36
 70
     1
102
RTVSPost2010Prop37
 90
       50
102
RTVSPost2010PropOp37
 70
     1
102
RTVSPost2010Prop38
140
0.0
102
RTVSPost2010PropOp38
 70
     1
102
RTVSPost2010Prop39
140
1.0
102
RTVSPost2010PropOp39
 70
     1
102
RTVSPost2010Prop40
 90
        0
102
RTVSPost2010PropOp40
 70
     1
102
RTVSPost2010Prop41ColorIndex
 90
       18
102
RTVSPost2010Prop41ColorRGB
 90
        0
102
RTVSPost2010PropOp41
 70
     1
102
RTVSPost2010Prop42
 90
       50
102
RTVSPost2010PropOp42
 70
     1
102
RTVSPost2010Prop43
 90
        3
102
RTVSPost2010PropOp43
 70
     1
102
RTVSPost2010Prop44ColorIndex
 90
        5
102
RTVSPost2010Prop44ColorRGB
 90
      255
102
RTVSPost2010PropOp44
 70
     1
102
RTVSPost2010Prop45
280
     0
102
RTVSPost2010PropOp45
 70
     1
102
RTVSPost2010Prop46
 90
       50
102
RTVSPost2010PropOp46
 70
     1
102
RTVSPost2010Prop47
 90
       50
102
RTVSPost2010PropOp47
 70
     1
102
RTVSPost2010Prop48
 90
       50
102
RTVSPost2010PropOp48
 70
     1
102
RTVSPost2010Prop49
280
     0
102
RTVSPost2010PropOp49
 70
     1
102
RTVSPost2010Prop50
 90
       50
102
RTVSPost2010PropOp50
 70
     1
102
RTVSPost2010Prop51ColorIndex
 90
      256
102
RTVSPost2010Prop51ColorRGB
 90
-16777216
102
RTVSPost2010PropOp51
 70
     0
102
RTVSPost2010Prop52
140
1.0
102
RTVSPost2010PropOp52
 70
     0
102
RTVSPost2010Prop53
 90
        2
102
RTVSPost2010PropOp53
 70
     1
102
RTVSPost2010Prop54
  1
strokes_ogs.tif
102
RTVSPost2010PropOp54
 70
     1
102
RTVSPost2010Prop55
280
     0
102
RTVSPost2010PropOp55
 70
     1
102
RTVSPost2010Prop56
140
1.0
102
RTVSPost2010PropOp56
 70
     1
102
RTVSPost2010Prop57
140
1.0
102
RTVSPost2010PropOp57
 70
     1
  0
XRECORD
  5
120
102
{ACAD_REACTORS
330
11F
102
}
330
11F
100
AcDbXrecord
280
     1
102
RTVSPost2010Prop28
280
     0
102
RTVSPost2010PropOp28
 70
     1
102
RTVSPost2010Prop29
280
     1
102
RTVSPost2010PropOp29
 70
     1
102
RTVSPost2010Prop30
280
     1
102
RTVSPost2010PropOp30
 70
     1
102
RTVSPost2010Prop31
280
     0
102
RTVSPost2010PropOp31
 70
     1
102
RTVSPost2010Prop32
280
     0
102
RTVSPost2010PropOp32
 70
     1
102
RTVSPost2010Prop33
280
     0
102
RTVSPost2010PropOp33
 70
     1
102
RTVSPost2010Prop34
280
     0
102
RTVSPost2010PropOp34
 70
     1
102
RTVSPost2010Prop35
280
     0
102
RTVSPost2010PropOp35
 70
     1
102
RTVSPost2010Prop36
280
     0
102
RTVSPost2010PropOp36
 70
     1
102
RTVSPost2010Prop37
 90
       50
102
RTVSPost2010PropOp37
 70
     1
102
RTVSPost2010Prop38
140
0.0
102
RTVSPost2010PropOp38
 70
     1
102
RTVSPost2010Prop39
140
1.0
102
RTVSPost2010PropOp39
 70
     1
102
RTVSPost2010Prop40
 90
        0
102
RTVSPost2010PropOp40
 70
     1
102
RTVSPost2010Prop41ColorIndex
 90
       18
102
RTVSPost2010Prop41ColorRGB
 90
        0
102
RTVSPost2010PropOp41
 70
     1
102
RTVSPost2010Prop42
 90
       50
102
RTVSPost2010PropOp42
 70
     1
102
RTVSPost2010Prop43
 90
        3
102
RTVSPost2010PropOp43
 70
     1
102
RTVSPost2010Prop44ColorIndex
 90
        5
102
RTVSPost2010Prop44ColorRGB
 90
      255
102
RTVSPost2010PropOp44
 70
     1
102
RTVSPost2010Prop45
280
     0
102
RTVSPost2010PropOp45
 70
     1
102
RTVSPost2010Prop46
 90
       50
102
RTVSPost2010PropOp46
 70
     1
102
RTVSPost2010Prop47
 90
       50
102
RTVSPost2010PropOp47
 70
     1
102
RTVSPost2010Prop48
 90
       50
102
RTVSPost2010PropOp48
 70
     1
102
RTVSPost2010Prop49
280
     0
102
RTVSPost2010PropOp49
 70
     1
102
RTVSPost2010Prop50
 90
       50
102
RTVSPost2010PropOp50
 70
     1
102
RTVSPost2010Prop51ColorIndex
 90
      256
102
RTVSPost2010Prop51ColorRGB
 90
-16777216
102
RTVSPost2010PropOp51
 70
     0
102
RTVSPost2010Prop52
140
1.0
102
RTVSPost2010PropOp52
 70
     0
102
RTVSPost2010Prop53
 90
        2
102
RTVSPost2010PropOp53
 70
     1
102
RTVSPost2010Prop54
  1
strokes_ogs.tif
102
RTVSPost2010PropOp54
 70
     1
102
RTVSPost2010Prop55
280
     0
102
RTVSPost2010PropOp55
 70
     1
102
RTVSPost2010Prop56
140
1.0
102
RTVSPost2010PropOp56
 70
     1
102
RTVSPost2010Prop57
140
1.0
102
RTVSPost2010PropOp57
 70
     1
  0
XRECORD
  5
114
102
{ACAD_REACTORS
330
113
102
}
330
113
100
AcDbXrecord
280
     1
102
RTVSPost2010Prop28
280
     0
102
RTVSPost2010PropOp28
 70
     1
102
RTVSPost2010Prop29
280
     1
102
RTVSPost2010PropOp29
 70
     1
102
RTVSPost2010Prop30
280
     1
102
RTVSPost2010PropOp30
 70
     1
102
RTVSPost2010Prop31
280
     0
102
RTVSPost2010PropOp31
 70
     1
102
RTVSPost2010Prop32
280
     0
102
RTVSPost2010PropOp32
 70
     1
102
RTVSPost2010Prop33
280
     0
102
RTVSPost2010PropOp33
 70
     1
102
RTVSPost2010Prop34
280
     0
102
RTVSPost2010PropOp34
 70
     1
102
RTVSPost2010Prop35
280
     0
102
RTVSPost2010PropOp35
 70
     1
102
RTVSPost2010Prop36
280
     0
102
RTVSPost2010PropOp36
 70
     1
102
RTVSPost2010Prop37
 90
       50
102
RTVSPost2010PropOp37
 70
     1
102
RTVSPost2010Prop38
140
0.0
102
RTVSPost2010PropOp38
 70
     1
102
RTVSPost2010Prop39
140
1.0
102
RTVSPost2010PropOp39
 70
     1
102
RTVSPost2010Prop40
 90
        0
102
RTVSPost2010PropOp40
 70
     1
102
RTVSPost2010Prop41ColorIndex
 90
       18
102
RTVSPost2010Prop41ColorRGB
 90
        0
102
RTVSPost2010PropOp41
 70
     1
102
RTVSPost2010Prop42
 90
       50
102
RTVSPost2010PropOp42
 70
     1
102
RTVSPost2010Prop43
 90
        3
102
RTVSPost2010PropOp43
 70
     1
102
RTVSPost2010Prop44ColorIndex
 90
        5
102
RTVSPost2010Prop44ColorRGB
 90
      255
102
RTVSPost2010PropOp44
 70
     1
102
RTVSPost2010Prop45
280
     0
102
RTVSPost2010PropOp45
 70
     1
102
RTVSPost2010Prop46
 90
       50
102
RTVSPost2010PropOp46
 70
     1
102
RTVSPost2010Prop47
 90
       50
102
RTVSPost2010PropOp47
 70
     1
102
RTVSPost2010Prop48
 90
       50
102
RTVSPost2010PropOp48
 70
     1
102
RTVSPost2010Prop49
280
     0
102
RTVSPost2010PropOp49
 70
     1
102
RTVSPost2010Prop50
 90
       50
102
RTVSPost2010PropOp50
 70
     1
102
RTVSPost2010Prop51ColorIndex
 90
      256
102
RTVSPost2010Prop51ColorRGB
 90
-16777216
102
RTVSPost2010PropOp51
 70
     0
102
RTVSPost2010Prop52
140
1.0
102
RTVSPost2010PropOp52
 70
     0
102
RTVSPost2010Prop53
 90
        2
102
RTVSPost2010PropOp53
 70
     1
102
RTVSPost2010Prop54
  1
strokes_ogs.tif
102
RTVSPost2010PropOp54
 70
     1
102
RTVSPost2010Prop55
280
     0
102
RTVSPost2010PropOp55
 70
     1
102
RTVSPost2010Prop56
140
1.0
102
RTVSPost2010PropOp56
 70
     1
102
RTVSPost2010Prop57
140
1.0
102
RTVSPost2010PropOp57
 70
     1
  0
XRECORD
  5
12C
102
{ACAD_REACTORS
330
12B
102
}
330
12B
100
AcDbXrecord
280
     1
102
RTVSPost2010Prop28
280
     0
102
RTVSPost2010PropOp28
 70
     1
102
RTVSPost2010Prop29
280
     1
102
RTVSPost2010PropOp29
 70
     1
102
RTVSPost2010Prop30
280
     1
102
RTVSPost2010PropOp30
 70
     1
102
RTVSPost2010Prop31
280
     0
102
RTVSPost2010PropOp31
 70
     1
102
RTVSPost2010Prop32
280
     0
102
RTVSPost2010PropOp32
 70
     1
102
RTVSPost2010Prop33
280
     0
102
RTVSPost2010PropOp33
 70
     1
102
RTVSPost2010Prop34
280
     0
102
RTVSPost2010PropOp34
 70
     1
102
RTVSPost2010Prop35
280
     0
102
RTVSPost2010PropOp35
 70
     1
102
RTVSPost2010Prop36
280
     0
102
RTVSPost2010PropOp36
 70
     1
102
RTVSPost2010Prop37
 90
       50
102
RTVSPost2010PropOp37
 70
     1
102
RTVSPost2010Prop38
140
0.0
102
RTVSPost2010PropOp38
 70
     1
102
RTVSPost2010Prop39
140
1.0
102
RTVSPost2010PropOp39
 70
     1
102
RTVSPost2010Prop40
 90
        0
102
RTVSPost2010PropOp40
 70
     1
102
RTVSPost2010Prop41ColorIndex
 90
       18
102
RTVSPost2010Prop41ColorRGB
 90
        0
102
RTVSPost2010PropOp41
 70
     1
102
RTVSPost2010Prop42
 90
       50
102
RTVSPost2010PropOp42
 70
     1
102
RTVSPost2010Prop43
 90
        3
102
RTVSPost2010PropOp43
 70
     1
102
RTVSPost2010Prop44ColorIndex
 90
        5
102
RTVSPost2010Prop44ColorRGB
 90
      255
102
RTVSPost2010PropOp44
 70
     1
102
RTVSPost2010Prop45
280
     0
102
RTVSPost2010PropOp45
 70
     1
102
RTVSPost2010Prop46
 90
       50
102
RTVSPost2010PropOp46
 70
     1
102
RTVSPost2010Prop47
 90
       50
102
RTVSPost2010PropOp47
 70
     1
102
RTVSPost2010Prop48
 90
       50
102
RTVSPost2010PropOp48
 70
     1
102
RTVSPost2010Prop49
280
     0
102
RTVSPost2010PropOp49
 70
     1
102
RTVSPost2010Prop50
 90
       50
102
RTVSPost2010PropOp50
 70
     1
102
RTVSPost2010Prop51ColorIndex
 90
      256
102
RTVSPost2010Prop51ColorRGB
 90
-16777216
102
RTVSPost2010PropOp51
 70
     0
102
RTVSPost2010Prop52
140
1.0
102
RTVSPost2010PropOp52
 70
     0
102
RTVSPost2010Prop53
 90
        2
102
RTVSPost2010PropOp53
 70
     1
102
RTVSPost2010Prop54
  1
strokes_ogs.tif
102
RTVSPost2010PropOp54
 70
     1
102
RTVSPost2010Prop55
280
     0
102
RTVSPost2010PropOp55
 70
     1
102
RTVSPost2010Prop56
140
1.0
102
RTVSPost2010PropOp56
 70
     1
102
RTVSPost2010Prop57
140
1.0
102
RTVSPost2010PropOp57
 70
     1
  0
ENDSEC
  0
EOF
