  0
SECTION
  2
HEADER
  9
$ACADVER
  1
AC1024
  9
$ACADMAINTVER
 70
   205
  9
$DWGCODEPAGE
  3
ANSI_1251
  9
$INSBASE
 10
0.0
 20
0.0
 30
0.0
  9
$EXTMIN
 10
1.000000000000000E+20
 20
1.000000000000000E+20
 30
1.000000000000000E+20
  9
$EXTMAX
 10
-1.000000000000000E+20
 20
-1.000000000000000E+20
 30
-1.000000000000000E+20
  9
$LIMMIN
 10
0.0
 20
0.0
  9
$LIMMAX
 10
12.0
 20
9.0
  9
$ORTHOMODE
 70
     0
  9
$REGENMODE
 70
     1
  9
$FILLMODE
 70
     1
  9
$QTEXTMODE
 70
     0
  9
$MIRRTEXT
 70
     1
  9
$LTSCALE
 40
1.0
  9
$ATTMODE
 70
     1
  9
$TEXTSIZE
 40
0.2
  9
$TRACEWID
 40
0.05
  9
$TEXTSTYLE
  7
Standard
  9
$CLAYER
  8
OracDecor_panel_moldings
  9
$CELTYPE
  6
ByLayer
  9
$CECOLOR
 62
   256
  9
$CELTSCALE
 40
1.0
  9
$DISPSILH
 70
     0
  9
$DIMSCALE
 40
1.0
  9
$DIMASZ
 40
0.18
  9
$DIMEXO
 40
0.0625
  9
$DIMDLI
 40
0.38
  9
$DIMRND
 40
0.0
  9
$DIMDLE
 40
0.0
  9
$DIMEXE
 40
0.18
  9
$DIMTP
 40
0.0
  9
$DIMTM
 40
0.0
  9
$DIMTXT
 40
0.18
  9
$DIMCEN
 40
0.09
  9
$DIMTSZ
 40
0.0
  9
$DIMTOL
 70
     0
  9
$DIMLIM
 70
     0
  9
$DIMTIH
 70
     1
  9
$DIMTOH
 70
     1
  9
$DIMSE1
 70
     0
  9
$DIMSE2
 70
     0
  9
$DIMTAD
 70
     0
  9
$DIMZIN
 70
     0
  9
$DIMBLK
  1

  9
$DIMASO
 70
     1
  9
$DIMSHO
 70
     1
  9
$DIMPOST
  1

  9
$DIMAPOST
  1

  9
$DIMALT
 70
     0
  9
$DIMALTD
 70
     2
  9
$DIMALTF
 40
25.4
  9
$DIMLFAC
 40
1.0
  9
$DIMTOFL
 70
     0
  9
$DIMTVP
 40
0.0
  9
$DIMTIX
 70
     0
  9
$DIMSOXD
 70
     0
  9
$DIMSAH
 70
     0
  9
$DIMBLK1
  1

  9
$DIMBLK2
  1

  9
$DIMSTYLE
  2
Standard
  9
$DIMCLRD
 70
     0
  9
$DIMCLRE
 70
     0
  9
$DIMCLRT
 70
     0
  9
$DIMTFAC
 40
1.0
  9
$DIMGAP
 40
0.09
  9
$DIMJUST
 70
     0
  9
$DIMSD1
 70
     0
  9
$DIMSD2
 70
     0
  9
$DIMTOLJ
 70
     1
  9
$DIMTZIN
 70
     0
  9
$DIMALTZ
 70
     0
  9
$DIMALTTZ
 70
     0
  9
$DIMUPT
 70
     0
  9
$DIMDEC
 70
     4
  9
$DIMTDEC
 70
     4
  9
$DIMALTU
 70
     2
  9
$DIMALTTD
 70
     2
  9
$DIMTXSTY
  7
Standard
  9
$DIMAUNIT
 70
     0
  9
$DIMADEC
 70
     0
  9
$DIMALTRND
 40
0.0
  9
$DIMAZIN
 70
     0
  9
$DIMDSEP
 70
    46
  9
$DIMATFIT
 70
     3
  9
$DIMFRAC
 70
     0
  9
$DIMLDRBLK
  1

  9
$DIMLUNIT
 70
     2
  9
$DIMLWD
 70
    -2
  9
$DIMLWE
 70
    -2
  9
$DIMTMOVE
 70
     0
  9
$DIMFXL
 40
1.0
  9
$DIMFXLON
 70
     0
  9
$DIMJOGANG
 40
0.7853981633974483
  9
$DIMTFILL
 70
     0
  9
$DIMTFILLCLR
 70
     0
  9
$DIMARCSYM
 70
     0
  9
$DIMLTYPE
  6

  9
$DIMLTEX1
  6

  9
$DIMLTEX2
  6

  9
$DIMTXTDIRECTION
 70
     0
  9
$LUNITS
 70
     2
  9
$LUPREC
 70
     4
  9
$SKETCHINC
 40
0.1
  9
$FILLETRAD
 40
0.5
  9
$AUNITS
 70
     0
  9
$AUPREC
 70
     0
  9
$MENU
  1
.
  9
$ELEVATION
 40
0.0
  9
$PELEVATION
 40
0.0
  9
$THICKNESS
 40
0.0
  9
$LIMCHECK
 70
     0
  9
$CHAMFERA
 40
0.5
  9
$CHAMFERB
 40
0.5
  9
$CHAMFERC
 40
1.0
  9
$CHAMFERD
 40
0.0
  9
$SKPOLY
 70
     0
  9
$TDCREATE
 40
2451380.930432396
  9
$TDUCREATE
 40
2451380.805432396
  9
$TDUPDATE
 40
2451380.966180555
  9
$TDUUPDATE
 40
2451380.841180556
  9
$TDINDWG
 40
0.0075616898
  9
$TDUSRTIMER
 40
0.0075526505
  9
$USRTIMER
 70
     1
  9
$ANGBASE
 50
0.0
  9
$ANGDIR
 70
     0
  9
$PDMODE
 70
     0
  9
$PDSIZE
 40
0.0
  9
$PLINEWID
 40
0.0
  9
$SPLFRAME
 70
     0
  9
$SPLINETYPE
 70
     6
  9
$SPLINESEGS
 70
     8
  9
$HANDSEED
  5
199
  9
$SURFTAB1
 70
     6
  9
$SURFTAB2
 70
     6
  9
$SURFTYPE
 70
     6
  9
$SURFU
 70
     6
  9
$SURFV
 70
     6
  9
$UCSBASE
  2

  9
$UCSNAME
  2

  9
$UCSORG
 10
0.0
 20
0.0
 30
0.0
  9
$UCSXDIR
 10
1.0
 20
0.0
 30
0.0
  9
$UCSYDIR
 10
0.0
 20
1.0
 30
0.0
  9
$UCSORTHOREF
  2

  9
$UCSORTHOVIEW
 70
     0
  9
$UCSORGTOP
 10
0.0
 20
0.0
 30
0.0
  9
$UCSORGBOTTOM
 10
0.0
 20
0.0
 30
0.0
  9
$UCSORGLEFT
 10
0.0
 20
0.0
 30
0.0
  9
$UCSORGRIGHT
 10
0.0
 20
0.0
 30
0.0
  9
$UCSORGFRONT
 10
0.0
 20
0.0
 30
0.0
  9
$UCSORGBACK
 10
0.0
 20
0.0
 30
0.0
  9
$PUCSBASE
  2

  9
$PUCSNAME
  2

  9
$PUCSORG
 10
0.0
 20
0.0
 30
0.0
  9
$PUCSXDIR
 10
1.0
 20
0.0
 30
0.0
  9
$PUCSYDIR
 10
0.0
 20
1.0
 30
0.0
  9
$PUCSORTHOREF
  2

  9
$PUCSORTHOVIEW
 70
     0
  9
$PUCSORGTOP
 10
0.0
 20
0.0
 30
0.0
  9
$PUCSORGBOTTOM
 10
0.0
 20
0.0
 30
0.0
  9
$PUCSORGLEFT
 10
0.0
 20
0.0
 30
0.0
  9
$PUCSORGRIGHT
 10
0.0
 20
0.0
 30
0.0
  9
$PUCSORGFRONT
 10
0.0
 20
0.0
 30
0.0
  9
$PUCSORGBACK
 10
0.0
 20
0.0
 30
0.0
  9
$USERI1
 70
     0
  9
$USERI2
 70
     0
  9
$USERI3
 70
     0
  9
$USERI4
 70
     0
  9
$USERI5
 70
     0
  9
$USERR1
 40
0.0
  9
$USERR2
 40
0.0
  9
$USERR3
 40
0.0
  9
$USERR4
 40
0.0
  9
$USERR5
 40
0.0
  9
$WORLDVIEW
 70
     1
  9
$SHADEDGE
 70
     3
  9
$SHADEDIF
 70
    70
  9
$TILEMODE
 70
     1
  9
$MAXACTVP
 70
    64
  9
$PINSBASE
 10
0.0
 20
0.0
 30
0.0
  9
$PLIMCHECK
 70
     0
  9
$PEXTMIN
 10
1.000000000000000E+20
 20
1.000000000000000E+20
 30
1.000000000000000E+20
  9
$PEXTMAX
 10
-1.000000000000000E+20
 20
-1.000000000000000E+20
 30
-1.000000000000000E+20
  9
$PLIMMIN
 10
0.0
 20
0.0
  9
$PLIMMAX
 10
12.0
 20
9.0
  9
$UNITMODE
 70
     0
  9
$VISRETAIN
 70
     1
  9
$PLINEGEN
 70
     0
  9
$PSLTSCALE
 70
     1
  9
$TREEDEPTH
 70
  3020
  9
$CMLSTYLE
  2
Standard
  9
$CMLJUST
 70
     0
  9
$CMLSCALE
 40
1.0
  9
$PROXYGRAPHICS
 70
     1
  9
$MEASUREMENT
 70
     1
  9
$CELWEIGHT
370
    -1
  9
$ENDCAPS
280
     0
  9
$JOINSTYLE
280
     0
  9
$LWDISPLAY
290
     0
  9
$INSUNITS
 70
     4
  9
$HYPERLINKBASE
  1

  9
$STYLESHEET
  1

  9
$XEDIT
290
     1
  9
$CEPSNTYPE
380
     0
  9
$PSTYLEMODE
290
     1
  9
$FINGERPRINTGUID
  2
{12F50282-3ED8-11D3-A8B7-0060B0F84BC6}
  9
$VERSIONGUID
  2
{12F50293-3ED8-11D3-A8B7-0060B0F84BC6}
  9
$EXTNAMES
290
     1
  9
$PSVPSCALE
 40
0.0
  9
$OLESTARTUP
290
     0
  9
$SORTENTS
280
   127
  9
$INDEXCTL
280
     0
  9
$HIDETEXT
280
     0
  9
$XCLIPFRAME
280
     2
  9
$HALOGAP
280
     0
  9
$OBSCOLOR
 70
   257
  9
$OBSLTYPE
280
     0
  9
$INTERSECTIONDISPLAY
280
     0
  9
$INTERSECTIONCOLOR
 70
   257
  9
$DIMASSOC
280
     1
  9
$PROJECTNAME
  1

  9
$CAMERADISPLAY
290
     0
  9
$LENSLENGTH
 40
50.0
  9
$CAMERAHEIGHT
 40
0.0
  9
$STEPSPERSEC
 40
2.0
  9
$STEPSIZE
 40
6.0
  9
$3DDWFPREC
 40
2.0
  9
$PSOLWIDTH
 40
0.25
  9
$PSOLHEIGHT
 40
4.0
  9
$LOFTANG1
 40
1.570796326794896
  9
$LOFTANG2
 40
1.570796326794896
  9
$LOFTMAG1
 40
0.0
  9
$LOFTMAG2
 40
0.0
  9
$LOFTPARAM
 70
     7
  9
$LOFTNORMALS
280
     1
  9
$LATITUDE
 40
37.795
  9
$LONGITUDE
 40
-122.394
  9
$NORTHDIRECTION
 40
0.0
  9
$TIMEZONE
 70
 -8000
  9
$LIGHTGLYPHDISPLAY
280
     1
  9
$TILEMODELIGHTSYNCH
280
     1
  9
$CMATERIAL
347
AB
  9
$SOLIDHIST
280
     0
  9
$SHOWHIST
280
     1
  9
$DWFFRAME
280
     2
  9
$DGNFRAME
280
     0
  9
$REALWORLDSCALE
290
     1
  9
$INTERFERECOLOR
 62
     1
  9
$INTERFEREOBJVS
345
CD
  9
$INTERFEREVPVS
346
CA
  9
$CSHADOW
280
     0
  9
$SHADOWPLANELOCATION
 40
0.0
  0
ENDSEC
  0
SECTION
  2
CLASSES
  0
CLASS
  1
ACDBDICTIONARYWDFLT
  2
AcDbDictionaryWithDefault
  3
ObjectDBX Classes
 90
        0
 91
        1
280
     0
281
     0
  0
CLASS
  1
ACDBPLACEHOLDER
  2
AcDbPlaceHolder
  3
ObjectDBX Classes
 90
        0
 91
        2
280
     0
281
     0
  0
CLASS
  1
LAYOUT
  2
AcDbLayout
  3
ObjectDBX Classes
 90
        0
 91
        3
280
     0
281
     0
  0
CLASS
  1
MATERIAL
  2
AcDbMaterial
  3
ObjectDBX Classes
 90
     1153
 91
        3
280
     0
281
     0
  0
CLASS
  1
VISUALSTYLE
  2
AcDbVisualStyle
  3
ObjectDBX Classes
 90
     4095
 91
       24
280
     0
281
     0
  0
CLASS
  1
TABLESTYLE
  2
AcDbTableStyle
  3
ObjectDBX Classes
 90
     4095
 91
        1
280
     0
281
     0
  0
CLASS
  1
SCALE
  2
AcDbScale
  3
ObjectDBX Classes
 90
     1153
 91
       17
280
     0
281
     0
  0
CLASS
  1
MLEADERSTYLE
  2
AcDbMLeaderStyle
  3
ACDB_MLEADERSTYLE_CLASS
 90
     4095
 91
        1
280
     0
281
     0
  0
CLASS
  1
ACDBSECTIONVIEWSTYLE
  2
AcDbSectionViewStyle
  3
ObjectDBX Classes
 90
     1025
 91
        1
280
     0
281
     0
  0
CLASS
  1
ACDBDETAILVIEWSTYLE
  2
AcDbDetailViewStyle
  3
ObjectDBX Classes
 90
     1025
 91
        1
280
     0
281
     0
  0
CLASS
  1
MESH
  2
AcDbSubDMesh
  3
ObjectDBX Classes
 90
        0
 91
        1
280
     0
281
     1
  0
CLASS
  1
DICTIONARYVAR
  2
AcDbDictionaryVar
  3
ObjectDBX Classes
 90
        0
 91
        9
280
     0
281
     0
  0
CLASS
  1
CELLSTYLEMAP
  2
AcDbCellStyleMap
  3
ObjectDBX Classes
 90
     1152
 91
        1
280
     0
281
     0
  0
ENDSEC
  0
SECTION
  2
TABLES
  0
TABLE
  2
VPORT
  5
8
330
0
100
AcDbSymbolTable
 70
     1
  0
VPORT
  5
A8
330
8
100
AcDbSymbolTableRecord
100
AcDbViewportTableRecord
  2
*Active
 70
     0
 10
0.0
 20
0.0
 11
1.0
 21
1.0
 12
-0.0004100045771338
 22
30.62000465393067
 13
0.0
 23
0.0
 14
0.5
 24
0.5
 15
0.5
 25
0.5
 16
-1.0
 26
-1.0
 36
1.0
 17
0.0
 27
0.0
 37
0.0
 40
1095.482341739905
 41
1.613469195951352
 42
50.0
 43
0.0
 44
0.0
 50
0.0
 51
0.0
 71
     0
 72
   100
 73
     1
 74
     3
 75
     0
 76
     0
 77
     0
 78
     0
281
     0
 65
     1
110
0.0
120
0.0
130
0.0
111
1.0
121
0.0
131
0.0
112
0.0
122
1.0
132
0.0
 79
     0
146
0.0
348
C9
 60
     3
 61
     5
292
     1
282
     1
141
0.0
142
0.0
 63
   250
421
  3355443
  0
ENDTAB
  0
TABLE
  2
LTYPE
  5
5
330
0
100
AcDbSymbolTable
 70
     1
  0
LTYPE
  5
14
330
5
100
AcDbSymbolTableRecord
100
AcDbLinetypeTableRecord
  2
ByBlock
 70
     0
  3

 72
    65
 73
     0
 40
0.0
  0
LTYPE
  5
15
330
5
100
AcDbSymbolTableRecord
100
AcDbLinetypeTableRecord
  2
ByLayer
 70
     0
  3

 72
    65
 73
     0
 40
0.0
  0
LTYPE
  5
16
330
5
100
AcDbSymbolTableRecord
100
AcDbLinetypeTableRecord
  2
Continuous
 70
     0
  3
Solid line
 72
    65
 73
     0
 40
0.0
  0
ENDTAB
  0
TABLE
  2
LAYER
  5
2
330
0
100
AcDbSymbolTable
 70
     3
  0
LAYER
  5
10
330
2
100
AcDbSymbolTableRecord
100
AcDbLayerTableRecord
  2
0
 70
     0
 62
     7
  6
Continuous
370
    -3
390
F
347
BB
  0
LAYER
  5
2B
330
2
100
AcDbSymbolTableRecord
100
AcDbLayerTableRecord
  2
ASHADE
 70
     4
 62
     7
  6
Continuous
370
    -3
390
2D
347
BB
  0
LAYER
  5
F8
330
2
100
AcDbSymbolTableRecord
100
AcDbLayerTableRecord
  2
OracDecor_panel_moldings
 70
     0
 62
    56
420
  7440134
  6
Continuous
370
    -3
390
F
347
BB
  0
ENDTAB
  0
TABLE
  2
STYLE
  5
3
330
0
100
AcDbSymbolTable
 70
     2
  0
STYLE
  5
11
330
3
100
AcDbSymbolTableRecord
100
AcDbTextStyleTableRecord
  2
Standard
 70
     0
 40
0.0
 41
1.0
 50
0.0
 71
     0
 42
0.2
  3
txt
  4

  0
STYLE
  5
2C
330
3
100
AcDbSymbolTableRecord
100
AcDbTextStyleTableRecord
  2
ASHADE
 70
     0
 40
0.2
 41
1.0
 50
0.0
 71
     0
 42
0.2
  3
simplex
  4

  0
ENDTAB
  0
TABLE
  2
VIEW
  5
6
330
0
100
AcDbSymbolTable
 70
     0
  0
ENDTAB
  0
TABLE
  2
UCS
  5
7
330
0
100
AcDbSymbolTable
 70
     0
  0
ENDTAB
  0
TABLE
  2
APPID
  5
9
330
0
100
AcDbSymbolTable
 70
     6
  0
APPID
  5
12
330
9
100
AcDbSymbolTableRecord
100
AcDbRegAppTableRecord
  2
ACAD
 70
     0
  0
APPID
  5
8F
330
9
100
AcDbSymbolTableRecord
100
AcDbRegAppTableRecord
  2
AVE_RENDER
 70
     0
  0
APPID
  5
90
330
9
100
AcDbSymbolTableRecord
100
AcDbRegAppTableRecord
  2
AVE_ENTITY_MATERIAL
 70
     0
  0
APPID
  5
9C
330
9
100
AcDbSymbolTableRecord
100
AcDbRegAppTableRecord
  2
AVE_FINISH
 70
     0
  0
APPID
  5
9D
330
9
100
AcDbSymbolTableRecord
100
AcDbRegAppTableRecord
  2
AVE_MATERIAL
 70
     0
  0
APPID
  5
9E
330
9
100
AcDbSymbolTableRecord
100
AcDbRegAppTableRecord
  2
AVE_GLOBAL
 70
     0
  0
ENDTAB
  0
TABLE
  2
DIMSTYLE
  5
A
330
0
100
AcDbSymbolTable
 70
     1
100
AcDbDimStyleTable
 71
     0
  0
DIMSTYLE
105
27
330
A
100
AcDbSymbolTableRecord
100
AcDbDimStyleTableRecord
  2
Standard
 70
     0
340
11
  0
ENDTAB
  0
TABLE
  2
BLOCK_RECORD
  5
1
330
0
100
AcDbSymbolTable
 70
     6
  0
BLOCK_RECORD
  5
1F
330
1
100
AcDbSymbolTableRecord
100
AcDbBlockTableRecord
  2
*Model_Space
340
22
 70
     0
280
     1
281
     0
  0
BLOCK_RECORD
  5
1B
330
1
100
AcDbSymbolTableRecord
100
AcDbBlockTableRecord
  2
*Paper_Space
340
1E
 70
     0
280
     1
281
     0
  0
BLOCK_RECORD
  5
23
330
1
100
AcDbSymbolTableRecord
100
AcDbBlockTableRecord
  2
*Paper_Space0
340
26
 70
     0
280
     1
281
     0
  0
BLOCK_RECORD
  5
2E
330
1
100
AcDbSymbolTableRecord
100
AcDbBlockTableRecord
  2
direct
340
0
 70
     0
280
     1
281
     0
  0
BLOCK_RECORD
  5
42
330
1
100
AcDbSymbolTableRecord
100
AcDbBlockTableRecord
  2
overhead
340
0
 70
     0
280
     1
281
     0
  0
BLOCK_RECORD
  5
5F
330
1
100
AcDbSymbolTableRecord
100
AcDbBlockTableRecord
  2
sh_spot
340
0
 70
     0
280
     1
281
     0
  0
BLOCK_RECORD
  5
91
330
1
100
AcDbSymbolTableRecord
100
AcDbBlockTableRecord
  2
AVE_RENDER
340
0
102
{BLKREFS
331
94
331
95
331
96
331
97
331
98
331
99
331
9A
331
9B
102
}
 70
     0
280
     1
281
     0
  0
BLOCK_RECORD
  5
9F
330
1
100
AcDbSymbolTableRecord
100
AcDbBlockTableRecord
  2
AVE_GLOBAL
340
0
102
{BLKREFS
331
A2
102
}
 70
     0
280
     1
281
     0
  0
ENDTAB
  0
ENDSEC
  0
SECTION
  2
BLOCKS
  0
BLOCK
  5
20
330
1F
100
AcDbEntity
  8
0
100
AcDbBlockBegin
  2
*Model_Space
 70
     0
 10
0.0
 20
0.0
 30
0.0
  3
*Model_Space
  1

  0
ENDBLK
  5
21
330
1F
100
AcDbEntity
  8
0
100
AcDbBlockEnd
  0
BLOCK
  5
1C
330
1B
100
AcDbEntity
 67
     1
  8
0
100
AcDbBlockBegin
  2
*Paper_Space
 70
     0
 10
0.0
 20
0.0
 30
0.0
  3
*Paper_Space
  1

  0
ENDBLK
  5
1D
330
1B
100
AcDbEntity
 67
     1
  8
0
100
AcDbBlockEnd
  0
BLOCK
  5
24
330
23
100
AcDbEntity
 67
     1
  8
0
100
AcDbBlockBegin
  2
*Paper_Space0
 70
     0
 10
0.0
 20
0.0
 30
0.0
  3
*Paper_Space0
  1

  0
ENDBLK
  5
25
330
23
100
AcDbEntity
 67
     1
  8
0
100
AcDbBlockEnd
  0
BLOCK
  5
40
330
2E
100
AcDbEntity
  8
0
100
AcDbBlockBegin
  2
direct
 70
     2
 10
0.0
 20
0.0
 30
0.0
  3
direct
  1

  0
ATTDEF
  5
2F
330
2E
100
AcDbEntity
  8
ASHADE
  6
Continuous
 62
     1
100
AcDbText
 10
0.0
 20
-0.1
 30
0.0
 40
0.2
  1

  7
ASHADE
 72
     1
 11
0.0
 21
-0.1
 31
0.0
100
AcDbAttributeDefinition
280
     0
  3
Light Name
  2
SNAME
 70
     0
280
     0
  0
ARC
  5
30
330
2E
100
AcDbEntity
  8
ASHADE
  6
Continuous
 62
     7
100
AcDbCircle
 10
0.0
 20
0.0
 30
0.0
 40
0.3
100
AcDbArc
 50
205.6792886194569
 51
334.3207113805431
  0
ARC
  5
31
330
2E
100
AcDbEntity
  8
ASHADE
  6
Continuous
 62
     7
100
AcDbCircle
 10
0.0
 20
0.0
 30
0.0
 40
0.3
100
AcDbArc
 50
25.67928861945685
 51
154.3207113805431
  0
LINE
  5
32
330
2E
100
AcDbEntity
  8
ASHADE
  6
Continuous
 62
     7
100
AcDbLine
 10
-0.21
 20
0.2142428528562855
 30
0.0
 11
-0.21
 21
0.5
 31
0.0
  0
LINE
  5
33
330
2E
100
AcDbEntity
  8
ASHADE
  6
Continuous
 62
     7
100
AcDbLine
 10
-0.11
 20
0.2791057147390572
 30
0.0
 11
-0.11
 21
0.5
 31
0.0
  0
LINE
  5
34
330
2E
100
AcDbEntity
  8
ASHADE
  6
Continuous
 62
     7
100
AcDbLine
 10
0.21
 20
0.2142428528562855
 30
0.0
 11
0.21
 21
0.5
 31
0.0
  0
ATTDEF
  5
35
330
2E
100
AcDbEntity
  8
ASHADE
  6
Continuous
 62
     7
100
AcDbText
 10
0.0
 20
0.25
 30
0.0
 40
0.01
  1

100
AcDbAttributeDefinition
280
     0
  3
Look-at Y
  2
LAY
 70
     1
280
     0
  0
ATTDEF
  5
36
330
2E
100
AcDbEntity
  8
ASHADE
  6
Continuous
 62
     7
100
AcDbText
 10
0.0
 20
0.22
 30
0.0
 40
0.01
  1
1
100
AcDbAttributeDefinition
280
     0
  3
Light Intensity
  2
INTENSITY
 70
     1
280
     0
  0
ATTDEF
  5
37
330
2E
100
AcDbEntity
  8
ASHADE
  6
Continuous
 62
     7
100
AcDbText
 10
0.0
 20
0.16
 30
0.0
 40
0.01
  1
-1
100
AcDbAttributeDefinition
280
     0
  3
*not used*
  2
BEAMD
 70
     1
280
     0
  0
ATTDEF
  5
38
330
2E
100
AcDbEntity
  8
ASHADE
  6
Continuous
 62
     7
100
AcDbText
 10
0.0
 20
0.175
 30
0.0
 40
0.01
  1
-1
100
AcDbAttributeDefinition
280
     0
  3
*not used*
  2
CONED
 70
     1
280
     0
  0
ATTDEF
  5
39
330
2E
100
AcDbEntity
  8
ASHADE
  6
Continuous
 62
     7
100
AcDbText
 10
0.0
 20
0.19
 30
0.0
 40
0.01
  1
0
100
AcDbAttributeDefinition
280
     0
  3
Depth Map Size
  2
CONEA
 70
     1
280
     0
  0
ATTDEF
  5
3A
330
2E
100
AcDbEntity
  8
ASHADE
  6
Continuous
 62
     7
100
AcDbText
 10
0.0
 20
0.2050000000000001
 30
0.0
 40
0.01
  1
1,1,1
100
AcDbAttributeDefinition
280
     0
  3
Light Color (RGB)
  2
COLOR
 70
     1
280
     0
  0
ATTDEF
  5
3B
330
2E
100
AcDbEntity
  8
ASHADE
  6
Continuous
 62
     7
100
AcDbText
 10
0.0
 20
0.235
 30
0.0
 40
0.01
  1

100
AcDbAttributeDefinition
280
     0
  3
Look-at Z
  2
LAZ
 70
     1
280
     0
  0
LINE
  5
3C
330
2E
100
AcDbEntity
  8
ASHADE
  6
Continuous
 62
     7
100
AcDbLine
 10
0.0
 20
0.3
 30
0.0
 11
0.0
 21
0.5
 31
0.0
  0
LINE
  5
3D
330
2E
100
AcDbEntity
  8
ASHADE
  6
Continuous
 62
     7
100
AcDbLine
 10
0.11
 20
0.2791057147390572
 30
0.0
 11
0.11
 21
0.5
 31
0.0
  0
ATTDEF
  5
3E
330
2E
100
AcDbEntity
  8
ASHADE
  6
Continuous
 62
     7
100
AcDbText
 10
0.0
 20
0.265
 30
0.0
 40
0.01
  1

100
AcDbAttributeDefinition
280
     0
  3
Look-at X
  2
LAX
 70
     1
280
     0
  0
ATTDEF
  5
3F
330
2E
100
AcDbEntity
  8
ASHADE
  6
Continuous
 62
     7
100
AcDbText
 10
0.0
 20
0.28
 30
0.0
 40
0.01
  1

100
AcDbAttributeDefinition
280
     0
  3

  2
GNAME
 70
     1
280
     0
  0
ENDBLK
  5
41
330
2E
100
AcDbEntity
  8
0
100
AcDbBlockEnd
  0
BLOCK
  5
5D
330
42
100
AcDbEntity
  8
0
100
AcDbBlockBegin
  2
overhead
 70
     2
 10
0.0
 20
0.0
 30
0.0
  3
overhead
  1

  0
ATTDEF
  5
43
330
42
100
AcDbEntity
  8
ASHADE
  6
Continuous
 62
     1
100
AcDbText
 10
0.0
 20
-0.1
 30
0.0
 40
0.2
  1

  7
ASHADE
 72
     1
 11
0.0
 21
-0.1
 31
0.0
100
AcDbAttributeDefinition
280
     0
  3
Light Name
  2
SNAME
 70
     0
280
     0
  0
ARC
  5
44
330
42
100
AcDbEntity
  8
ASHADE
  6
Continuous
 62
     7
100
AcDbCircle
 10
0.0
 20
0.0
 30
0.0
 40
0.3
100
AcDbArc
 50
205.6792886194569
 51
334.3207113805431
  0
LINE
  5
45
330
42
100
AcDbEntity
  8
ASHADE
  6
Continuous
 62
     7
100
AcDbLine
 10
-0.2041413561583015
 20
-0.2198324514393848
 30
0.0
 11
-0.2721884748777353
 21
-0.2931099352525131
 31
0.0
  0
LINE
  5
46
330
42
100
AcDbEntity
  8
ASHADE
  6
Continuous
 62
     7
100
AcDbLine
 10
-0.1096591641591904
 20
-0.2792398032442862
 30
0.0
 11
-0.1279356915190555
 21
-0.3257797704516673
 31
0.0
  0
LINE
  5
47
330
42
100
AcDbEntity
  8
ASHADE
  6
Continuous
 62
     7
100
AcDbLine
 10
0.0
 20
-0.2999999999999999
 30
0.0
 11
0.0
 21
-0.4
 31
0.0
  0
LINE
  5
48
330
42
100
AcDbEntity
  8
ASHADE
  6
Continuous
 62
     7
100
AcDbLine
 10
0.1096591641591904
 20
-0.2792398032442862
 30
0.0
 11
0.1279356915190555
 21
-0.3257797704516673
 31
0.0
  0
LINE
  5
49
330
42
100
AcDbEntity
  8
ASHADE
  6
Continuous
 62
     7
100
AcDbLine
 10
0.2041413561583015
 20
-0.2198324514393848
 30
0.0
 11
0.2721884748777353
 21
-0.2931099352525131
 31
0.0
  0
ARC
  5
4A
330
42
100
AcDbEntity
  8
ASHADE
  6
Continuous
 62
     7
100
AcDbCircle
 10
0.0
 20
0.0
 30
0.0
 40
0.3
100
AcDbArc
 50
25.67928861945685
 51
154.3207113805431
  0
LINE
  5
4B
330
42
100
AcDbEntity
  8
ASHADE
  6
Continuous
 62
     7
100
AcDbLine
 10
-0.2703701166919155
 20
0.13
 30
0.0
 11
-0.3154318028072347
 21
0.1516666666666666
 31
0.0
  0
LINE
  5
4C
330
42
100
AcDbEntity
  8
ASHADE
  6
Continuous
 62
     7
100
AcDbLine
 10
-0.2703701166919155
 20
-0.13
 30
0.0
 11
-0.3154318028072347
 21
-0.1516666666666666
 31
0.0
  0
LINE
  5
4D
330
42
100
AcDbEntity
  8
ASHADE
  6
Continuous
 62
     7
100
AcDbLine
 10
-0.2041413561583015
 20
0.2198324514393849
 30
0.0
 11
-0.2721884748777353
 21
0.2931099352525131
 31
0.0
  0
LINE
  5
4E
330
42
100
AcDbEntity
  8
ASHADE
  6
Continuous
 62
     7
100
AcDbLine
 10
-0.1096591641591904
 20
0.2792398032442862
 30
0.0
 11
-0.1279356915190555
 21
0.3257797704516674
 31
0.0
  0
LINE
  5
4F
330
42
100
AcDbEntity
  8
ASHADE
  6
Continuous
 62
     7
100
AcDbLine
 10
0.2703701166919155
 20
-0.13
 30
0.0
 11
0.3154318028072347
 21
-0.1516666666666666
 31
0.0
  0
LINE
  5
50
330
42
100
AcDbEntity
  8
ASHADE
  6
Continuous
 62
     7
100
AcDbLine
 10
0.2703701166919155
 20
0.13
 30
0.0
 11
0.3154318028072347
 21
0.1516666666666666
 31
0.0
  0
LINE
  5
51
330
42
100
AcDbEntity
  8
ASHADE
  6
Continuous
 62
     7
100
AcDbLine
 10
0.0
 20
0.3
 30
0.0
 11
0.0
 21
0.4
 31
0.0
  0
ATTDEF
  5
52
330
42
100
AcDbEntity
  8
ASHADE
  6
Continuous
 62
     7
100
AcDbText
 10
0.0
 20
0.22
 30
0.0
 40
0.01
  1
1
100
AcDbAttributeDefinition
280
     0
  3
Light Intensity
  2
INTENSITY
 70
     1
280
     0
  0
ATTDEF
  5
53
330
42
100
AcDbEntity
  8
ASHADE
  6
Continuous
 62
     7
100
AcDbText
 10
0.0
 20
0.16
 30
0.0
 40
0.01
  1
-1
100
AcDbAttributeDefinition
280
     0
  3
*not used*
  2
BEAMD
 70
     1
280
     0
  0
ATTDEF
  5
54
330
42
100
AcDbEntity
  8
ASHADE
  6
Continuous
 62
     7
100
AcDbText
 10
0.0
 20
0.175
 30
0.0
 40
0.01
  1
-1
100
AcDbAttributeDefinition
280
     0
  3
*not used*
  2
CONED
 70
     1
280
     0
  0
ATTDEF
  5
55
330
42
100
AcDbEntity
  8
ASHADE
  6
Continuous
 62
     7
100
AcDbText
 10
0.0
 20
0.19
 30
0.0
 40
0.01
  1
0
100
AcDbAttributeDefinition
280
     0
  3
Depth Map Size
  2
CONEA
 70
     1
280
     0
  0
ATTDEF
  5
56
330
42
100
AcDbEntity
  8
ASHADE
  6
Continuous
 62
     7
100
AcDbText
 10
0.0
 20
0.2050000000000001
 30
0.0
 40
0.01
  1
1,1,1
100
AcDbAttributeDefinition
280
     0
  3
Light Color (RGB)
  2
COLOR
 70
     1
280
     0
  0
ATTDEF
  5
57
330
42
100
AcDbEntity
  8
ASHADE
  6
Continuous
 62
     7
100
AcDbText
 10
0.0
 20
0.235
 30
0.0
 40
0.01
  1

100
AcDbAttributeDefinition
280
     0
  3
Look-at Z
  2
LAZ
 70
     1
280
     0
  0
ATTDEF
  5
58
330
42
100
AcDbEntity
  8
ASHADE
  6
Continuous
 62
     7
100
AcDbText
 10
0.0
 20
0.25
 30
0.0
 40
0.01
  1

100
AcDbAttributeDefinition
280
     0
  3
Look-at Y
  2
LAY
 70
     1
280
     0
  0
ATTDEF
  5
59
330
42
100
AcDbEntity
  8
ASHADE
  6
Continuous
 62
     7
100
AcDbText
 10
0.0
 20
0.265
 30
0.0
 40
0.01
  1

100
AcDbAttributeDefinition
280
     0
  3
Look-at X
  2
LAX
 70
     1
280
     0
  0
ATTDEF
  5
5A
330
42
100
AcDbEntity
  8
ASHADE
  6
Continuous
 62
     7
100
AcDbText
 10
0.0
 20
0.28
 30
0.0
 40
0.01
  1

100
AcDbAttributeDefinition
280
     0
  3

  2
GNAME
 70
     1
280
     0
  0
LINE
  5
5B
330
42
100
AcDbEntity
  8
ASHADE
  6
Continuous
 62
     7
100
AcDbLine
 10
0.1096591641591904
 20
0.2792398032442862
 30
0.0
 11
0.1279356915190555
 21
0.3257797704516674
 31
0.0
  0
LINE
  5
5C
330
42
100
AcDbEntity
  8
ASHADE
  6
Continuous
 62
     7
100
AcDbLine
 10
0.2041413561583015
 20
0.2198324514393849
 30
0.0
 11
0.2721884748777353
 21
0.2931099352525131
 31
0.0
  0
ENDBLK
  5
5E
330
42
100
AcDbEntity
  8
0
100
AcDbBlockEnd
  0
BLOCK
  5
85
330
5F
100
AcDbEntity
  8
0
100
AcDbBlockBegin
  2
sh_spot
 70
     2
 10
0.0
 20
0.0
 30
0.0
  3
sh_spot
  1

  0
LINE
  5
60
330
5F
100
AcDbEntity
  8
ASHADE
  6
Continuous
 62
     7
100
AcDbLine
 10
0.25
 20
0.26
 30
0.0
 11
-0.25
 21
0.26
 31
0.0
  0
LINE
  5
61
330
5F
100
AcDbEntity
  8
ASHADE
  6
Continuous
 62
     7
100
AcDbLine
 10
-0.25
 20
-0.3399999999999999
 30
0.0
 11
0.25
 21
-0.3399999999999999
 31
0.0
  0
ATTDEF
  5
62
330
5F
100
AcDbEntity
  8
ASHADE
  6
Continuous
 62
     1
100
AcDbText
 10
0.0
 20
-0.1
 30
0.0
 40
0.2
  1

  7
ASHADE
 72
     1
 11
0.0
 21
-0.1
 31
0.0
100
AcDbAttributeDefinition
280
     0
  3
Light Name
  2
SNAME
 70
     0
280
     0
  0
LINE
  5
63
330
5F
100
AcDbEntity
  8
ASHADE
  6
Continuous
 62
     7
100
AcDbLine
 10
-0.25
 20
-0.13
 30
0.0
 11
-0.25
 21
-0.3399999999999999
 31
0.0
  0
LINE
  5
64
330
5F
100
AcDbEntity
  8
ASHADE
  6
Continuous
 62
     7
100
AcDbLine
 10
-0.25
 20
-0.18
 30
0.0
 11
-0.29
 21
-0.18
 31
0.0
  0
LINE
  5
65
330
5F
100
AcDbEntity
  8
ASHADE
  6
Continuous
 62
     7
100
AcDbLine
 10
-0.29
 20
-0.22
 30
0.0
 11
-0.25
 21
-0.22
 31
0.0
  0
LINE
  5
66
330
5F
100
AcDbEntity
  8
ASHADE
  6
Continuous
 62
     7
100
AcDbLine
 10
-0.29
 20
-0.18
 30
0.0
 11
-0.29
 21
-0.22
 31
0.0
  0
LINE
  5
67
330
5F
100
AcDbEntity
  8
ASHADE
  6
Continuous
 62
     7
100
AcDbLine
 10
-0.1045454545454545
 20
0.26
 30
0.0
 11
-0.15
 21
0.46
 31
0.0
  0
LINE
  5
68
330
5F
100
AcDbEntity
  8
ASHADE
  6
Continuous
 62
     7
100
AcDbLine
 10
-0.21
 20
0.26
 30
0.0
 11
-0.301304347826087
 21
0.46
 31
0.0
  0
LINE
  5
69
330
5F
100
AcDbEntity
  8
ASHADE
  6
Continuous
 62
     7
100
AcDbLine
 10
-0.25
 20
0.26
 30
0.0
 11
-0.25
 21
0.13
 31
0.0
  0
LINE
  5
6A
330
5F
100
AcDbEntity
  8
ASHADE
  6
Continuous
 62
     7
100
AcDbLine
 10
-0.25
 20
0.22
 30
0.0
 11
-0.29
 21
0.22
 31
0.0
  0
LINE
  5
6B
330
5F
100
AcDbEntity
  8
ASHADE
  6
Continuous
 62
     7
100
AcDbLine
 10
-0.29
 20
0.1799999999999999
 30
0.0
 11
-0.25
 21
0.1799999999999999
 31
0.0
  0
LINE
  5
6C
330
5F
100
AcDbEntity
  8
ASHADE
  6
Continuous
 62
     7
100
AcDbLine
 10
-0.29
 20
0.22
 30
0.0
 11
-0.29
 21
0.1799999999999999
 31
0.0
  0
ATTDEF
  5
6D
330
5F
100
AcDbEntity
  8
ASHADE
  6
Continuous
 62
     7
100
AcDbText
 10
0.0
 20
-0.24
 30
0.0
 40
0.01
  1
0
100
AcDbAttributeDefinition
280
     0
  3
Depth Map Size
  2
ZSIZE
 70
     1
280
     0
  0
ATTDEF
  5
6E
330
5F
100
AcDbEntity
  8
ASHADE
  6
Continuous
 62
     7
100
AcDbText
 10
0.0
 20
-0.3300000000000001
 30
0.0
 40
0.01
  1
0,0,0
100
AcDbAttributeDefinition
280
     0
  3
Look-from XYZ
  2
LFXYZ
 70
     1
280
     0
  0
ATTDEF
  5
6F
330
5F
100
AcDbEntity
  8
ASHADE
  6
Continuous
 62
     7
100
AcDbText
 10
0.0
 20
-0.315
 30
0.0
 40
0.01
  1
0.0
100
AcDbAttributeDefinition
280
     0
  3
Beam Distribution
  2
BEAMDI
 70
     1
280
     0
  0
ATTDEF
  5
70
330
5F
100
AcDbEntity
  8
ASHADE
  6
Continuous
 62
     7
100
AcDbText
 10
0.0
 20
-0.3
 30
0.0
 40
0.01
  1
0.0
100
AcDbAttributeDefinition
280
     0
  3
Cone Delta
  2
CONEDE
 70
     1
280
     0
  0
ATTDEF
  5
71
330
5F
100
AcDbEntity
  8
ASHADE
  6
Continuous
 62
     7
100
AcDbText
 10
0.0
 20
-0.2850000000000001
 30
0.0
 40
0.01
  1
10.0
100
AcDbAttributeDefinition
280
     0
  3
Cone Angle
  2
CONEAN
 70
     1
280
     0
  0
ATTDEF
  5
72
330
5F
100
AcDbEntity
  8
ASHADE
  6
Continuous
 62
     7
100
AcDbText
 10
0.0
 20
-0.27
 30
0.0
 40
0.01
  1
-1
100
AcDbAttributeDefinition
280
     0
  3
*not used*
  2
BIASMAX
 70
     1
280
     0
  0
ATTDEF
  5
73
330
5F
100
AcDbEntity
  8
ASHADE
  6
Continuous
 62
     7
100
AcDbText
 10
0.0
 20
-0.255
 30
0.0
 40
0.01
  1
-1
100
AcDbAttributeDefinition
280
     0
  3
*not used*
  2
BIASMIN
 70
     1
280
     0
  0
ATTDEF
  5
74
330
5F
100
AcDbEntity
  8
ASHADE
  6
Continuous
 62
     7
100
AcDbText
 10
0.0
 20
-0.225
 30
0.0
 40
0.01
  1
1,1,1
100
AcDbAttributeDefinition
280
     0
  3
Light Color (RGB)
  2
COLOR
 70
     1
280
     0
  0
ATTDEF
  5
75
330
5F
100
AcDbEntity
  8
ASHADE
  6
Continuous
 62
     7
100
AcDbText
 10
0.0
 20
-0.21
 30
0.0
 40
0.01
  1
1
100
AcDbAttributeDefinition
280
     0
  3
Light Intensity
  2
INTENSITY
 70
     1
280
     0
  0
ATTDEF
  5
76
330
5F
100
AcDbEntity
  8
ASHADE
  6
Continuous
 62
     7
100
AcDbText
 10
0.0
 20
-0.15
 30
0.0
 40
0.01
  1

100
AcDbAttributeDefinition
280
     0
  3

  2
GNAME
 70
     1
280
     0
  0
ATTDEF
  5
77
330
5F
100
AcDbEntity
  8
ASHADE
  6
Continuous
 62
     7
100
AcDbText
 10
0.0
 20
-0.195
 30
0.0
 40
0.01
  1

100
AcDbAttributeDefinition
280
     0
  3
Look-at Z
  2
LAZ
 70
     1
280
     0
  0
ATTDEF
  5
78
330
5F
100
AcDbEntity
  8
ASHADE
  6
Continuous
 62
     7
100
AcDbText
 10
0.0
 20
-0.18
 30
0.0
 40
0.01
  1

100
AcDbAttributeDefinition
280
     0
  3
Look-at Y
  2
LAY
 70
     1
280
     0
  0
ATTDEF
  5
79
330
5F
100
AcDbEntity
  8
ASHADE
  6
Continuous
 62
     7
100
AcDbText
 10
0.0
 20
-0.165
 30
0.0
 40
0.01
  1

100
AcDbAttributeDefinition
280
     0
  3
Look-at X
  2
LAX
 70
     1
280
     0
  0
LINE
  5
7A
330
5F
100
AcDbEntity
  8
ASHADE
  6
Continuous
 62
     7
100
AcDbLine
 10
0.25
 20
-0.3399999999999999
 30
0.0
 11
0.25
 21
-0.13
 31
0.0
  0
LINE
  5
7B
330
5F
100
AcDbEntity
  8
ASHADE
  6
Continuous
 62
     7
100
AcDbLine
 10
0.25
 20
-0.18
 30
0.0
 11
0.29
 21
-0.18
 31
0.0
  0
LINE
  5
7C
330
5F
100
AcDbEntity
  8
ASHADE
  6
Continuous
 62
     7
100
AcDbLine
 10
0.29
 20
-0.22
 30
0.0
 11
0.25
 21
-0.22
 31
0.0
  0
LINE
  5
7D
330
5F
100
AcDbEntity
  8
ASHADE
  6
Continuous
 62
     7
100
AcDbLine
 10
0.29
 20
-0.18
 30
0.0
 11
0.29
 21
-0.22
 31
0.0
  0
LINE
  5
7E
330
5F
100
AcDbEntity
  8
ASHADE
  6
Continuous
 62
     7
100
AcDbLine
 10
0.21
 20
0.26
 30
0.0
 11
0.301304347826087
 21
0.46
 31
0.0
  0
LINE
  5
7F
330
5F
100
AcDbEntity
  8
ASHADE
  6
Continuous
 62
     7
100
AcDbLine
 10
0.1045454545454545
 20
0.26
 30
0.0
 11
0.15
 21
0.46
 31
0.0
  0
LINE
  5
80
330
5F
100
AcDbEntity
  8
ASHADE
  6
Continuous
 62
     7
100
AcDbLine
 10
0.0
 20
0.26
 30
0.0
 11
0.0
 21
0.46
 31
0.0
  0
LINE
  5
81
330
5F
100
AcDbEntity
  8
ASHADE
  6
Continuous
 62
     7
100
AcDbLine
 10
0.25
 20
0.13
 30
0.0
 11
0.25
 21
0.26
 31
0.0
  0
LINE
  5
82
330
5F
100
AcDbEntity
  8
ASHADE
  6
Continuous
 62
     7
100
AcDbLine
 10
0.25
 20
0.22
 30
0.0
 11
0.29
 21
0.22
 31
0.0
  0
LINE
  5
83
330
5F
100
AcDbEntity
  8
ASHADE
  6
Continuous
 62
     7
100
AcDbLine
 10
0.29
 20
0.1799999999999999
 30
0.0
 11
0.25
 21
0.1799999999999999
 31
0.0
  0
LINE
  5
84
330
5F
100
AcDbEntity
  8
ASHADE
  6
Continuous
 62
     7
100
AcDbLine
 10
0.29
 20
0.22
 30
0.0
 11
0.29
 21
0.1799999999999999
 31
0.0
  0
ENDBLK
  5
86
330
5F
100
AcDbEntity
  8
0
100
AcDbBlockEnd
  0
BLOCK
  5
92
330
91
100
AcDbEntity
  8
ASHADE
100
AcDbBlockBegin
  2
AVE_RENDER
 70
     0
 10
0.0
 20
0.0
 30
0.0
  3
AVE_RENDER
  1
AVE_RENDER
  0
ENDBLK
  5
93
330
91
100
AcDbEntity
  8
0
100
AcDbBlockEnd
  0
BLOCK
  5
A0
330
9F
100
AcDbEntity
  8
ASHADE
100
AcDbBlockBegin
  2
AVE_GLOBAL
 70
     0
 10
0.0
 20
0.0
 30
0.0
  3
AVE_GLOBAL
  1
AVE_GLOBAL
  0
ENDBLK
  5
A1
330
9F
100
AcDbEntity
  8
0
100
AcDbBlockEnd
  0
ENDSEC
  0
SECTION
  2
ENTITIES
  0
INSERT
  5
94
330
1F
100
AcDbEntity
  8
ASHADE
 62
     1
100
AcDbBlockReference
  2
AVE_RENDER
 10
0.0
 20
0.0
 30
0.0
1001
AVE_RENDER
1002
{
1070
     7
1000
Pref
1070
    30
1070
    20
1070
     1
1070
     0
1000

1070
    10
1070
     1
1070
    10
1040
1.0
1070
     1
1040
0.3
1040
0.7
1040
0.0
1040
10.0
1010
-1.0
1020
-1.0
1030
-1.0
1040
0.3
1070
    49
1070
     0
1070
     0
1010
1.0
1020
1.0
1030
1.0
1040
45.0
1070
     1
1070
     0
1000
WCS
1040
0.0
1070
     0
1040
10.0
1002
}
  0
INSERT
  5
95
330
1F
100
AcDbEntity
  8
ASHADE
 62
     3
100
AcDbBlockReference
  2
AVE_RENDER
 10
0.0
 20
0.0
 30
0.0
1001
AVE_RENDER
1002
{
1070
     0
1000
Full Opt
1070
     0
1070
     1
1070
     1
1070
     1
1070
     0
1070
     0
1070
     0
1070
     1
1070
     1
1040
0.0001
1040
0.0001
1002
}
  0
INSERT
  5
96
330
1F
100
AcDbEntity
  8
ASHADE
 62
     4
100
AcDbBlockReference
  2
AVE_RENDER
 10
0.0
 20
0.0
 30
0.0
1001
AVE_RENDER
1002
{
1070
     0
1000
Quick Opt
1070
     0
1070
     1
1070
     1
1070
     1
1070
     0
1070
     0
1070
     1
1002
}
  0
INSERT
  5
97
330
1F
100
AcDbEntity
  8
ASHADE
 62
     5
100
AcDbBlockReference
  2
AVE_RENDER
 10
0.0
 20
0.0
 30
0.0
1001
AVE_RENDER
1002
{
1070
     1
1000
Scanl Opt
1070
     2
1070
     0
1070
     2
1040
2.0
1040
4.0
1070
     0
1070
     1
1070
     0
1040
0.03
1002
}
  0
INSERT
  5
98
330
1F
100
AcDbEntity
  8
ASHADE
 62
     6
100
AcDbBlockReference
  2
AVE_RENDER
 10
0.0
 20
0.0
 30
0.0
1001
AVE_RENDER
1002
{
1070
     2
1000
Raytr Opt
1070
     2
1070
     0
1070
     2
1040
2.0
1040
4.0
1070
     0
1070
     1
1070
     1
1040
0.03
1070
     3
1040
0.03
1002
}
  0
INSERT
  5
99
330
1F
100
AcDbEntity
  8
ASHADE
 62
     7
100
AcDbBlockReference
  2
AVE_RENDER
 10
0.0
 20
0.0
 30
0.0
1001
AVE_RENDER
1002
{
1070
     0
1000
RFile Opt
1070
     1
1070
   640
1070
   480
1070
 10000
1070
     1
1070
     8
1070
     8
1070
     0
1070
     0
1070
     0
1070
     0
1070
     0
1070
     0
1070
     0
1002
}
  0
INSERT
  5
9A
330
1F
100
AcDbEntity
  8
ASHADE
 62
     8
100
AcDbBlockReference
  2
AVE_RENDER
 10
0.0
 20
0.0
 30
0.0
1001
AVE_RENDER
1002
{
1070
     0
1000
Fog Opt
1070
     0
1070
     0
1040
0.0
1040
1.0
1040
0.0
1040
1.0
1010
0.5
1020
0.5
1030
0.5
1002
}
  0
INSERT
  5
9B
330
1F
100
AcDbEntity
  8
ASHADE
 62
     9
100
AcDbBlockReference
  2
AVE_RENDER
 10
0.0
 20
0.0
 30
0.0
1001
AVE_RENDER
1002
{
1070
     0
1000
BG Opt
1070
     0
1070
     1
1010
0.0
1020
0.0
1030
0.0
1010
1.0
1020
0.0
1030
0.0
1010
0.0
1020
1.0
1030
0.0
1010
0.0
1020
0.0
1030
1.0
1040
0.5
1040
0.33
1040
0.0
1000

1070
     1
1000

1070
     1
1070
     1
1040
1.0
1040
1.0
1040
0.0
1040
0.0
1070
     0
1002
}
  0
INSERT
  5
A2
330
1F
100
AcDbEntity
  8
ASHADE
 62
     1
100
AcDbBlockReference
  2
AVE_GLOBAL
 10
0.0
 20
0.0
 30
0.0
1001
AVE_MATERIAL
1002
{
1000
*GLOBAL*
1000
2
1000
Global finish.
1002
{
1002
}
1002
{
1070
    63
1002
{
1002
{
1010
-1.0
1020
-1.0
1030
-1.0
1002
}
1040
0.1000000014901161
1000

1040
0.0
1002
{
1002
}
1040
0.0
1002
{
1002
}
1040
0.0
1002
}
1002
{
1002
{
1010
-1.0
1020
-1.0
1030
-1.0
1002
}
1040
0.6999999880790711
1000

1040
0.0
1002
{
1002
}
1040
0.0
1002
{
1002
}
1040
0.0
1002
}
1002
{
1002
{
1010
-1.0
1020
-1.0
1030
-1.0
1002
}
1040
0.2000000029802322
1000

1040
0.0
1002
{
1002
}
1040
0.0
1002
{
1002
}
1040
0.0
1002
}
1002
{
1070
     0
1002
{
1070
     1
1002
{
1040
1.0
1040
1.0
1000

1040
0.0
1002
{
1002
}
1040
0.0
1002
{
1002
}
1040
0.0
1002
}
1002
}
1040
1.0
1040
0.0
1040
0.0
1002
}
1002
{
1040
1.0
1040
1.0
1000

1040
0.0
1002
{
1002
}
1040
0.0
1002
{
1002
}
1040
0.0
1002
}
1002
{
1040
0.5
1040
1.0
1000

1040
0.0
1002
{
1002
}
1040
0.0
1002
{
1002
}
1040
0.0
1002
}
1002
{
1070
     0
1040
0.0
1002
{
1002
}
1040
1.0
1002
{
1002
}
1040
0.0
1002
}
1002
{
1040
0.0
1002
{
1002
{
1010
0.0
1020
0.0
1030
0.0
1002
}
1040
1.0
1000

1040
0.0
1002
{
1002
}
1040
0.0
1002
{
1002
}
1040
0.0
1002
}
1002
}
1002
{
1002
{
1070
     1
1002
{
1040
0.0
1040
1.0
1000

1040
0.0
1002
{
1002
}
1040
0.0
1002
{
1002
}
1040
0.0
1002
}
1002
}
1040
0.0
1002
{
1002
}
1010
1.0
1020
0.0
1030
0.0
1010
0.0
1020
1.0
1030
0.0
1010
0.0
1020
0.0
1030
1.0
1070
     0
1002
}
1002
{
1002
{
1040
1.0
1040
1.0
1002
{
1070
     1
1002
{
1040
1.0
1040
1.0
1000

1040
0.0
1002
{
1002
}
1040
0.0
1002
{
1002
}
1040
0.0
1002
}
1002
}
1002
}
1070
     0
1040
0.0
1002
{
1002
}
1002
}
1002
{
1002
}
1002
}
1002
{
1071
        3
1070
     3
1070
     0
1002
{
1070
     2
1070
     0
1070
     0
1040
0.0
1002
}
1070
     0
1070
     2
1002
{
1002
}
1002
}
1002
{
1040
8030.0
1040
190.3000030517578
1040
0.3050000071525574
1040
228.0
1040
545.0
1040
14.0
1040
17.39999961853027
1040
0.4560000002384186
1002
}
1002
}
  0
MESH
  5
F9
330
1F
100
AcDbEntity
  8
OracDecor_panel_moldings
 62
    33
420
 14782295
160
             27800
310
986C0000040300000C00000013000000020000003C0000000600000002000000000000C000408FC0000000E0C297D03E000000A021C05240000000C000408FC000000060C20810C0000000A021C052400C000000130000000A0000003C0000000600000002000000000000C000408FC000000060C20810C0000000A021C052
310
4000000060FE3F8F4000000060C20810C0000000201FC052400C00000013000000120000003C000000060000000200000000000060FE3F8F4000000060C20810C0000000201FC0524000000060FE3F8F40000000E0C297D03E000000201FC052400C000000130000001A0000003C0000000600000002000000000000C00040
310
8FC0000000E0C297D03E000000A021C0524000000060FE3F8F40000000E0C297D03E000000201FC052400C00000013000000220000003C0000000600000002000000000000C000408FC000000060C20810C0000000A021C05240000000C000408FC000000040509510C000000040A3BC52400C000000130000002A0000003C
310
0000000600000002000000000000C000408FC000000040509510C000000040A3BC524000000060FE3F8F4000000040509510C0000000C0A0BC52400C00000013000000320000003C000000060000000200000000000060FE3F8F4000000060C20810C0000000201FC0524000000060FE3F8F4000000040509510C0000000C0
310
A0BC52400C000000130000003A0000003C0000000600000002000000000000C000408FC0000000C037D510C0000000A011B45240000000C000408FC000000040509510C000000040A3BC52400C00000013000000420000003C0000000600000002000000000000C000408FC0000000C037D510C0000000A011B45240000000
310
60FE3F8F40000000C037D510C0000000200FB452400C000000130000004A0000003C000000060000000200000000000060FE3F8F40000000C037D510C0000000200FB4524000000060FE3F8F4000000040509510C0000000C0A0BC52400C00000013000000520000003C0000000600000002000000000000C000408FC00000
310
00C037D510C0000000A011B45240000000C000408FC000000000D92211C0000000E0D18452400C000000130000005A0000003C0000000600000002000000000000C000408FC000000000D92211C0000000E0D184524000000060FE3F8F4000000000D92211C000000080CF8452400C00000013000000620000003C00000006
310
0000000200000000000060FE3F8F4000000000D92211C000000080CF84524000000060FE3F8F40000000C037D510C0000000200FB452400C000000130000006A0000003C0000000600000002000000000000C000408FC000000000D92211C0000000E0D1845240000000C000408FC000000080D8DB11C000000080CC465240
310
0C00000013000000720000003C0000000600000002000000000000C000408FC000000080D8DB11C000000080CC46524000000060FE3F8F4000000080D8DB11C000000020CA4652400C000000130000007A0000003C000000060000000200000000000060FE3F8F4000000080D8DB11C000000020CA46524000000060FE3F8F
310
4000000000D92211C000000080CF8452400C00000013000000820000003C0000000600000002000000000000C000408FC000000080D8DB11C000000080CC465240000000C000408FC000000000C64313C0000000C0B4F651400C000000130000008A0000003C0000000600000002000000000000C000408FC000000000C643
310
13C0000000C0B4F6514000000060FE3F8F4000000000C64313C000000060B2F651400C00000013000000920000003C000000060000000200000000000060FE3F8F4000000000C64313C000000060B2F6514000000060FE3F8F4000000080D8DB11C000000020CA4652400C000000130000009A0000003C0000000600000002
310
000000000000C000408FC000000000C64313C0000000C0B4F65140000000C000408FC0000000C0CD4615C0000000A01EA551400C00000013000000A20000003C0000000600000002000000000000C000408FC0000000C0CD4615C0000000A01EA5514000000060FE3F8F40000000C0CD4615C0000000401CA551400C000000
310
13000000AA0000003C000000060000000200000000000060FE3F8F40000000C0CD4615C0000000401CA5514000000060FE3F8F4000000000C64313C000000060B2F651400C00000013000000B20000003C0000000600000002000000000000C000408FC0000000C0CD4615C0000000A01EA55140000000C000408FC0000000
310
80439817C000000040C75E51400C00000013000000BA0000003C0000000600000002000000000000C000408FC000000080439817C000000040C75E514000000060FE3F8F4000000080439817C0000000E0C45E51400C00000013000000C20000003C000000060000000200000000000060FE3F8F4000000080439817C00000
310
00E0C45E514000000060FE3F8F40000000C0CD4615C0000000401CA551400C00000013000000CA0000003C0000000600000002000000000000C000408FC000000080439817C000000040C75E5140000000C000408FC0000000809FBC1BC000000080910551400C00000013000000D20000003C000000060000000200000000
310
0000C000408FC0000000809FBC1BC0000000809105514000000060FE3F8F40000000809FBC1BC0000000208F0551400C00000013000000DA0000003C000000060000000200000000000060FE3F8F40000000809FBC1BC0000000208F05514000000060FE3F8F4000000080439817C0000000E0C45E51400C00000013000000
310
E20000003C0000000600000002000000000000C000408FC0000000809FBC1BC00000008091055140000000C000408FC000000000856D20C0000000E0E7BC50400C00000013000000EA0000003C0000000600000002000000000000C000408FC000000000856D20C0000000E0E7BC504000000060FE3F8F4000000000856D20
310
C000000060E5BC50400C00000013000000F20000003C000000060000000200000000000060FE3F8F4000000000856D20C000000060E5BC504000000060FE3F8F40000000809FBC1BC0000000208F0551400C00000013000000FA0000003C0000000600000002000000000000C000408FC000000000856D20C0000000E0E7BC
310
5040000000C000408FC0000000808B9A22C000000000A99450400C00000013000000020100003C0000000600000002000000000000C000408FC0000000808B9A22C000000000A994504000000060FE3F8F40000000808B9A22C000000080A69450400C000000130000000A0100003C000000060000000200000000000060FE
310
3F8F40000000808B9A22C000000080A694504000000060FE3F8F4000000000856D20C000000060E5BC50400C00000013000000120100003C0000000600000002000000000000C000408FC0000000808B9A22C000000000A9945040000000C000408FC0000000809B2724C000000040628250400C000000130000001A010000
310
3C0000000600000002000000000000C000408FC0000000809B2724C0000000406282504000000060FE3F8F40000000809B2724C0000000C05F8250400C00000013000000220100003C000000060000000200000000000060FE3F8F40000000809B2724C0000000C05F82504000000060FE3F8F40000000808B9A22C0000000
310
80A69450400C000000130000002A0100003C0000000600000002000000000000C000408FC0000000809B2724C00000004062825040000000C000408FC0000000C0F15724C0000000C0797E50400C00000013000000320100003C0000000600000002000000000000C000408FC0000000C0F15724C0000000C0797E50400000
310
0060FE3F8F40000000C0F15724C000000060777E50400C000000130000003A0100003C000000060000000200000000000060FE3F8F40000000C0F15724C000000060777E504000000060FE3F8F40000000809B2724C0000000C05F8250400C00000013000000420100003C0000000600000002000000000000C000408FC000
310
0000C0F15724C0000000C0797E5040000000C000408FC000000080C66F24C000000000ED7750400C000000130000004A0100003C0000000600000002000000000000C000408FC000000080C66F24C000000000ED77504000000060FE3F8F4000000080C66F24C000000080EA7750400C00000013000000520100003C000000
310
060000000200000000000060FE3F8F4000000080C66F24C000000080EA77504000000060FE3F8F40000000C0F15724C000000060777E50400C000000130000005A0100003C0000000600000002000000000000C000408FC000000080C66F24C000000000ED775040000000C000408FC0000000A07C5D25C000000080DB4F4F
310
400C00000013000000620100003C0000000600000002000000000000C000408FC0000000A07C5D25C000000080DB4F4F4000000060FE3F8F40000000A07C5D25C000000080D64F4F400C000000130000006A0100003C000000060000000200000000000060FE3F8F40000000A07C5D25C000000080D64F4F4000000060FE3F
310
8F4000000080C66F24C000000080EA7750400C00000013000000720100003C0000000600000002000000000000C000408FC0000000A07C5D25C000000080DB4F4F40000000C000408FC0000000E0FA7325C00000000027434F400C000000130000007A0100003C0000000600000002000000000000C000408FC0000000E0FA
310
7325C00000000027434F4000000060FE3F8F40000000E0FA7325C00000002022434F400C00000013000000820100003C000000060000000200000000000060FE3F8F40000000E0FA7325C00000002022434F4000000060FE3F8F40000000A07C5D25C000000080D64F4F400C000000130000008A0100003C00000006000000
310
02000000000000C000408FC0000000E0FA7325C00000000027434F40000000C000408FC000000060B4A125C000000080413B4F400C00000013000000920100003C0000000600000002000000000000C000408FC000000060B4A125C000000080413B4F4000000060FE3F8F4000000060B4A125C0000000A03C3B4F400C0000
310
00130000009A0100003C000000060000000200000000000060FE3F8F4000000060B4A125C0000000A03C3B4F4000000060FE3F8F40000000E0FA7325C00000002022434F400C00000013000000A20100003C0000000600000002000000000000C000408FC000000060B4A125C000000080413B4F40000000C000408FC00000
310
0040304528C0000000C063F84E400C00000013000000AA0100003C0000000600000002000000000000C000408FC000000040304528C0000000C063F84E4000000060FE3F8F4000000040304528C0000000E05EF84E400C00000013000000B20100003C000000060000000200000000000060FE3F8F4000000040304528C000
310
0000E05EF84E4000000060FE3F8F4000000060B4A125C0000000A03C3B4F400C00000013000000BA0100003C0000000600000002000000000000C000408FC000000040304528C0000000C063F84E40000000C000408FC00000006088312DC0000000C069444E400C00000013000000C20100003C0000000600000002000000
310
000000C000408FC00000006088312DC0000000C069444E4000000060FE3F8F400000006088312DC0000000E064444E400C00000013000000CA0100003C000000060000000200000000000060FE3F8F400000006088312DC0000000E064444E4000000060FE3F8F4000000040304528C0000000E05EF84E400C000000130000
310
00D20100003C0000000600000002000000000000C000408FC00000006088312DC0000000C069444E40000000C000408FC000000080FCBF30C0000000E05A584D400C00000013000000DA0100003C0000000600000002000000000000C000408FC000000080FCBF30C0000000E05A584D4000000060FE3F8F4000000080FCBF
310
30C00000000056584D400C00000013000000E20100003C000000060000000200000000000060FE3F8F4000000080FCBF30C00000000056584D4000000060FE3F8F400000006088312DC0000000E064444E400C00000013000000EA0100003C0000000600000002000000000000C000408FC000000080FCBF30C0000000E05A
310
584D40000000C000408FC000000040828432C0000000C0AB3C4C400C00000013000000F20100003C0000000600000002000000000000C000408FC000000040828432C0000000C0AB3C4C4000000060FE3F8F4000000040828432C0000000C0A63C4C400C00000013000000FA0100003C000000060000000200000000000060
310
FE3F8F4000000040828432C0000000C0A63C4C4000000060FE3F8F4000000080FCBF30C00000000056584D400C00000013000000020200003C0000000600000002000000000000C000408FC000000040828432C0000000C0AB3C4C40000000C000408FC0000000C067BB33C000000000C4154B400C000000130000000A0200
310
003C0000000600000002000000000000C000408FC0000000C067BB33C000000000C4154B4000000060FE3F8F40000000C067BB33C000000020BF154B400C00000013000000120200003C000000060000000200000000000060FE3F8F40000000C067BB33C000000020BF154B4000000060FE3F8F4000000040828432C00000
310
00C0A63C4C400C000000130000001A0200003C0000000600000002000000000000C000408FC0000000C067BB33C000000000C4154B40000000C000408FC0000000802E5C34C000000080C2F049400C00000013000000220200003C0000000600000002000000000000C000408FC0000000802E5C34C000000080C2F0494000
310
000060FE3F8F40000000802E5C34C0000000A0BDF049400C000000130000002A0200003C000000060000000200000000000060FE3F8F40000000802E5C34C0000000A0BDF0494000000060FE3F8F40000000C067BB33C000000020BF154B400C00000013000000320200003C0000000600000002000000000000C000408FC0
310
000000802E5C34C000000080C2F04940000000C000408FC0000000407F7B34C0000000C053C148400C000000130000003A0200003C0000000600000002000000000000C000408FC0000000407F7B34C0000000C053C1484000000060FE3F8F40000000407F7B34C0000000E04EC148400C00000013000000420200003C0000
310
00060000000200000000000060FE3F8F40000000407F7B34C0000000E04EC1484000000060FE3F8F40000000802E5C34C0000000A0BDF049400C000000130000004A0200003C0000000600000002000000000000C000408FC0000000407F7B34C0000000C053C14840000000C000408FC000000080E21734C0000000209795
310
47400C00000013000000520200003C0000000600000002000000000000C000408FC000000080E21734C0000000209795474000000060FE3F8F4000000080E21734C000000040929547400C000000130000005A0200003C000000060000000200000000000060FE3F8F4000000080E21734C0000000409295474000000060FE
310
3F8F40000000407F7B34C0000000E04EC148400C00000013000000620200003C0000000600000002000000000000C000408FC000000080E21734C00000002097954740000000C000408FC0000000A0FE3533C000000020887B46400C000000130000006A0200003C0000000600000002000000000000C000408FC0000000A0
310
FE3533C000000020887B464000000060FE3F8F40000000A0FE3533C000000040837B46400C00000013000000720200003C000000060000000200000000000060FE3F8F40000000A0FE3533C000000040837B464000000060FE3F8F4000000080E21734C000000040929547400C000000130000007A0200003C000000060000
310
0002000000000000C000408FC0000000A0FE3533C000000020887B4640000000C000408FC0000000E054E031C000000020438045400C00000013000000820200003C0000000600000002000000000000C000408FC0000000E054E031C0000000204380454000000060FE3F8F40000000E054E031C0000000403E8045400C00
310
0000130000008A0200003C000000060000000200000000000060FE3F8F40000000E054E031C0000000403E80454000000060FE3F8F40000000A0FE3533C000000040837B46400C00000013000000920200003C0000000600000002000000000000C000408FC0000000E054E031C00000002043804540000000C000408FC000
310
0000A0284330C000000060DB9B44400C000000130000009A0200003C0000000600000002000000000000C000408FC0000000A0284330C000000060DB9B444000000060FE3F8F40000000A0284330C000000080D69B44400C00000013000000A20200003C000000060000000200000000000060FE3F8F40000000A0284330C0
310
00000080D69B444000000060FE3F8F40000000E054E031C0000000403E8045400C00000013000000AA0200003C0000000600000002000000000000C000408FC0000000A0284330C000000060DB9B4440000000C000408FC00000008089162DC00000000049C443400C00000013000000B20200003C00000006000000020000
310
00000000C000408FC00000008089162DC00000000049C4434000000060FE3F8F400000008089162DC00000004044C443400C00000013000000BA0200003C000000060000000200000000000060FE3F8F400000008089162DC00000004044C4434000000060FE3F8F40000000A0284330C000000080D69B44400C0000001300
310
0000C20200003C0000000600000002000000000000C000408FC00000008089162DC00000000049C44340000000C000408FC0000000E0807429C0000000E053FA42400C00000013000000CA0200003C0000000600000002000000000000C000408FC0000000E0807429C0000000E053FA424000000060FE3F8F40000000E080
310
7429C0000000004FFA42400C00000013000000D20200003C000000060000000200000000000060FE3F8F40000000E0807429C0000000004FFA424000000060FE3F8F400000008089162DC00000004044C443400C00000013000000DA0200003C0000000600000002000000000000C000408FC0000000E0807429C0000000E0
310
53FA4240000000C000408FC0000000A095A325C0000000E0B63E42400C00000013000000E20200003C0000000600000002000000000000C000408FC0000000A095A325C0000000E0B63E424000000060FE3F8F40000000A095A325C000000000B23E42400C00000013000000EA0200003C0000000600000002000000000000
310
60FE3F8F40000000A095A325C000000000B23E424000000060FE3F8F40000000E0807429C0000000004FFA42400C00000013000000F20200003C0000000600000002000000000000C000408FC0000000A095A325C0000000E0B63E4240000000C000408FC0000000E0C48322C0000000C0A38041400C00000013000000FA02
310
00003C0000000600000002000000000000C000408FC0000000E0C48322C0000000C0A380414000000060FE3F8F40000000E0C48322C0000000E09E8041400C00000013000000020300003C000000060000000200000000000060FE3F8F40000000E0C48322C0000000E09E80414000000060FE3F8F40000000A095A325C000
310
000000B23E42400C000000130000000A0300003C0000000600000002000000000000C000408FC0000000E0C48322C0000000C0A3804140000000C000408FC000000060EF4B20C000000020139440400C00000013000000120300003C0000000600000002000000000000C000408FC000000060EF4B20C00000002013944040
310
00000060FE3F8F4000000060EF4B20C0000000400E9440400C000000130000001A0300003C000000060000000200000000000060FE3F8F4000000060EF4B20C0000000400E94404000000060FE3F8F40000000E0C48322C0000000E09E8041400C00000013000000220300003C0000000600000002000000000000C000408F
310
C000000060EF4B20C00000002013944040000000C000408FC00000002054251EC000000080768A3E400C000000130000002A0300003C0000000600000002000000000000C000408FC00000002054251EC000000080768A3E4000000060FE3F8F400000002054251EC0000000C06C8A3E400C00000013000000320300003C00
310
0000060000000200000000000060FE3F8F400000002054251EC0000000C06C8A3E4000000060FE3F8F4000000060EF4B20C0000000400E9440400C000000130000003A0300003C0000000600000002000000000000C000408FC00000002054251EC000000080768A3E40000000C000408FC0000000A0AE231EC0000000C0C7
310
9539400C00000013000000420300003C0000000600000002000000000000C000408FC0000000A0AE231EC0000000C0C795394000000060FE3F8F40000000A0AE231EC000000000BE9539400C000000130000004A0300003C000000060000000200000000000060FE3F8F40000000A0AE231EC000000000BE95394000000060
310
FE3F8F400000002054251EC0000000C06C8A3E400C00000013000000520300003C0000000600000002000000000000C000408FC0000000A0AE231EC0000000C0C7953940000000C000408FC0000000A071CC1FC000000080D04437400C000000130000005A0300003C0000000600000002000000000000C000408FC0000000
310
A071CC1FC000000080D044374000000060FE3F8F40000000A071CC1FC000000080C64437400C00000013000000620300003C000000060000000200000000000060FE3F8F40000000A071CC1FC000000080C644374000000060FE3F8F40000000A0AE231EC000000000BE9539400C000000130000006A0300003C0000000600
310
000002000000000000C000408FC0000000A071CC1FC000000080D0443740000000C000408FC0000000A04DCA21C0000000402E1D35400C00000013000000720300003C0000000600000002000000000000C000408FC0000000A04DCA21C0000000402E1D354000000060FE3F8F40000000A04DCA21C000000080241D35400C
310
000000130000007A0300003C000000060000000200000000000060FE3F8F40000000A04DCA21C000000080241D354000000060FE3F8F40000000A071CC1FC000000080C64437400C00000013000000820300003C0000000600000002000000000000C000408FC0000000A04DCA21C0000000402E1D3540000000C000408FC0
310
0000004030D123C0000000C046AA33400C000000130000008A0300003C0000000600000002000000000000C000408FC00000004030D123C0000000C046AA334000000060FE3F8F400000004030D123C0000000003DAA33400C00000013000000920300003C000000060000000200000000000060FE3F8F400000004030D123
310
C0000000003DAA334000000060FE3F8F40000000A04DCA21C000000080241D35400C000000130000009A0300003C0000000600000002000000000000C000408FC00000004030D123C0000000C046AA3340000000C000408FC00000006059E923C0000000C0048E33400C00000013000000A20300003C000000060000000200
310
0000000000C000408FC00000006059E923C0000000C0048E334000000060FE3F8F400000006059E923C000000000FB8D33400C00000013000000AA0300003C000000060000000200000000000060FE3F8F400000006059E923C000000000FB8D334000000060FE3F8F400000004030D123C0000000003DAA33400C00000013
310
000000B20300003C0000000600000002000000000000C000408FC00000006059E923C0000000C0048E3340000000C000408FC000000000CCDC23C0000000C0EE6F33400C00000013000000BA0300003C0000000600000002000000000000C000408FC000000000CCDC23C0000000C0EE6F334000000060FE3F8F4000000000
310
CCDC23C000000000E56F33400C00000013000000C20300003C000000060000000200000000000060FE3F8F4000000000CCDC23C000000000E56F334000000060FE3F8F400000006059E923C000000000FB8D33400C00000013000000CA0300003C0000000600000002000000000000C000408FC000000000CCDC23C0000000
310
C0EE6F3340000000C000408FC000000000745B21C0000000404E3331400C00000013000000D20300003C0000000600000002000000000000C000408FC000000000745B21C0000000404E33314000000060FE3F8F4000000000745B21C000000080443331400C00000013000000DA0300003C00000006000000020000000000
310
0060FE3F8F4000000000745B21C0000000804433314000000060FE3F8F4000000000CCDC23C000000000E56F33400C00000013000000E20300003C0000000600000002000000000000C000408FC000000000745B21C0000000404E333140000000C000408FC000000020C54F21C000000040F91131400C00000013000000EA
310
0300003C0000000600000002000000000000C000408FC000000020C54F21C000000040F911314000000060FE3F8F4000000020C54F21C000000080EF1131400C00000013000000F20300003C000000060000000200000000000060FE3F8F4000000020C54F21C000000080EF11314000000060FE3F8F4000000000745B21C0
310
00000080443331400C00000013000000FA0300003C0000000600000002000000000000C000408FC000000020C54F21C000000040F9113140000000C000408FC000000000357021C0000000C045F430400C00000013000000020400003C0000000600000002000000000000C000408FC000000000357021C0000000C045F430
310
4000000060FE3F8F4000000000357021C0000000003CF430400C000000130000000A0400003C000000060000000200000000000060FE3F8F4000000000357021C0000000003CF4304000000060FE3F8F4000000020C54F21C000000080EF1131400C00000013000000120400003C0000000600000002000000000000C00040
310
8FC000000000357021C0000000C045F43040000000C000408FC0000000C0F1E522C000000080953130400C000000130000001A0400003C0000000600000002000000000000C000408FC0000000C0F1E522C0000000809531304000000060FE3F8F40000000C0F1E522C0000000808B3130400C00000013000000220400003C
310
000000060000000200000000000060FE3F8F40000000C0F1E522C0000000808B31304000000060FE3F8F4000000000357021C0000000003CF430400C000000130000002A0400003C0000000600000002000000000000C000408FC0000000C0F1E522C00000008095313040000000C000408FC0000000A053FB24C000000080
310
58552D400C00000013000000320400003C0000000600000002000000000000C000408FC0000000A053FB24C00000008058552D4000000060FE3F8F40000000A053FB24C00000000045552D400C000000130000003A0400003C000000060000000200000000000060FE3F8F40000000A053FB24C00000000045552D40000000
310
60FE3F8F40000000C0F1E522C0000000808B3130400C00000013000000420400003C0000000600000002000000000000C000408FC0000000A053FB24C00000008058552D40000000C000408FC000000060E30B26C0000000809B362A400C000000130000004A0400003C0000000600000002000000000000C000408FC00000
310
0060E30B26C0000000809B362A4000000060FE3F8F4000000060E30B26C00000000088362A400C00000013000000520400003C000000060000000200000000000060FE3F8F4000000060E30B26C00000000088362A4000000060FE3F8F40000000A053FB24C00000000045552D400C000000130000005A0400003C00000006
310
00000002000000000000C000408FC000000060E30B26C0000000809B362A40000000C000408FC000000080543326C000000080C80727400C00000013000000620400003C0000000600000002000000000000C000408FC000000080543326C000000080C807274000000060FE3F8F4000000080543326C000000000B5072740
310
0C000000130000006A0400003C000000060000000200000000000060FE3F8F4000000080543326C000000000B507274000000060FE3F8F4000000060E30B26C00000000088362A400C00000013000000720400003C0000000600000002000000000000C000408FC000000080543326C000000080C8072740000000C000408F
310
C000000080379D25C0000000002D2924400C000000130000007A0400003C0000000600000002000000000000C000408FC000000080379D25C0000000002D29244000000060FE3F8F4000000080379D25C000000000192924400C00000013000000820400003C000000060000000200000000000060FE3F8F4000000080379D
310
25C0000000001929244000000060FE3F8F4000000080543326C000000000B50727400C000000130000008A0400003C0000000600000002000000000000C000408FC000000080379D25C0000000002D292440000000C000408FC000000080F55E24C000000000446321400C00000013000000920400003C0000000600000002
310
000000000000C000408FC000000080F55E24C0000000004463214000000060FE3F8F4000000080F55E24C000000000306321400C000000130000009A0400003C000000060000000200000000000060FE3F8F4000000080F55E24C0000000003063214000000060FE3F8F4000000080379D25C000000000192924400C000000
310
13000000A20400003C0000000600000002000000000000C000408FC000000080F55E24C00000000044632140000000C000408FC0000000C0AD7122C0000000006C801D400C00000013000000AA0400003C0000000600000002000000000000C000408FC0000000C0AD7122C0000000006C801D4000000060FE3F8F40000000
310
C0AD7122C00000000044801D400C00000013000000B20400003C000000060000000200000000000060FE3F8F40000000C0AD7122C00000000044801D4000000060FE3F8F4000000080F55E24C000000000306321400C00000013000000BA0400003C0000000600000002000000000000C000408FC0000000C0AD7122C00000
310
00006C801D40000000C000408FC000000020E79D1FC0000000004CBB18400C00000013000000C20400003C0000000600000002000000000000C000408FC000000020E79D1FC0000000004CBB184000000060FE3F8F4000000020E79D1FC00000000024BB18400C00000013000000CA0400003C000000060000000200000000
310
000060FE3F8F4000000020E79D1FC00000000024BB184000000060FE3F8F40000000C0AD7122C00000000044801D400C00000013000000D20400003C0000000600000002000000000000C000408FC000000020E79D1FC0000000004CBB1840000000C000408FC000000080AABF1AC000000000A09A15400C00000013000000
310
DA0400003C0000000600000002000000000000C000408FC000000080AABF1AC000000000A09A154000000060FE3F8F4000000080AABF1AC000000000789A15400C00000013000000E20400003C000000060000000200000000000060FE3F8F4000000080AABF1AC000000000789A154000000060FE3F8F4000000020E79D1F
310
C00000000024BB18400C00000013000000EA0400003C0000000600000002000000000000C000408FC000000080AABF1AC000000000A09A1540000000C000408FC000000080117718C000000000807314400C00000013000000F20400003C0000000600000002000000000000C000408FC000000080117718C0000000008073
310
144000000060FE3F8F4000000080117718C000000000587314400C00000013000000FA0400003C000000060000000200000000000060FE3F8F4000000080117718C0000000005873144000000060FE3F8F4000000080AABF1AC000000000789A15400C00000013000000020500003C0000000600000002000000000000C000
310
408FC000000080117718C00000000080731440000000C000408FC000000060502018C000000000EE2714400C000000130000000A0500003C0000000600000002000000000000C000408FC000000060502018C000000000EE27144000000060FE3F8F4000000060502018C000000000C82714400C0000001300000012050000
310
3C000000060000000200000000000060FE3F8F4000000060502018C000000000C827144000000060FE3F8F4000000080117718C000000000587314400C000000130000001A0500003C0000000600000002000000000000C000408FC000000060502018C000000000EE271440000000C000408FC0000000E0FEFF17C0000000
310
0082B913400C00000013000000220500003C0000000600000002000000000000C000408FC0000000E0FEFF17C00000000082B9134000000060FE3F8F40000000E0FEFF17C0000000005CB913400C000000130000002A0500003C000000060000000200000000000060FE3F8F40000000E0FEFF17C0000000005CB913400000
310
0060FE3F8F4000000060502018C000000000C82714400C00000013000000320500003C0000000600000002000000000000C000408FC0000000E0FEFF17C00000000082B91340000000C000408FC000000000FFFF17C00000000038A5F33F0C000000130000003A0500003C0000000600000002000000000000C000408FC000
310
000000FFFF17C00000000038A5F33F00000060FE3F8F4000000000FFFF17C000000000A0A4F33F0C00000013000000420500003C000000060000000200000000000060FE3F8F4000000000FFFF17C000000000A0A4F33F00000060FE3F8F40000000E0FEFF17C0000000005CB913400C000000130000004A0500003C000000
310
0600000002000000000000C000408FC000000000FFFF17C00000000038A5F33F000000C000408FC0000000400FD017C000000000B896F13F0C00000013000000520500003C0000000600000002000000000000C000408FC0000000400FD017C000000000B896F13F00000060FE3F8F40000000400FD017C0000000002096F1
310
3F0C000000130000005A0500003C000000060000000200000000000060FE3F8F40000000400FD017C0000000002096F13F00000060FE3F8F4000000000FFFF17C000000000A0A4F33F0C00000013000000620500003C0000000600000002000000000000C000408FC0000000400FD017C000000000B896F13F000000C00040
310
8FC000000080C25617C000000000707EF03F0C000000130000006A0500003C0000000600000002000000000000C000408FC000000080C25617C000000000707EF03F00000060FE3F8F4000000080C25617C000000000D07DF03F0C00000013000000720500003C000000060000000200000000000060FE3F8F4000000080C2
310
5617C000000000D07DF03F00000060FE3F8F40000000400FD017C0000000002096F13F0C000000130000007A0500003C0000000600000002000000000000C000408FC000000080C25617C000000000707EF03F000000C000408FC0000000E0C297D03E0000000000D0603F0C00000013000000820500003C00000006000000
310
02000000000000C000408FC0000000E0C297D03E0000000000D0603F00000060FE3F8F40000000E0C297D03E0000000000405F3F0C000000130000008A0500003C000000060000000200000000000060FE3F8F40000000E0C297D03E0000000000405F3F00000060FE3F8F4000000080C25617C000000000D07DF03F0C0000
310
0013000000920500003C0000000600000002000000000000C000408FC0000000E0C297D03E0000000000D0603F000000C000408FC0000000E0C297D23E000000003C8917400C000000130000009A0500003C0000000600000002000000000000C000408FC0000000E0C297D23E000000003C89174000000060FE3F8F400000
310
00E0C297D23E00000000148917400C00000013000000A20500003C000000060000000200000000000060FE3F8F40000000E0C297D23E000000001489174000000060FE3F8F40000000E0C297D03E0000000000405F3F0C00000013000000AA0500003C0000000600000002000000000000C000408FC0000000E0C297D23E00
310
0000003C891740000000C000408FC000000000AD628BBF00000000DEFE17400C00000013000000B20500003C0000000600000002000000000000C000408FC000000000AD628BBF00000000DEFE174000000060FE3F8F4000000000AD628BBF00000000B8FE17400C00000013000000BA0500003C0000000600000002000000
310
00000060FE3F8F4000000000AD628BBF00000000B8FE174000000060FE3F8F40000000E0C297D23E00000000148917400C00000013000000C20500003C0000000600000002000000000000C000408FC000000000AD628BBF00000000DEFE1740000000C000408FC0000000606FF8D9BF0000000018021C400C000000130000
310
00CA0500003C0000000600000002000000000000C000408FC0000000606FF8D9BF0000000018021C4000000060FE3F8F40000000606FF8D9BF00000000F0011C400C00000013000000D20500003C000000060000000200000000000060FE3F8F40000000606FF8D9BF00000000F0011C4000000060FE3F8F4000000000AD62
310
8BBF00000000B8FE17400C00000013000000DA0500003C0000000600000002000000000000C000408FC0000000606FF8D9BF0000000018021C40000000C000408FC000000000ED628BBF00000000AB0220400C00000013000000E20500003C0000000600000002000000000000C000408FC000000000ED628BBF00000000AB
310
02204000000060FE3F8F4000000000ED628BBF00000000970220400C00000013000000EA0500003C000000060000000200000000000060FE3F8F4000000000ED628BBF000000009702204000000060FE3F8F40000000606FF8D9BF00000000F0011C400C00000013000000F20500003C0000000600000002000000000000C0
310
00408FC000000000ED628BBF00000000AB022040000000C000408FC0000000E0C297D03E000000007C3D20400C00000013000000FA0500003C0000000600000002000000000000C000408FC0000000E0C297D03E000000007C3D204000000060FE3F8F40000000E0C297D03E00000000683D20400C00000013000000020600
310
003C000000060000000200000000000060FE3F8F40000000E0C297D03E00000000683D204000000060FE3F8F4000000000ED628BBF00000000970220400C000000130000000A0600003C0000000600000002000000000000C000408FC0000000E0C297D03E000000007C3D2040000000C000408FC0000000E0C297D03E0000
310
008002972B400C00000013000000120600003C0000000600000002000000000000C000408FC0000000E0C297D03E0000008002972B4000000060FE3F8F40000000E0C297D03E00000000EF962B400C000000130000001A0600003C000000060000000200000000000060FE3F8F40000000E0C297D03E00000000EF962B4000
310
000060FE3F8F40000000E0C297D03E00000000683D20400C00000013000000220600003C0000000600000002000000000000C000408FC0000000E0C297D03E0000008002972B40000000C000408FC000000040FBB2A3BF0000008036F92B400C000000130000002A0600003C0000000600000002000000000000C000408FC0
310
00000040FBB2A3BF0000008036F92B4000000060FE3F8F4000000040FBB2A3BF0000000023F92B400C00000013000000320600003C000000060000000200000000000060FE3F8F4000000040FBB2A3BF0000000023F92B4000000060FE3F8F40000000E0C297D03E00000000EF962B400C000000130000003A0600003C0000
310
000600000002000000000000C000408FC000000040FBB2A3BF0000008036F92B40000000C000408FC00000006001B4D0BF000000808EA12C400C00000013000000420600003C0000000600000002000000000000C000408FC00000006001B4D0BF000000808EA12C4000000060FE3F8F400000006001B4D0BF000000007BA1
310
2C400C000000130000004A0600003C000000060000000200000000000060FE3F8F400000006001B4D0BF000000007BA12C4000000060FE3F8F4000000040FBB2A3BF0000000023F92B400C00000013000000520600003C0000000600000002000000000000C000408FC00000006001B4D0BF000000808EA12C40000000C000
310
408FC0000000602133D3BF00000080B0042D400C000000130000005A0600003C0000000600000002000000000000C000408FC0000000602133D3BF00000080B0042D4000000060FE3F8F40000000602133D3BF000000009D042D400C00000013000000620600003C000000060000000200000000000060FE3F8F4000000060
310
2133D3BF000000009D042D4000000060FE3F8F400000006001B4D0BF000000007BA12C400C000000130000006A0600003C0000000600000002000000000000C000408FC0000000602133D3BF00000080B0042D40000000C000408FC0000000602133D3BF000000A0662942400C00000013000000720600003C000000060000
310
0002000000000000C000408FC0000000602133D3BF000000A06629424000000060FE3F8F40000000602133D3BF000000C0612942400C000000130000007A0600003C000000060000000200000000000060FE3F8F40000000602133D3BF000000C06129424000000060FE3F8F40000000602133D3BF000000009D042D400C00
310
000013000000820600003C0000000600000002000000000000C000408FC0000000602133D3BF000000A066294240000000C000408FC000000060C8CCF0BF000000C08A7A43400C000000130000008A0600003C0000000600000002000000000000C000408FC000000060C8CCF0BF000000C08A7A434000000060FE3F8F4000
310
000060C8CCF0BF000000E0857A43400C00000013000000920600003C000000060000000200000000000060FE3F8F4000000060C8CCF0BF000000E0857A434000000060FE3F8F40000000602133D3BF000000C0612942400C000000130000009A0600003C0000000600000002000000000000C000408FC000000060C8CCF0BF
310
000000C08A7A4340000000C000408FC000000020EA3B07C0000000A0A2B544400C00000013000000A20600003C0000000600000002000000000000C000408FC000000020EA3B07C0000000A0A2B5444000000060FE3F8F4000000020EA3B07C0000000C09DB544400C00000013000000AA0600003C00000006000000020000
310
0000000060FE3F8F4000000020EA3B07C0000000C09DB5444000000060FE3F8F4000000060C8CCF0BF000000E0857A43400C00000013000000B20600003C0000000600000002000000000000C000408FC000000020EA3B07C0000000A0A2B54440000000C000408FC0000000A094B014C000000060B2C045400C0000001300
310
0000BA0600003C0000000600000002000000000000C000408FC0000000A094B014C000000060B2C0454000000060FE3F8F40000000A094B014C000000080ADC045400C00000013000000C20600003C000000060000000200000000000060FE3F8F40000000A094B014C000000080ADC0454000000060FE3F8F4000000020EA
310
3B07C0000000C09DB544400C00000013000000CA0600003C0000000600000002000000000000C000408FC0000000A094B014C000000060B2C04540000000C000408FC0000000C0A6F320C0000000A0A2D346400C00000013000000D20600003C0000000600000002000000000000C000408FC0000000C0A6F320C0000000A0
310
A2D3464000000060FE3F8F40000000C0A6F320C0000000C09DD346400C00000013000000DA0600003C000000060000000200000000000060FE3F8F40000000C0A6F320C0000000C09DD3464000000060FE3F8F40000000A094B014C000000080ADC045400C00000013000000E20600003C0000000600000002000000000000
310
C000408FC0000000C0A6F320C0000000A0A2D34640000000C000408FC0000000C0345D24C00000004033C647400C00000013000000EA0600003C0000000600000002000000000000C000408FC0000000C0345D24C00000004033C6474000000060FE3F8F40000000C0345D24C0000000602EC647400C00000013000000F206
310
00003C000000060000000200000000000060FE3F8F40000000C0345D24C0000000602EC6474000000060FE3F8F40000000C0A6F320C0000000C09DD346400C00000013000000FA0600003C0000000600000002000000000000C000408FC0000000C0345D24C00000004033C64740000000C000408FC0000000A0DE6D25C000
310
0000E0659748400C00000013000000020700003C0000000600000002000000000000C000408FC0000000A0DE6D25C0000000E06597484000000060FE3F8F40000000A0DE6D25C000000000619748400C000000130000000A0700003C000000060000000200000000000060FE3F8F40000000A0DE6D25C00000000061974840
310
00000060FE3F8F40000000C0345D24C0000000602EC647400C00000013000000120700003C0000000600000002000000000000C000408FC0000000A0DE6D25C0000000E065974840000000C000408FC000000060E86E25C0000000406D7349400C000000130000001A0700003C0000000600000002000000000000C000408F
310
C000000060E86E25C0000000406D73494000000060FE3F8F4000000060E86E25C000000060687349400C00000013000000220700003C000000060000000200000000000060FE3F8F4000000060E86E25C0000000606873494000000060FE3F8F40000000A0DE6D25C000000000619748400C000000130000002A0700003C00
310
00000600000002000000000000C000408FC000000060E86E25C0000000406D734940000000C000408FC0000000E0376024C0000000E0C8444A400C00000013000000320700003C0000000600000002000000000000C000408FC0000000E0376024C0000000E0C8444A4000000060FE3F8F40000000E0376024C000000000C4
310
444A400C000000130000003A0700003C000000060000000200000000000060FE3F8F40000000E0376024C000000000C4444A4000000060FE3F8F4000000060E86E25C000000060687349400C00000013000000420700003C0000000600000002000000000000C000408FC0000000E0376024C0000000E0C8444A40000000C0
310
00408FC000000060F4F820C000000040DD374B400C000000130000004A0700003C0000000600000002000000000000C000408FC000000060F4F820C000000040DD374B4000000060FE3F8F4000000060F4F820C000000060D8374B400C00000013000000520700003C000000060000000200000000000060FE3F8F40000000
310
60F4F820C000000060D8374B4000000060FE3F8F40000000E0376024C000000000C4444A400C000000130000005A0700003C0000000600000002000000000000C000408FC000000060F4F820C000000040DD374B40000000C000408FC00000004049E115C0000000405C354C400C00000013000000620700003C0000000600
310
000002000000000000C000408FC00000004049E115C0000000405C354C4000000060FE3F8F400000004049E115C00000006057354C400C000000130000006A0700003C000000060000000200000000000060FE3F8F400000004049E115C00000006057354C4000000060FE3F8F4000000060F4F820C000000060D8374B400C
310
00000013000000720700003C0000000600000002000000000000C000408FC00000004049E115C0000000405C354C40000000C000408FC0000000609CA60BC0000000A00C254D400C000000130000007A0700003C0000000600000002000000000000C000408FC0000000609CA60BC0000000A00C254D4000000060FE3F8F40
310
000000609CA60BC0000000C007254D400C00000013000000820700003C000000060000000200000000000060FE3F8F40000000609CA60BC0000000C007254D4000000060FE3F8F400000004049E115C00000006057354C400C000000130000008A0700003C0000000600000002000000000000C000408FC0000000609CA60B
310
C0000000A00C254D40000000C000408FC0000000E06118FDBF000000C0BC3F4E400C00000013000000920700003C0000000600000002000000000000C000408FC0000000E06118FDBF000000C0BC3F4E4000000060FE3F8F40000000E06118FDBF000000C0B73F4E400C000000130000009A0700003C000000060000000200
310
000000000060FE3F8F40000000E06118FDBF000000C0B73F4E4000000060FE3F8F40000000609CA60BC0000000C007254D400C00000013000000A20700003C0000000600000002000000000000C000408FC0000000E06118FDBF000000C0BC3F4E40000000C000408FC0000000C0A58EE3BF00000000F27B4F400C00000013
310
000000AA0700003C0000000600000002000000000000C000408FC0000000C0A58EE3BF00000000F27B4F4000000060FE3F8F40000000C0A58EE3BF00000020ED7B4F400C00000013000000B20700003C000000060000000200000000000060FE3F8F40000000C0A58EE3BF00000020ED7B4F4000000060FE3F8F40000000E0
310
6118FDBF000000C0B73F4E400C00000013000000BA0700003C0000000600000002000000000000C000408FC0000000C0A58EE3BF00000000F27B4F40000000C000408FC000000040EB79A7BF000000800E3C50400C00000013000000C20700003C0000000600000002000000000000C000408FC000000040EB79A7BF000000
310
800E3C504000000060FE3F8F4000000040EB79A7BF000000000C3C50400C00000013000000CA0700003C000000060000000200000000000060FE3F8F4000000040EB79A7BF000000000C3C504000000060FE3F8F40000000C0A58EE3BF00000020ED7B4F400C00000013000000D20700003C00000006000000020000000000
310
00C000408FC000000040EB79A7BF000000800E3C5040000000C000408FC0000000E0C297D03E000000E04A6750400C00000013000000DA0700003C0000000600000002000000000000C000408FC0000000E0C297D03E000000E04A67504000000060FE3F8F40000000E0C297D03E00000060486750400C00000013000000E2
310
0700003C000000060000000200000000000060FE3F8F40000000E0C297D03E000000604867504000000060FE3F8F4000000040EB79A7BF000000000C3C50400C00000013000000EA0700003C0000000600000002000000000000C000408FC0000000E0C297D03E000000E04A675040000000C000408FC0000000E0C297D03E
310
000000A0933851400C00000013000000F20700003C0000000600000002000000000000C000408FC0000000E0C297D03E000000A09338514000000060FE3F8F40000000E0C297D03E00000040913851400C00000013000000FA0700003C000000060000000200000000000060FE3F8F40000000E0C297D03E00000040913851
310
4000000060FE3F8F40000000E0C297D03E00000060486750400C00000013000000020800003C0000000600000002000000000000C000408FC0000000E0C297D03E000000A093385140000000C000408FC000000000AD628BBF000000C0ED3F51400C000000130000000A0800003C0000000600000002000000000000C00040
310
8FC000000000AD628BBF000000C0ED3F514000000060FE3F8F4000000000AD628BBF00000060EB3F51400C00000013000000120800003C000000060000000200000000000060FE3F8F4000000000AD628BBF00000060EB3F514000000060FE3F8F40000000E0C297D03E00000040913851400C000000130000001A0800003C
310
0000000600000002000000000000C000408FC000000000AD628BBF000000C0ED3F5140000000C000408FC0000000606FF8D9BF00000080218051400C00000013000000220800003C0000000600000002000000000000C000408FC0000000606FF8D9BF000000802180514000000060FE3F8F40000000606DF8D9BF00000020
310
1F8051400C000000130000002A0800003C000000060000000200000000000060FE3F8F40000000606DF8D9BF000000201F80514000000060FE3F8F4000000000AD628BBF00000060EB3F51400C00000013000000320800003C0000000600000002000000000000C000408FC0000000606FF8D9BF0000008021805140000000
310
C000408FC000000000AD628BBF0000004055C051400C000000130000003A0800003C0000000600000002000000000000C000408FC000000000AD628BBF0000004055C0514000000060FE3F8F4000000000AD628BBF000000E052C051400C00000013000000420800003C000000060000000200000000000060FE3F8F400000
310
0000AD628BBF000000E052C0514000000060FE3F8F40000000606DF8D9BF000000201F8051400C000000130000004A0800003C0000000600000002000000000000C000408FC000000000AD628BBF0000004055C05140000000C000408FC0000000E0C297D23E00000060AFC751400C00000013000000520800003C00000006
310
00000002000000000000C000408FC0000000E0C297D23E00000060AFC7514000000060FE3F8F40000000E0C297D23E00000000ADC751400C000000130000005A0800003C000000060000000200000000000060FE3F8F40000000E0C297D23E00000000ADC7514000000060FE3F8F4000000000AD628BBF000000E052C05140
310
0C00000013000000620800003C0000000600000002000000000000C000408FC0000000E0C297D23E00000060AFC75140000000C000408FC0000000E0C297D03E000000A021C052400C000000130000006A0800003C000000060000000200000000000060FE3F8F40000000E0C297D03E000000201FC0524000000060FE3F8F
310
40000000E0C297D23E00000000ADC751400C00000013000000720800003C0000000600000002000000000000C000408FC000000080D8DB11C000000080CC465240000000C000408FC0000000E0C297D23E00000060AFC751400C000000130000007A0800003C0000000600000002000000000000C000408FC000000000D922
310
11C0000000E0D1845240000000C000408FC0000000E0C297D23E00000060AFC751400C00000013000000820800003C0000000600000002000000000000C000408FC000000080C25617C000000000707EF03F000000C000408FC0000000E0C297D23E000000003C8917400C000000130000008A0800003C0000000600000002
310
000000000000C000408FC0000000400FD017C000000000B896F13F000000C000408FC0000000E0C297D23E000000003C8917400C00000013000000920800003C0000000600000002000000000000C000408FC000000000FFFF17C00000000038A5F33F000000C000408FC0000000E0C297D23E000000003C8917400C000000
310
130000009A0800003C0000000600000002000000000000C000408FC0000000E0FEFF17C00000000082B91340000000C000408FC0000000E0C297D23E000000003C8917400C00000013000000A20800003C0000000600000002000000000000C000408FC000000060502018C000000000EE271440000000C000408FC0000000
310
00AD628BBF00000000DEFE17400C00000013000000AA0800003C0000000600000002000000000000C000408FC000000080117718C00000000080731440000000C000408FC0000000606FF8D9BF0000000018021C400C00000013000000B20800003C0000000600000002000000000000C000408FC000000080AABF1AC00000
310
0000A09A1540000000C000408FC000000000ED628BBF00000000AB0220400C00000013000000BA0800003C0000000600000002000000000000C000408FC000000020E79D1FC0000000004CBB1840000000C000408FC0000000E0C297D03E000000007C3D20400C00000013000000C20800003C000000060000000200000000
310
0000C000408FC000000000357021C0000000C045F43040000000C000408FC00000006001B4D0BF000000808EA12C400C00000013000000CA0800003C0000000600000002000000000000C000408FC000000020C54F21C000000040F9113140000000C000408FC0000000602133D3BF00000080B0042D400C00000013000000
310
D20800003C0000000600000002000000000000C000408FC0000000C0F1E522C00000008095313040000000C000408FC000000040FBB2A3BF0000008036F92B400C00000013000000DA0800003C0000000600000002000000000000C000408FC0000000C0AD7122C0000000006C801D40000000C000408FC0000000E0C297D0
310
3E0000008002972B400C00000013000000E20800003C0000000600000002000000000000C000408FC000000080F55E24C00000000044632140000000C000408FC0000000E0C297D03E0000008002972B400C00000013000000EA0800003C0000000600000002000000000000C000408FC000000060E30B26C0000000809B36
310
2A40000000C000408FC000000040FBB2A3BF0000008036F92B400C00000013000000F20800003C0000000600000002000000000000C000408FC0000000A053FB24C00000008058552D40000000C000408FC000000040FBB2A3BF0000008036F92B400C00000013000000FA0800003C0000000600000002000000000000C000
310
408FC000000080543326C000000080C8072740000000C000408FC000000040FBB2A3BF0000008036F92B400C00000013000000020900003C0000000600000002000000000000C000408FC000000080379D25C0000000002D292440000000C000408FC0000000E0C297D03E0000008002972B400C000000130000000A090000
310
3C0000000600000002000000000000C000408FC000000000745B21C0000000404E333140000000C000408FC0000000602133D3BF00000080B0042D400C00000013000000120900003C0000000600000002000000000000C000408FC000000000CCDC23C0000000C0EE6F3340000000C000408FC0000000602133D3BF000000
310
80B0042D400C000000130000001A0900003C0000000600000002000000000000C000408FC00000006059E923C0000000C0048E3340000000C000408FC0000000602133D3BF00000080B0042D400C00000013000000220900003C0000000600000002000000000000C000408FC00000004030D123C0000000C046AA33400000
310
00C000408FC0000000602133D3BF00000080B0042D400C000000130000002A0900003C0000000600000002000000000000C000408FC0000000A04DCA21C0000000402E1D3540000000C000408FC0000000602133D3BF00000080B0042D400C00000013000000320900003C0000000600000002000000000000C000408FC000
310
00002054251EC000000080768A3E40000000C000408FC0000000602133D3BF000000A0662942400C000000130000003A0900003C0000000600000002000000000000C000408FC000000060EF4B20C00000002013944040000000C000408FC0000000602133D3BF000000A0662942400C00000013000000420900003C000000
310
0600000002000000000000C000408FC0000000A0AE231EC0000000C0C7953940000000C000408FC0000000602133D3BF00000080B0042D400C000000130000004A0900003C0000000600000002000000000000C000408FC0000000A071CC1FC000000080D0443740000000C000408FC0000000602133D3BF00000080B0042D
310
400C00000013000000520900003C0000000600000002000000000000C000408FC0000000E0C48322C0000000C0A3804140000000C000408FC000000060C8CCF0BF000000C08A7A43400C000000130000005A0900003C0000000600000002000000000000C000408FC0000000A095A325C0000000E0B63E4240000000C00040
310
8FC000000020EA3B07C0000000A0A2B544400C00000013000000620900003C0000000600000002000000000000C000408FC0000000E0807429C0000000E053FA4240000000C000408FC0000000A094B014C000000060B2C045400C000000130000006A0900003C0000000600000002000000000000C000408FC00000008089
310
162DC00000000049C44340000000C000408FC0000000A094B014C000000060B2C045400C00000013000000720900003C0000000600000002000000000000C000408FC0000000A0284330C000000060DB9B4440000000C000408FC0000000C0A6F320C0000000A0A2D346400C000000130000007A0900003C00000006000000
310
02000000000000C000408FC0000000E054E031C00000002043804540000000C000408FC0000000C0345D24C00000004033C647400C00000013000000820900003C0000000600000002000000000000C000408FC0000000A0FE3533C000000020887B4640000000C000408FC0000000A0DE6D25C0000000E0659748400C0000
310
00130000008A0900003C0000000600000002000000000000C000408FC000000080E21734C00000002097954740000000C000408FC0000000A0DE6D25C0000000E0659748400C00000013000000920900003C0000000600000002000000000000C000408FC0000000407F7B34C0000000C053C14840000000C000408FC00000
310
0060E86E25C0000000406D7349400C000000130000009A0900003C0000000600000002000000000000C000408FC0000000802E5C34C000000080C2F04940000000C000408FC0000000E0376024C0000000E0C8444A400C00000013000000A20900003C0000000600000002000000000000C000408FC0000000C067BB33C000
310
000000C4154B40000000C000408FC0000000E0376024C0000000E0C8444A400C00000013000000AA0900003C0000000600000002000000000000C000408FC000000040828432C0000000C0AB3C4C40000000C000408FC0000000E0376024C0000000E0C8444A400C00000013000000B20900003C0000000600000002000000
310
000000C000408FC000000080FCBF30C0000000E05A584D40000000C000408FC000000060F4F820C000000040DD374B400C00000013000000BA0900003C0000000600000002000000000000C000408FC00000006088312DC0000000C069444E40000000C000408FC00000004049E115C0000000405C354C400C000000130000
310
00C20900003C0000000600000002000000000000C000408FC000000040304528C0000000C063F84E40000000C000408FC0000000609CA60BC0000000A00C254D400C00000013000000CA0900003C0000000600000002000000000000C000408FC000000060B4A125C000000080413B4F40000000C000408FC0000000E06118
310
FDBF000000C0BC3F4E400C00000013000000D20900003C0000000600000002000000000000C000408FC0000000E0FA7325C00000000027434F40000000C000408FC0000000E06118FDBF000000C0BC3F4E400C00000013000000DA0900003C0000000600000002000000000000C000408FC0000000A07C5D25C000000080DB
310
4F4F40000000C000408FC0000000E06118FDBF000000C0BC3F4E400C00000013000000E20900003C0000000600000002000000000000C000408FC000000080C66F24C000000000ED775040000000C000408FC0000000C0A58EE3BF00000000F27B4F400C00000013000000EA0900003C0000000600000002000000000000C0
310
00408FC0000000C0F15724C0000000C0797E5040000000C000408FC0000000C0A58EE3BF00000000F27B4F400C00000013000000F20900003C0000000600000002000000000000C000408FC0000000809B2724C00000004062825040000000C000408FC0000000C0A58EE3BF00000000F27B4F400C00000013000000FA0900
310
003C0000000600000002000000000000C000408FC000000000C64313C0000000C0B4F65140000000C000408FC000000000AD628BBF0000004055C051400C00000013000000020A00003C0000000600000002000000000000C000408FC0000000C0CD4615C0000000A01EA55140000000C000408FC0000000606FF8D9BF0000
310
0080218051400C000000130000000A0A00003C0000000600000002000000000000C000408FC000000080439817C000000040C75E5140000000C000408FC000000000AD628BBF000000C0ED3F51400C00000013000000120A00003C0000000600000002000000000000C000408FC0000000809FBC1BC0000000809105514000
310
0000C000408FC0000000E0C297D03E000000A0933851400C000000130000001A0A00003C0000000600000002000000000000C000408FC000000000856D20C0000000E0E7BC5040000000C000408FC0000000E0C297D03E000000E04A6750400C00000013000000220A00003C0000000600000002000000000000C000408FC0
310
000000808B9A22C000000000A9945040000000C000408FC000000040EB79A7BF000000800E3C50400C000000130000002A0A00003C0000000600000002000000000000C000408FC0000000E0C297D23E00000060AFC75140000000C000408FC000000040509510C000000040A3BC52400C00000013000000320A00003C0000
310
000600000002000000000000C000408FC0000000C037D510C0000000A011B45240000000C000408FC0000000E0C297D23E00000060AFC751400C000000130000003A0A00003C0000000600000002000000000000C000408FC0000000E0C297D23E00000060AFC75140000000C000408FC000000060C20810C0000000A021C0
310
52400C00000013000000420A00003C000000060000000200000000000060FE3F8F40000000E0C297D23E00000000ADC7514000000060FE3F8F4000000000D92211C000000080CF8452400C000000130000004A0A00003C000000060000000200000000000060FE3F8F40000000E0C297D23E00000000ADC7514000000060FE
310
3F8F4000000080D8DB11C000000020CA4652400C00000013000000520A00003C000000060000000200000000000060FE3F8F40000000E0C297D23E000000001489174000000060FE3F8F40000000400FD017C0000000002096F13F0C000000130000005A0A00003C000000060000000200000000000060FE3F8F40000000E0
310
C297D23E000000001489174000000060FE3F8F4000000080C25617C000000000D07DF03F0C00000013000000620A00003C000000060000000200000000000060FE3F8F40000000E0C297D23E000000001489174000000060FE3F8F4000000000FFFF17C000000000A0A4F33F0C000000130000006A0A00003C000000060000
310
000200000000000060FE3F8F40000000E0C297D23E000000001489174000000060FE3F8F40000000E0FEFF17C0000000005CB913400C00000013000000720A00003C000000060000000200000000000060FE3F8F4000000000AD628BBF00000000B8FE174000000060FE3F8F4000000060502018C000000000C82714400C00
310
0000130000007A0A00003C000000060000000200000000000060FE3F8F40000000606FF8D9BF00000000F0011C4000000060FE3F8F4000000080117718C000000000587314400C00000013000000820A00003C000000060000000200000000000060FE3F8F4000000000ED628BBF000000009702204000000060FE3F8F4000
310
000080AABF1AC000000000789A15400C000000130000008A0A00003C000000060000000200000000000060FE3F8F40000000E0C297D03E00000000683D204000000060FE3F8F4000000020E79D1FC00000000024BB18400C00000013000000920A00003C000000060000000200000000000060FE3F8F40000000602133D3BF
310
000000009D042D4000000060FE3F8F4000000020C54F21C000000080EF1131400C000000130000009A0A00003C000000060000000200000000000060FE3F8F400000006001B4D0BF000000007BA12C4000000060FE3F8F4000000000357021C0000000003CF430400C00000013000000A20A00003C00000006000000020000
310
0000000060FE3F8F4000000040FBB2A3BF0000000023F92B4000000060FE3F8F40000000C0F1E522C0000000808B3130400C00000013000000AA0A00003C000000060000000200000000000060FE3F8F40000000E0C297D03E00000000EF962B4000000060FE3F8F40000000C0AD7122C00000000044801D400C0000001300
310
0000B20A00003C000000060000000200000000000060FE3F8F40000000E0C297D03E00000000EF962B4000000060FE3F8F4000000080F55E24C000000000306321400C00000013000000BA0A00003C000000060000000200000000000060FE3F8F4000000040FBB2A3BF0000000023F92B4000000060FE3F8F40000000A053
310
FB24C00000000045552D400C00000013000000C20A00003C000000060000000200000000000060FE3F8F4000000040FBB2A3BF0000000023F92B4000000060FE3F8F4000000060E30B26C00000000088362A400C00000013000000CA0A00003C000000060000000200000000000060FE3F8F4000000040FBB2A3BF00000000
310
23F92B4000000060FE3F8F4000000080543326C000000000B50727400C00000013000000D20A00003C000000060000000200000000000060FE3F8F40000000E0C297D03E00000000EF962B4000000060FE3F8F4000000080379D25C000000000192924400C00000013000000DA0A00003C0000000600000002000000000000
310
60FE3F8F40000000602133D3BF000000009D042D4000000060FE3F8F4000000000745B21C000000080443331400C00000013000000E20A00003C000000060000000200000000000060FE3F8F40000000602133D3BF000000009D042D4000000060FE3F8F4000000000CCDC23C000000000E56F33400C00000013000000EA0A
310
00003C000000060000000200000000000060FE3F8F40000000602133D3BF000000009D042D4000000060FE3F8F400000006059E923C000000000FB8D33400C00000013000000F20A00003C000000060000000200000000000060FE3F8F40000000602133D3BF000000009D042D4000000060FE3F8F40000000A04DCA21C000
310
000080241D35400C00000013000000FA0A00003C000000060000000200000000000060FE3F8F40000000602133D3BF000000009D042D4000000060FE3F8F400000004030D123C0000000003DAA33400C00000013000000020B00003C000000060000000200000000000060FE3F8F40000000602133D3BF000000C061294240
310
00000060FE3F8F4000000060EF4B20C0000000400E9440400C000000130000000A0B00003C000000060000000200000000000060FE3F8F40000000602133D3BF000000C06129424000000060FE3F8F400000002054251EC0000000C06C8A3E400C00000013000000120B00003C000000060000000200000000000060FE3F8F
310
40000000602133D3BF000000009D042D4000000060FE3F8F40000000A0AE231EC000000000BE9539400C000000130000001A0B00003C000000060000000200000000000060FE3F8F40000000602133D3BF000000009D042D4000000060FE3F8F40000000A071CC1FC000000080C64437400C00000013000000220B00003C00
310
0000060000000200000000000060FE3F8F4000000060C8CCF0BF000000E0857A434000000060FE3F8F40000000E0C48322C0000000E09E8041400C000000130000002A0B00003C000000060000000200000000000060FE3F8F4000000020EA3B07C0000000C09DB5444000000060FE3F8F40000000A095A325C000000000B2
310
3E42400C00000013000000320B00003C000000060000000200000000000060FE3F8F40000000A094B014C000000080ADC0454000000060FE3F8F40000000E0807429C0000000004FFA42400C000000130000003A0B00003C000000060000000200000000000060FE3F8F40000000A094B014C000000080ADC0454000000060
310
FE3F8F400000008089162DC00000004044C443400C00000013000000420B00003C000000060000000200000000000060FE3F8F40000000C0345D24C0000000602EC6474000000060FE3F8F40000000E054E031C0000000403E8045400C000000130000004A0B00003C000000060000000200000000000060FE3F8F40000000
310
C0A6F320C0000000C09DD3464000000060FE3F8F40000000A0284330C000000080D69B44400C00000013000000520B00003C000000060000000200000000000060FE3F8F40000000A0DE6D25C0000000006197484000000060FE3F8F40000000A0FE3533C000000040837B46400C000000130000005A0B00003C0000000600
310
00000200000000000060FE3F8F40000000A0DE6D25C0000000006197484000000060FE3F8F4000000080E21734C000000040929547400C00000013000000620B00003C000000060000000200000000000060FE3F8F4000000060E86E25C0000000606873494000000060FE3F8F40000000407F7B34C0000000E04EC148400C
310
000000130000006A0B00003C000000060000000200000000000060FE3F8F40000000E0376024C000000000C4444A4000000060FE3F8F40000000802E5C34C0000000A0BDF049400C00000013000000720B00003C000000060000000200000000000060FE3F8F40000000E0376024C000000000C4444A4000000060FE3F8F40
310
000000C067BB33C000000020BF154B400C000000130000007A0B00003C000000060000000200000000000060FE3F8F40000000E0376024C000000000C4444A4000000060FE3F8F4000000040828432C0000000C0A63C4C400C00000013000000820B00003C000000060000000200000000000060FE3F8F4000000060F4F820
310
C000000060D8374B4000000060FE3F8F4000000080FCBF30C00000000056584D400C000000130000008A0B00003C000000060000000200000000000060FE3F8F400000004049E115C00000006057354C4000000060FE3F8F400000006088312DC0000000E064444E400C00000013000000920B00003C000000060000000200
310
000000000060FE3F8F40000000609CA60BC0000000C007254D4000000060FE3F8F4000000040304528C0000000E05EF84E400C000000130000009A0B00003C000000060000000200000000000060FE3F8F40000000E06118FDBF000000C0B73F4E4000000060FE3F8F40000000E0FA7325C00000002022434F400C00000013
310
000000A20B00003C000000060000000200000000000060FE3F8F40000000E06118FDBF000000C0B73F4E4000000060FE3F8F4000000060B4A125C0000000A03C3B4F400C00000013000000AA0B00003C000000060000000200000000000060FE3F8F40000000E06118FDBF000000C0B73F4E4000000060FE3F8F40000000A0
310
7C5D25C000000080D64F4F400C00000013000000B20B00003C000000060000000200000000000060FE3F8F40000000C0A58EE3BF00000020ED7B4F4000000060FE3F8F4000000080C66F24C000000080EA7750400C00000013000000BA0B00003C000000060000000200000000000060FE3F8F40000000C0A58EE3BF000000
310
20ED7B4F4000000060FE3F8F40000000C0F15724C000000060777E50400C00000013000000C20B00003C000000060000000200000000000060FE3F8F40000000C0A58EE3BF00000020ED7B4F4000000060FE3F8F40000000809B2724C0000000C05F8250400C00000013000000CA0B00003C00000006000000020000000000
310
0060FE3F8F4000000000AD628BBF000000E052C0514000000060FE3F8F4000000000C64313C000000060B2F651400C00000013000000D20B00003C000000060000000200000000000060FE3F8F40000000606DF8D9BF000000201F80514000000060FE3F8F40000000C0CD4615C0000000401CA551400C00000013000000DA
310
0B00003C000000060000000200000000000060FE3F8F4000000000AD628BBF00000060EB3F514000000060FE3F8F4000000080439817C0000000E0C45E51400C00000013000000E20B00003C000000060000000200000000000060FE3F8F40000000E0C297D03E000000409138514000000060FE3F8F40000000809FBC1BC0
310
000000208F0551400C00000013000000EA0B00003C000000060000000200000000000060FE3F8F40000000E0C297D03E000000604867504000000060FE3F8F4000000000856D20C000000060E5BC50400C00000013000000F20B00003C000000060000000200000000000060FE3F8F4000000040EB79A7BF000000000C3C50
310
4000000060FE3F8F40000000808B9A22C000000080A69450400C00000013000000FA0B00003C000000060000000200000000000060FE3F8F40000000E0C297D23E00000000ADC7514000000060FE3F8F40000000C037D510C0000000200FB452400C00000013000000020C00003C000000060000000200000000000060FE3F
310
8F40000000E0C297D23E00000000ADC7514000000060FE3F8F4000000040509510C0000000C0A0BC52400C000000130000000A0C00003C000000060000000200000000000060FE3F8F4000000060C20810C0000000201FC0524000000060FE3F8F40000000E0C297D23E00000000ADC75140
100
AcDbSubDMesh
 71
     2
 72
     0
 91
        0
 92
      180
 10
-1000.000366210937
 20
-4.208220481872558
 30
74.8135757446289
 10
-1000.000366210937
 20
-4.28403091430664
 30
74.07530975341797
 10
-1000.000366210937
 20
-4.464693069458007
 30
73.10623168945312
 10
-1000.000366210937
 20
-4.816184997558593
 30
71.85478210449218
 10
-1000.000366210937
 20
-5.319144248962402
 30
70.57999420166016
 10
-1000.000366210937
 20
-5.898694992065429
 30
69.48091125488281
 10
-1000.000366210937
 20
-6.934202194213867
 30
68.08700561523437
 10
-1000.000366210937
 20
-8.213905334472656
 30
66.95165252685547
 10
-1000.000366210937
 20
-9.301845550537109
 30
66.32281494140625
 10
-1000.000366210937
 20
-10.07735824584961
 30
66.03724670410156
 10
-1000.000366210937
 20
-10.17176628112793
 30
65.97618103027343
 10
-1000.000366210937
 20
-10.21831130981445
 30
65.87384033203125
 10
-1000.000366210937
 20
-10.68259143829346
 30
62.62388610839844
 10
-1000.000366210937
 20
-10.72652339935302
 30
62.52462768554687
 10
-1000.000366210937
 20
-10.81582927703857
 30
62.46293640136719
 10
-1000.000366210937
 20
-12.13513374328613
 30
61.94054412841797
 10
-1000.000366210937
 20
-14.5967435836792
 30
60.53447723388671
 10
-1000.000366210937
 20
-16.74994659423828
 30
58.69027328491211
 10
-1000.000366210937
 20
-18.51761245727539
 30
56.47399139404297
 10
-1000.000366210937
 20
-19.73205184936523
 30
54.1700439453125
 10
-1000.000366210937
 20
-20.36008453369141
 30
51.88093566894531
 10
-1000.000366210937
 20
-20.4824104309082
 30
49.51036834716797
 10
-1000.000366210937
 20
-20.09329986572266
 30
47.16867446899414
 10
-1000.000366210937
 20
-19.21091651916504
 30
44.96509170532227
 10
-1000.000366210937
 20
-17.87629508972168
 30
43.00204849243164
 10
-1000.000366210937
 20
-16.26233863830566
 30
41.21763229370117
 10
-1000.000366210937
 20
-14.54401779174804
 30
39.53347778320313
 10
-1000.000366210937
 20
-12.72754573822021
 30
37.95568466186523
 10
-1000.000366210937
 20
-10.81950092315674
 30
36.48995590209961
 10
-1000.000366210937
 20
-9.257361412048339
 30
35.00499725341797
 10
-1000.000366210937
 20
-8.148310661315917
 30
33.15683364868164
 10
-1000.000366210937
 20
-7.53645372390747
 30
30.54087066650391
 10
-1000.000366210937
 20
-7.534845829010009
 30
25.58507919311523
 10
-1000.000366210937
 20
-7.949652194976806
 30
23.26880645751953
 10
-1000.000366210937
 20
-8.895123481750488
 30
21.11398696899414
 10
-1000.000366210937
 20
-9.908571243286132
 30
19.66514205932617
 10
-1000.000366210937
 20
-9.95576000213623
 30
19.55475997924805
 10
-1000.000366210937
 20
-9.931243896484375
 30
19.43723678588867
 10
-1000.000366210937
 20
-8.678619384765625
 30
17.20041275024414
 10
-1000.000366210937
 20
-8.655800819396972
 30
17.07020950317383
 10
-1000.000366210937
 20
-8.719154357910156
 30
16.95418930053711
 10
-1000.000366210937
 20
-9.449110031127929
 30
16.19368743896484
 10
-1000.000366210937
 20
-10.49087238311767
 30
14.66669082641601
 10
-1000.000366210937
 20
-11.02321910858154
 30
13.10665512084961
 10
-1000.000366210937
 20
-11.10025405883789
 30
11.51520156860351
 10
-1000.000366210937
 20
-10.80706405639648
 30
10.0804214477539
 10
-1000.000366210937
 20
-10.18546676635742
 30
8.693878173828125
 10
-1000.000366210937
 20
-9.222028732299804
 30
7.375411987304687
 10
-1000.000366210937
 20
-7.904201984405517
 30
6.182907104492187
 10
-1000.000366210937
 20
-6.687173843383789
 30
5.4010009765625
 10
-1000.000366210937
 20
-6.116277694702148
 30
5.11279296875
 10
-1000.000366210937
 20
-6.031556606292724
 30
5.038993835449218
 10
-1000.000366210937
 20
-5.999995708465576
 30
4.931159973144531
 10
-1000.000366210937
 20
-5.999996185302734
 30
1.227836608886718
 10
-1000.000366210937
 20
-5.9531831741333
 30
1.099296569824218
 10
-1000.000366210937
 20
-5.834726333618164
 30
1.030868530273437
 10
-1000.000366210937
 20
0.0000039560359255
 30
0.0020523071289063
 10
-1000.000366210937
 20
0.0000044328730837
 30
5.884017944335937
 10
-1000.000366210937
 20
-0.0133718028664589
 30
5.998893737792968
 10
-1000.000366210937
 20
-0.4057882726192475
 30
7.002044677734375
 10
-1000.000366210937
 20
-0.0133722797036171
 30
8.005210876464843
 10
-1000.000366210937
 20
0.0000039560359255
 30
8.120086669921875
 10
-1000.000366210937
 20
0.0000039560359255
 30
13.79494094848633
 10
-1000.000366210937
 20
-0.0384748950600624
 30
13.98674392700195
 10
-1000.000366210937
 20
-0.2609866559505463
 30
14.3155403137207
 10
-1000.000366210937
 20
-0.2999957501888275
 30
14.50915908813476
 10
-1000.000366210937
 20
-0.2999957501888275
 30
36.32344436645508
 10
-1000.000366210937
 20
-1.049995779991149
 30
38.95735931396485
 10
-1000.000366210937
 20
-2.904255151748657
 30
41.41902542114258
 10
-1000.000366210937
 20
-5.172441959381103
 30
43.50544357299805
 10
-1000.000366210937
 20
-8.475881576538085
 30
45.65340042114257
 10
-1000.000366210937
 20
-10.18204307556152
 30
47.5484390258789
 10
-1000.000366210937
 20
-10.71458911895752
 30
49.18279647827148
 10
-1000.000366210937
 20
-10.7166166305542
 30
50.90177154541016
 10
-1000.000366210937
 20
-10.18792629241943
 30
52.53738021850586
 10
-1000.000366210937
 20
-8.486239433288574
 30
54.43643951416015
 10
-1000.000366210937
 20
-5.470005989074707
 30
56.41687774658203
 10
-1000.000366210937
 20
-3.456352949142456
 30
58.28944778442383
 10
-1000.000366210937
 20
-1.818452715873718
 30
60.49794769287109
 10
-1000.000366210937
 20
-0.6111630201339722
 30
62.96832275390625
 10
-1000.000366210937
 20
-0.045852042734623
 30
64.93838500976562
 10
-1000.000366210937
 20
0.0000039560359255
 30
65.61394500732422
 10
-1000.000366210937
 20
0.0000039560359255
 30
68.8840103149414
 10
-1000.000366210937
 20
-0.0133718028664589
 30
68.99888610839844
 10
-1000.000366210937
 20
-0.4057882726192475
 30
70.00204467773437
 10
-1000.000366210937
 20
-0.0133718028664589
 30
71.00520324707031
 10
-1000.000366210937
 20
0.0000044328730837
 30
71.12007904052735
 10
-1000.000366210937
 20
0.0000039560359255
 30
75.0020523071289
 10
-1000.000366210937
 20
-4.008553981781005
 30
75.0020523071289
 10
-1000.000366210937
 20
-4.145813941955566
 30
74.94746398925781
 10
999.9992065429687
 20
-4.008553981781005
 30
75.00189971923828
 10
999.9992065429687
 20
0.0000039560359255
 30
75.00189971923828
 10
999.9992065429687
 20
0.0000044328730837
 30
71.11993408203125
 10
999.9992065429687
 20
-0.0133718028664589
 30
71.00505828857421
 10
999.9992065429687
 20
-0.4057877957820893
 30
70.00189971923828
 10
999.9992065429687
 20
-0.0133718028664589
 30
68.99874114990234
 10
999.9992065429687
 20
0.0000039560359255
 30
68.88386535644531
 10
999.9992065429687
 20
0.0000039560359255
 30
65.6137924194336
 10
999.9992065429687
 20
-0.045852042734623
 30
64.938232421875
 10
999.9992065429687
 20
-0.6111630201339722
 30
62.96817398071289
 10
999.9992065429687
 20
-1.818452715873718
 30
60.49779510498047
 10
999.9992065429687
 20
-3.456352949142456
 30
58.28929901123046
 10
999.9992065429687
 20
-5.470005989074707
 30
56.41672897338867
 10
999.9992065429687
 20
-8.486239433288574
 30
54.4362907409668
 10
999.9992065429687
 20
-10.18792629241943
 30
52.5372314453125
 10
999.9992065429687
 20
-10.7166166305542
 30
50.90162277221679
 10
999.9992065429687
 20
-10.71458911895752
 30
49.18264770507812
 10
999.9992065429687
 20
-10.18204307556152
 30
47.54829025268555
 10
999.9992065429687
 20
-8.475881576538085
 30
45.65325164794922
 10
999.9992065429687
 20
-5.172441959381103
 30
43.50529479980468
 10
999.9992065429687
 20
-2.904255151748657
 30
41.41887664794921
 10
999.9992065429687
 20
-1.049995779991149
 30
38.95721054077148
 10
999.9992065429687
 20
-0.2999957501888275
 30
36.32329559326172
 10
999.9992065429687
 20
-0.2999957501888275
 30
14.5090103149414
 10
999.9992065429687
 20
-0.2609866559505463
 30
14.31539154052734
 10
999.9992065429687
 20
-0.0384748950600624
 30
13.98659515380859
 10
999.9992065429687
 20
0.0000039560359255
 30
13.79479217529297
 10
999.9992065429687
 20
0.0000039560359255
 30
8.11993408203125
 10
999.9992065429687
 20
-0.0133722797036171
 30
8.005058288574218
 10
999.9992065429687
 20
-0.4057882726192475
 30
7.00189208984375
 10
999.9992065429687
 20
-0.0133718028664589
 30
5.998748779296875
 10
999.9992065429687
 20
0.0000044328730837
 30
5.883865356445312
 10
999.9992065429687
 20
0.0000039560359255
 30
0.0019073486328125
 10
999.9992065429687
 20
-5.834726333618164
 30
1.030715942382812
 10
999.9992065429687
 20
-5.9531831741333
 30
1.099151611328125
 10
999.9992065429687
 20
-5.999996185302734
 30
1.227691650390625
 10
999.9992065429687
 20
-5.999995708465576
 30
4.931015014648437
 10
999.9992065429687
 20
-6.031556606292724
 30
5.038848876953125
 10
999.9992065429687
 20
-6.116277694702148
 30
5.112640380859375
 10
999.9992065429687
 20
-6.687173843383789
 30
5.400848388671875
 10
999.9992065429687
 20
-7.904201984405517
 30
6.182754516601562
 10
999.9992065429687
 20
-9.222028732299804
 30
7.375259399414062
 10
999.9992065429687
 20
-10.18546676635742
 30
8.6937255859375
 10
999.9992065429687
 20
-10.80706405639648
 30
10.08026885986328
 10
999.9992065429687
 20
-11.10025405883789
 30
11.51505279541015
 10
999.9992065429687
 20
-11.02321910858154
 30
13.10650634765625
 10
999.9992065429687
 20
-10.49087238311767
 30
14.66654205322265
 10
999.9992065429687
 20
-9.449110031127929
 30
16.19353485107422
 10
999.9992065429687
 20
-8.719154357910156
 30
16.95404052734375
 10
999.9992065429687
 20
-8.655800819396972
 30
17.07006072998047
 10
999.9992065429687
 20
-8.678619384765625
 30
17.20026397705078
 10
999.9992065429687
 20
-9.931243896484375
 30
19.43708801269531
 10
999.9992065429687
 20
-9.95576000213623
 30
19.55461120605469
 10
999.9992065429687
 20
-9.908571243286132
 30
19.66499328613281
 10
999.9992065429687
 20
-8.895123481750488
 30
21.11383819580078
 10
999.9992065429687
 20
-7.949652194976806
 30
23.26865386962891
 10
999.9992065429687
 20
-7.534845829010009
 30
25.58493041992188
 10
999.9992065429687
 20
-7.53645372390747
 30
30.54072189331055
 10
999.9992065429687
 20
-8.148310661315917
 30
33.15668487548828
 10
999.9992065429687
 20
-9.257361412048339
 30
35.00484848022461
 10
999.9992065429687
 20
-10.81950092315674
 30
36.48980712890625
 10
999.9992065429687
 20
-12.72754573822021
 30
37.95553588867188
 10
999.9992065429687
 20
-14.54401779174804
 30
39.53333282470703
 10
999.9992065429687
 20
-16.26233863830566
 30
41.21748352050781
 10
999.9992065429687
 20
-17.87629508972168
 30
43.00189971923828
 10
999.9992065429687
 20
-19.21091651916504
 30
44.9649429321289
 10
999.9992065429687
 20
-20.09329986572266
 30
47.16852569580078
 10
999.9992065429687
 20
-20.4824104309082
 30
49.51021957397461
 10
999.9992065429687
 20
-20.36008453369141
 30
51.88078689575196
 10
999.9992065429687
 20
-19.73205184936523
 30
54.16989517211914
 10
999.9992065429687
 20
-18.51761245727539
 30
56.47383880615234
 10
999.9992065429687
 20
-16.74994659423828
 30
58.69012451171875
 10
999.9992065429687
 20
-14.5967435836792
 30
60.53432846069336
 10
999.9992065429687
 20
-12.13513374328613
 30
61.94039535522461
 10
999.9992065429687
 20
-10.81582927703857
 30
62.46278762817382
 10
999.9992065429687
 20
-10.72652339935302
 30
62.52447891235352
 10
999.9992065429687
 20
-10.68259143829346
 30
62.62373352050781
 10
999.9992065429687
 20
-10.21831130981445
 30
65.87368774414063
 10
999.9992065429687
 20
-10.17176628112793
 30
65.97603607177735
 10
999.9992065429687
 20
-10.07735824584961
 30
66.03709411621093
 10
999.9992065429687
 20
-9.301845550537109
 30
66.32266235351562
 10
999.9992065429687
 20
-8.213905334472656
 30
66.95149993896484
 10
999.9992065429687
 20
-6.934202194213867
 30
68.08686065673828
 10
999.9992065429687
 20
-5.898694992065429
 30
69.48076629638672
 10
999.9992065429687
 20
-5.319144248962402
 30
70.57984924316406
 10
999.9992065429687
 20
-4.816184997558593
 30
71.8546371459961
 10
999.9992065429687
 20
-4.464693069458007
 30
73.10608673095703
 10
999.9992065429687
 20
-4.28403091430664
 30
74.07516479492187
 10
999.9992065429687
 20
-4.208220481872558
 30
74.81342315673828
 10
999.9992065429687
 20
-4.145813941955566
 30
74.94731140136718
 93
      980
 90
        4
 90
       87
 90
       88
 90
       90
 90
       91
 90
        4
 90
       88
 90
       89
 90
      179
 90
       90
 90
        4
 90
       89
 90
        0
 90
      178
 90
      179
 90
        4
 90
        0
 90
        1
 90
      177
 90
      178
 90
        4
 90
        1
 90
        2
 90
      176
 90
      177
 90
        4
 90
        2
 90
        3
 90
      175
 90
      176
 90
        4
 90
        3
 90
        4
 90
      174
 90
      175
 90
        4
 90
        4
 90
        5
 90
      173
 90
      174
 90
        4
 90
        5
 90
        6
 90
      172
 90
      173
 90
        4
 90
        6
 90
        7
 90
      171
 90
      172
 90
        4
 90
        7
 90
        8
 90
      170
 90
      171
 90
        4
 90
        8
 90
        9
 90
      169
 90
      170
 90
        4
 90
        9
 90
       10
 90
      168
 90
      169
 90
        4
 90
       10
 90
       11
 90
      167
 90
      168
 90
        4
 90
       11
 90
       12
 90
      166
 90
      167
 90
        4
 90
       12
 90
       13
 90
      165
 90
      166
 90
        4
 90
       13
 90
       14
 90
      164
 90
      165
 90
        4
 90
       14
 90
       15
 90
      163
 90
      164
 90
        4
 90
       15
 90
       16
 90
      162
 90
      163
 90
        4
 90
       16
 90
       17
 90
      161
 90
      162
 90
        4
 90
       17
 90
       18
 90
      160
 90
      161
 90
        4
 90
       18
 90
       19
 90
      159
 90
      160
 90
        4
 90
       19
 90
       20
 90
      158
 90
      159
 90
        4
 90
       20
 90
       21
 90
      157
 90
      158
 90
        4
 90
       21
 90
       22
 90
      156
 90
      157
 90
        4
 90
       22
 90
       23
 90
      155
 90
      156
 90
        4
 90
       23
 90
       24
 90
      154
 90
      155
 90
        4
 90
       24
 90
       25
 90
      153
 90
      154
 90
        4
 90
       25
 90
       26
 90
      152
 90
      153
 90
        4
 90
       26
 90
       27
 90
      151
 90
      152
 90
        4
 90
       27
 90
       28
 90
      150
 90
      151
 90
        4
 90
       28
 90
       29
 90
      149
 90
      150
 90
        4
 90
       29
 90
       30
 90
      148
 90
      149
 90
        4
 90
       30
 90
       31
 90
      147
 90
      148
 90
        4
 90
       31
 90
       32
 90
      146
 90
      147
 90
        4
 90
       32
 90
       33
 90
      145
 90
      146
 90
        4
 90
       33
 90
       34
 90
      144
 90
      145
 90
        4
 90
       34
 90
       35
 90
      143
 90
      144
 90
        4
 90
       35
 90
       36
 90
      142
 90
      143
 90
        4
 90
       36
 90
       37
 90
      141
 90
      142
 90
        4
 90
       37
 90
       38
 90
      140
 90
      141
 90
        4
 90
       38
 90
       39
 90
      139
 90
      140
 90
        4
 90
       39
 90
       40
 90
      138
 90
      139
 90
        4
 90
       40
 90
       41
 90
      137
 90
      138
 90
        4
 90
       41
 90
       42
 90
      136
 90
      137
 90
        4
 90
       42
 90
       43
 90
      135
 90
      136
 90
        4
 90
       43
 90
       44
 90
      134
 90
      135
 90
        4
 90
       44
 90
       45
 90
      133
 90
      134
 90
        4
 90
       45
 90
       46
 90
      132
 90
      133
 90
        4
 90
       46
 90
       47
 90
      131
 90
      132
 90
        4
 90
       47
 90
       48
 90
      130
 90
      131
 90
        4
 90
       48
 90
       49
 90
      129
 90
      130
 90
        4
 90
       49
 90
       50
 90
      128
 90
      129
 90
        4
 90
       50
 90
       51
 90
      127
 90
      128
 90
        4
 90
       51
 90
       52
 90
      126
 90
      127
 90
        4
 90
       52
 90
       53
 90
      125
 90
      126
 90
        4
 90
       53
 90
       54
 90
      124
 90
      125
 90
        4
 90
       54
 90
       55
 90
      123
 90
      124
 90
        4
 90
       55
 90
       56
 90
      122
 90
      123
 90
        4
 90
       56
 90
       57
 90
      121
 90
      122
 90
        4
 90
       57
 90
       58
 90
      120
 90
      121
 90
        4
 90
       58
 90
       59
 90
      119
 90
      120
 90
        4
 90
       59
 90
       60
 90
      118
 90
      119
 90
        4
 90
       60
 90
       61
 90
      117
 90
      118
 90
        4
 90
       61
 90
       62
 90
      116
 90
      117
 90
        4
 90
       62
 90
       63
 90
      115
 90
      116
 90
        4
 90
       63
 90
       64
 90
      114
 90
      115
 90
        4
 90
       64
 90
       65
 90
      113
 90
      114
 90
        4
 90
       65
 90
       66
 90
      112
 90
      113
 90
        4
 90
       66
 90
       67
 90
      111
 90
      112
 90
        4
 90
       67
 90
       68
 90
      110
 90
      111
 90
        4
 90
       68
 90
       69
 90
      109
 90
      110
 90
        4
 90
       69
 90
       70
 90
      108
 90
      109
 90
        4
 90
       70
 90
       71
 90
      107
 90
      108
 90
        4
 90
       71
 90
       72
 90
      106
 90
      107
 90
        4
 90
       72
 90
       73
 90
      105
 90
      106
 90
        4
 90
       73
 90
       74
 90
      104
 90
      105
 90
        4
 90
       74
 90
       75
 90
      103
 90
      104
 90
        4
 90
       75
 90
       76
 90
      102
 90
      103
 90
        4
 90
       76
 90
       77
 90
      101
 90
      102
 90
        4
 90
       77
 90
       78
 90
      100
 90
      101
 90
        4
 90
       78
 90
       79
 90
       99
 90
      100
 90
        4
 90
       79
 90
       80
 90
       98
 90
       99
 90
        4
 90
       80
 90
       81
 90
       97
 90
       98
 90
        4
 90
       81
 90
       82
 90
       96
 90
       97
 90
        4
 90
       82
 90
       83
 90
       95
 90
       96
 90
        4
 90
       83
 90
       84
 90
       94
 90
       95
 90
        4
 90
       84
 90
       85
 90
       93
 90
       94
 90
        4
 90
       85
 90
       86
 90
       92
 90
       93
 90
        4
 90
       86
 90
       87
 90
       91
 90
       92
 90
        3
 90
       86
 90
        2
 90
        1
 90
        3
 90
       57
 90
       55
 90
       54
 90
        3
 90
       57
 90
       54
 90
       53
 90
        3
 90
       57
 90
       56
 90
       55
 90
        3
 90
       57
 90
       53
 90
       52
 90
        4
 90
       58
 90
       57
 90
       52
 90
       51
 90
        4
 90
       59
 90
       58
 90
       51
 90
       50
 90
        4
 90
       60
 90
       59
 90
       50
 90
       49
 90
        4
 90
       61
 90
       60
 90
       49
 90
       48
 90
        4
 90
       65
 90
       64
 90
       40
 90
       39
 90
        4
 90
       64
 90
       63
 90
       41
 90
       40
 90
        4
 90
       62
 90
       61
 90
       48
 90
       47
 90
        3
 90
       62
 90
       47
 90
       46
 90
        3
 90
       63
 90
       43
 90
       42
 90
        3
 90
       63
 90
       42
 90
       41
 90
        3
 90
       63
 90
       44
 90
       43
 90
        3
 90
       62
 90
       46
 90
       45
 90
        4
 90
       63
 90
       62
 90
       45
 90
       44
 90
        3
 90
       65
 90
       39
 90
       38
 90
        3
 90
       65
 90
       38
 90
       37
 90
        3
 90
       65
 90
       37
 90
       36
 90
        3
 90
       65
 90
       35
 90
       34
 90
        3
 90
       65
 90
       36
 90
       35
 90
        3
 90
       66
 90
       31
 90
       30
 90
        4
 90
       66
 90
       65
 90
       32
 90
       31
 90
        3
 90
       65
 90
       34
 90
       33
 90
        3
 90
       65
 90
       33
 90
       32
 90
        4
 90
       67
 90
       66
 90
       30
 90
       29
 90
        4
 90
       68
 90
       67
 90
       29
 90
       28
 90
        4
 90
       69
 90
       68
 90
       28
 90
       27
 90
        3
 90
       69
 90
       27
 90
       26
 90
        4
 90
       71
 90
       70
 90
       25
 90
       24
 90
        4
 90
       70
 90
       69
 90
       26
 90
       25
 90
        4
 90
       72
 90
       71
 90
       24
 90
       23
 90
        3
 90
       72
 90
       23
 90
       22
 90
        4
 90
       73
 90
       72
 90
       22
 90
       21
 90
        4
 90
       74
 90
       73
 90
       21
 90
       20
 90
        3
 90
       74
 90
       20
 90
       19
 90
        3
 90
       74
 90
       19
 90
       18
 90
        4
 90
       75
 90
       74
 90
       18
 90
       17
 90
        4
 90
       76
 90
       75
 90
       17
 90
       16
 90
        4
 90
       77
 90
       76
 90
       16
 90
       15
 90
        3
 90
       78
 90
       14
 90
       13
 90
        3
 90
       78
 90
       13
 90
       12
 90
        4
 90
       78
 90
       77
 90
       15
 90
       14
 90
        4
 90
       79
 90
       78
 90
       12
 90
       11
 90
        3
 90
       79
 90
       11
 90
       10
 90
        3
 90
       79
 90
       10
 90
        9
 90
        4
 90
       86
 90
       85
 90
        3
 90
        2
 90
        4
 90
       85
 90
       84
 90
        4
 90
        3
 90
        4
 90
       84
 90
       83
 90
        5
 90
        4
 90
        4
 90
       83
 90
       82
 90
        6
 90
        5
 90
        4
 90
       82
 90
       81
 90
        7
 90
        6
 90
        4
 90
       81
 90
       80
 90
        8
 90
        7
 90
        4
 90
       80
 90
       79
 90
        9
 90
        8
 90
        3
 90
        0
 90
       89
 90
       86
 90
        3
 90
        1
 90
        0
 90
       86
 90
        3
 90
       89
 90
       88
 90
       86
 90
        3
 90
       88
 90
       87
 90
       86
 90
        3
 90
       92
 90
      177
 90
      176
 90
        3
 90
      121
 90
      124
 90
      123
 90
        3
 90
      121
 90
      125
 90
      124
 90
        3
 90
      121
 90
      123
 90
      122
 90
        3
 90
      121
 90
      126
 90
      125
 90
        4
 90
      120
 90
      127
 90
      126
 90
      121
 90
        4
 90
      119
 90
      128
 90
      127
 90
      120
 90
        4
 90
      118
 90
      129
 90
      128
 90
      119
 90
        4
 90
      117
 90
      130
 90
      129
 90
      118
 90
        4
 90
      113
 90
      139
 90
      138
 90
      114
 90
        4
 90
      114
 90
      138
 90
      137
 90
      115
 90
        4
 90
      116
 90
      131
 90
      130
 90
      117
 90
        3
 90
      116
 90
      132
 90
      131
 90
        3
 90
      115
 90
      136
 90
      135
 90
        3
 90
      115
 90
      137
 90
      136
 90
        3
 90
      115
 90
      135
 90
      134
 90
        3
 90
      116
 90
      133
 90
      132
 90
        4
 90
      115
 90
      134
 90
      133
 90
      116
 90
        3
 90
      113
 90
      140
 90
      139
 90
        3
 90
      113
 90
      141
 90
      140
 90
        3
 90
      113
 90
      142
 90
      141
 90
        3
 90
      113
 90
      144
 90
      143
 90
        3
 90
      113
 90
      143
 90
      142
 90
        3
 90
      112
 90
      148
 90
      147
 90
        4
 90
      112
 90
      147
 90
      146
 90
      113
 90
        3
 90
      113
 90
      145
 90
      144
 90
        3
 90
      113
 90
      146
 90
      145
 90
        4
 90
      111
 90
      149
 90
      148
 90
      112
 90
        4
 90
      110
 90
      150
 90
      149
 90
      111
 90
        4
 90
      109
 90
      151
 90
      150
 90
      110
 90
        3
 90
      109
 90
      152
 90
      151
 90
        4
 90
      107
 90
      154
 90
      153
 90
      108
 90
        4
 90
      108
 90
      153
 90
      152
 90
      109
 90
        4
 90
      106
 90
      155
 90
      154
 90
      107
 90
        3
 90
      106
 90
      156
 90
      155
 90
        4
 90
      105
 90
      157
 90
      156
 90
      106
 90
        4
 90
      104
 90
      158
 90
      157
 90
      105
 90
        3
 90
      104
 90
      159
 90
      158
 90
        3
 90
      104
 90
      160
 90
      159
 90
        4
 90
      103
 90
      161
 90
      160
 90
      104
 90
        4
 90
      102
 90
      162
 90
      161
 90
      103
 90
        4
 90
      101
 90
      163
 90
      162
 90
      102
 90
        3
 90
      100
 90
      165
 90
      164
 90
        3
 90
      100
 90
      166
 90
      165
 90
        4
 90
      100
 90
      164
 90
      163
 90
      101
 90
        4
 90
       99
 90
      167
 90
      166
 90
      100
 90
        3
 90
       99
 90
      168
 90
      167
 90
        3
 90
       99
 90
      169
 90
      168
 90
        4
 90
       92
 90
      176
 90
      175
 90
       93
 90
        4
 90
       93
 90
      175
 90
      174
 90
       94
 90
        4
 90
       94
 90
      174
 90
      173
 90
       95
 90
        4
 90
       95
 90
      173
 90
      172
 90
       96
 90
        4
 90
       96
 90
      172
 90
      171
 90
       97
 90
        4
 90
       97
 90
      171
 90
      170
 90
       98
 90
        4
 90
       98
 90
      170
 90
      169
 90
       99
 90
        3
 90
      178
 90
       92
 90
      179
 90
        3
 90
      177
 90
       92
 90
      178
 90
        3
 90
      179
 90
       92
 90
       90
 90
        3
 90
       90
 90
       92
 90
       91
 94
      386
 90
       87
 90
       88
 90
       88
 90
       90
 90
       90
 90
       91
 90
       87
 90
       91
 90
       88
 90
       89
 90
       89
 90
      179
 90
       90
 90
      179
 90
        0
 90
       89
 90
        0
 90
      178
 90
      178
 90
      179
 90
        0
 90
        1
 90
        1
 90
      177
 90
      177
 90
      178
 90
        1
 90
        2
 90
        2
 90
      176
 90
      176
 90
      177
 90
        2
 90
        3
 90
        3
 90
      175
 90
      175
 90
      176
 90
        3
 90
        4
 90
        4
 90
      174
 90
      174
 90
      175
 90
        4
 90
        5
 90
        5
 90
      173
 90
      173
 90
      174
 90
        5
 90
        6
 90
        6
 90
      172
 90
      172
 90
      173
 90
        6
 90
        7
 90
        7
 90
      171
 90
      171
 90
      172
 90
        7
 90
        8
 90
        8
 90
      170
 90
      170
 90
      171
 90
        8
 90
        9
 90
        9
 90
      169
 90
      169
 90
      170
 90
        9
 90
       10
 90
       10
 90
      168
 90
      168
 90
      169
 90
       10
 90
       11
 90
       11
 90
      167
 90
      167
 90
      168
 90
       11
 90
       12
 90
       12
 90
      166
 90
      166
 90
      167
 90
       12
 90
       13
 90
       13
 90
      165
 90
      165
 90
      166
 90
       13
 90
       14
 90
       14
 90
      164
 90
      164
 90
      165
 90
       14
 90
       15
 90
       15
 90
      163
 90
      163
 90
      164
 90
       15
 90
       16
 90
       16
 90
      162
 90
      162
 90
      163
 90
       16
 90
       17
 90
       17
 90
      161
 90
      161
 90
      162
 90
       17
 90
       18
 90
       18
 90
      160
 90
      160
 90
      161
 90
       18
 90
       19
 90
       19
 90
      159
 90
      159
 90
      160
 90
       19
 90
       20
 90
       20
 90
      158
 90
      158
 90
      159
 90
       20
 90
       21
 90
       21
 90
      157
 90
      157
 90
      158
 90
       21
 90
       22
 90
       22
 90
      156
 90
      156
 90
      157
 90
       22
 90
       23
 90
       23
 90
      155
 90
      155
 90
      156
 90
       23
 90
       24
 90
       24
 90
      154
 90
      154
 90
      155
 90
       24
 90
       25
 90
       25
 90
      153
 90
      153
 90
      154
 90
       25
 90
       26
 90
       26
 90
      152
 90
      152
 90
      153
 90
       26
 90
       27
 90
       27
 90
      151
 90
      151
 90
      152
 90
       27
 90
       28
 90
       28
 90
      150
 90
      150
 90
      151
 90
       28
 90
       29
 90
       29
 90
      149
 90
      149
 90
      150
 90
       29
 90
       30
 90
       30
 90
      148
 90
      148
 90
      149
 90
       30
 90
       31
 90
       31
 90
      147
 90
      147
 90
      148
 90
       31
 90
       32
 90
       32
 90
      146
 90
      146
 90
      147
 90
       32
 90
       33
 90
       33
 90
      145
 90
      145
 90
      146
 90
       33
 90
       34
 90
       34
 90
      144
 90
      144
 90
      145
 90
       34
 90
       35
 90
       35
 90
      143
 90
      143
 90
      144
 90
       35
 90
       36
 90
       36
 90
      142
 90
      142
 90
      143
 90
       36
 90
       37
 90
       37
 90
      141
 90
      141
 90
      142
 90
       37
 90
       38
 90
       38
 90
      140
 90
      140
 90
      141
 90
       38
 90
       39
 90
       39
 90
      139
 90
      139
 90
      140
 90
       39
 90
       40
 90
       40
 90
      138
 90
      138
 90
      139
 90
       40
 90
       41
 90
       41
 90
      137
 90
      137
 90
      138
 90
       41
 90
       42
 90
       42
 90
      136
 90
      136
 90
      137
 90
       42
 90
       43
 90
       43
 90
      135
 90
      135
 90
      136
 90
       43
 90
       44
 90
       44
 90
      134
 90
      134
 90
      135
 90
       44
 90
       45
 90
       45
 90
      133
 90
      133
 90
      134
 90
       45
 90
       46
 90
       46
 90
      132
 90
      132
 90
      133
 90
       46
 90
       47
 90
       47
 90
      131
 90
      131
 90
      132
 90
       47
 90
       48
 90
       48
 90
      130
 90
      130
 90
      131
 90
       48
 90
       49
 90
       49
 90
      129
 90
      129
 90
      130
 90
       49
 90
       50
 90
       50
 90
      128
 90
      128
 90
      129
 90
       50
 90
       51
 90
       51
 90
      127
 90
      127
 90
      128
 90
       51
 90
       52
 90
       52
 90
      126
 90
      126
 90
      127
 90
       52
 90
       53
 90
       53
 90
      125
 90
      125
 90
      126
 90
       53
 90
       54
 90
       54
 90
      124
 90
      124
 90
      125
 90
       54
 90
       55
 90
       55
 90
      123
 90
      123
 90
      124
 90
       55
 90
       56
 90
       56
 90
      122
 90
      122
 90
      123
 90
       56
 90
       57
 90
       57
 90
      121
 90
      121
 90
      122
 90
       57
 90
       58
 90
       58
 90
      120
 90
      120
 90
      121
 90
       58
 90
       59
 90
       59
 90
      119
 90
      119
 90
      120
 90
       59
 90
       60
 90
       60
 90
      118
 90
      118
 90
      119
 90
       60
 90
       61
 90
       61
 90
      117
 90
      117
 90
      118
 90
       61
 90
       62
 90
       62
 90
      116
 90
      116
 90
      117
 90
       62
 90
       63
 90
       63
 90
      115
 90
      115
 90
      116
 90
       63
 90
       64
 90
       64
 90
      114
 90
      114
 90
      115
 90
       64
 90
       65
 90
       65
 90
      113
 90
      113
 90
      114
 90
       65
 90
       66
 90
       66
 90
      112
 90
      112
 90
      113
 90
       66
 90
       67
 90
       67
 90
      111
 90
      111
 90
      112
 90
       67
 90
       68
 90
       68
 90
      110
 90
      110
 90
      111
 90
       68
 90
       69
 90
       69
 90
      109
 90
      109
 90
      110
 90
       69
 90
       70
 90
       70
 90
      108
 90
      108
 90
      109
 90
       70
 90
       71
 90
       71
 90
      107
 90
      107
 90
      108
 90
       71
 90
       72
 90
       72
 90
      106
 90
      106
 90
      107
 90
       72
 90
       73
 90
       73
 90
      105
 90
      105
 90
      106
 90
       73
 90
       74
 90
       74
 90
      104
 90
      104
 90
      105
 90
       74
 90
       75
 90
       75
 90
      103
 90
      103
 90
      104
 90
       75
 90
       76
 90
       76
 90
      102
 90
      102
 90
      103
 90
       76
 90
       77
 90
       77
 90
      101
 90
      101
 90
      102
 90
       77
 90
       78
 90
       78
 90
      100
 90
      100
 90
      101
 90
       78
 90
       79
 90
       79
 90
       99
 90
       99
 90
      100
 90
       79
 90
       80
 90
       80
 90
       98
 90
       98
 90
       99
 90
       80
 90
       81
 90
       81
 90
       97
 90
       97
 90
       98
 90
       81
 90
       82
 90
       82
 90
       96
 90
       96
 90
       97
 90
       82
 90
       83
 90
       83
 90
       95
 90
       95
 90
       96
 90
       83
 90
       84
 90
       84
 90
       94
 90
       94
 90
       95
 90
       84
 90
       85
 90
       85
 90
       93
 90
       93
 90
       94
 90
       85
 90
       86
 90
       86
 90
       92
 90
       92
 90
       93
 90
       86
 90
       87
 90
       91
 90
       92
 90
        2
 90
       86
 90
        1
 90
       86
 90
       55
 90
       57
 90
       54
 90
       57
 90
       53
 90
       57
 90
       52
 90
       57
 90
       51
 90
       58
 90
       50
 90
       59
 90
       49
 90
       60
 90
       48
 90
       61
 90
       40
 90
       64
 90
       39
 90
       65
 90
       41
 90
       63
 90
       47
 90
       62
 90
       46
 90
       62
 90
       43
 90
       63
 90
       42
 90
       63
 90
       44
 90
       63
 90
       45
 90
       62
 90
       38
 90
       65
 90
       37
 90
       65
 90
       36
 90
       65
 90
       35
 90
       65
 90
       34
 90
       65
 90
       31
 90
       66
 90
       30
 90
       66
 90
       32
 90
       65
 90
       33
 90
       65
 90
       29
 90
       67
 90
       28
 90
       68
 90
       27
 90
       69
 90
       26
 90
       69
 90
       25
 90
       70
 90
       24
 90
       71
 90
       23
 90
       72
 90
       22
 90
       72
 90
       21
 90
       73
 90
       20
 90
       74
 90
       19
 90
       74
 90
       18
 90
       74
 90
       17
 90
       75
 90
       16
 90
       76
 90
       15
 90
       77
 90
       14
 90
       78
 90
       13
 90
       78
 90
       12
 90
       78
 90
       11
 90
       79
 90
       10
 90
       79
 90
        9
 90
       79
 90
        3
 90
       85
 90
        4
 90
       84
 90
        5
 90
       83
 90
        6
 90
       82
 90
        7
 90
       81
 90
        8
 90
       80
 90
       86
 90
       89
 90
        0
 90
       86
 90
       86
 90
       88
 90
       92
 90
      177
 90
       92
 90
      176
 90
      121
 90
      124
 90
      121
 90
      123
 90
      121
 90
      125
 90
      121
 90
      126
 90
      120
 90
      127
 90
      119
 90
      128
 90
      118
 90
      129
 90
      117
 90
      130
 90
      113
 90
      139
 90
      114
 90
      138
 90
      115
 90
      137
 90
      116
 90
      131
 90
      116
 90
      132
 90
      115
 90
      136
 90
      115
 90
      135
 90
      115
 90
      134
 90
      116
 90
      133
 90
      113
 90
      140
 90
      113
 90
      141
 90
      113
 90
      142
 90
      113
 90
      144
 90
      113
 90
      143
 90
      112
 90
      148
 90
      112
 90
      147
 90
      113
 90
      146
 90
      113
 90
      145
 90
      111
 90
      149
 90
      110
 90
      150
 90
      109
 90
      151
 90
      109
 90
      152
 90
      107
 90
      154
 90
      108
 90
      153
 90
      106
 90
      155
 90
      106
 90
      156
 90
      105
 90
      157
 90
      104
 90
      158
 90
      104
 90
      159
 90
      104
 90
      160
 90
      103
 90
      161
 90
      102
 90
      162
 90
      101
 90
      163
 90
      100
 90
      165
 90
      100
 90
      164
 90
      100
 90
      166
 90
       99
 90
      167
 90
       99
 90
      168
 90
       99
 90
      169
 90
       93
 90
      175
 90
       94
 90
      174
 90
       95
 90
      173
 90
       96
 90
      172
 90
       97
 90
      171
 90
       98
 90
      170
 90
       92
 90
      178
 90
       92
 90
      179
 90
       90
 90
       92
 95
      386
140
0.0
140
0.0
140
0.0
140
0.0
140
0.0
140
0.0
140
0.0
140
0.0
140
0.0
140
0.0
140
0.0
140
0.0
140
0.0
140
0.0
140
0.0
140
0.0
140
0.0
140
0.0
140
0.0
140
0.0
140
0.0
140
0.0
140
0.0
140
0.0
140
0.0
140
0.0
140
0.0
140
0.0
140
0.0
140
0.0
140
0.0
140
0.0
140
0.0
140
0.0
140
0.0
140
0.0
140
0.0
140
0.0
140
0.0
140
0.0
140
0.0
140
0.0
140
0.0
140
0.0
140
0.0
140
0.0
140
0.0
140
0.0
140
0.0
140
0.0
140
0.0
140
0.0
140
0.0
140
0.0
140
0.0
140
0.0
140
0.0
140
0.0
140
0.0
140
0.0
140
0.0
140
0.0
140
0.0
140
0.0
140
0.0
140
0.0
140
0.0
140
0.0
140
0.0
140
0.0
140
0.0
140
0.0
140
0.0
140
0.0
140
0.0
140
0.0
140
0.0
140
0.0
140
0.0
140
0.0
140
0.0
140
0.0
140
0.0
140
0.0
140
0.0
140
0.0
140
0.0
140
0.0
140
0.0
140
0.0
140
0.0
140
0.0
140
0.0
140
0.0
140
0.0
140
0.0
140
0.0
140
0.0
140
0.0
140
0.0
140
0.0
140
0.0
140
0.0
140
0.0
140
0.0
140
0.0
140
0.0
140
0.0
140
0.0
140
0.0
140
0.0
140
0.0
140
0.0
140
0.0
140
0.0
140
0.0
140
0.0
140
0.0
140
0.0
140
0.0
140
0.0
140
0.0
140
0.0
140
0.0
140
0.0
140
0.0
140
0.0
140
0.0
140
0.0
140
0.0
140
0.0
140
0.0
140
0.0
140
0.0
140
0.0
140
0.0
140
0.0
140
0.0
140
0.0
140
0.0
140
0.0
140
0.0
140
0.0
140
0.0
140
0.0
140
0.0
140
0.0
140
0.0
140
0.0
140
0.0
140
0.0
140
0.0
140
0.0
140
0.0
140
0.0
140
0.0
140
0.0
140
0.0
140
0.0
140
0.0
140
0.0
140
0.0
140
0.0
140
0.0
140
0.0
140
0.0
140
0.0
140
0.0
140
0.0
140
0.0
140
0.0
140
0.0
140
0.0
140
0.0
140
0.0
140
0.0
140
0.0
140
0.0
140
0.0
140
0.0
140
0.0
140
0.0
140
0.0
140
0.0
140
0.0
140
0.0
140
0.0
140
0.0
140
0.0
140
0.0
140
0.0
140
0.0
140
0.0
140
0.0
140
0.0
140
0.0
140
0.0
140
0.0
140
0.0
140
0.0
140
0.0
140
0.0
140
0.0
140
0.0
140
0.0
140
0.0
140
0.0
140
0.0
140
0.0
140
0.0
140
0.0
140
0.0
140
0.0
140
0.0
140
0.0
140
0.0
140
0.0
140
0.0
140
0.0
140
0.0
140
0.0
140
0.0
140
0.0
140
0.0
140
0.0
140
0.0
140
0.0
140
0.0
140
0.0
140
0.0
140
0.0
140
0.0
140
0.0
140
0.0
140
0.0
140
0.0
140
0.0
140
0.0
140
0.0
140
0.0
140
0.0
140
0.0
140
0.0
140
0.0
140
0.0
140
0.0
140
0.0
140
0.0
140
0.0
140
0.0
140
0.0
140
0.0
140
0.0
140
0.0
140
0.0
140
0.0
140
0.0
140
0.0
140
0.0
140
0.0
140
0.0
140
0.0
140
0.0
140
0.0
140
0.0
140
0.0
140
0.0
140
0.0
140
0.0
140
0.0
140
0.0
140
0.0
140
0.0
140
0.0
140
0.0
140
0.0
140
0.0
140
0.0
140
0.0
140
0.0
140
0.0
140
0.0
140
0.0
140
0.0
140
0.0
140
0.0
140
0.0
140
0.0
140
0.0
140
0.0
140
0.0
140
0.0
140
0.0
140
0.0
140
0.0
140
0.0
140
0.0
140
0.0
140
0.0
140
0.0
140
0.0
140
0.0
140
0.0
140
0.0
140
0.0
140
0.0
140
0.0
140
0.0
140
0.0
140
0.0
140
0.0
140
0.0
140
0.0
140
0.0
140
0.0
140
0.0
140
0.0
140
0.0
140
0.0
140
0.0
140
0.0
140
0.0
140
0.0
140
0.0
140
0.0
140
0.0
140
0.0
140
0.0
140
0.0
140
0.0
140
0.0
140
0.0
140
0.0
140
0.0
140
0.0
140
0.0
140
0.0
140
0.0
140
0.0
140
0.0
140
0.0
140
0.0
140
0.0
140
0.0
140
0.0
140
0.0
140
0.0
140
0.0
140
0.0
140
0.0
140
0.0
140
0.0
140
0.0
140
0.0
140
0.0
140
0.0
140
0.0
140
0.0
140
0.0
140
0.0
140
0.0
140
0.0
140
0.0
140
0.0
140
0.0
140
0.0
140
0.0
140
0.0
140
0.0
140
0.0
140
0.0
140
0.0
140
0.0
140
0.0
140
0.0
140
0.0
140
0.0
140
0.0
140
0.0
140
0.0
140
0.0
140
0.0
140
0.0
140
0.0
140
0.0
140
0.0
 90
        0
  0
POLYLINE
  5
FA
330
1F
100
AcDbEntity
  8
OracDecor_panel_moldings
 62
    61
420
 14083225
100
AcDb2dPolyline
 66
     1
 10
0.0
 20
0.0
 30
-0.0000072946650107
 70
     1
210
-0.9999999999999769
220
0.0000001788139343
230
-0.0000001192092896
  0
VERTEX
  5
FB
330
FA
100
AcDbEntity
  8
OracDecor_panel_moldings
 62
    61
420
 14083225
100
AcDbVertex
100
AcDb2dVertex
 10
-4.208220481872558
 20
74.8135757446289
 30
-0.0000072946650107
  0
VERTEX
  5
FC
330
FA
100
AcDbEntity
  8
OracDecor_panel_moldings
 62
    61
420
 14083225
100
AcDbVertex
100
AcDb2dVertex
 10
-4.28403091430664
 20
74.07530975341797
 30
-0.0000072946650107
  0
VERTEX
  5
FD
330
FA
100
AcDbEntity
  8
OracDecor_panel_moldings
 62
    61
420
 14083225
100
AcDbVertex
100
AcDb2dVertex
 10
-4.464693069458007
 20
73.10623168945312
 30
-0.0000072946650107
  0
VERTEX
  5
FE
330
FA
100
AcDbEntity
  8
OracDecor_panel_moldings
 62
    61
420
 14083225
100
AcDbVertex
100
AcDb2dVertex
 10
-4.816184997558593
 20
71.85478210449218
 30
-0.0000072946650107
  0
VERTEX
  5
FF
330
FA
100
AcDbEntity
  8
OracDecor_panel_moldings
 62
    61
420
 14083225
100
AcDbVertex
100
AcDb2dVertex
 10
-5.319144248962402
 20
70.57999420166016
 30
-0.0000072946650107
  0
VERTEX
  5
100
330
FA
100
AcDbEntity
  8
OracDecor_panel_moldings
 62
    61
420
 14083225
100
AcDbVertex
100
AcDb2dVertex
 10
-5.898694992065429
 20
69.48091125488281
 30
-0.0000072946650107
  0
VERTEX
  5
101
330
FA
100
AcDbEntity
  8
OracDecor_panel_moldings
 62
    61
420
 14083225
100
AcDbVertex
100
AcDb2dVertex
 10
-6.934202194213867
 20
68.08700561523437
 30
-0.0000072946650107
  0
VERTEX
  5
102
330
FA
100
AcDbEntity
  8
OracDecor_panel_moldings
 62
    61
420
 14083225
100
AcDbVertex
100
AcDb2dVertex
 10
-8.213905334472656
 20
66.95165252685547
 30
-0.0000072946650107
  0
VERTEX
  5
103
330
FA
100
AcDbEntity
  8
OracDecor_panel_moldings
 62
    61
420
 14083225
100
AcDbVertex
100
AcDb2dVertex
 10
-9.301845550537109
 20
66.32281494140625
 30
-0.0000072946650107
  0
VERTEX
  5
104
330
FA
100
AcDbEntity
  8
OracDecor_panel_moldings
 62
    61
420
 14083225
100
AcDbVertex
100
AcDb2dVertex
 10
-10.07735824584961
 20
66.03724670410156
 30
-0.0000072946650107
  0
VERTEX
  5
105
330
FA
100
AcDbEntity
  8
OracDecor_panel_moldings
 62
    61
420
 14083225
100
AcDbVertex
100
AcDb2dVertex
 10
-10.17176628112793
 20
65.97618103027343
 30
-0.0000072946650107
  0
VERTEX
  5
106
330
FA
100
AcDbEntity
  8
OracDecor_panel_moldings
 62
    61
420
 14083225
100
AcDbVertex
100
AcDb2dVertex
 10
-10.21831130981445
 20
65.87384033203125
 30
-0.0000072946650107
  0
VERTEX
  5
107
330
FA
100
AcDbEntity
  8
OracDecor_panel_moldings
 62
    61
420
 14083225
100
AcDbVertex
100
AcDb2dVertex
 10
-10.68259143829346
 20
62.62388610839844
 30
-0.0000072946650107
  0
VERTEX
  5
108
330
FA
100
AcDbEntity
  8
OracDecor_panel_moldings
 62
    61
420
 14083225
100
AcDbVertex
100
AcDb2dVertex
 10
-10.72652339935302
 20
62.52462768554687
 30
-0.0000072946650107
  0
VERTEX
  5
109
330
FA
100
AcDbEntity
  8
OracDecor_panel_moldings
 62
    61
420
 14083225
100
AcDbVertex
100
AcDb2dVertex
 10
-10.81582927703857
 20
62.46293640136719
 30
-0.0000072946650107
  0
VERTEX
  5
10A
330
FA
100
AcDbEntity
  8
OracDecor_panel_moldings
 62
    61
420
 14083225
100
AcDbVertex
100
AcDb2dVertex
 10
-12.13513374328613
 20
61.94054412841797
 30
-0.0000072946650107
  0
VERTEX
  5
10B
330
FA
100
AcDbEntity
  8
OracDecor_panel_moldings
 62
    61
420
 14083225
100
AcDbVertex
100
AcDb2dVertex
 10
-14.5967435836792
 20
60.53447723388671
 30
-0.0000072946650107
  0
VERTEX
  5
10C
330
FA
100
AcDbEntity
  8
OracDecor_panel_moldings
 62
    61
420
 14083225
100
AcDbVertex
100
AcDb2dVertex
 10
-16.74994659423828
 20
58.69027328491211
 30
-0.0000072946650107
  0
VERTEX
  5
10D
330
FA
100
AcDbEntity
  8
OracDecor_panel_moldings
 62
    61
420
 14083225
100
AcDbVertex
100
AcDb2dVertex
 10
-18.51761245727539
 20
56.47399139404297
 30
-0.0000072946650107
  0
VERTEX
  5
10E
330
FA
100
AcDbEntity
  8
OracDecor_panel_moldings
 62
    61
420
 14083225
100
AcDbVertex
100
AcDb2dVertex
 10
-19.73205184936523
 20
54.1700439453125
 30
-0.0000072946650107
  0
VERTEX
  5
10F
330
FA
100
AcDbEntity
  8
OracDecor_panel_moldings
 62
    61
420
 14083225
100
AcDbVertex
100
AcDb2dVertex
 10
-20.36008453369141
 20
51.88093566894531
 30
-0.0000072946650107
  0
VERTEX
  5
110
330
FA
100
AcDbEntity
  8
OracDecor_panel_moldings
 62
    61
420
 14083225
100
AcDbVertex
100
AcDb2dVertex
 10
-20.4824104309082
 20
49.51036834716797
 30
-0.0000072946650107
  0
VERTEX
  5
111
330
FA
100
AcDbEntity
  8
OracDecor_panel_moldings
 62
    61
420
 14083225
100
AcDbVertex
100
AcDb2dVertex
 10
-20.09329986572266
 20
47.16867446899414
 30
-0.0000072946650107
  0
VERTEX
  5
112
330
FA
100
AcDbEntity
  8
OracDecor_panel_moldings
 62
    61
420
 14083225
100
AcDbVertex
100
AcDb2dVertex
 10
-19.21091651916504
 20
44.96509170532227
 30
-0.0000072946650107
  0
VERTEX
  5
113
330
FA
100
AcDbEntity
  8
OracDecor_panel_moldings
 62
    61
420
 14083225
100
AcDbVertex
100
AcDb2dVertex
 10
-17.87629508972168
 20
43.00204849243164
 30
-0.0000072946650107
  0
VERTEX
  5
114
330
FA
100
AcDbEntity
  8
OracDecor_panel_moldings
 62
    61
420
 14083225
100
AcDbVertex
100
AcDb2dVertex
 10
-16.26233863830566
 20
41.21763229370117
 30
-0.0000072946650107
  0
VERTEX
  5
115
330
FA
100
AcDbEntity
  8
OracDecor_panel_moldings
 62
    61
420
 14083225
100
AcDbVertex
100
AcDb2dVertex
 10
-14.54401779174804
 20
39.53347778320313
 30
-0.0000072946650107
  0
VERTEX
  5
116
330
FA
100
AcDbEntity
  8
OracDecor_panel_moldings
 62
    61
420
 14083225
100
AcDbVertex
100
AcDb2dVertex
 10
-12.72754573822021
 20
37.95568466186523
 30
-0.0000072946650107
  0
VERTEX
  5
117
330
FA
100
AcDbEntity
  8
OracDecor_panel_moldings
 62
    61
420
 14083225
100
AcDbVertex
100
AcDb2dVertex
 10
-10.81950092315674
 20
36.48995590209961
 30
-0.0000072946650107
  0
VERTEX
  5
118
330
FA
100
AcDbEntity
  8
OracDecor_panel_moldings
 62
    61
420
 14083225
100
AcDbVertex
100
AcDb2dVertex
 10
-9.257361412048339
 20
35.00499725341797
 30
-0.0000072946650107
  0
VERTEX
  5
119
330
FA
100
AcDbEntity
  8
OracDecor_panel_moldings
 62
    61
420
 14083225
100
AcDbVertex
100
AcDb2dVertex
 10
-8.148310661315917
 20
33.15683364868164
 30
-0.0000072946650107
  0
VERTEX
  5
11A
330
FA
100
AcDbEntity
  8
OracDecor_panel_moldings
 62
    61
420
 14083225
100
AcDbVertex
100
AcDb2dVertex
 10
-7.53645372390747
 20
30.54087066650391
 30
-0.0000072946650107
  0
VERTEX
  5
11B
330
FA
100
AcDbEntity
  8
OracDecor_panel_moldings
 62
    61
420
 14083225
100
AcDbVertex
100
AcDb2dVertex
 10
-7.534845829010009
 20
25.58507919311523
 30
-0.0000072946650107
  0
VERTEX
  5
11C
330
FA
100
AcDbEntity
  8
OracDecor_panel_moldings
 62
    61
420
 14083225
100
AcDbVertex
100
AcDb2dVertex
 10
-7.949652194976806
 20
23.26880645751953
 30
-0.0000072946650107
  0
VERTEX
  5
11D
330
FA
100
AcDbEntity
  8
OracDecor_panel_moldings
 62
    61
420
 14083225
100
AcDbVertex
100
AcDb2dVertex
 10
-8.895123481750488
 20
21.11398696899414
 30
-0.0000072946650107
  0
VERTEX
  5
11E
330
FA
100
AcDbEntity
  8
OracDecor_panel_moldings
 62
    61
420
 14083225
100
AcDbVertex
100
AcDb2dVertex
 10
-9.908571243286132
 20
19.66514205932617
 30
-0.0000072946650107
  0
VERTEX
  5
11F
330
FA
100
AcDbEntity
  8
OracDecor_panel_moldings
 62
    61
420
 14083225
100
AcDbVertex
100
AcDb2dVertex
 10
-9.95576000213623
 20
19.55475997924805
 30
-0.0000072946650107
  0
VERTEX
  5
120
330
FA
100
AcDbEntity
  8
OracDecor_panel_moldings
 62
    61
420
 14083225
100
AcDbVertex
100
AcDb2dVertex
 10
-9.931243896484375
 20
19.43723678588867
 30
-0.0000072946650107
  0
VERTEX
  5
121
330
FA
100
AcDbEntity
  8
OracDecor_panel_moldings
 62
    61
420
 14083225
100
AcDbVertex
100
AcDb2dVertex
 10
-8.678619384765625
 20
17.20041275024414
 30
-0.0000072946650107
  0
VERTEX
  5
122
330
FA
100
AcDbEntity
  8
OracDecor_panel_moldings
 62
    61
420
 14083225
100
AcDbVertex
100
AcDb2dVertex
 10
-8.655800819396972
 20
17.07020950317383
 30
-0.0000072946650107
  0
VERTEX
  5
123
330
FA
100
AcDbEntity
  8
OracDecor_panel_moldings
 62
    61
420
 14083225
100
AcDbVertex
100
AcDb2dVertex
 10
-8.719154357910156
 20
16.95418930053711
 30
-0.0000072946650107
  0
VERTEX
  5
124
330
FA
100
AcDbEntity
  8
OracDecor_panel_moldings
 62
    61
420
 14083225
100
AcDbVertex
100
AcDb2dVertex
 10
-9.449110031127929
 20
16.19368743896484
 30
-0.0000072946650107
  0
VERTEX
  5
125
330
FA
100
AcDbEntity
  8
OracDecor_panel_moldings
 62
    61
420
 14083225
100
AcDbVertex
100
AcDb2dVertex
 10
-10.49087238311767
 20
14.6666898727417
 30
-0.0000072946650107
  0
VERTEX
  5
126
330
FA
100
AcDbEntity
  8
OracDecor_panel_moldings
 62
    61
420
 14083225
100
AcDbVertex
100
AcDb2dVertex
 10
-11.02321910858154
 20
13.10665416717529
 30
-0.0000072946650107
  0
VERTEX
  5
127
330
FA
100
AcDbEntity
  8
OracDecor_panel_moldings
 62
    61
420
 14083225
100
AcDbVertex
100
AcDb2dVertex
 10
-11.10025405883789
 20
11.5152006149292
 30
-0.0000072946650107
  0
VERTEX
  5
128
330
FA
100
AcDbEntity
  8
OracDecor_panel_moldings
 62
    61
420
 14083225
100
AcDbVertex
100
AcDb2dVertex
 10
-10.80706405639648
 20
10.08042049407959
 30
-0.0000072946650107
  0
VERTEX
  5
129
330
FA
100
AcDbEntity
  8
OracDecor_panel_moldings
 62
    61
420
 14083225
100
AcDbVertex
100
AcDb2dVertex
 10
-10.18546676635742
 20
8.693877220153808
 30
-0.0000072946650107
  0
VERTEX
  5
12A
330
FA
100
AcDbEntity
  8
OracDecor_panel_moldings
 62
    61
420
 14083225
100
AcDbVertex
100
AcDb2dVertex
 10
-9.222028732299804
 20
7.375411510467529
 30
-0.0000072946650107
  0
VERTEX
  5
12B
330
FA
100
AcDbEntity
  8
OracDecor_panel_moldings
 62
    61
420
 14083225
100
AcDbVertex
100
AcDb2dVertex
 10
-7.904201984405517
 20
6.182906627655029
 30
-0.0000072946650107
  0
VERTEX
  5
12C
330
FA
100
AcDbEntity
  8
OracDecor_panel_moldings
 62
    61
420
 14083225
100
AcDbVertex
100
AcDb2dVertex
 10
-6.687173843383789
 20
5.401000499725341
 30
-0.0000072946650107
  0
VERTEX
  5
12D
330
FA
100
AcDbEntity
  8
OracDecor_panel_moldings
 62
    61
420
 14083225
100
AcDbVertex
100
AcDb2dVertex
 10
-6.116277694702148
 20
5.112792491912841
 30
-0.0000072946650107
  0
VERTEX
  5
12E
330
FA
100
AcDbEntity
  8
OracDecor_panel_moldings
 62
    61
420
 14083225
100
AcDbVertex
100
AcDb2dVertex
 10
-6.031556606292724
 20
5.03899335861206
 30
-0.0000072946650107
  0
VERTEX
  5
12F
330
FA
100
AcDbEntity
  8
OracDecor_panel_moldings
 62
    61
420
 14083225
100
AcDbVertex
100
AcDb2dVertex
 10
-5.999995708465576
 20
4.931159496307373
 30
-0.0000072946650107
  0
VERTEX
  5
130
330
FA
100
AcDbEntity
  8
OracDecor_panel_moldings
 62
    61
420
 14083225
100
AcDbVertex
100
AcDb2dVertex
 10
-5.999996185302734
 20
1.22783625125885
 30
-0.0000072946650107
  0
VERTEX
  5
131
330
FA
100
AcDbEntity
  8
OracDecor_panel_moldings
 62
    61
420
 14083225
100
AcDbVertex
100
AcDb2dVertex
 10
-5.9531831741333
 20
1.09929621219635
 30
-0.0000072946650107
  0
VERTEX
  5
132
330
FA
100
AcDbEntity
  8
OracDecor_panel_moldings
 62
    61
420
 14083225
100
AcDbVertex
100
AcDb2dVertex
 10
-5.834726333618164
 20
1.030868172645568
 30
-0.0000072946650107
  0
VERTEX
  5
133
330
FA
100
AcDbEntity
  8
OracDecor_panel_moldings
 62
    61
420
 14083225
100
AcDbVertex
100
AcDb2dVertex
 10
0.0000039560359255
 20
0.0020523071289063
 30
-0.0000072946650107
  0
VERTEX
  5
134
330
FA
100
AcDbEntity
  8
OracDecor_panel_moldings
 62
    61
420
 14083225
100
AcDbVertex
100
AcDb2dVertex
 10
0.0000044328730837
 20
5.884017944335937
 30
-0.0000072946650107
  0
VERTEX
  5
135
330
FA
100
AcDbEntity
  8
OracDecor_panel_moldings
 62
    61
420
 14083225
100
AcDbVertex
100
AcDb2dVertex
 10
-0.0133718028664589
 20
5.998893737792968
 30
-0.0000072946650107
  0
VERTEX
  5
136
330
FA
100
AcDbEntity
  8
OracDecor_panel_moldings
 62
    61
420
 14083225
100
AcDbVertex
100
AcDb2dVertex
 10
-0.4057882726192475
 20
7.002044677734375
 30
-0.0000072946650107
  0
VERTEX
  5
137
330
FA
100
AcDbEntity
  8
OracDecor_panel_moldings
 62
    61
420
 14083225
100
AcDbVertex
100
AcDb2dVertex
 10
-0.0133722797036171
 20
8.005210876464843
 30
-0.0000072946650107
  0
VERTEX
  5
138
330
FA
100
AcDbEntity
  8
OracDecor_panel_moldings
 62
    61
420
 14083225
100
AcDbVertex
100
AcDb2dVertex
 10
0.0000039560359255
 20
8.120086669921875
 30
-0.0000072946650107
  0
VERTEX
  5
139
330
FA
100
AcDbEntity
  8
OracDecor_panel_moldings
 62
    61
420
 14083225
100
AcDbVertex
100
AcDb2dVertex
 10
0.0000039560359255
 20
13.79494094848633
 30
-0.0000072946650107
  0
VERTEX
  5
13A
330
FA
100
AcDbEntity
  8
OracDecor_panel_moldings
 62
    61
420
 14083225
100
AcDbVertex
100
AcDb2dVertex
 10
-0.0384748950600624
 20
13.98674392700195
 30
-0.0000072946650107
  0
VERTEX
  5
13B
330
FA
100
AcDbEntity
  8
OracDecor_panel_moldings
 62
    61
420
 14083225
100
AcDbVertex
100
AcDb2dVertex
 10
-0.2609866559505463
 20
14.3155403137207
 30
-0.0000072946650107
  0
VERTEX
  5
13C
330
FA
100
AcDbEntity
  8
OracDecor_panel_moldings
 62
    61
420
 14083225
100
AcDbVertex
100
AcDb2dVertex
 10
-0.2999957501888275
 20
14.50915908813476
 30
-0.0000072946650107
  0
VERTEX
  5
13D
330
FA
100
AcDbEntity
  8
OracDecor_panel_moldings
 62
    61
420
 14083225
100
AcDbVertex
100
AcDb2dVertex
 10
-0.2999957501888275
 20
36.32344436645508
 30
-0.0000072946650107
  0
VERTEX
  5
13E
330
FA
100
AcDbEntity
  8
OracDecor_panel_moldings
 62
    61
420
 14083225
100
AcDbVertex
100
AcDb2dVertex
 10
-1.049995779991149
 20
38.95735931396485
 30
-0.0000072946650107
  0
VERTEX
  5
13F
330
FA
100
AcDbEntity
  8
OracDecor_panel_moldings
 62
    61
420
 14083225
100
AcDbVertex
100
AcDb2dVertex
 10
-2.904255151748657
 20
41.41902542114258
 30
-0.0000072946650107
  0
VERTEX
  5
140
330
FA
100
AcDbEntity
  8
OracDecor_panel_moldings
 62
    61
420
 14083225
100
AcDbVertex
100
AcDb2dVertex
 10
-5.172441959381103
 20
43.50544357299805
 30
-0.0000072946650107
  0
VERTEX
  5
141
330
FA
100
AcDbEntity
  8
OracDecor_panel_moldings
 62
    61
420
 14083225
100
AcDbVertex
100
AcDb2dVertex
 10
-8.475881576538085
 20
45.65340042114257
 30
-0.0000072946650107
  0
VERTEX
  5
142
330
FA
100
AcDbEntity
  8
OracDecor_panel_moldings
 62
    61
420
 14083225
100
AcDbVertex
100
AcDb2dVertex
 10
-10.18204307556152
 20
47.5484390258789
 30
-0.0000072946650107
  0
VERTEX
  5
143
330
FA
100
AcDbEntity
  8
OracDecor_panel_moldings
 62
    61
420
 14083225
100
AcDbVertex
100
AcDb2dVertex
 10
-10.71458911895752
 20
49.18279647827148
 30
-0.0000072946650107
  0
VERTEX
  5
144
330
FA
100
AcDbEntity
  8
OracDecor_panel_moldings
 62
    61
420
 14083225
100
AcDbVertex
100
AcDb2dVertex
 10
-10.7166166305542
 20
50.90177154541016
 30
-0.0000072946650107
  0
VERTEX
  5
145
330
FA
100
AcDbEntity
  8
OracDecor_panel_moldings
 62
    61
420
 14083225
100
AcDbVertex
100
AcDb2dVertex
 10
-10.18792629241943
 20
52.53738021850586
 30
-0.0000072946650107
  0
VERTEX
  5
146
330
FA
100
AcDbEntity
  8
OracDecor_panel_moldings
 62
    61
420
 14083225
100
AcDbVertex
100
AcDb2dVertex
 10
-8.486239433288574
 20
54.43643951416015
 30
-0.0000072946650107
  0
VERTEX
  5
147
330
FA
100
AcDbEntity
  8
OracDecor_panel_moldings
 62
    61
420
 14083225
100
AcDbVertex
100
AcDb2dVertex
 10
-5.470005989074707
 20
56.41687774658203
 30
-0.0000072946650107
  0
VERTEX
  5
148
330
FA
100
AcDbEntity
  8
OracDecor_panel_moldings
 62
    61
420
 14083225
100
AcDbVertex
100
AcDb2dVertex
 10
-3.456352949142456
 20
58.28944778442383
 30
-0.0000072946650107
  0
VERTEX
  5
149
330
FA
100
AcDbEntity
  8
OracDecor_panel_moldings
 62
    61
420
 14083225
100
AcDbVertex
100
AcDb2dVertex
 10
-1.818452715873718
 20
60.49794769287109
 30
-0.0000072946650107
  0
VERTEX
  5
14A
330
FA
100
AcDbEntity
  8
OracDecor_panel_moldings
 62
    61
420
 14083225
100
AcDbVertex
100
AcDb2dVertex
 10
-0.6111630201339722
 20
62.96832275390625
 30
-0.0000072946650107
  0
VERTEX
  5
14B
330
FA
100
AcDbEntity
  8
OracDecor_panel_moldings
 62
    61
420
 14083225
100
AcDbVertex
100
AcDb2dVertex
 10
-0.045852042734623
 20
64.93838500976562
 30
-0.0000072946650107
  0
VERTEX
  5
14C
330
FA
100
AcDbEntity
  8
OracDecor_panel_moldings
 62
    61
420
 14083225
100
AcDbVertex
100
AcDb2dVertex
 10
0.000003956036835
 20
65.61394500732422
 30
-0.0000072946650107
  0
VERTEX
  5
14D
330
FA
100
AcDbEntity
  8
OracDecor_panel_moldings
 62
    61
420
 14083225
100
AcDbVertex
100
AcDb2dVertex
 10
0.000003956036835
 20
68.8840103149414
 30
-0.0000072946650107
  0
VERTEX
  5
14E
330
FA
100
AcDbEntity
  8
OracDecor_panel_moldings
 62
    61
420
 14083225
100
AcDbVertex
100
AcDb2dVertex
 10
-0.0133718028664589
 20
68.99888610839844
 30
-0.0000072946650107
  0
VERTEX
  5
14F
330
FA
100
AcDbEntity
  8
OracDecor_panel_moldings
 62
    61
420
 14083225
100
AcDbVertex
100
AcDb2dVertex
 10
-0.4057882726192475
 20
70.00204467773437
 30
-0.0000072946650107
  0
VERTEX
  5
150
330
FA
100
AcDbEntity
  8
OracDecor_panel_moldings
 62
    61
420
 14083225
100
AcDbVertex
100
AcDb2dVertex
 10
-0.0133718028664589
 20
71.00520324707031
 30
-0.0000072946650107
  0
VERTEX
  5
151
330
FA
100
AcDbEntity
  8
OracDecor_panel_moldings
 62
    61
420
 14083225
100
AcDbVertex
100
AcDb2dVertex
 10
0.0000044328739932
 20
71.12007904052735
 30
-0.0000072946650107
  0
VERTEX
  5
152
330
FA
100
AcDbEntity
  8
OracDecor_panel_moldings
 62
    61
420
 14083225
100
AcDbVertex
100
AcDb2dVertex
 10
0.000003956036835
 20
75.0020523071289
 30
-0.0000072946650107
  0
VERTEX
  5
153
330
FA
100
AcDbEntity
  8
OracDecor_panel_moldings
 62
    61
420
 14083225
100
AcDbVertex
100
AcDb2dVertex
 10
-4.008553981781005
 20
75.0020523071289
 30
-0.0000072946650107
  0
VERTEX
  5
154
330
FA
100
AcDbEntity
  8
OracDecor_panel_moldings
 62
    61
420
 14083225
100
AcDbVertex
100
AcDb2dVertex
 10
-4.145813941955566
 20
74.94746398925781
 30
-0.0000072946650107
  0
SEQEND
  5
155
330
FA
100
AcDbEntity
  8
OracDecor_panel_moldings
 62
    61
420
 14083225
  0
ENDSEC
  0
SECTION
  2
OBJECTS
  0
DICTIONARY
  5
C
330
0
100
AcDbDictionary
281
     1
  3
ACAD_COLOR
350
DC
  3
ACAD_DETAILVIEWSTYLE
350
F5
  3
ACAD_GROUP
350
D
  3
ACAD_LAYOUT
350
1A
  3
ACAD_MATERIAL
350
AA
  3
ACAD_MLEADERSTYLE
350
F1
  3
ACAD_MLINESTYLE
350
17
  3
ACAD_PLOTSETTINGS
350
19
  3
ACAD_PLOTSTYLENAME
350
E
  3
ACAD_SCALELIST
350
DF
  3
ACAD_SECTIONVIEWSTYLE
350
F3
  3
ACAD_TABLESTYLE
350
DD
  3
ACAD_VISUALSTYLE
350
C3
  3
ACDB_RECOMPOSE_DATA
350
162
  3
AcDbVariableDictionary
350
156
  0
DICTIONARY
  5
DC
102
{ACAD_REACTORS
330
C
102
}
330
C
100
AcDbDictionary
281
     1
  0
DICTIONARY
  5
F5
102
{ACAD_REACTORS
330
C
102
}
330
C
100
AcDbDictionary
281
     1
  3
Imperial24
350
F6
  0
DICTIONARY
  5
D
102
{ACAD_REACTORS
330
C
102
}
330
C
100
AcDbDictionary
281
     1
  0
DICTIONARY
  5
1A
102
{ACAD_REACTORS
330
C
102
}
330
C
100
AcDbDictionary
281
     1
  3
Layout1
350
1E
  3
Layout2
350
26
  3
Model
350
22
  0
DICTIONARY
  5
AA
102
{ACAD_REACTORS
330
C
102
}
330
C
100
AcDbDictionary
281
     1
  3
ByBlock
350
B3
  3
ByLayer
350
AB
  3
Global
350
BB
  0
DICTIONARY
  5
F1
102
{ACAD_REACTORS
330
C
102
}
330
C
100
AcDbDictionary
281
     1
  3
Standard
350
F2
  0
DICTIONARY
  5
17
102
{ACAD_REACTORS
330
C
102
}
330
C
100
AcDbDictionary
281
     1
  3
Standard
350
18
  0
DICTIONARY
  5
19
102
{ACAD_REACTORS
330
C
102
}
330
C
100
AcDbDictionary
281
     1
  0
ACDBDICTIONARYWDFLT
  5
E
102
{ACAD_REACTORS
330
C
102
}
330
C
100
AcDbDictionary
281
     1
  3
ByLayer
350
2D
  3
Normal
350
F
100
AcDbDictionaryWithDefault
340
F
  0
DICTIONARY
  5
DF
102
{ACAD_REACTORS
330
C
102
}
330
C
100
AcDbDictionary
281
     1
  3
A0
350
E0
  3
A1
350
E1
  3
A2
350
E2
  3
A3
350
E3
  3
A4
350
E4
  3
A5
350
E5
  3
A6
350
E6
  3
A7
350
E7
  3
A8
350
E8
  3
A9
350
E9
  3
B0
350
EA
  3
B1
350
EB
  3
B2
350
EC
  3
B3
350
ED
  3
B4
350
EE
  3
B5
350
EF
  3
B6
350
F0
  0
DICTIONARY
  5
F3
102
{ACAD_REACTORS
330
C
102
}
330
C
100
AcDbDictionary
281
     1
  3
Imperial24
350
F4
  0
DICTIONARY
  5
DD
102
{ACAD_REACTORS
330
C
102
}
330
C
100
AcDbDictionary
281
     1
  3
Standard
350
DE
  0
DICTIONARY
  5
C3
102
{ACAD_REACTORS
330
C
102
}
330
C
100
AcDbDictionary
281
     1
  3
2dWireframe
350
C9
  3
Basic
350
C8
  3
Brighten
350
CF
  3
ColorChange
350
D3
  3
Conceptual
350
CC
  3
Dim
350
CE
  3
EdgeColorOff
350
DB
  3
Facepattern
350
D2
  3
Flat
350
C4
  3
FlatWithEdges
350
C5
  3
Gouraud
350
C6
  3
GouraudWithEdges
350
C7
  3
Hidden
350
CB
  3
JitterOff
350
D9
  3
Linepattern
350
D1
  3
OverhangOff
350
DA
  3
Realistic
350
CD
  3
Shaded
350
D8
  3
Shaded with edges
350
D7
  3
Shades of Gray
350
D4
  3
Sketchy
350
D5
  3
Thicken
350
D0
  3
Wireframe
350
CA
  3
X-Ray
350
D6
  0
XRECORD
  5
162
102
{ACAD_REACTORS
330
C
102
}
330
C
100
AcDbXrecord
280
     1
 90
        1
330
DE
  0
DICTIONARY
  5
156
102
{ACAD_REACTORS
330
C
102
}
330
C
100
AcDbDictionary
281
     1
  3
CANNOSCALE
350
15C
  3
CMLEADERSTYLE
350
158
  3
CTABLESTYLE
350
157
  3
CVIEWDETAILSTYLE
350
159
  3
CVIEWSECTIONSTYLE
350
15A
  3
LAYEREVAL
350
15E
  3
LAYERNOTIFY
350
15F
  3
LIGHTINGUNITS
350
15D
  3
MSLTSCALE
350
15B
  0
ACDBDETAILVIEWSTYLE
  5
F6
102
{ACAD_XDICTIONARY
360
197
102
}
102
{ACAD_REACTORS
330
F5
102
}
330
F5
100
AcDbModelDocViewStyle
 70
     0
  3
Imperial24
290
     0
100
AcDbDetailViewStyle
 70
     0
 71
     0
 90
        3
 71
     1
340
11
 62
   256
 40
0.24
340
0
 62
   256
 40
0.24
300

 40
0.36
280
     3
 71
     2
340
16
 90
       25
 62
   256
 71
     3
340
11
 62
   256
 40
0.24
 90
        1
 40
0.75
 90
        1
300
%<\AcVar ViewType \f "%tc1">% %<\AcVar ViewDetailId>%\PSCALE %<\AcVar ViewScale \f "%sn">%
 71
     4
340
16
 90
       25
 62
   256
340
16
 90
       25
 62
   256
280
     0
  0
LAYOUT
  5
1E
102
{ACAD_REACTORS
330
1A
102
}
330
1A
100
AcDbPlotSettings
  1

  2
\\KTXNTBDC\CASF2PN1
  4

  6

 40
0.0
 41
0.0
 42
0.0
 43
0.0
 44
0.0
 45
0.0
 46
0.0
 47
0.0
 48
0.0
 49
0.0
140
0.0
141
0.0
142
1.0
143
1.0
 70
   688
 72
     0
 73
     0
 74
     5
  7

 75
    16
147
1.0
 76
     0
 77
     2
 78
   300
148
0.0
149
0.0
100
AcDbLayout
  1
Layout1
 70
     1
 71
     1
 10
0.0
 20
0.0
 11
12.0
 21
9.0
 12
0.0
 22
0.0
 32
0.0
 14
1.000000000000000E+20
 24
1.000000000000000E+20
 34
1.000000000000000E+20
 15
-1.000000000000000E+20
 25
-1.000000000000000E+20
 35
-1.000000000000000E+20
146
0.0
 13
0.0
 23
0.0
 33
0.0
 16
1.0
 26
0.0
 36
0.0
 17
0.0
 27
1.0
 37
0.0
 76
     0
330
1B
  0
LAYOUT
  5
26
102
{ACAD_REACTORS
330
1A
102
}
330
1A
100
AcDbPlotSettings
  1

  2
\\KTXNTBDC\CASF2PN1
  4

  6

 40
0.0
 41
0.0
 42
0.0
 43
0.0
 44
0.0
 45
0.0
 46
0.0
 47
0.0
 48
0.0
 49
0.0
140
0.0
141
0.0
142
1.0
143
1.0
 70
   688
 72
     0
 73
     0
 74
     5
  7

 75
    16
147
1.0
 76
     0
 77
     2
 78
   300
148
0.0
149
0.0
100
AcDbLayout
  1
Layout2
 70
     1
 71
     2
 10
0.0
 20
0.0
 11
12.0
 21
9.0
 12
0.0
 22
0.0
 32
0.0
 14
0.0
 24
0.0
 34
0.0
 15
0.0
 25
0.0
 35
0.0
146
0.0
 13
0.0
 23
0.0
 33
0.0
 16
1.0
 26
0.0
 36
0.0
 17
0.0
 27
1.0
 37
0.0
 76
     0
330
23
  0
LAYOUT
  5
22
102
{ACAD_REACTORS
330
1A
102
}
330
1A
100
AcDbPlotSettings
  1

  2
\\KTXNTBDC\CASF2PN1
  4

  6

 40
0.0
 41
0.0
 42
0.0
 43
0.0
 44
0.0
 45
0.0
 46
0.0
 47
0.0
 48
0.0
 49
0.0
140
0.0
141
0.0
142
1.0
143
1.0
 70
  1712
 72
     0
 73
     0
 74
     0
  7

 75
     0
147
1.0
 76
     0
 77
     2
 78
   300
148
0.0
149
0.0
100
AcDbLayout
  1
Model
 70
     1
 71
     0
 10
0.0
 20
0.0
 11
12.0
 21
9.0
 12
0.0
 22
0.0
 32
0.0
 14
0.0
 24
0.0
 34
0.0
 15
0.0
 25
0.0
 35
0.0
146
0.0
 13
0.0
 23
0.0
 33
0.0
 16
1.0
 26
0.0
 36
0.0
 17
0.0
 27
1.0
 37
0.0
 76
     0
330
1F
  0
MATERIAL
  5
B3
102
{ACAD_XDICTIONARY
360
B4
102
}
102
{ACAD_REACTORS
330
AA
102
}
330
AA
100
AcDbMaterial
  1
ByBlock
 72
     0
 43
0.0208333333333333
 43
0.0
 43
0.0
 43
0.0
 43
0.0
 43
0.0208333333333333
 43
0.0
 43
0.0
 43
0.0
 43
0.0
 43
1.0
 43
0.0
 43
0.0
 43
0.0
 43
0.0
 43
1.0
 77
     0
 47
0.0208333333333333
 47
0.0
 47
0.0
 47
0.0
 47
0.0
 47
0.0208333333333333
 47
0.0
 47
0.0
 47
0.0
 47
0.0
 47
1.0
 47
0.0
 47
0.0
 47
0.0
 47
0.0
 47
1.0
171
     0
 49
0.0208333333333333
 49
0.0
 49
0.0
 49
0.0
 49
0.0
 49
0.0208333333333333
 49
0.0
 49
0.0
 49
0.0
 49
0.0
 49
1.0
 49
0.0
 49
0.0
 49
0.0
 49
0.0
 49
1.0
175
     0
142
0.0208333333333333
142
0.0
142
0.0
142
0.0
142
0.0
142
0.0208333333333333
142
0.0
142
0.0
142
0.0
142
0.0
142
1.0
142
0.0
142
0.0
142
0.0
142
0.0
142
1.0
179
     0
144
0.0208333333333333
144
0.0
144
0.0
144
0.0
144
0.0
144
0.0208333333333333
144
0.0
144
0.0
144
0.0
144
0.0
144
1.0
144
0.0
144
0.0
144
0.0
144
0.0
144
1.0
147
0.0208333333333333
147
0.0
147
0.0
147
0.0
147
0.0
147
0.0208333333333333
147
0.0
147
0.0
147
0.0
147
0.0
147
1.0
147
0.0
147
0.0
147
0.0
147
0.0
147
1.0
  0
MATERIAL
  5
AB
102
{ACAD_XDICTIONARY
360
AC
102
}
102
{ACAD_REACTORS
330
AA
102
}
330
AA
100
AcDbMaterial
  1
ByLayer
 72
     0
 43
0.0208333333333333
 43
0.0
 43
0.0
 43
0.0
 43
0.0
 43
0.0208333333333333
 43
0.0
 43
0.0
 43
0.0
 43
0.0
 43
1.0
 43
0.0
 43
0.0
 43
0.0
 43
0.0
 43
1.0
 77
     0
 47
0.0208333333333333
 47
0.0
 47
0.0
 47
0.0
 47
0.0
 47
0.0208333333333333
 47
0.0
 47
0.0
 47
0.0
 47
0.0
 47
1.0
 47
0.0
 47
0.0
 47
0.0
 47
0.0
 47
1.0
171
     0
 49
0.0208333333333333
 49
0.0
 49
0.0
 49
0.0
 49
0.0
 49
0.0208333333333333
 49
0.0
 49
0.0
 49
0.0
 49
0.0
 49
1.0
 49
0.0
 49
0.0
 49
0.0
 49
0.0
 49
1.0
175
     0
142
0.0208333333333333
142
0.0
142
0.0
142
0.0
142
0.0
142
0.0208333333333333
142
0.0
142
0.0
142
0.0
142
0.0
142
1.0
142
0.0
142
0.0
142
0.0
142
0.0
142
1.0
179
     0
144
0.0208333333333333
144
0.0
144
0.0
144
0.0
144
0.0
144
0.0208333333333333
144
0.0
144
0.0
144
0.0
144
0.0
144
1.0
144
0.0
144
0.0
144
0.0
144
0.0
144
1.0
147
0.0208333333333333
147
0.0
147
0.0
147
0.0
147
0.0
147
0.0208333333333333
147
0.0
147
0.0
147
0.0
147
0.0
147
1.0
147
0.0
147
0.0
147
0.0
147
0.0
147
1.0
  0
MATERIAL
  5
BB
102
{ACAD_XDICTIONARY
360
BC
102
}
102
{ACAD_REACTORS
330
AA
102
}
330
AA
100
AcDbMaterial
  1
Global
 72
     0
 43
0.0208333333333333
 43
0.0
 43
0.0
 43
0.0
 43
0.0
 43
0.0208333333333333
 43
0.0
 43
0.0
 43
0.0
 43
0.0
 43
1.0
 43
0.0
 43
0.0
 43
0.0
 43
0.0
 43
1.0
 77
     0
 47
0.0208333333333333
 47
0.0
 47
0.0
 47
0.0
 47
0.0
 47
0.0208333333333333
 47
0.0
 47
0.0
 47
0.0
 47
0.0
 47
1.0
 47
0.0
 47
0.0
 47
0.0
 47
0.0
 47
1.0
171
     0
 49
0.0208333333333333
 49
0.0
 49
0.0
 49
0.0
 49
0.0
 49
0.0208333333333333
 49
0.0
 49
0.0
 49
0.0
 49
0.0
 49
1.0
 49
0.0
 49
0.0
 49
0.0
 49
0.0
 49
1.0
175
     0
142
0.0208333333333333
142
0.0
142
0.0
142
0.0
142
0.0
142
0.0208333333333333
142
0.0
142
0.0
142
0.0
142
0.0
142
1.0
142
0.0
142
0.0
142
0.0
142
0.0
142
1.0
179
     0
144
0.0208333333333333
144
0.0
144
0.0
144
0.0
144
0.0
144
0.0208333333333333
144
0.0
144
0.0
144
0.0
144
0.0
144
1.0
144
0.0
144
0.0
144
0.0
144
0.0
144
1.0
147
0.0208333333333333
147
0.0
147
0.0
147
0.0
147
0.0
147
0.0208333333333333
147
0.0
147
0.0
147
0.0
147
0.0
147
1.0
147
0.0
147
0.0
147
0.0
147
0.0
147
1.0
  0
MLEADERSTYLE
  5
F2
102
{ACAD_XDICTIONARY
360
193
102
}
102
{ACAD_REACTORS
330
F1
102
}
330
F1
100
AcDbMLeaderStyle
179
     2
170
     2
171
     1
172
     0
 90
        2
 40
0.0
 41
0.0
173
     1
 91
-1056964608
340
14
 92
       -2
290
     1
 42
0.09
291
     1
 43
0.36
  3
Standard
 44
0.18
300

342
11
174
     1
178
     6
175
     1
176
     0
 93
-1056964608
 45
0.18
292
     0
297
     0
 46
0.18
 94
-1056964608
 47
1.0
 49
1.0
140
1.0
293
     1
141
0.0
294
     1
177
     0
142
1.0
295
     0
296
     0
143
0.125
271
     0
272
     9
273
     9
  0
MLINESTYLE
  5
18
102
{ACAD_REACTORS
330
17
102
}
330
17
100
AcDbMlineStyle
  2
STANDARD
 70
     0
  3

 62
   256
 51
90.0
 52
90.0
 71
     2
 49
0.5
 62
   256
  6
BYLAYER
 49
-0.5
 62
   256
  6
BYLAYER
  0
ACDBPLACEHOLDER
  5
2D
102
{ACAD_REACTORS
330
E
102
}
330
E
  0
ACDBPLACEHOLDER
  5
F
102
{ACAD_REACTORS
330
E
102
}
330
E
  0
SCALE
  5
E0
102
{ACAD_REACTORS
330
DF
102
}
330
DF
100
AcDbScale
 70
     0
300
1:1
140
1.0
141
1.0
290
     1
  0
SCALE
  5
E1
102
{ACAD_REACTORS
330
DF
102
}
330
DF
100
AcDbScale
 70
     0
300
1/128" = 1'-0"
140
0.0078125
141
12.0
290
     0
  0
SCALE
  5
E2
102
{ACAD_REACTORS
330
DF
102
}
330
DF
100
AcDbScale
 70
     0
300
1/64" = 1'-0"
140
0.015625
141
12.0
290
     0
  0
SCALE
  5
E3
102
{ACAD_REACTORS
330
DF
102
}
330
DF
100
AcDbScale
 70
     0
300
1/32" = 1'-0"
140
0.03125
141
12.0
290
     0
  0
SCALE
  5
E4
102
{ACAD_REACTORS
330
DF
102
}
330
DF
100
AcDbScale
 70
     0
300
1/16" = 1'-0"
140
0.0625
141
12.0
290
     0
  0
SCALE
  5
E5
102
{ACAD_REACTORS
330
DF
102
}
330
DF
100
AcDbScale
 70
     0
300
3/32" = 1'-0"
140
0.09375
141
12.0
290
     0
  0
SCALE
  5
E6
102
{ACAD_REACTORS
330
DF
102
}
330
DF
100
AcDbScale
 70
     0
300
1/8" = 1'-0"
140
0.125
141
12.0
290
     0
  0
SCALE
  5
E7
102
{ACAD_REACTORS
330
DF
102
}
330
DF
100
AcDbScale
 70
     0
300
3/16" = 1'-0"
140
0.1875
141
12.0
290
     0
  0
SCALE
  5
E8
102
{ACAD_REACTORS
330
DF
102
}
330
DF
100
AcDbScale
 70
     0
300
1/4" = 1'-0"
140
0.25
141
12.0
290
     0
  0
SCALE
  5
E9
102
{ACAD_REACTORS
330
DF
102
}
330
DF
100
AcDbScale
 70
     0
300
3/8" = 1'-0"
140
0.375
141
12.0
290
     0
  0
SCALE
  5
EA
102
{ACAD_REACTORS
330
DF
102
}
330
DF
100
AcDbScale
 70
     0
300
1/2" = 1'-0"
140
0.5
141
12.0
290
     0
  0
SCALE
  5
EB
102
{ACAD_REACTORS
330
DF
102
}
330
DF
100
AcDbScale
 70
     0
300
3/4" = 1'-0"
140
0.75
141
12.0
290
     0
  0
SCALE
  5
EC
102
{ACAD_REACTORS
330
DF
102
}
330
DF
100
AcDbScale
 70
     0
300
1" = 1'-0"
140
1.0
141
12.0
290
     0
  0
SCALE
  5
ED
102
{ACAD_REACTORS
330
DF
102
}
330
DF
100
AcDbScale
 70
     0
300
1-1/2" = 1'-0"
140
1.5
141
12.0
290
     0
  0
SCALE
  5
EE
102
{ACAD_REACTORS
330
DF
102
}
330
DF
100
AcDbScale
 70
     0
300
3" = 1'-0"
140
3.0
141
12.0
290
     0
  0
SCALE
  5
EF
102
{ACAD_REACTORS
330
DF
102
}
330
DF
100
AcDbScale
 70
     0
300
6" = 1'-0"
140
6.0
141
12.0
290
     0
  0
SCALE
  5
F0
102
{ACAD_REACTORS
330
DF
102
}
330
DF
100
AcDbScale
 70
     0
300
1'-0" = 1'-0"
140
12.0
141
12.0
290
     0
  0
ACDBSECTIONVIEWSTYLE
  5
F4
102
{ACAD_XDICTIONARY
360
195
102
}
102
{ACAD_REACTORS
330
F3
102
}
330
F3
100
AcDbModelDocViewStyle
 70
     0
  3
Imperial24
290
     0
100
AcDbSectionViewStyle
 70
     0
 71
     0
 90
       78
 71
     1
340
11
 62
   256
 40
0.24
340
0
340
0
 62
   256
 40
0.24
300
I, O, Q, S, X, Z
 40
0.48
 90
        3
 40
0.18
 90
        1
 71
     2
340
16
 90
       25
 62
   256
340
16
 90
       50
 62
   256
 40
0.24
 40
0.0
 40
0.24
 71
     3
340
11
 62
   256
 40
0.24
 90
        1
 40
0.75
 90
        1
300
%<\AcVar ViewType \f "%tc1">% %<\AcVar ViewSectionStartId>%-%<\AcVar ViewSectionEndId>%\PSCALE %<\AcVar ViewScale \f "%sn">%
 71
     4
 62
   256
 62
   257
300
ANSI31
 40
1.0
 90
        0
290
     0
290
     0
 90
        6
 40
0.0
 40
1.570796326794896
 40
0.2617993877991494
 40
1.308996938995747
 40
-0.2617993877991494
 40
1.832595714594046
  0
TABLESTYLE
  5
DE
102
{ACAD_XDICTIONARY
360
160
102
}
102
{ACAD_REACTORS
330
DD
102
}
330
DD
100
AcDbTableStyle
280
     0
  3
Standard
 70
     0
 71
     0
 40
0.06
 41
0.06
280
     0
281
     0
  7
Standard
140
0.18
170
     2
 62
     0
 63
     7
283
     0
 90
      512
 91
        0
  1

274
    -2
284
     1
 64
     0
275
    -2
285
     1
 65
     0
276
    -2
286
     1
 66
     0
277
    -2
287
     1
 67
     0
278
    -2
288
     1
 68
     0
279
    -2
289
     1
 69
     0
  7
Standard
140
0.25
170
     5
 62
     0
 63
     7
283
     0
 90
      512
 91
        0
  1

274
    -2
284
     1
 64
     0
275
    -2
285
     1
 65
     0
276
    -2
286
     1
 66
     0
277
    -2
287
     1
 67
     0
278
    -2
288
     1
 68
     0
279
    -2
289
     1
 69
     0
  7
Standard
140
0.18
170
     5
 62
     0
 63
     7
283
     0
 90
      512
 91
        0
  1

274
    -2
284
     1
 64
     0
275
    -2
285
     1
 65
     0
276
    -2
286
     1
 66
     0
277
    -2
287
     1
 67
     0
278
    -2
288
     1
 68
     0
279
    -2
289
     1
 69
     0
  0
VISUALSTYLE
  5
C9
102
{ACAD_XDICTIONARY
360
16D
102
}
102
{ACAD_REACTORS
330
C3
102
}
330
C3
100
AcDbVisualStyle
  2
2dWireframe
 70
     4
177
     2
291
     0
 71
     0
176
     1
 72
     2
176
     1
 73
     0
176
     1
 90
        0
176
     1
 40
0.6
176
     1
 41
30.0
176
     1
 63
     7
421
 16777215
176
     1
 74
     1
176
     1
 91
        4
176
     1
 64
     7
176
     1
 65
   257
176
     1
 75
     1
176
     1
175
     1
176
     1
 42
1.0
176
     1
 92
        0
176
     1
 66
   257
176
     1
 43
1.0
176
     1
 76
     1
176
     1
 77
     6
176
     1
 78
     2
176
     1
 67
     7
176
     1
 79
     5
176
     1
170
     0
176
     1
171
     0
176
     1
290
     0
176
     1
 93
        1
176
     1
 44
0.0
176
     1
173
     0
176
     1
1001
ACAD
1000
AcDbSavedByObjectVersion
1070
     0
  0
VISUALSTYLE
  5
C8
102
{ACAD_XDICTIONARY
360
16B
102
}
102
{ACAD_REACTORS
330
C3
102
}
330
C3
100
AcDbVisualStyle
  2
Basic
 70
     7
177
     2
291
     1
 71
     1
176
     1
 72
     0
176
     1
 73
     1
176
     1
 90
        0
176
     1
 40
0.6
176
     1
 41
30.0
176
     1
 63
     7
421
 16777215
176
     1
 74
     0
176
     1
 91
        4
176
     1
 64
     7
176
     1
 65
   257
176
     1
 75
     1
176
     1
175
     1
176
     1
 42
1.0
176
     1
 92
        8
176
     1
 66
     7
176
     1
 43
1.0
176
     1
 76
     1
176
     1
 77
     6
176
     1
 78
     2
176
     1
 67
     7
176
     1
 79
     5
176
     1
170
     0
176
     1
171
     0
176
     1
290
     0
176
     1
 93
        1
176
     1
 44
0.0
176
     1
173
     0
176
     1
1001
ACAD
1000
AcDbSavedByObjectVersion
1070
     0
  0
VISUALSTYLE
  5
CF
102
{ACAD_XDICTIONARY
360
179
102
}
102
{ACAD_REACTORS
330
C3
102
}
330
C3
100
AcDbVisualStyle
  2
Brighten
 70
    12
177
     2
291
     1
 71
     2
176
     1
 72
     2
176
     1
 73
     0
176
     1
 90
        0
176
     1
 40
0.6
176
     1
 41
30.0
176
     1
 63
     7
421
 16777215
176
     1
 74
     1
176
     1
 91
        4
176
     1
 64
     7
176
     1
 65
   257
176
     1
 75
     1
176
     1
175
     1
176
     1
 42
1.0
176
     1
 92
        8
176
     1
 66
     7
176
     1
 43
1.0
176
     1
 76
     1
176
     1
 77
     6
176
     1
 78
     2
176
     1
 67
     7
176
     1
 79
     5
176
     1
170
     0
176
     1
171
     0
176
     1
290
     0
176
     1
 93
        1
176
     1
 44
50.0
176
     1
173
     0
176
     1
1001
ACAD
1000
AcDbSavedByObjectVersion
1070
     0
  0
VISUALSTYLE
  5
D3
102
{ACAD_XDICTIONARY
360
181
102
}
102
{ACAD_REACTORS
330
C3
102
}
330
C3
100
AcDbVisualStyle
  2
ColorChange
 70
    16
177
     2
291
     1
 71
     2
176
     1
 72
     2
176
     1
 73
     3
176
     1
 90
        0
176
     1
 40
0.6
176
     1
 41
30.0
176
     1
 63
     8
421
  8421504
176
     1
 74
     1
176
     1
 91
        4
176
     1
 64
     7
176
     1
 65
   257
176
     1
 75
     1
176
     1
175
     1
176
     1
 42
1.0
176
     1
 92
        8
176
     1
 66
     8
424
  8421504
176
     1
 43
1.0
176
     1
 76
     1
176
     1
 77
     6
176
     1
 78
     2
176
     1
 67
     7
176
     1
 79
     5
176
     1
170
     0
176
     1
171
     0
176
     1
290
     0
176
     1
 93
        1
176
     1
 44
0.0
176
     1
173
     0
176
     1
1001
ACAD
1000
AcDbSavedByObjectVersion
1070
     0
  0
VISUALSTYLE
  5
CC
102
{ACAD_XDICTIONARY
360
173
102
}
102
{ACAD_REACTORS
330
C3
102
}
330
C3
100
AcDbVisualStyle
  2
Conceptual
 70
     9
177
     2
291
     0
 71
     3
176
     1
 72
     2
176
     1
 73
     0
176
     1
 90
        0
176
     1
 40
0.6
176
     1
 41
30.0
176
     1
 63
     7
421
 16777215
176
     1
 74
     2
176
     1
 91
        2
176
     1
 64
     7
176
     1
 65
   257
176
     1
 75
     1
176
     1
175
     1
176
     1
 42
179.0
176
     1
 92
        8
176
     1
 66
     7
176
     1
 43
1.0
176
     1
 76
     1
176
     1
 77
     6
176
     1
 78
     2
176
     1
 67
     7
176
     1
 79
     3
176
     1
170
     0
176
     1
171
     0
176
     1
290
     0
176
     1
 93
        1
176
     1
 44
0.0
176
     1
173
     0
176
     1
1001
ACAD
1000
AcDbSavedByObjectVersion
1070
     0
  0
VISUALSTYLE
  5
CE
102
{ACAD_XDICTIONARY
360
177
102
}
102
{ACAD_REACTORS
330
C3
102
}
330
C3
100
AcDbVisualStyle
  2
Dim
 70
    11
177
     2
291
     1
 71
     2
176
     1
 72
     2
176
     1
 73
     0
176
     1
 90
        0
176
     1
 40
0.6
176
     1
 41
30.0
176
     1
 63
     7
421
 16777215
176
     1
 74
     1
176
     1
 91
        4
176
     1
 64
     7
176
     1
 65
   257
176
     1
 75
     1
176
     1
175
     1
176
     1
 42
1.0
176
     1
 92
        8
176
     1
 66
     7
176
     1
 43
1.0
176
     1
 76
     1
176
     1
 77
     6
176
     1
 78
     2
176
     1
 67
     7
176
     1
 79
     5
176
     1
170
     0
176
     1
171
     0
176
     1
290
     0
176
     1
 93
        1
176
     1
 44
-50.0
176
     1
173
     0
176
     1
1001
ACAD
1000
AcDbSavedByObjectVersion
1070
     0
  0
VISUALSTYLE
  5
DB
102
{ACAD_XDICTIONARY
360
191
102
}
102
{ACAD_REACTORS
330
C3
102
}
330
C3
100
AcDbVisualStyle
  2
EdgeColorOff
 70
    22
177
     2
291
     1
 71
     2
176
     0
 72
     2
176
     0
 73
     0
176
     0
 90
        0
176
     0
 40
0.6
176
     0
 41
30.0
176
     0
 63
     7
421
 16777215
176
     0
 74
     1
176
     0
 91
        4
176
     0
 64
     7
176
     0
 65
   257
176
     0
 75
     1
176
     0
175
     1
176
     0
 42
1.0
176
     0
 92
        8
176
     2
 66
     7
176
     0
 43
1.0
176
     0
 76
     1
176
     0
 77
     6
176
     0
 78
     2
176
     0
 67
     7
176
     0
 79
     5
176
     0
170
     0
176
     0
171
     0
176
     0
290
     0
176
     0
 93
        1
176
     0
 44
0.0
176
     0
173
     0
176
     0
1001
ACAD
1000
AcDbSavedByObjectVersion
1070
     0
  0
VISUALSTYLE
  5
D2
102
{ACAD_XDICTIONARY
360
17F
102
}
102
{ACAD_REACTORS
330
C3
102
}
330
C3
100
AcDbVisualStyle
  2
Facepattern
 70
    15
177
     2
291
     1
 71
     2
176
     1
 72
     2
176
     1
 73
     0
176
     1
 90
        0
176
     1
 40
0.6
176
     1
 41
30.0
176
     1
 63
     7
421
 16777215
176
     1
 74
     1
176
     1
 91
        4
176
     1
 64
     7
176
     1
 65
   257
176
     1
 75
     1
176
     1
175
     1
176
     1
 42
1.0
176
     1
 92
        8
176
     1
 66
     7
176
     1
 43
1.0
176
     1
 76
     1
176
     1
 77
     6
176
     1
 78
     2
176
     1
 67
     7
176
     1
 79
     5
176
     1
170
     0
176
     1
171
     0
176
     1
290
     0
176
     1
 93
        1
176
     1
 44
0.0
176
     1
173
     0
176
     1
1001
ACAD
1000
AcDbSavedByObjectVersion
1070
     0
  0
VISUALSTYLE
  5
C4
102
{ACAD_XDICTIONARY
360
163
102
}
102
{ACAD_REACTORS
330
C3
102
}
330
C3
100
AcDbVisualStyle
  2
Flat
 70
     0
177
     2
291
     1
 71
     2
176
     1
 72
     1
176
     1
 73
     1
176
     1
 90
        2
176
     1
 40
0.6
176
     1
 41
30.0
176
     1
 63
     7
421
 16777215
176
     1
 74
     0
176
     1
 91
        0
176
     1
 64
     7
176
     1
 65
   257
176
     1
 75
     1
176
     1
175
     1
176
     1
 42
1.0
176
     1
 92
        8
176
     1
 66
     7
176
     1
 43
1.0
176
     1
 76
     1
176
     1
 77
     6
176
     1
 78
     2
176
     1
 67
     7
176
     1
 79
     5
176
     1
170
     0
176
     1
171
     0
176
     1
290
     0
176
     1
 93
       13
176
     1
 44
0.0
176
     1
173
     0
176
     1
1001
ACAD
1000
AcDbSavedByObjectVersion
1070
     0
  0
VISUALSTYLE
  5
C5
102
{ACAD_XDICTIONARY
360
165
102
}
102
{ACAD_REACTORS
330
C3
102
}
330
C3
100
AcDbVisualStyle
  2
FlatWithEdges
 70
     1
177
     2
291
     1
 71
     2
176
     1
 72
     1
176
     1
 73
     1
176
     1
 90
        2
176
     1
 40
0.6
176
     1
 41
30.0
176
     1
 63
     7
421
 16777215
176
     1
 74
     1
176
     1
 91
        0
176
     1
 64
     7
176
     1
 65
   257
176
     1
 75
     1
176
     1
175
     1
176
     1
 42
1.0
176
     1
 92
        0
176
     1
 66
   257
176
     1
 43
1.0
176
     1
 76
     1
176
     1
 77
     6
176
     1
 78
     2
176
     1
 67
     7
176
     1
 79
     5
176
     1
170
     0
176
     1
171
     0
176
     1
290
     0
176
     1
 93
       13
176
     1
 44
0.0
176
     1
173
     0
176
     1
1001
ACAD
1000
AcDbSavedByObjectVersion
1070
     0
  0
VISUALSTYLE
  5
C6
102
{ACAD_XDICTIONARY
360
167
102
}
102
{ACAD_REACTORS
330
C3
102
}
330
C3
100
AcDbVisualStyle
  2
Gouraud
 70
     2
177
     2
291
     1
 71
     2
176
     1
 72
     2
176
     1
 73
     1
176
     1
 90
        2
176
     1
 40
0.6
176
     1
 41
30.0
176
     1
 63
     7
421
 16777215
176
     1
 74
     0
176
     1
 91
        0
176
     1
 64
     7
176
     1
 65
   257
176
     1
 75
     1
176
     1
175
     1
176
     1
 42
1.0
176
     1
 92
        0
176
     1
 66
     7
176
     1
 43
1.0
176
     1
 76
     1
176
     1
 77
     6
176
     1
 78
     2
176
     1
 67
     7
176
     1
 79
     5
176
     1
170
     0
176
     1
171
     0
176
     1
290
     0
176
     1
 93
       13
176
     1
 44
0.0
176
     1
173
     0
176
     1
1001
ACAD
1000
AcDbSavedByObjectVersion
1070
     0
  0
VISUALSTYLE
  5
C7
102
{ACAD_XDICTIONARY
360
169
102
}
102
{ACAD_REACTORS
330
C3
102
}
330
C3
100
AcDbVisualStyle
  2
GouraudWithEdges
 70
     3
177
     2
291
     1
 71
     2
176
     1
 72
     2
176
     1
 73
     1
176
     1
 90
        2
176
     1
 40
0.6
176
     1
 41
30.0
176
     1
 63
     7
421
 16777215
176
     1
 74
     1
176
     1
 91
        0
176
     1
 64
     7
176
     1
 65
   257
176
     1
 75
     1
176
     1
175
     1
176
     1
 42
1.0
176
     1
 92
        0
176
     1
 66
   257
176
     1
 43
1.0
176
     1
 76
     1
176
     1
 77
     6
176
     1
 78
     2
176
     1
 67
     7
176
     1
 79
     5
176
     1
170
     0
176
     1
171
     0
176
     1
290
     0
176
     1
 93
       13
176
     1
 44
0.0
176
     1
173
     0
176
     1
1001
ACAD
1000
AcDbSavedByObjectVersion
1070
     0
  0
VISUALSTYLE
  5
CB
102
{ACAD_XDICTIONARY
360
171
102
}
102
{ACAD_REACTORS
330
C3
102
}
330
C3
100
AcDbVisualStyle
  2
Hidden
 70
     6
177
     2
291
     0
 71
     1
176
     1
 72
     2
176
     1
 73
     2
176
     1
 90
        0
176
     1
 40
0.6
176
     1
 41
30.0
176
     1
 63
     7
421
 16777215
176
     1
 74
     2
176
     1
 91
        2
176
     1
 64
     7
176
     1
 65
   257
176
     1
 75
     2
176
     1
175
     1
176
     1
 42
40.0
176
     1
 92
        0
176
     1
 66
   257
176
     1
 43
1.0
176
     1
 76
     1
176
     1
 77
     6
176
     1
 78
     2
176
     1
 67
     7
176
     1
 79
     3
176
     1
170
     0
176
     1
171
     0
176
     1
290
     0
176
     1
 93
        1
176
     1
 44
0.0
176
     1
173
     0
176
     1
1001
ACAD
1000
AcDbSavedByObjectVersion
1070
     0
  0
VISUALSTYLE
  5
D9
102
{ACAD_XDICTIONARY
360
18D
102
}
102
{ACAD_REACTORS
330
C3
102
}
330
C3
100
AcDbVisualStyle
  2
JitterOff
 70
    20
177
     2
291
     1
 71
     2
176
     0
 72
     2
176
     0
 73
     0
176
     0
 90
        0
176
     0
 40
0.6
176
     0
 41
30.0
176
     0
 63
     7
421
 16777215
176
     0
 74
     1
176
     0
 91
        4
176
     0
 64
     7
176
     0
 65
   257
176
     0
 75
     1
176
     0
175
     1
176
     0
 42
1.0
176
     0
 92
       10
176
     2
 66
     7
176
     0
 43
1.0
176
     0
 76
     1
176
     0
 77
     6
176
     0
 78
     2
176
     0
 67
     7
176
     0
 79
     5
176
     0
170
     0
176
     0
171
     0
176
     0
290
     0
176
     0
 93
        1
176
     0
 44
0.0
176
     0
173
     0
176
     0
1001
ACAD
1000
AcDbSavedByObjectVersion
1070
     0
  0
VISUALSTYLE
  5
D1
102
{ACAD_XDICTIONARY
360
17D
102
}
102
{ACAD_REACTORS
330
C3
102
}
330
C3
100
AcDbVisualStyle
  2
Linepattern
 70
    14
177
     2
291
     1
 71
     2
176
     1
 72
     2
176
     1
 73
     0
176
     1
 90
        0
176
     1
 40
0.6
176
     1
 41
30.0
176
     1
 63
     7
421
 16777215
176
     1
 74
     1
176
     1
 91
        4
176
     1
 64
     7
176
     1
 65
   257
176
     1
 75
     7
176
     1
175
     7
176
     1
 42
1.0
176
     1
 92
        8
176
     1
 66
     7
176
     1
 43
1.0
176
     1
 76
     1
176
     1
 77
     6
176
     1
 78
     2
176
     1
 67
     7
176
     1
 79
     5
176
     1
170
     0
176
     1
171
     0
176
     1
290
     0
176
     1
 93
        1
176
     1
 44
0.0
176
     1
173
     0
176
     1
1001
ACAD
1000
AcDbSavedByObjectVersion
1070
     0
  0
VISUALSTYLE
  5
DA
102
{ACAD_XDICTIONARY
360
18F
102
}
102
{ACAD_REACTORS
330
C3
102
}
330
C3
100
AcDbVisualStyle
  2
OverhangOff
 70
    21
177
     2
291
     1
 71
     2
176
     0
 72
     2
176
     0
 73
     0
176
     0
 90
        0
176
     0
 40
0.6
176
     0
 41
30.0
176
     0
 63
     7
421
 16777215
176
     0
 74
     1
176
     0
 91
        4
176
     0
 64
     7
176
     0
 65
   257
176
     0
 75
     1
176
     0
175
     1
176
     0
 42
1.0
176
     0
 92
        9
176
     2
 66
     7
176
     0
 43
1.0
176
     0
 76
     1
176
     0
 77
     6
176
     0
 78
     2
176
     0
 67
     7
176
     0
 79
     5
176
     0
170
     0
176
     0
171
     0
176
     0
290
     0
176
     0
 93
        1
176
     0
 44
0.0
176
     0
173
     0
176
     0
1001
ACAD
1000
AcDbSavedByObjectVersion
1070
     0
  0
VISUALSTYLE
  5
CD
102
{ACAD_XDICTIONARY
360
175
102
}
102
{ACAD_REACTORS
330
C3
102
}
330
C3
100
AcDbVisualStyle
  2
Realistic
 70
     8
177
     2
291
     0
 71
     2
176
     1
 72
     3
176
     1
 73
     0
176
     1
 90
        2
176
     1
 40
0.6
176
     1
 41
30.0
176
     1
 63
     7
421
 16777215
176
     1
 74
     0
176
     1
 91
        0
176
     1
 64
     7
176
     1
 65
   257
176
     1
 75
     1
176
     1
175
     1
176
     1
 42
1.0
176
     1
 92
        8
176
     1
 66
   257
176
     1
 43
1.0
176
     1
 76
     1
176
     1
 77
     6
176
     1
 78
     2
176
     1
 67
     7
176
     1
 79
     3
176
     1
170
     0
176
     1
171
     0
176
     1
290
     0
176
     1
 93
       13
176
     1
 44
0.0
176
     1
173
     0
176
     1
1001
ACAD
1000
AcDbSavedByObjectVersion
1070
     0
  0
VISUALSTYLE
  5
D8
102
{ACAD_XDICTIONARY
360
18B
102
}
102
{ACAD_REACTORS
330
C3
102
}
330
C3
100
AcDbVisualStyle
  2
Shaded
 70
    27
177
     2
291
     0
 71
     2
176
     1
 72
     2
176
     1
 73
     1
176
     1
 90
        2
176
     1
 40
0.6
176
     1
 41
30.0
176
     1
 63
     7
421
 16777215
176
     1
 74
     0
176
     1
 91
        4
176
     1
 64
     7
176
     1
 65
   257
176
     1
 75
     1
176
     1
175
     1
176
     1
 42
1.0
176
     1
 92
        8
176
     1
 66
   257
176
     1
 43
1.0
176
     1
 76
     1
176
     1
 77
     6
176
     1
 78
     2
176
     1
 67
     8
425
  7895160
176
     1
 79
     3
176
     1
170
     0
176
     1
171
     0
176
     1
290
     0
176
     1
 93
        5
176
     1
 44
0.0
176
     1
173
     0
176
     1
1001
ACAD
1000
AcDbSavedByObjectVersion
1070
     0
  0
VISUALSTYLE
  5
D7
102
{ACAD_XDICTIONARY
360
189
102
}
102
{ACAD_REACTORS
330
C3
102
}
330
C3
100
AcDbVisualStyle
  2
Shaded with edges
 70
    26
177
     2
291
     0
 71
     2
176
     1
 72
     2
176
     1
 73
     1
176
     1
 90
        2
176
     1
 40
0.6
176
     1
 41
30.0
176
     1
 63
     7
421
 16777215
176
     1
 74
     1
176
     1
 91
       10
176
     1
 64
     7
176
     1
 65
   257
176
     1
 75
     2
176
     1
175
     1
176
     1
 42
1.0
176
     1
 92
        8
176
     1
 66
   257
176
     1
 43
1.0
176
     1
 76
     1
176
     1
 77
     6
176
     1
 78
     2
176
     1
 67
     7
176
     1
 79
     3
176
     1
170
     0
176
     1
171
     0
176
     1
290
     0
176
     1
 93
        5
176
     1
 44
0.0
176
     1
173
     0
176
     1
1001
ACAD
1000
AcDbSavedByObjectVersion
1070
     0
  0
VISUALSTYLE
  5
D4
102
{ACAD_XDICTIONARY
360
183
102
}
102
{ACAD_REACTORS
330
C3
102
}
330
C3
100
AcDbVisualStyle
  2
Shades of Gray
 70
    23
177
     2
291
     0
 71
     2
176
     1
 72
     2
176
     1
 73
     3
176
     1
 90
        0
176
     1
 40
0.6
176
     1
 41
30.0
176
     1
 63
     7
421
 16777215
176
     1
 74
     2
176
     1
 91
        2
176
     1
 64
     7
176
     1
 65
     7
176
     1
 75
     1
176
     1
175
     1
176
     1
 42
40.0
176
     1
 92
        8
176
     1
 66
     7
176
     1
 43
1.0
176
     1
 76
     1
176
     1
 77
     6
176
     1
 78
     2
176
     1
 67
     7
176
     1
 79
     3
176
     1
170
     0
176
     1
171
     0
176
     1
290
     0
176
     1
 93
        1
176
     1
 44
0.0
176
     1
173
     0
176
     1
1001
ACAD
1000
AcDbSavedByObjectVersion
1070
     0
  0
VISUALSTYLE
  5
D5
102
{ACAD_XDICTIONARY
360
185
102
}
102
{ACAD_REACTORS
330
C3
102
}
330
C3
100
AcDbVisualStyle
  2
Sketchy
 70
    24
177
     2
291
     0
 71
     1
176
     1
 72
     2
176
     1
 73
     2
176
     1
 90
        0
176
     1
 40
0.6
176
     1
 41
30.0
176
     1
 63
     7
421
 16777215
176
     1
 74
     2
176
     1
 91
        2
176
     1
 64
     7
176
     1
 65
     7
176
     1
 75
     1
176
     1
175
     1
176
     1
 42
40.0
176
     1
 92
       11
176
     1
 66
     7
176
     1
 43
1.0
176
     1
 76
     1
176
     1
 77
     6
176
     1
 78
     2
176
     1
 67
     7
176
     1
 79
     6
176
     1
170
     0
176
     1
171
     0
176
     1
290
     0
176
     1
 93
        1
176
     1
 44
0.0
176
     1
173
     0
176
     1
1001
ACAD
1000
AcDbSavedByObjectVersion
1070
     0
  0
VISUALSTYLE
  5
D0
102
{ACAD_XDICTIONARY
360
17B
102
}
102
{ACAD_REACTORS
330
C3
102
}
330
C3
100
AcDbVisualStyle
  2
Thicken
 70
    13
177
     2
291
     1
 71
     2
176
     1
 72
     2
176
     1
 73
     0
176
     1
 90
        0
176
     1
 40
0.6
176
     1
 41
30.0
176
     1
 63
     7
421
 16777215
176
     1
 74
     1
176
     1
 91
        4
176
     1
 64
     7
176
     1
 65
   257
176
     1
 75
     1
176
     1
175
     1
176
     1
 42
1.0
176
     1
 92
       12
176
     1
 66
     7
176
     1
 43
1.0
176
     1
 76
     1
176
     1
 77
     6
176
     1
 78
     2
176
     1
 67
     7
176
     1
 79
     5
176
     1
170
     0
176
     1
171
     0
176
     1
290
     0
176
     1
 93
        1
176
     1
 44
0.0
176
     1
173
     0
176
     1
1001
ACAD
1000
AcDbSavedByObjectVersion
1070
     0
  0
VISUALSTYLE
  5
CA
102
{ACAD_XDICTIONARY
360
16F
102
}
102
{ACAD_REACTORS
330
C3
102
}
330
C3
100
AcDbVisualStyle
  2
Wireframe
 70
     5
177
     2
291
     0
 71
     0
176
     1
 72
     2
176
     1
 73
     0
176
     1
 90
        0
176
     1
 40
0.6
176
     1
 41
30.0
176
     1
 63
     7
421
 16777215
176
     1
 74
     1
176
     1
 91
        4
176
     1
 64
     7
176
     1
 65
   257
176
     1
 75
     1
176
     1
175
     1
176
     1
 42
1.0
176
     1
 92
        0
176
     1
 66
   257
176
     1
 43
1.0
176
     1
 76
     1
176
     1
 77
     6
176
     1
 78
     2
176
     1
 67
     7
176
     1
 79
     3
176
     1
170
     0
176
     1
171
     0
176
     1
290
     0
176
     1
 93
        1
176
     1
 44
0.0
176
     1
173
     0
176
     1
1001
ACAD
1000
AcDbSavedByObjectVersion
1070
     0
  0
VISUALSTYLE
  5
D6
102
{ACAD_XDICTIONARY
360
187
102
}
102
{ACAD_REACTORS
330
C3
102
}
330
C3
100
AcDbVisualStyle
  2
X-Ray
 70
    25
177
     2
291
     0
 71
     2
176
     1
 72
     2
176
     1
 73
     1
176
     1
 90
        1
176
     1
 40
0.5
176
     1
 41
30.0
176
     1
 63
     7
421
 16777215
176
     1
 74
     1
176
     1
 91
        0
176
     1
 64
     7
176
     1
 65
   257
176
     1
 75
     1
176
     1
175
     1
176
     1
 42
1.0
176
     1
 92
        8
176
     1
 66
     7
176
     1
 43
1.0
176
     1
 76
     1
176
     1
 77
     6
176
     1
 78
     2
176
     1
 67
     7
176
     1
 79
     3
176
     1
170
     0
176
     1
171
     0
176
     1
290
     0
176
     1
 93
       13
176
     1
 44
0.0
176
     1
173
     0
176
     1
1001
ACAD
1000
AcDbSavedByObjectVersion
1070
     0
  0
DICTIONARYVAR
  5
15C
102
{ACAD_REACTORS
330
156
102
}
330
156
100
DictionaryVariables
280
     0
  1
1:1
  0
DICTIONARYVAR
  5
158
102
{ACAD_REACTORS
330
156
102
}
330
156
100
DictionaryVariables
280
     0
  1
STANDARD
  0
DICTIONARYVAR
  5
157
102
{ACAD_REACTORS
330
156
102
}
330
156
100
DictionaryVariables
280
     0
  1
STANDARD
  0
DICTIONARYVAR
  5
159
102
{ACAD_REACTORS
330
156
102
}
330
156
100
DictionaryVariables
280
     0
  1
Imperial24
  0
DICTIONARYVAR
  5
15A
102
{ACAD_REACTORS
330
156
102
}
330
156
100
DictionaryVariables
280
     0
  1
Imperial24
  0
DICTIONARYVAR
  5
15E
102
{ACAD_REACTORS
330
156
102
}
330
156
100
DictionaryVariables
280
     0
  1
1
  0
DICTIONARYVAR
  5
15F
102
{ACAD_REACTORS
330
156
102
}
330
156
100
DictionaryVariables
280
     0
  1
15
  0
DICTIONARYVAR
  5
15D
102
{ACAD_REACTORS
330
156
102
}
330
156
100
DictionaryVariables
280
     0
  1
0
  0
DICTIONARYVAR
  5
15B
102
{ACAD_REACTORS
330
156
102
}
330
156
100
DictionaryVariables
280
     0
  1
0
  0
DICTIONARY
  5
197
330
F6
100
AcDbDictionary
280
     1
281
     1
  3
ACAD_XREC_ROUNDTRIP
360
198
  0
DICTIONARY
  5
B4
330
B3
100
AcDbDictionary
280
     1
281
     1
  3
BUMPTILE
360
B6
  3
DIFFUSETILE
360
B5
  3
OPACITYTILE
360
B9
  3
REFLECTIONTILE
360
B8
  3
REFRACTIONTILE
360
BA
  3
SPECULARTILE
360
B7
  0
DICTIONARY
  5
AC
330
AB
100
AcDbDictionary
280
     1
281
     1
  3
BUMPTILE
360
AE
  3
DIFFUSETILE
360
AD
  3
OPACITYTILE
360
B1
  3
REFLECTIONTILE
360
B0
  3
REFRACTIONTILE
360
B2
  3
SPECULARTILE
360
AF
  0
DICTIONARY
  5
BC
330
BB
100
AcDbDictionary
280
     1
281
     1
  3
BUMPTILE
360
BE
  3
DIFFUSETILE
360
BD
  3
OPACITYTILE
360
C1
  3
REFLECTIONTILE
360
C0
  3
REFRACTIONTILE
360
C2
  3
SPECULARTILE
360
BF
  0
DICTIONARY
  5
193
330
F2
100
AcDbDictionary
280
     1
281
     1
  3
ACAD_XREC_ROUNDTRIP
360
194
  0
DICTIONARY
  5
195
330
F4
100
AcDbDictionary
280
     1
281
     1
  3
ACAD_XREC_ROUNDTRIP
360
196
  0
DICTIONARY
  5
160
330
DE
100
AcDbDictionary
280
     1
281
     1
  3
ACAD_ROUNDTRIP_2008_TABLESTYLE_CELLSTYLEMAP
360
161
  0
DICTIONARY
  5
16D
330
C9
100
AcDbDictionary
280
     1
281
     1
  3
ACAD_XREC_ROUNDTRIP
360
16E
  0
DICTIONARY
  5
16B
330
C8
100
AcDbDictionary
280
     1
281
     1
  3
ACAD_XREC_ROUNDTRIP
360
16C
  0
DICTIONARY
  5
179
330
CF
100
AcDbDictionary
280
     1
281
     1
  3
ACAD_XREC_ROUNDTRIP
360
17A
  0
DICTIONARY
  5
181
330
D3
100
AcDbDictionary
280
     1
281
     1
  3
ACAD_XREC_ROUNDTRIP
360
182
  0
DICTIONARY
  5
173
330
CC
100
AcDbDictionary
280
     1
281
     1
  3
ACAD_XREC_ROUNDTRIP
360
174
  0
DICTIONARY
  5
177
330
CE
100
AcDbDictionary
280
     1
281
     1
  3
ACAD_XREC_ROUNDTRIP
360
178
  0
DICTIONARY
  5
191
330
DB
100
AcDbDictionary
280
     1
281
     1
  3
ACAD_XREC_ROUNDTRIP
360
192
  0
DICTIONARY
  5
17F
330
D2
100
AcDbDictionary
280
     1
281
     1
  3
ACAD_XREC_ROUNDTRIP
360
180
  0
DICTIONARY
  5
163
330
C4
100
AcDbDictionary
280
     1
281
     1
  3
ACAD_XREC_ROUNDTRIP
360
164
  0
DICTIONARY
  5
165
330
C5
100
AcDbDictionary
280
     1
281
     1
  3
ACAD_XREC_ROUNDTRIP
360
166
  0
DICTIONARY
  5
167
330
C6
100
AcDbDictionary
280
     1
281
     1
  3
ACAD_XREC_ROUNDTRIP
360
168
  0
DICTIONARY
  5
169
330
C7
100
AcDbDictionary
280
     1
281
     1
  3
ACAD_XREC_ROUNDTRIP
360
16A
  0
DICTIONARY
  5
171
330
CB
100
AcDbDictionary
280
     1
281
     1
  3
ACAD_XREC_ROUNDTRIP
360
172
  0
DICTIONARY
  5
18D
330
D9
100
AcDbDictionary
280
     1
281
     1
  3
ACAD_XREC_ROUNDTRIP
360
18E
  0
DICTIONARY
  5
17D
330
D1
100
AcDbDictionary
280
     1
281
     1
  3
ACAD_XREC_ROUNDTRIP
360
17E
  0
DICTIONARY
  5
18F
330
DA
100
AcDbDictionary
280
     1
281
     1
  3
ACAD_XREC_ROUNDTRIP
360
190
  0
DICTIONARY
  5
175
330
CD
100
AcDbDictionary
280
     1
281
     1
  3
ACAD_XREC_ROUNDTRIP
360
176
  0
DICTIONARY
  5
18B
330
D8
100
AcDbDictionary
280
     1
281
     1
  3
ACAD_XREC_ROUNDTRIP
360
18C
  0
DICTIONARY
  5
189
330
D7
100
AcDbDictionary
280
     1
281
     1
  3
ACAD_XREC_ROUNDTRIP
360
18A
  0
DICTIONARY
  5
183
330
D4
100
AcDbDictionary
280
     1
281
     1
  3
ACAD_XREC_ROUNDTRIP
360
184
  0
DICTIONARY
  5
185
330
D5
100
AcDbDictionary
280
     1
281
     1
  3
ACAD_XREC_ROUNDTRIP
360
186
  0
DICTIONARY
  5
17B
330
D0
100
AcDbDictionary
280
     1
281
     1
  3
ACAD_XREC_ROUNDTRIP
360
17C
  0
DICTIONARY
  5
16F
330
CA
100
AcDbDictionary
280
     1
281
     1
  3
ACAD_XREC_ROUNDTRIP
360
170
  0
DICTIONARY
  5
187
330
D6
100
AcDbDictionary
280
     1
281
     1
  3
ACAD_XREC_ROUNDTRIP
360
188
  0
XRECORD
  5
198
102
{ACAD_REACTORS
330
197
102
}
330
197
100
AcDbXrecord
280
     1
102
DISPLAYNAME
  1
Imperial24
102
FLAGS
 90
        0
  0
XRECORD
  5
B6
102
{ACAD_REACTORS
330
B4
102
}
330
B4
100
AcDbXrecord
280
     1
270
     1
271
     1
  0
XRECORD
  5
B5
102
{ACAD_REACTORS
330
B4
102
}
330
B4
100
AcDbXrecord
280
     1
270
     1
271
     1
  0
XRECORD
  5
B9
102
{ACAD_REACTORS
330
B4
102
}
330
B4
100
AcDbXrecord
280
     1
270
     1
271
     1
  0
XRECORD
  5
B8
102
{ACAD_REACTORS
330
B4
102
}
330
B4
100
AcDbXrecord
280
     1
270
     1
271
     1
  0
XRECORD
  5
BA
102
{ACAD_REACTORS
330
B4
102
}
330
B4
100
AcDbXrecord
280
     1
270
     1
271
     1
  0
XRECORD
  5
B7
102
{ACAD_REACTORS
330
B4
102
}
330
B4
100
AcDbXrecord
280
     1
270
     1
271
     1
  0
XRECORD
  5
AE
102
{ACAD_REACTORS
330
AC
102
}
330
AC
100
AcDbXrecord
280
     1
270
     1
271
     1
  0
XRECORD
  5
AD
102
{ACAD_REACTORS
330
AC
102
}
330
AC
100
AcDbXrecord
280
     1
270
     1
271
     1
  0
XRECORD
  5
B1
102
{ACAD_REACTORS
330
AC
102
}
330
AC
100
AcDbXrecord
280
     1
270
     1
271
     1
  0
XRECORD
  5
B0
102
{ACAD_REACTORS
330
AC
102
}
330
AC
100
AcDbXrecord
280
     1
270
     1
271
     1
  0
XRECORD
  5
B2
102
{ACAD_REACTORS
330
AC
102
}
330
AC
100
AcDbXrecord
280
     1
270
     1
271
     1
  0
XRECORD
  5
AF
102
{ACAD_REACTORS
330
AC
102
}
330
AC
100
AcDbXrecord
280
     1
270
     1
271
     1
  0
XRECORD
  5
BE
102
{ACAD_REACTORS
330
BC
102
}
330
BC
100
AcDbXrecord
280
     1
270
     1
271
     1
  0
XRECORD
  5
BD
102
{ACAD_REACTORS
330
BC
102
}
330
BC
100
AcDbXrecord
280
     1
270
     1
271
     1
  0
XRECORD
  5
C1
102
{ACAD_REACTORS
330
BC
102
}
330
BC
100
AcDbXrecord
280
     1
270
     1
271
     1
  0
XRECORD
  5
C0
102
{ACAD_REACTORS
330
BC
102
}
330
BC
100
AcDbXrecord
280
     1
270
     1
271
     1
  0
XRECORD
  5
C2
102
{ACAD_REACTORS
330
BC
102
}
330
BC
100
AcDbXrecord
280
     1
270
     1
271
     1
  0
XRECORD
  5
BF
102
{ACAD_REACTORS
330
BC
102
}
330
BC
100
AcDbXrecord
280
     1
270
     1
271
     1
  0
XRECORD
  5
194
102
{ACAD_REACTORS
330
193
102
}
330
193
100
AcDbXrecord
280
     1
102
ACAD_ROUNDTRIP_2012_MLEADER_STYLE
298
     1
  0
XRECORD
  5
196
102
{ACAD_REACTORS
330
195
102
}
330
195
100
AcDbXrecord
280
     1
102
DISPLAYNAME
  1
Imperial24
102
FLAGS
 90
        0
  0
CELLSTYLEMAP
  5
161
102
{ACAD_REACTORS
330
160
102
}
330
160
100
AcDbCellStyleMap
 90
        3
300
CELLSTYLE
  1
TABLEFORMAT_BEGIN
 90
        5
170
     1
 91
        0
 92
    32768
 62
   257
 93
        1
300
CONTENTFORMAT
  1
CONTENTFORMAT_BEGIN
 90
        0
 91
        0
 92
      512
 93
        0
300

 40
0.0
140
1.0
 94
        5
 62
     0
340
11
144
0.25
309
CONTENTFORMAT_END
171
     0
 94
        0
309
TABLEFORMAT_END
  1
CELLSTYLE_BEGIN
 90
        1
 91
        1
300
_TITLE
309
CELLSTYLE_END
300
CELLSTYLE
  1
TABLEFORMAT_BEGIN
 90
        5
170
     1
 91
        0
 92
        0
 62
   257
 93
        1
300
CONTENTFORMAT
  1
CONTENTFORMAT_BEGIN
 90
        0
 91
        0
 92
      512
 93
        0
300

 40
0.0
140
1.0
 94
        5
 62
     0
340
11
144
0.18
309
CONTENTFORMAT_END
171
     0
 94
        0
309
TABLEFORMAT_END
  1
CELLSTYLE_BEGIN
 90
        2
 91
        1
300
_HEADER
309
CELLSTYLE_END
300
CELLSTYLE
  1
TABLEFORMAT_BEGIN
 90
        5
170
     1
 91
        0
 92
        0
 62
   257
 93
        1
300
CONTENTFORMAT
  1
CONTENTFORMAT_BEGIN
 90
        0
 91
        0
 92
      512
 93
        0
300

 40
0.0
140
1.0
 94
        2
 62
     0
340
11
144
0.18
309
CONTENTFORMAT_END
171
     0
 94
        0
309
TABLEFORMAT_END
  1
CELLSTYLE_BEGIN
 90
        3
 91
        2
300
_DATA
309
CELLSTYLE_END
  0
XRECORD
  5
16E
102
{ACAD_REACTORS
330
16D
102
}
330
16D
100
AcDbXrecord
280
     1
102
RTVSPost2010Prop28
280
     1
102
RTVSPost2010PropOp28
 70
     1
102
RTVSPost2010Prop29
280
     1
102
RTVSPost2010PropOp29
 70
     1
102
RTVSPost2010Prop30
280
     0
102
RTVSPost2010PropOp30
 70
     1
102
RTVSPost2010Prop31
280
     0
102
RTVSPost2010PropOp31
 70
     1
102
RTVSPost2010Prop32
280
     0
102
RTVSPost2010PropOp32
 70
     1
102
RTVSPost2010Prop33
280
     0
102
RTVSPost2010PropOp33
 70
     1
102
RTVSPost2010Prop34
280
     0
102
RTVSPost2010PropOp34
 70
     1
102
RTVSPost2010Prop35
280
     0
102
RTVSPost2010PropOp35
 70
     1
102
RTVSPost2010Prop36
280
     0
102
RTVSPost2010PropOp36
 70
     1
102
RTVSPost2010Prop37
 90
       50
102
RTVSPost2010PropOp37
 70
     1
102
RTVSPost2010Prop38
140
0.0
102
RTVSPost2010PropOp38
 70
     1
102
RTVSPost2010Prop39
140
1.0
102
RTVSPost2010PropOp39
 70
     1
102
RTVSPost2010Prop40
 90
        0
102
RTVSPost2010PropOp40
 70
     1
102
RTVSPost2010Prop41ColorIndex
 90
       18
102
RTVSPost2010Prop41ColorRGB
 90
        0
102
RTVSPost2010PropOp41
 70
     1
102
RTVSPost2010Prop42
 90
       50
102
RTVSPost2010PropOp42
 70
     1
102
RTVSPost2010Prop43
 90
        3
102
RTVSPost2010PropOp43
 70
     1
102
RTVSPost2010Prop44ColorIndex
 90
        5
102
RTVSPost2010Prop44ColorRGB
 90
      255
102
RTVSPost2010PropOp44
 70
     1
102
RTVSPost2010Prop45
280
     0
102
RTVSPost2010PropOp45
 70
     1
102
RTVSPost2010Prop46
 90
       50
102
RTVSPost2010PropOp46
 70
     1
102
RTVSPost2010Prop47
 90
       50
102
RTVSPost2010PropOp47
 70
     1
102
RTVSPost2010Prop48
 90
       50
102
RTVSPost2010PropOp48
 70
     1
102
RTVSPost2010Prop49
280
     0
102
RTVSPost2010PropOp49
 70
     1
102
RTVSPost2010Prop50
 90
       50
102
RTVSPost2010PropOp50
 70
     1
102
RTVSPost2010Prop51ColorIndex
 90
      256
102
RTVSPost2010Prop51ColorRGB
 90
-16777216
102
RTVSPost2010PropOp51
 70
     0
102
RTVSPost2010Prop52
140
1.0
102
RTVSPost2010PropOp52
 70
     0
102
RTVSPost2010Prop53
 90
        2
102
RTVSPost2010PropOp53
 70
     1
102
RTVSPost2010Prop54
  1
strokes_ogs.tif
102
RTVSPost2010PropOp54
 70
     1
102
RTVSPost2010Prop55
280
     0
102
RTVSPost2010PropOp55
 70
     1
102
RTVSPost2010Prop56
140
1.0
102
RTVSPost2010PropOp56
 70
     1
102
RTVSPost2010Prop57
140
1.0
102
RTVSPost2010PropOp57
 70
     1
  0
XRECORD
  5
16C
102
{ACAD_REACTORS
330
16B
102
}
330
16B
100
AcDbXrecord
280
     1
102
RTVSPost2010Prop28
280
     0
102
RTVSPost2010PropOp28
 70
     1
102
RTVSPost2010Prop29
280
     1
102
RTVSPost2010PropOp29
 70
     1
102
RTVSPost2010Prop30
280
     1
102
RTVSPost2010PropOp30
 70
     1
102
RTVSPost2010Prop31
280
     0
102
RTVSPost2010PropOp31
 70
     1
102
RTVSPost2010Prop32
280
     0
102
RTVSPost2010PropOp32
 70
     1
102
RTVSPost2010Prop33
280
     0
102
RTVSPost2010PropOp33
 70
     1
102
RTVSPost2010Prop34
280
     0
102
RTVSPost2010PropOp34
 70
     1
102
RTVSPost2010Prop35
280
     0
102
RTVSPost2010PropOp35
 70
     1
102
RTVSPost2010Prop36
280
     0
102
RTVSPost2010PropOp36
 70
     1
102
RTVSPost2010Prop37
 90
       50
102
RTVSPost2010PropOp37
 70
     1
102
RTVSPost2010Prop38
140
0.0
102
RTVSPost2010PropOp38
 70
     1
102
RTVSPost2010Prop39
140
1.0
102
RTVSPost2010PropOp39
 70
     1
102
RTVSPost2010Prop40
 90
        0
102
RTVSPost2010PropOp40
 70
     1
102
RTVSPost2010Prop41ColorIndex
 90
       18
102
RTVSPost2010Prop41ColorRGB
 90
        0
102
RTVSPost2010PropOp41
 70
     1
102
RTVSPost2010Prop42
 90
       50
102
RTVSPost2010PropOp42
 70
     1
102
RTVSPost2010Prop43
 90
        3
102
RTVSPost2010PropOp43
 70
     1
102
RTVSPost2010Prop44ColorIndex
 90
        5
102
RTVSPost2010Prop44ColorRGB
 90
      255
102
RTVSPost2010PropOp44
 70
     1
102
RTVSPost2010Prop45
280
     0
102
RTVSPost2010PropOp45
 70
     1
102
RTVSPost2010Prop46
 90
       50
102
RTVSPost2010PropOp46
 70
     1
102
RTVSPost2010Prop47
 90
       50
102
RTVSPost2010PropOp47
 70
     1
102
RTVSPost2010Prop48
 90
       50
102
RTVSPost2010PropOp48
 70
     1
102
RTVSPost2010Prop49
280
     0
102
RTVSPost2010PropOp49
 70
     1
102
RTVSPost2010Prop50
 90
       50
102
RTVSPost2010PropOp50
 70
     1
102
RTVSPost2010Prop51ColorIndex
 90
      256
102
RTVSPost2010Prop51ColorRGB
 90
-16777216
102
RTVSPost2010PropOp51
 70
     0
102
RTVSPost2010Prop52
140
1.0
102
RTVSPost2010PropOp52
 70
     0
102
RTVSPost2010Prop53
 90
        2
102
RTVSPost2010PropOp53
 70
     1
102
RTVSPost2010Prop54
  1
strokes_ogs.tif
102
RTVSPost2010PropOp54
 70
     1
102
RTVSPost2010Prop55
280
     0
102
RTVSPost2010PropOp55
 70
     1
102
RTVSPost2010Prop56
140
1.0
102
RTVSPost2010PropOp56
 70
     1
102
RTVSPost2010Prop57
140
1.0
102
RTVSPost2010PropOp57
 70
     1
  0
XRECORD
  5
17A
102
{ACAD_REACTORS
330
179
102
}
330
179
100
AcDbXrecord
280
     1
102
RTVSPost2010Prop28
280
     0
102
RTVSPost2010PropOp28
 70
     1
102
RTVSPost2010Prop29
280
     1
102
RTVSPost2010PropOp29
 70
     1
102
RTVSPost2010Prop30
280
     1
102
RTVSPost2010PropOp30
 70
     1
102
RTVSPost2010Prop31
280
     0
102
RTVSPost2010PropOp31
 70
     1
102
RTVSPost2010Prop32
280
     0
102
RTVSPost2010PropOp32
 70
     1
102
RTVSPost2010Prop33
280
     0
102
RTVSPost2010PropOp33
 70
     1
102
RTVSPost2010Prop34
280
     0
102
RTVSPost2010PropOp34
 70
     1
102
RTVSPost2010Prop35
280
     0
102
RTVSPost2010PropOp35
 70
     1
102
RTVSPost2010Prop36
280
     0
102
RTVSPost2010PropOp36
 70
     1
102
RTVSPost2010Prop37
 90
       50
102
RTVSPost2010PropOp37
 70
     1
102
RTVSPost2010Prop38
140
0.0
102
RTVSPost2010PropOp38
 70
     1
102
RTVSPost2010Prop39
140
1.0
102
RTVSPost2010PropOp39
 70
     1
102
RTVSPost2010Prop40
 90
        0
102
RTVSPost2010PropOp40
 70
     1
102
RTVSPost2010Prop41ColorIndex
 90
       18
102
RTVSPost2010Prop41ColorRGB
 90
        0
102
RTVSPost2010PropOp41
 70
     1
102
RTVSPost2010Prop42
 90
       50
102
RTVSPost2010PropOp42
 70
     1
102
RTVSPost2010Prop43
 90
        3
102
RTVSPost2010PropOp43
 70
     1
102
RTVSPost2010Prop44ColorIndex
 90
        5
102
RTVSPost2010Prop44ColorRGB
 90
      255
102
RTVSPost2010PropOp44
 70
     1
102
RTVSPost2010Prop45
280
     0
102
RTVSPost2010PropOp45
 70
     1
102
RTVSPost2010Prop46
 90
       50
102
RTVSPost2010PropOp46
 70
     1
102
RTVSPost2010Prop47
 90
       50
102
RTVSPost2010PropOp47
 70
     1
102
RTVSPost2010Prop48
 90
       50
102
RTVSPost2010PropOp48
 70
     1
102
RTVSPost2010Prop49
280
     0
102
RTVSPost2010PropOp49
 70
     1
102
RTVSPost2010Prop50
 90
       50
102
RTVSPost2010PropOp50
 70
     1
102
RTVSPost2010Prop51ColorIndex
 90
      256
102
RTVSPost2010Prop51ColorRGB
 90
-16777216
102
RTVSPost2010PropOp51
 70
     0
102
RTVSPost2010Prop52
140
1.0
102
RTVSPost2010PropOp52
 70
     0
102
RTVSPost2010Prop53
 90
        2
102
RTVSPost2010PropOp53
 70
     1
102
RTVSPost2010Prop54
  1
strokes_ogs.tif
102
RTVSPost2010PropOp54
 70
     1
102
RTVSPost2010Prop55
280
     0
102
RTVSPost2010PropOp55
 70
     1
102
RTVSPost2010Prop56
140
1.0
102
RTVSPost2010PropOp56
 70
     1
102
RTVSPost2010Prop57
140
1.0
102
RTVSPost2010PropOp57
 70
     1
  0
XRECORD
  5
182
102
{ACAD_REACTORS
330
181
102
}
330
181
100
AcDbXrecord
280
     1
102
RTVSPost2010Prop28
280
     0
102
RTVSPost2010PropOp28
 70
     1
102
RTVSPost2010Prop29
280
     1
102
RTVSPost2010PropOp29
 70
     1
102
RTVSPost2010Prop30
280
     1
102
RTVSPost2010PropOp30
 70
     1
102
RTVSPost2010Prop31
280
     0
102
RTVSPost2010PropOp31
 70
     1
102
RTVSPost2010Prop32
280
     0
102
RTVSPost2010PropOp32
 70
     1
102
RTVSPost2010Prop33
280
     0
102
RTVSPost2010PropOp33
 70
     1
102
RTVSPost2010Prop34
280
     0
102
RTVSPost2010PropOp34
 70
     1
102
RTVSPost2010Prop35
280
     0
102
RTVSPost2010PropOp35
 70
     1
102
RTVSPost2010Prop36
280
     0
102
RTVSPost2010PropOp36
 70
     1
102
RTVSPost2010Prop37
 90
       50
102
RTVSPost2010PropOp37
 70
     1
102
RTVSPost2010Prop38
140
0.0
102
RTVSPost2010PropOp38
 70
     1
102
RTVSPost2010Prop39
140
1.0
102
RTVSPost2010PropOp39
 70
     1
102
RTVSPost2010Prop40
 90
        0
102
RTVSPost2010PropOp40
 70
     1
102
RTVSPost2010Prop41ColorIndex
 90
       18
102
RTVSPost2010Prop41ColorRGB
 90
        0
102
RTVSPost2010PropOp41
 70
     1
102
RTVSPost2010Prop42
 90
       50
102
RTVSPost2010PropOp42
 70
     1
102
RTVSPost2010Prop43
 90
        3
102
RTVSPost2010PropOp43
 70
     1
102
RTVSPost2010Prop44ColorIndex
 90
        5
102
RTVSPost2010Prop44ColorRGB
 90
      255
102
RTVSPost2010PropOp44
 70
     1
102
RTVSPost2010Prop45
280
     0
102
RTVSPost2010PropOp45
 70
     1
102
RTVSPost2010Prop46
 90
       50
102
RTVSPost2010PropOp46
 70
     1
102
RTVSPost2010Prop47
 90
       50
102
RTVSPost2010PropOp47
 70
     1
102
RTVSPost2010Prop48
 90
       50
102
RTVSPost2010PropOp48
 70
     1
102
RTVSPost2010Prop49
280
     0
102
RTVSPost2010PropOp49
 70
     1
102
RTVSPost2010Prop50
 90
       50
102
RTVSPost2010PropOp50
 70
     1
102
RTVSPost2010Prop51ColorIndex
 90
      256
102
RTVSPost2010Prop51ColorRGB
 90
-16777216
102
RTVSPost2010PropOp51
 70
     0
102
RTVSPost2010Prop52
140
1.0
102
RTVSPost2010PropOp52
 70
     0
102
RTVSPost2010Prop53
 90
        2
102
RTVSPost2010PropOp53
 70
     1
102
RTVSPost2010Prop54
  1
strokes_ogs.tif
102
RTVSPost2010PropOp54
 70
     1
102
RTVSPost2010Prop55
280
     0
102
RTVSPost2010PropOp55
 70
     1
102
RTVSPost2010Prop56
140
1.0
102
RTVSPost2010PropOp56
 70
     1
102
RTVSPost2010Prop57
140
1.0
102
RTVSPost2010PropOp57
 70
     1
  0
XRECORD
  5
174
102
{ACAD_REACTORS
330
173
102
}
330
173
100
AcDbXrecord
280
     1
102
RTVSPost2010Prop28
280
     0
102
RTVSPost2010PropOp28
 70
     1
102
RTVSPost2010Prop29
280
     1
102
RTVSPost2010PropOp29
 70
     1
102
RTVSPost2010Prop30
280
     1
102
RTVSPost2010PropOp30
 70
     1
102
RTVSPost2010Prop31
280
     0
102
RTVSPost2010PropOp31
 70
     1
102
RTVSPost2010Prop32
280
     0
102
RTVSPost2010PropOp32
 70
     1
102
RTVSPost2010Prop33
280
     0
102
RTVSPost2010PropOp33
 70
     1
102
RTVSPost2010Prop34
280
     0
102
RTVSPost2010PropOp34
 70
     1
102
RTVSPost2010Prop35
280
     0
102
RTVSPost2010PropOp35
 70
     1
102
RTVSPost2010Prop36
280
     0
102
RTVSPost2010PropOp36
 70
     1
102
RTVSPost2010Prop37
 90
       50
102
RTVSPost2010PropOp37
 70
     1
102
RTVSPost2010Prop38
140
0.0
102
RTVSPost2010PropOp38
 70
     1
102
RTVSPost2010Prop39
140
1.0
102
RTVSPost2010PropOp39
 70
     1
102
RTVSPost2010Prop40
 90
        0
102
RTVSPost2010PropOp40
 70
     1
102
RTVSPost2010Prop41ColorIndex
 90
       18
102
RTVSPost2010Prop41ColorRGB
 90
        0
102
RTVSPost2010PropOp41
 70
     1
102
RTVSPost2010Prop42
 90
       50
102
RTVSPost2010PropOp42
 70
     1
102
RTVSPost2010Prop43
 90
        3
102
RTVSPost2010PropOp43
 70
     1
102
RTVSPost2010Prop44ColorIndex
 90
        5
102
RTVSPost2010Prop44ColorRGB
 90
      255
102
RTVSPost2010PropOp44
 70
     1
102
RTVSPost2010Prop45
280
     0
102
RTVSPost2010PropOp45
 70
     1
102
RTVSPost2010Prop46
 90
       50
102
RTVSPost2010PropOp46
 70
     1
102
RTVSPost2010Prop47
 90
       50
102
RTVSPost2010PropOp47
 70
     1
102
RTVSPost2010Prop48
 90
       50
102
RTVSPost2010PropOp48
 70
     1
102
RTVSPost2010Prop49
280
     0
102
RTVSPost2010PropOp49
 70
     1
102
RTVSPost2010Prop50
 90
       50
102
RTVSPost2010PropOp50
 70
     1
102
RTVSPost2010Prop51ColorIndex
 90
      256
102
RTVSPost2010Prop51ColorRGB
 90
-16777216
102
RTVSPost2010PropOp51
 70
     0
102
RTVSPost2010Prop52
140
1.0
102
RTVSPost2010PropOp52
 70
     0
102
RTVSPost2010Prop53
 90
        2
102
RTVSPost2010PropOp53
 70
     1
102
RTVSPost2010Prop54
  1
strokes_ogs.tif
102
RTVSPost2010PropOp54
 70
     1
102
RTVSPost2010Prop55
280
     0
102
RTVSPost2010PropOp55
 70
     1
102
RTVSPost2010Prop56
140
1.0
102
RTVSPost2010PropOp56
 70
     1
102
RTVSPost2010Prop57
140
1.0
102
RTVSPost2010PropOp57
 70
     1
  0
XRECORD
  5
178
102
{ACAD_REACTORS
330
177
102
}
330
177
100
AcDbXrecord
280
     1
102
RTVSPost2010Prop28
280
     0
102
RTVSPost2010PropOp28
 70
     1
102
RTVSPost2010Prop29
280
     1
102
RTVSPost2010PropOp29
 70
     1
102
RTVSPost2010Prop30
280
     1
102
RTVSPost2010PropOp30
 70
     1
102
RTVSPost2010Prop31
280
     0
102
RTVSPost2010PropOp31
 70
     1
102
RTVSPost2010Prop32
280
     0
102
RTVSPost2010PropOp32
 70
     1
102
RTVSPost2010Prop33
280
     0
102
RTVSPost2010PropOp33
 70
     1
102
RTVSPost2010Prop34
280
     0
102
RTVSPost2010PropOp34
 70
     1
102
RTVSPost2010Prop35
280
     0
102
RTVSPost2010PropOp35
 70
     1
102
RTVSPost2010Prop36
280
     0
102
RTVSPost2010PropOp36
 70
     1
102
RTVSPost2010Prop37
 90
       50
102
RTVSPost2010PropOp37
 70
     1
102
RTVSPost2010Prop38
140
0.0
102
RTVSPost2010PropOp38
 70
     1
102
RTVSPost2010Prop39
140
1.0
102
RTVSPost2010PropOp39
 70
     1
102
RTVSPost2010Prop40
 90
        0
102
RTVSPost2010PropOp40
 70
     1
102
RTVSPost2010Prop41ColorIndex
 90
       18
102
RTVSPost2010Prop41ColorRGB
 90
        0
102
RTVSPost2010PropOp41
 70
     1
102
RTVSPost2010Prop42
 90
       50
102
RTVSPost2010PropOp42
 70
     1
102
RTVSPost2010Prop43
 90
        3
102
RTVSPost2010PropOp43
 70
     1
102
RTVSPost2010Prop44ColorIndex
 90
        5
102
RTVSPost2010Prop44ColorRGB
 90
      255
102
RTVSPost2010PropOp44
 70
     1
102
RTVSPost2010Prop45
280
     0
102
RTVSPost2010PropOp45
 70
     1
102
RTVSPost2010Prop46
 90
       50
102
RTVSPost2010PropOp46
 70
     1
102
RTVSPost2010Prop47
 90
       50
102
RTVSPost2010PropOp47
 70
     1
102
RTVSPost2010Prop48
 90
       50
102
RTVSPost2010PropOp48
 70
     1
102
RTVSPost2010Prop49
280
     0
102
RTVSPost2010PropOp49
 70
     1
102
RTVSPost2010Prop50
 90
       50
102
RTVSPost2010PropOp50
 70
     1
102
RTVSPost2010Prop51ColorIndex
 90
      256
102
RTVSPost2010Prop51ColorRGB
 90
-16777216
102
RTVSPost2010PropOp51
 70
     0
102
RTVSPost2010Prop52
140
1.0
102
RTVSPost2010PropOp52
 70
     0
102
RTVSPost2010Prop53
 90
        2
102
RTVSPost2010PropOp53
 70
     1
102
RTVSPost2010Prop54
  1
strokes_ogs.tif
102
RTVSPost2010PropOp54
 70
     1
102
RTVSPost2010Prop55
280
     0
102
RTVSPost2010PropOp55
 70
     1
102
RTVSPost2010Prop56
140
1.0
102
RTVSPost2010PropOp56
 70
     1
102
RTVSPost2010Prop57
140
1.0
102
RTVSPost2010PropOp57
 70
     1
  0
XRECORD
  5
192
102
{ACAD_REACTORS
330
191
102
}
330
191
100
AcDbXrecord
280
     1
102
RTVSPost2010Prop28
280
     0
102
RTVSPost2010PropOp28
 70
     0
102
RTVSPost2010Prop29
280
     1
102
RTVSPost2010PropOp29
 70
     0
102
RTVSPost2010Prop30
280
     1
102
RTVSPost2010PropOp30
 70
     0
102
RTVSPost2010Prop31
280
     0
102
RTVSPost2010PropOp31
 70
     0
102
RTVSPost2010Prop32
280
     0
102
RTVSPost2010PropOp32
 70
     0
102
RTVSPost2010Prop33
280
     0
102
RTVSPost2010PropOp33
 70
     0
102
RTVSPost2010Prop34
280
     0
102
RTVSPost2010PropOp34
 70
     0
102
RTVSPost2010Prop35
280
     0
102
RTVSPost2010PropOp35
 70
     0
102
RTVSPost2010Prop36
280
     0
102
RTVSPost2010PropOp36
 70
     0
102
RTVSPost2010Prop37
 90
       50
102
RTVSPost2010PropOp37
 70
     0
102
RTVSPost2010Prop38
140
0.0
102
RTVSPost2010PropOp38
 70
     0
102
RTVSPost2010Prop39
140
1.0
102
RTVSPost2010PropOp39
 70
     0
102
RTVSPost2010Prop40
 90
        0
102
RTVSPost2010PropOp40
 70
     0
102
RTVSPost2010Prop41ColorIndex
 90
       18
102
RTVSPost2010Prop41ColorRGB
 90
        0
102
RTVSPost2010PropOp41
 70
     0
102
RTVSPost2010Prop42
 90
       50
102
RTVSPost2010PropOp42
 70
     0
102
RTVSPost2010Prop43
 90
        3
102
RTVSPost2010PropOp43
 70
     0
102
RTVSPost2010Prop44ColorIndex
 90
        5
102
RTVSPost2010Prop44ColorRGB
 90
      255
102
RTVSPost2010PropOp44
 70
     0
102
RTVSPost2010Prop45
280
     0
102
RTVSPost2010PropOp45
 70
     0
102
RTVSPost2010Prop46
 90
       50
102
RTVSPost2010PropOp46
 70
     0
102
RTVSPost2010Prop47
 90
       50
102
RTVSPost2010PropOp47
 70
     0
102
RTVSPost2010Prop48
 90
       50
102
RTVSPost2010PropOp48
 70
     0
102
RTVSPost2010Prop49
280
     0
102
RTVSPost2010PropOp49
 70
     0
102
RTVSPost2010Prop50
 90
       50
102
RTVSPost2010PropOp50
 70
     0
102
RTVSPost2010Prop51ColorIndex
 90
      256
102
RTVSPost2010Prop51ColorRGB
 90
-16777216
102
RTVSPost2010PropOp51
 70
     0
102
RTVSPost2010Prop52
140
1.0
102
RTVSPost2010PropOp52
 70
     0
102
RTVSPost2010Prop53
 90
        2
102
RTVSPost2010PropOp53
 70
     0
102
RTVSPost2010Prop54
  1
strokes_ogs.tif
102
RTVSPost2010PropOp54
 70
     0
102
RTVSPost2010Prop55
280
     0
102
RTVSPost2010PropOp55
 70
     0
102
RTVSPost2010Prop56
140
1.0
102
RTVSPost2010PropOp56
 70
     0
102
RTVSPost2010Prop57
140
1.0
102
RTVSPost2010PropOp57
 70
     0
  0
XRECORD
  5
180
102
{ACAD_REACTORS
330
17F
102
}
330
17F
100
AcDbXrecord
280
     1
102
RTVSPost2010Prop28
280
     0
102
RTVSPost2010PropOp28
 70
     1
102
RTVSPost2010Prop29
280
     1
102
RTVSPost2010PropOp29
 70
     1
102
RTVSPost2010Prop30
280
     1
102
RTVSPost2010PropOp30
 70
     1
102
RTVSPost2010Prop31
280
     0
102
RTVSPost2010PropOp31
 70
     1
102
RTVSPost2010Prop32
280
     0
102
RTVSPost2010PropOp32
 70
     1
102
RTVSPost2010Prop33
280
     0
102
RTVSPost2010PropOp33
 70
     1
102
RTVSPost2010Prop34
280
     0
102
RTVSPost2010PropOp34
 70
     1
102
RTVSPost2010Prop35
280
     0
102
RTVSPost2010PropOp35
 70
     1
102
RTVSPost2010Prop36
280
     0
102
RTVSPost2010PropOp36
 70
     1
102
RTVSPost2010Prop37
 90
       50
102
RTVSPost2010PropOp37
 70
     1
102
RTVSPost2010Prop38
140
0.0
102
RTVSPost2010PropOp38
 70
     1
102
RTVSPost2010Prop39
140
1.0
102
RTVSPost2010PropOp39
 70
     1
102
RTVSPost2010Prop40
 90
        0
102
RTVSPost2010PropOp40
 70
     1
102
RTVSPost2010Prop41ColorIndex
 90
       18
102
RTVSPost2010Prop41ColorRGB
 90
        0
102
RTVSPost2010PropOp41
 70
     1
102
RTVSPost2010Prop42
 90
       50
102
RTVSPost2010PropOp42
 70
     1
102
RTVSPost2010Prop43
 90
        3
102
RTVSPost2010PropOp43
 70
     1
102
RTVSPost2010Prop44ColorIndex
 90
        5
102
RTVSPost2010Prop44ColorRGB
 90
      255
102
RTVSPost2010PropOp44
 70
     1
102
RTVSPost2010Prop45
280
     0
102
RTVSPost2010PropOp45
 70
     1
102
RTVSPost2010Prop46
 90
       50
102
RTVSPost2010PropOp46
 70
     1
102
RTVSPost2010Prop47
 90
       50
102
RTVSPost2010PropOp47
 70
     1
102
RTVSPost2010Prop48
 90
       50
102
RTVSPost2010PropOp48
 70
     1
102
RTVSPost2010Prop49
280
     0
102
RTVSPost2010PropOp49
 70
     1
102
RTVSPost2010Prop50
 90
       50
102
RTVSPost2010PropOp50
 70
     1
102
RTVSPost2010Prop51ColorIndex
 90
      256
102
RTVSPost2010Prop51ColorRGB
 90
-16777216
102
RTVSPost2010PropOp51
 70
     0
102
RTVSPost2010Prop52
140
1.0
102
RTVSPost2010PropOp52
 70
     0
102
RTVSPost2010Prop53
 90
        2
102
RTVSPost2010PropOp53
 70
     1
102
RTVSPost2010Prop54
  1
strokes_ogs.tif
102
RTVSPost2010PropOp54
 70
     1
102
RTVSPost2010Prop55
280
     0
102
RTVSPost2010PropOp55
 70
     1
102
RTVSPost2010Prop56
140
1.0
102
RTVSPost2010PropOp56
 70
     1
102
RTVSPost2010Prop57
140
1.0
102
RTVSPost2010PropOp57
 70
     1
  0
XRECORD
  5
164
102
{ACAD_REACTORS
330
163
102
}
330
163
100
AcDbXrecord
280
     1
102
RTVSPost2010Prop28
280
     0
102
RTVSPost2010PropOp28
 70
     1
102
RTVSPost2010Prop29
280
     1
102
RTVSPost2010PropOp29
 70
     1
102
RTVSPost2010Prop30
280
     1
102
RTVSPost2010PropOp30
 70
     1
102
RTVSPost2010Prop31
280
     0
102
RTVSPost2010PropOp31
 70
     1
102
RTVSPost2010Prop32
280
     0
102
RTVSPost2010PropOp32
 70
     1
102
RTVSPost2010Prop33
280
     0
102
RTVSPost2010PropOp33
 70
     1
102
RTVSPost2010Prop34
280
     0
102
RTVSPost2010PropOp34
 70
     1
102
RTVSPost2010Prop35
280
     0
102
RTVSPost2010PropOp35
 70
     1
102
RTVSPost2010Prop36
280
     0
102
RTVSPost2010PropOp36
 70
     1
102
RTVSPost2010Prop37
 90
       50
102
RTVSPost2010PropOp37
 70
     1
102
RTVSPost2010Prop38
140
0.0
102
RTVSPost2010PropOp38
 70
     1
102
RTVSPost2010Prop39
140
1.0
102
RTVSPost2010PropOp39
 70
     1
102
RTVSPost2010Prop40
 90
        0
102
RTVSPost2010PropOp40
 70
     1
102
RTVSPost2010Prop41ColorIndex
 90
       18
102
RTVSPost2010Prop41ColorRGB
 90
        0
102
RTVSPost2010PropOp41
 70
     1
102
RTVSPost2010Prop42
 90
       50
102
RTVSPost2010PropOp42
 70
     1
102
RTVSPost2010Prop43
 90
        3
102
RTVSPost2010PropOp43
 70
     1
102
RTVSPost2010Prop44ColorIndex
 90
        5
102
RTVSPost2010Prop44ColorRGB
 90
      255
102
RTVSPost2010PropOp44
 70
     1
102
RTVSPost2010Prop45
280
     0
102
RTVSPost2010PropOp45
 70
     1
102
RTVSPost2010Prop46
 90
       50
102
RTVSPost2010PropOp46
 70
     1
102
RTVSPost2010Prop47
 90
       50
102
RTVSPost2010PropOp47
 70
     1
102
RTVSPost2010Prop48
 90
       50
102
RTVSPost2010PropOp48
 70
     1
102
RTVSPost2010Prop49
280
     0
102
RTVSPost2010PropOp49
 70
     1
102
RTVSPost2010Prop50
 90
       50
102
RTVSPost2010PropOp50
 70
     1
102
RTVSPost2010Prop51ColorIndex
 90
      256
102
RTVSPost2010Prop51ColorRGB
 90
-16777216
102
RTVSPost2010PropOp51
 70
     0
102
RTVSPost2010Prop52
140
1.0
102
RTVSPost2010PropOp52
 70
     0
102
RTVSPost2010Prop53
 90
        2
102
RTVSPost2010PropOp53
 70
     1
102
RTVSPost2010Prop54
  1
strokes_ogs.tif
102
RTVSPost2010PropOp54
 70
     1
102
RTVSPost2010Prop55
280
     0
102
RTVSPost2010PropOp55
 70
     1
102
RTVSPost2010Prop56
140
1.0
102
RTVSPost2010PropOp56
 70
     1
102
RTVSPost2010Prop57
140
1.0
102
RTVSPost2010PropOp57
 70
     1
  0
XRECORD
  5
166
102
{ACAD_REACTORS
330
165
102
}
330
165
100
AcDbXrecord
280
     1
102
RTVSPost2010Prop28
280
     0
102
RTVSPost2010PropOp28
 70
     1
102
RTVSPost2010Prop29
280
     1
102
RTVSPost2010PropOp29
 70
     1
102
RTVSPost2010Prop30
280
     1
102
RTVSPost2010PropOp30
 70
     1
102
RTVSPost2010Prop31
280
     0
102
RTVSPost2010PropOp31
 70
     1
102
RTVSPost2010Prop32
280
     0
102
RTVSPost2010PropOp32
 70
     1
102
RTVSPost2010Prop33
280
     0
102
RTVSPost2010PropOp33
 70
     1
102
RTVSPost2010Prop34
280
     0
102
RTVSPost2010PropOp34
 70
     1
102
RTVSPost2010Prop35
280
     0
102
RTVSPost2010PropOp35
 70
     1
102
RTVSPost2010Prop36
280
     0
102
RTVSPost2010PropOp36
 70
     1
102
RTVSPost2010Prop37
 90
       50
102
RTVSPost2010PropOp37
 70
     1
102
RTVSPost2010Prop38
140
0.0
102
RTVSPost2010PropOp38
 70
     1
102
RTVSPost2010Prop39
140
1.0
102
RTVSPost2010PropOp39
 70
     1
102
RTVSPost2010Prop40
 90
        0
102
RTVSPost2010PropOp40
 70
     1
102
RTVSPost2010Prop41ColorIndex
 90
       18
102
RTVSPost2010Prop41ColorRGB
 90
        0
102
RTVSPost2010PropOp41
 70
     1
102
RTVSPost2010Prop42
 90
       50
102
RTVSPost2010PropOp42
 70
     1
102
RTVSPost2010Prop43
 90
        3
102
RTVSPost2010PropOp43
 70
     1
102
RTVSPost2010Prop44ColorIndex
 90
        5
102
RTVSPost2010Prop44ColorRGB
 90
      255
102
RTVSPost2010PropOp44
 70
     1
102
RTVSPost2010Prop45
280
     0
102
RTVSPost2010PropOp45
 70
     1
102
RTVSPost2010Prop46
 90
       50
102
RTVSPost2010PropOp46
 70
     1
102
RTVSPost2010Prop47
 90
       50
102
RTVSPost2010PropOp47
 70
     1
102
RTVSPost2010Prop48
 90
       50
102
RTVSPost2010PropOp48
 70
     1
102
RTVSPost2010Prop49
280
     0
102
RTVSPost2010PropOp49
 70
     1
102
RTVSPost2010Prop50
 90
       50
102
RTVSPost2010PropOp50
 70
     1
102
RTVSPost2010Prop51ColorIndex
 90
      256
102
RTVSPost2010Prop51ColorRGB
 90
-16777216
102
RTVSPost2010PropOp51
 70
     0
102
RTVSPost2010Prop52
140
1.0
102
RTVSPost2010PropOp52
 70
     0
102
RTVSPost2010Prop53
 90
        2
102
RTVSPost2010PropOp53
 70
     1
102
RTVSPost2010Prop54
  1
strokes_ogs.tif
102
RTVSPost2010PropOp54
 70
     1
102
RTVSPost2010Prop55
280
     0
102
RTVSPost2010PropOp55
 70
     1
102
RTVSPost2010Prop56
140
1.0
102
RTVSPost2010PropOp56
 70
     1
102
RTVSPost2010Prop57
140
1.0
102
RTVSPost2010PropOp57
 70
     1
  0
XRECORD
  5
168
102
{ACAD_REACTORS
330
167
102
}
330
167
100
AcDbXrecord
280
     1
102
RTVSPost2010Prop28
280
     0
102
RTVSPost2010PropOp28
 70
     1
102
RTVSPost2010Prop29
280
     1
102
RTVSPost2010PropOp29
 70
     1
102
RTVSPost2010Prop30
280
     1
102
RTVSPost2010PropOp30
 70
     1
102
RTVSPost2010Prop31
280
     0
102
RTVSPost2010PropOp31
 70
     1
102
RTVSPost2010Prop32
280
     0
102
RTVSPost2010PropOp32
 70
     1
102
RTVSPost2010Prop33
280
     0
102
RTVSPost2010PropOp33
 70
     1
102
RTVSPost2010Prop34
280
     0
102
RTVSPost2010PropOp34
 70
     1
102
RTVSPost2010Prop35
280
     0
102
RTVSPost2010PropOp35
 70
     1
102
RTVSPost2010Prop36
280
     0
102
RTVSPost2010PropOp36
 70
     1
102
RTVSPost2010Prop37
 90
       50
102
RTVSPost2010PropOp37
 70
     1
102
RTVSPost2010Prop38
140
0.0
102
RTVSPost2010PropOp38
 70
     1
102
RTVSPost2010Prop39
140
1.0
102
RTVSPost2010PropOp39
 70
     1
102
RTVSPost2010Prop40
 90
        0
102
RTVSPost2010PropOp40
 70
     1
102
RTVSPost2010Prop41ColorIndex
 90
       18
102
RTVSPost2010Prop41ColorRGB
 90
        0
102
RTVSPost2010PropOp41
 70
     1
102
RTVSPost2010Prop42
 90
       50
102
RTVSPost2010PropOp42
 70
     1
102
RTVSPost2010Prop43
 90
        3
102
RTVSPost2010PropOp43
 70
     1
102
RTVSPost2010Prop44ColorIndex
 90
        5
102
RTVSPost2010Prop44ColorRGB
 90
      255
102
RTVSPost2010PropOp44
 70
     1
102
RTVSPost2010Prop45
280
     0
102
RTVSPost2010PropOp45
 70
     1
102
RTVSPost2010Prop46
 90
       50
102
RTVSPost2010PropOp46
 70
     1
102
RTVSPost2010Prop47
 90
       50
102
RTVSPost2010PropOp47
 70
     1
102
RTVSPost2010Prop48
 90
       50
102
RTVSPost2010PropOp48
 70
     1
102
RTVSPost2010Prop49
280
     0
102
RTVSPost2010PropOp49
 70
     1
102
RTVSPost2010Prop50
 90
       50
102
RTVSPost2010PropOp50
 70
     1
102
RTVSPost2010Prop51ColorIndex
 90
      256
102
RTVSPost2010Prop51ColorRGB
 90
-16777216
102
RTVSPost2010PropOp51
 70
     0
102
RTVSPost2010Prop52
140
1.0
102
RTVSPost2010PropOp52
 70
     0
102
RTVSPost2010Prop53
 90
        2
102
RTVSPost2010PropOp53
 70
     1
102
RTVSPost2010Prop54
  1
strokes_ogs.tif
102
RTVSPost2010PropOp54
 70
     1
102
RTVSPost2010Prop55
280
     0
102
RTVSPost2010PropOp55
 70
     1
102
RTVSPost2010Prop56
140
1.0
102
RTVSPost2010PropOp56
 70
     1
102
RTVSPost2010Prop57
140
1.0
102
RTVSPost2010PropOp57
 70
     1
  0
XRECORD
  5
16A
102
{ACAD_REACTORS
330
169
102
}
330
169
100
AcDbXrecord
280
     1
102
RTVSPost2010Prop28
280
     0
102
RTVSPost2010PropOp28
 70
     1
102
RTVSPost2010Prop29
280
     1
102
RTVSPost2010PropOp29
 70
     1
102
RTVSPost2010Prop30
280
     1
102
RTVSPost2010PropOp30
 70
     1
102
RTVSPost2010Prop31
280
     0
102
RTVSPost2010PropOp31
 70
     1
102
RTVSPost2010Prop32
280
     0
102
RTVSPost2010PropOp32
 70
     1
102
RTVSPost2010Prop33
280
     0
102
RTVSPost2010PropOp33
 70
     1
102
RTVSPost2010Prop34
280
     0
102
RTVSPost2010PropOp34
 70
     1
102
RTVSPost2010Prop35
280
     0
102
RTVSPost2010PropOp35
 70
     1
102
RTVSPost2010Prop36
280
     0
102
RTVSPost2010PropOp36
 70
     1
102
RTVSPost2010Prop37
 90
       50
102
RTVSPost2010PropOp37
 70
     1
102
RTVSPost2010Prop38
140
0.0
102
RTVSPost2010PropOp38
 70
     1
102
RTVSPost2010Prop39
140
1.0
102
RTVSPost2010PropOp39
 70
     1
102
RTVSPost2010Prop40
 90
        0
102
RTVSPost2010PropOp40
 70
     1
102
RTVSPost2010Prop41ColorIndex
 90
       18
102
RTVSPost2010Prop41ColorRGB
 90
        0
102
RTVSPost2010PropOp41
 70
     1
102
RTVSPost2010Prop42
 90
       50
102
RTVSPost2010PropOp42
 70
     1
102
RTVSPost2010Prop43
 90
        3
102
RTVSPost2010PropOp43
 70
     1
102
RTVSPost2010Prop44ColorIndex
 90
        5
102
RTVSPost2010Prop44ColorRGB
 90
      255
102
RTVSPost2010PropOp44
 70
     1
102
RTVSPost2010Prop45
280
     0
102
RTVSPost2010PropOp45
 70
     1
102
RTVSPost2010Prop46
 90
       50
102
RTVSPost2010PropOp46
 70
     1
102
RTVSPost2010Prop47
 90
       50
102
RTVSPost2010PropOp47
 70
     1
102
RTVSPost2010Prop48
 90
       50
102
RTVSPost2010PropOp48
 70
     1
102
RTVSPost2010Prop49
280
     0
102
RTVSPost2010PropOp49
 70
     1
102
RTVSPost2010Prop50
 90
       50
102
RTVSPost2010PropOp50
 70
     1
102
RTVSPost2010Prop51ColorIndex
 90
      256
102
RTVSPost2010Prop51ColorRGB
 90
-16777216
102
RTVSPost2010PropOp51
 70
     0
102
RTVSPost2010Prop52
140
1.0
102
RTVSPost2010PropOp52
 70
     0
102
RTVSPost2010Prop53
 90
        2
102
RTVSPost2010PropOp53
 70
     1
102
RTVSPost2010Prop54
  1
strokes_ogs.tif
102
RTVSPost2010PropOp54
 70
     1
102
RTVSPost2010Prop55
280
     0
102
RTVSPost2010PropOp55
 70
     1
102
RTVSPost2010Prop56
140
1.0
102
RTVSPost2010PropOp56
 70
     1
102
RTVSPost2010Prop57
140
1.0
102
RTVSPost2010PropOp57
 70
     1
  0
XRECORD
  5
172
102
{ACAD_REACTORS
330
171
102
}
330
171
100
AcDbXrecord
280
     1
102
RTVSPost2010Prop28
280
     0
102
RTVSPost2010PropOp28
 70
     1
102
RTVSPost2010Prop29
280
     1
102
RTVSPost2010PropOp29
 70
     1
102
RTVSPost2010Prop30
280
     1
102
RTVSPost2010PropOp30
 70
     1
102
RTVSPost2010Prop31
280
     0
102
RTVSPost2010PropOp31
 70
     1
102
RTVSPost2010Prop32
280
     0
102
RTVSPost2010PropOp32
 70
     1
102
RTVSPost2010Prop33
280
     0
102
RTVSPost2010PropOp33
 70
     1
102
RTVSPost2010Prop34
280
     0
102
RTVSPost2010PropOp34
 70
     1
102
RTVSPost2010Prop35
280
     0
102
RTVSPost2010PropOp35
 70
     1
102
RTVSPost2010Prop36
280
     0
102
RTVSPost2010PropOp36
 70
     1
102
RTVSPost2010Prop37
 90
       50
102
RTVSPost2010PropOp37
 70
     1
102
RTVSPost2010Prop38
140
0.0
102
RTVSPost2010PropOp38
 70
     1
102
RTVSPost2010Prop39
140
1.0
102
RTVSPost2010PropOp39
 70
     1
102
RTVSPost2010Prop40
 90
        0
102
RTVSPost2010PropOp40
 70
     1
102
RTVSPost2010Prop41ColorIndex
 90
       18
102
RTVSPost2010Prop41ColorRGB
 90
        0
102
RTVSPost2010PropOp41
 70
     1
102
RTVSPost2010Prop42
 90
       50
102
RTVSPost2010PropOp42
 70
     1
102
RTVSPost2010Prop43
 90
        3
102
RTVSPost2010PropOp43
 70
     1
102
RTVSPost2010Prop44ColorIndex
 90
        5
102
RTVSPost2010Prop44ColorRGB
 90
      255
102
RTVSPost2010PropOp44
 70
     1
102
RTVSPost2010Prop45
280
     0
102
RTVSPost2010PropOp45
 70
     1
102
RTVSPost2010Prop46
 90
       50
102
RTVSPost2010PropOp46
 70
     1
102
RTVSPost2010Prop47
 90
       50
102
RTVSPost2010PropOp47
 70
     1
102
RTVSPost2010Prop48
 90
       50
102
RTVSPost2010PropOp48
 70
     1
102
RTVSPost2010Prop49
280
     0
102
RTVSPost2010PropOp49
 70
     1
102
RTVSPost2010Prop50
 90
       50
102
RTVSPost2010PropOp50
 70
     1
102
RTVSPost2010Prop51ColorIndex
 90
      256
102
RTVSPost2010Prop51ColorRGB
 90
-16777216
102
RTVSPost2010PropOp51
 70
     0
102
RTVSPost2010Prop52
140
1.0
102
RTVSPost2010PropOp52
 70
     0
102
RTVSPost2010Prop53
 90
        2
102
RTVSPost2010PropOp53
 70
     1
102
RTVSPost2010Prop54
  1
strokes_ogs.tif
102
RTVSPost2010PropOp54
 70
     1
102
RTVSPost2010Prop55
280
     0
102
RTVSPost2010PropOp55
 70
     1
102
RTVSPost2010Prop56
140
1.0
102
RTVSPost2010PropOp56
 70
     1
102
RTVSPost2010Prop57
140
1.0
102
RTVSPost2010PropOp57
 70
     1
  0
XRECORD
  5
18E
102
{ACAD_REACTORS
330
18D
102
}
330
18D
100
AcDbXrecord
280
     1
102
RTVSPost2010Prop28
280
     0
102
RTVSPost2010PropOp28
 70
     0
102
RTVSPost2010Prop29
280
     1
102
RTVSPost2010PropOp29
 70
     0
102
RTVSPost2010Prop30
280
     1
102
RTVSPost2010PropOp30
 70
     0
102
RTVSPost2010Prop31
280
     0
102
RTVSPost2010PropOp31
 70
     0
102
RTVSPost2010Prop32
280
     0
102
RTVSPost2010PropOp32
 70
     0
102
RTVSPost2010Prop33
280
     0
102
RTVSPost2010PropOp33
 70
     0
102
RTVSPost2010Prop34
280
     0
102
RTVSPost2010PropOp34
 70
     0
102
RTVSPost2010Prop35
280
     0
102
RTVSPost2010PropOp35
 70
     0
102
RTVSPost2010Prop36
280
     0
102
RTVSPost2010PropOp36
 70
     0
102
RTVSPost2010Prop37
 90
       50
102
RTVSPost2010PropOp37
 70
     0
102
RTVSPost2010Prop38
140
0.0
102
RTVSPost2010PropOp38
 70
     0
102
RTVSPost2010Prop39
140
1.0
102
RTVSPost2010PropOp39
 70
     0
102
RTVSPost2010Prop40
 90
        0
102
RTVSPost2010PropOp40
 70
     0
102
RTVSPost2010Prop41ColorIndex
 90
       18
102
RTVSPost2010Prop41ColorRGB
 90
        0
102
RTVSPost2010PropOp41
 70
     0
102
RTVSPost2010Prop42
 90
       50
102
RTVSPost2010PropOp42
 70
     0
102
RTVSPost2010Prop43
 90
        3
102
RTVSPost2010PropOp43
 70
     0
102
RTVSPost2010Prop44ColorIndex
 90
        5
102
RTVSPost2010Prop44ColorRGB
 90
      255
102
RTVSPost2010PropOp44
 70
     0
102
RTVSPost2010Prop45
280
     0
102
RTVSPost2010PropOp45
 70
     0
102
RTVSPost2010Prop46
 90
       50
102
RTVSPost2010PropOp46
 70
     0
102
RTVSPost2010Prop47
 90
       50
102
RTVSPost2010PropOp47
 70
     0
102
RTVSPost2010Prop48
 90
       50
102
RTVSPost2010PropOp48
 70
     0
102
RTVSPost2010Prop49
280
     0
102
RTVSPost2010PropOp49
 70
     0
102
RTVSPost2010Prop50
 90
       50
102
RTVSPost2010PropOp50
 70
     0
102
RTVSPost2010Prop51ColorIndex
 90
      256
102
RTVSPost2010Prop51ColorRGB
 90
-16777216
102
RTVSPost2010PropOp51
 70
     0
102
RTVSPost2010Prop52
140
1.0
102
RTVSPost2010PropOp52
 70
     0
102
RTVSPost2010Prop53
 90
        2
102
RTVSPost2010PropOp53
 70
     0
102
RTVSPost2010Prop54
  1
strokes_ogs.tif
102
RTVSPost2010PropOp54
 70
     0
102
RTVSPost2010Prop55
280
     0
102
RTVSPost2010PropOp55
 70
     0
102
RTVSPost2010Prop56
140
1.0
102
RTVSPost2010PropOp56
 70
     0
102
RTVSPost2010Prop57
140
1.0
102
RTVSPost2010PropOp57
 70
     0
  0
XRECORD
  5
17E
102
{ACAD_REACTORS
330
17D
102
}
330
17D
100
AcDbXrecord
280
     1
102
RTVSPost2010Prop28
280
     0
102
RTVSPost2010PropOp28
 70
     1
102
RTVSPost2010Prop29
280
     1
102
RTVSPost2010PropOp29
 70
     1
102
RTVSPost2010Prop30
280
     1
102
RTVSPost2010PropOp30
 70
     1
102
RTVSPost2010Prop31
280
     0
102
RTVSPost2010PropOp31
 70
     1
102
RTVSPost2010Prop32
280
     0
102
RTVSPost2010PropOp32
 70
     1
102
RTVSPost2010Prop33
280
     0
102
RTVSPost2010PropOp33
 70
     1
102
RTVSPost2010Prop34
280
     0
102
RTVSPost2010PropOp34
 70
     1
102
RTVSPost2010Prop35
280
     0
102
RTVSPost2010PropOp35
 70
     1
102
RTVSPost2010Prop36
280
     0
102
RTVSPost2010PropOp36
 70
     1
102
RTVSPost2010Prop37
 90
       50
102
RTVSPost2010PropOp37
 70
     1
102
RTVSPost2010Prop38
140
0.0
102
RTVSPost2010PropOp38
 70
     1
102
RTVSPost2010Prop39
140
1.0
102
RTVSPost2010PropOp39
 70
     1
102
RTVSPost2010Prop40
 90
        0
102
RTVSPost2010PropOp40
 70
     1
102
RTVSPost2010Prop41ColorIndex
 90
       18
102
RTVSPost2010Prop41ColorRGB
 90
        0
102
RTVSPost2010PropOp41
 70
     1
102
RTVSPost2010Prop42
 90
       50
102
RTVSPost2010PropOp42
 70
     1
102
RTVSPost2010Prop43
 90
        3
102
RTVSPost2010PropOp43
 70
     1
102
RTVSPost2010Prop44ColorIndex
 90
        5
102
RTVSPost2010Prop44ColorRGB
 90
      255
102
RTVSPost2010PropOp44
 70
     1
102
RTVSPost2010Prop45
280
     0
102
RTVSPost2010PropOp45
 70
     1
102
RTVSPost2010Prop46
 90
       50
102
RTVSPost2010PropOp46
 70
     1
102
RTVSPost2010Prop47
 90
       50
102
RTVSPost2010PropOp47
 70
     1
102
RTVSPost2010Prop48
 90
       50
102
RTVSPost2010PropOp48
 70
     1
102
RTVSPost2010Prop49
280
     0
102
RTVSPost2010PropOp49
 70
     1
102
RTVSPost2010Prop50
 90
       50
102
RTVSPost2010PropOp50
 70
     1
102
RTVSPost2010Prop51ColorIndex
 90
      256
102
RTVSPost2010Prop51ColorRGB
 90
-16777216
102
RTVSPost2010PropOp51
 70
     0
102
RTVSPost2010Prop52
140
1.0
102
RTVSPost2010PropOp52
 70
     0
102
RTVSPost2010Prop53
 90
        2
102
RTVSPost2010PropOp53
 70
     1
102
RTVSPost2010Prop54
  1
strokes_ogs.tif
102
RTVSPost2010PropOp54
 70
     1
102
RTVSPost2010Prop55
280
     0
102
RTVSPost2010PropOp55
 70
     1
102
RTVSPost2010Prop56
140
1.0
102
RTVSPost2010PropOp56
 70
     1
102
RTVSPost2010Prop57
140
1.0
102
RTVSPost2010PropOp57
 70
     1
  0
XRECORD
  5
190
102
{ACAD_REACTORS
330
18F
102
}
330
18F
100
AcDbXrecord
280
     1
102
RTVSPost2010Prop28
280
     0
102
RTVSPost2010PropOp28
 70
     0
102
RTVSPost2010Prop29
280
     1
102
RTVSPost2010PropOp29
 70
     0
102
RTVSPost2010Prop30
280
     1
102
RTVSPost2010PropOp30
 70
     0
102
RTVSPost2010Prop31
280
     0
102
RTVSPost2010PropOp31
 70
     0
102
RTVSPost2010Prop32
280
     0
102
RTVSPost2010PropOp32
 70
     0
102
RTVSPost2010Prop33
280
     0
102
RTVSPost2010PropOp33
 70
     0
102
RTVSPost2010Prop34
280
     0
102
RTVSPost2010PropOp34
 70
     0
102
RTVSPost2010Prop35
280
     0
102
RTVSPost2010PropOp35
 70
     0
102
RTVSPost2010Prop36
280
     0
102
RTVSPost2010PropOp36
 70
     0
102
RTVSPost2010Prop37
 90
       50
102
RTVSPost2010PropOp37
 70
     0
102
RTVSPost2010Prop38
140
0.0
102
RTVSPost2010PropOp38
 70
     0
102
RTVSPost2010Prop39
140
1.0
102
RTVSPost2010PropOp39
 70
     0
102
RTVSPost2010Prop40
 90
        0
102
RTVSPost2010PropOp40
 70
     0
102
RTVSPost2010Prop41ColorIndex
 90
       18
102
RTVSPost2010Prop41ColorRGB
 90
        0
102
RTVSPost2010PropOp41
 70
     0
102
RTVSPost2010Prop42
 90
       50
102
RTVSPost2010PropOp42
 70
     0
102
RTVSPost2010Prop43
 90
        3
102
RTVSPost2010PropOp43
 70
     0
102
RTVSPost2010Prop44ColorIndex
 90
        5
102
RTVSPost2010Prop44ColorRGB
 90
      255
102
RTVSPost2010PropOp44
 70
     0
102
RTVSPost2010Prop45
280
     0
102
RTVSPost2010PropOp45
 70
     0
102
RTVSPost2010Prop46
 90
       50
102
RTVSPost2010PropOp46
 70
     0
102
RTVSPost2010Prop47
 90
       50
102
RTVSPost2010PropOp47
 70
     0
102
RTVSPost2010Prop48
 90
       50
102
RTVSPost2010PropOp48
 70
     0
102
RTVSPost2010Prop49
280
     0
102
RTVSPost2010PropOp49
 70
     0
102
RTVSPost2010Prop50
 90
       50
102
RTVSPost2010PropOp50
 70
     0
102
RTVSPost2010Prop51ColorIndex
 90
      256
102
RTVSPost2010Prop51ColorRGB
 90
-16777216
102
RTVSPost2010PropOp51
 70
     0
102
RTVSPost2010Prop52
140
1.0
102
RTVSPost2010PropOp52
 70
     0
102
RTVSPost2010Prop53
 90
        2
102
RTVSPost2010PropOp53
 70
     0
102
RTVSPost2010Prop54
  1
strokes_ogs.tif
102
RTVSPost2010PropOp54
 70
     0
102
RTVSPost2010Prop55
280
     0
102
RTVSPost2010PropOp55
 70
     0
102
RTVSPost2010Prop56
140
1.0
102
RTVSPost2010PropOp56
 70
     0
102
RTVSPost2010Prop57
140
1.0
102
RTVSPost2010PropOp57
 70
     0
  0
XRECORD
  5
176
102
{ACAD_REACTORS
330
175
102
}
330
175
100
AcDbXrecord
280
     1
102
RTVSPost2010Prop28
280
     0
102
RTVSPost2010PropOp28
 70
     1
102
RTVSPost2010Prop29
280
     1
102
RTVSPost2010PropOp29
 70
     1
102
RTVSPost2010Prop30
280
     1
102
RTVSPost2010PropOp30
 70
     1
102
RTVSPost2010Prop31
280
     0
102
RTVSPost2010PropOp31
 70
     1
102
RTVSPost2010Prop32
280
     0
102
RTVSPost2010PropOp32
 70
     1
102
RTVSPost2010Prop33
280
     0
102
RTVSPost2010PropOp33
 70
     1
102
RTVSPost2010Prop34
280
     0
102
RTVSPost2010PropOp34
 70
     1
102
RTVSPost2010Prop35
280
     0
102
RTVSPost2010PropOp35
 70
     1
102
RTVSPost2010Prop36
280
     0
102
RTVSPost2010PropOp36
 70
     1
102
RTVSPost2010Prop37
 90
       50
102
RTVSPost2010PropOp37
 70
     1
102
RTVSPost2010Prop38
140
0.0
102
RTVSPost2010PropOp38
 70
     1
102
RTVSPost2010Prop39
140
1.0
102
RTVSPost2010PropOp39
 70
     1
102
RTVSPost2010Prop40
 90
        0
102
RTVSPost2010PropOp40
 70
     1
102
RTVSPost2010Prop41ColorIndex
 90
       18
102
RTVSPost2010Prop41ColorRGB
 90
        0
102
RTVSPost2010PropOp41
 70
     1
102
RTVSPost2010Prop42
 90
       50
102
RTVSPost2010PropOp42
 70
     1
102
RTVSPost2010Prop43
 90
        3
102
RTVSPost2010PropOp43
 70
     1
102
RTVSPost2010Prop44ColorIndex
 90
        5
102
RTVSPost2010Prop44ColorRGB
 90
      255
102
RTVSPost2010PropOp44
 70
     1
102
RTVSPost2010Prop45
280
     0
102
RTVSPost2010PropOp45
 70
     1
102
RTVSPost2010Prop46
 90
       50
102
RTVSPost2010PropOp46
 70
     1
102
RTVSPost2010Prop47
 90
       50
102
RTVSPost2010PropOp47
 70
     1
102
RTVSPost2010Prop48
 90
       50
102
RTVSPost2010PropOp48
 70
     1
102
RTVSPost2010Prop49
280
     0
102
RTVSPost2010PropOp49
 70
     1
102
RTVSPost2010Prop50
 90
       50
102
RTVSPost2010PropOp50
 70
     1
102
RTVSPost2010Prop51ColorIndex
 90
      256
102
RTVSPost2010Prop51ColorRGB
 90
-16777216
102
RTVSPost2010PropOp51
 70
     0
102
RTVSPost2010Prop52
140
1.0
102
RTVSPost2010PropOp52
 70
     0
102
RTVSPost2010Prop53
 90
        2
102
RTVSPost2010PropOp53
 70
     1
102
RTVSPost2010Prop54
  1
strokes_ogs.tif
102
RTVSPost2010PropOp54
 70
     1
102
RTVSPost2010Prop55
280
     0
102
RTVSPost2010PropOp55
 70
     1
102
RTVSPost2010Prop56
140
1.0
102
RTVSPost2010PropOp56
 70
     1
102
RTVSPost2010Prop57
140
1.0
102
RTVSPost2010PropOp57
 70
     1
  0
XRECORD
  5
18C
102
{ACAD_REACTORS
330
18B
102
}
330
18B
100
AcDbXrecord
280
     1
102
RTVSPost2010Prop28
280
     0
102
RTVSPost2010PropOp28
 70
     1
102
RTVSPost2010Prop29
280
     1
102
RTVSPost2010PropOp29
 70
     1
102
RTVSPost2010Prop30
280
     1
102
RTVSPost2010PropOp30
 70
     1
102
RTVSPost2010Prop31
280
     0
102
RTVSPost2010PropOp31
 70
     1
102
RTVSPost2010Prop32
280
     0
102
RTVSPost2010PropOp32
 70
     1
102
RTVSPost2010Prop33
280
     0
102
RTVSPost2010PropOp33
 70
     1
102
RTVSPost2010Prop34
280
     0
102
RTVSPost2010PropOp34
 70
     1
102
RTVSPost2010Prop35
280
     0
102
RTVSPost2010PropOp35
 70
     1
102
RTVSPost2010Prop36
280
     0
102
RTVSPost2010PropOp36
 70
     1
102
RTVSPost2010Prop37
 90
       50
102
RTVSPost2010PropOp37
 70
     1
102
RTVSPost2010Prop38
140
0.0
102
RTVSPost2010PropOp38
 70
     1
102
RTVSPost2010Prop39
140
1.0
102
RTVSPost2010PropOp39
 70
     1
102
RTVSPost2010Prop40
 90
        0
102
RTVSPost2010PropOp40
 70
     1
102
RTVSPost2010Prop41ColorIndex
 90
       18
102
RTVSPost2010Prop41ColorRGB
 90
        0
102
RTVSPost2010PropOp41
 70
     1
102
RTVSPost2010Prop42
 90
       50
102
RTVSPost2010PropOp42
 70
     1
102
RTVSPost2010Prop43
 90
        3
102
RTVSPost2010PropOp43
 70
     1
102
RTVSPost2010Prop44ColorIndex
 90
        5
102
RTVSPost2010Prop44ColorRGB
 90
      255
102
RTVSPost2010PropOp44
 70
     1
102
RTVSPost2010Prop45
280
     0
102
RTVSPost2010PropOp45
 70
     1
102
RTVSPost2010Prop46
 90
       50
102
RTVSPost2010PropOp46
 70
     1
102
RTVSPost2010Prop47
 90
       50
102
RTVSPost2010PropOp47
 70
     1
102
RTVSPost2010Prop48
 90
       50
102
RTVSPost2010PropOp48
 70
     1
102
RTVSPost2010Prop49
280
     0
102
RTVSPost2010PropOp49
 70
     1
102
RTVSPost2010Prop50
 90
       50
102
RTVSPost2010PropOp50
 70
     1
102
RTVSPost2010Prop51ColorIndex
 90
      256
102
RTVSPost2010Prop51ColorRGB
 90
-16777216
102
RTVSPost2010PropOp51
 70
     0
102
RTVSPost2010Prop52
140
1.0
102
RTVSPost2010PropOp52
 70
     0
102
RTVSPost2010Prop53
 90
        2
102
RTVSPost2010PropOp53
 70
     1
102
RTVSPost2010Prop54
  1
strokes_ogs.tif
102
RTVSPost2010PropOp54
 70
     1
102
RTVSPost2010Prop55
280
     0
102
RTVSPost2010PropOp55
 70
     1
102
RTVSPost2010Prop56
140
1.0
102
RTVSPost2010PropOp56
 70
     1
102
RTVSPost2010Prop57
140
1.0
102
RTVSPost2010PropOp57
 70
     1
  0
XRECORD
  5
18A
102
{ACAD_REACTORS
330
189
102
}
330
189
100
AcDbXrecord
280
     1
102
RTVSPost2010Prop28
280
     0
102
RTVSPost2010PropOp28
 70
     1
102
RTVSPost2010Prop29
280
     1
102
RTVSPost2010PropOp29
 70
     1
102
RTVSPost2010Prop30
280
     1
102
RTVSPost2010PropOp30
 70
     1
102
RTVSPost2010Prop31
280
     0
102
RTVSPost2010PropOp31
 70
     1
102
RTVSPost2010Prop32
280
     0
102
RTVSPost2010PropOp32
 70
     1
102
RTVSPost2010Prop33
280
     0
102
RTVSPost2010PropOp33
 70
     1
102
RTVSPost2010Prop34
280
     0
102
RTVSPost2010PropOp34
 70
     1
102
RTVSPost2010Prop35
280
     0
102
RTVSPost2010PropOp35
 70
     1
102
RTVSPost2010Prop36
280
     0
102
RTVSPost2010PropOp36
 70
     1
102
RTVSPost2010Prop37
 90
       50
102
RTVSPost2010PropOp37
 70
     1
102
RTVSPost2010Prop38
140
0.0
102
RTVSPost2010PropOp38
 70
     1
102
RTVSPost2010Prop39
140
1.0
102
RTVSPost2010PropOp39
 70
     1
102
RTVSPost2010Prop40
 90
        0
102
RTVSPost2010PropOp40
 70
     1
102
RTVSPost2010Prop41ColorIndex
 90
       18
102
RTVSPost2010Prop41ColorRGB
 90
        0
102
RTVSPost2010PropOp41
 70
     1
102
RTVSPost2010Prop42
 90
       50
102
RTVSPost2010PropOp42
 70
     1
102
RTVSPost2010Prop43
 90
        3
102
RTVSPost2010PropOp43
 70
     1
102
RTVSPost2010Prop44ColorIndex
 90
        5
102
RTVSPost2010Prop44ColorRGB
 90
      255
102
RTVSPost2010PropOp44
 70
     1
102
RTVSPost2010Prop45
280
     0
102
RTVSPost2010PropOp45
 70
     1
102
RTVSPost2010Prop46
 90
       50
102
RTVSPost2010PropOp46
 70
     1
102
RTVSPost2010Prop47
 90
       50
102
RTVSPost2010PropOp47
 70
     1
102
RTVSPost2010Prop48
 90
       50
102
RTVSPost2010PropOp48
 70
     1
102
RTVSPost2010Prop49
280
     0
102
RTVSPost2010PropOp49
 70
     1
102
RTVSPost2010Prop50
 90
       50
102
RTVSPost2010PropOp50
 70
     1
102
RTVSPost2010Prop51ColorIndex
 90
      256
102
RTVSPost2010Prop51ColorRGB
 90
-16777216
102
RTVSPost2010PropOp51
 70
     0
102
RTVSPost2010Prop52
140
1.0
102
RTVSPost2010PropOp52
 70
     0
102
RTVSPost2010Prop53
 90
        2
102
RTVSPost2010PropOp53
 70
     1
102
RTVSPost2010Prop54
  1
strokes_ogs.tif
102
RTVSPost2010PropOp54
 70
     1
102
RTVSPost2010Prop55
280
     0
102
RTVSPost2010PropOp55
 70
     1
102
RTVSPost2010Prop56
140
1.0
102
RTVSPost2010PropOp56
 70
     1
102
RTVSPost2010Prop57
140
1.0
102
RTVSPost2010PropOp57
 70
     1
  0
XRECORD
  5
184
102
{ACAD_REACTORS
330
183
102
}
330
183
100
AcDbXrecord
280
     1
102
RTVSPost2010Prop28
280
     0
102
RTVSPost2010PropOp28
 70
     1
102
RTVSPost2010Prop29
280
     1
102
RTVSPost2010PropOp29
 70
     1
102
RTVSPost2010Prop30
280
     1
102
RTVSPost2010PropOp30
 70
     1
102
RTVSPost2010Prop31
280
     0
102
RTVSPost2010PropOp31
 70
     1
102
RTVSPost2010Prop32
280
     0
102
RTVSPost2010PropOp32
 70
     1
102
RTVSPost2010Prop33
280
     0
102
RTVSPost2010PropOp33
 70
     1
102
RTVSPost2010Prop34
280
     0
102
RTVSPost2010PropOp34
 70
     1
102
RTVSPost2010Prop35
280
     0
102
RTVSPost2010PropOp35
 70
     1
102
RTVSPost2010Prop36
280
     0
102
RTVSPost2010PropOp36
 70
     1
102
RTVSPost2010Prop37
 90
       50
102
RTVSPost2010PropOp37
 70
     1
102
RTVSPost2010Prop38
140
0.0
102
RTVSPost2010PropOp38
 70
     1
102
RTVSPost2010Prop39
140
1.0
102
RTVSPost2010PropOp39
 70
     1
102
RTVSPost2010Prop40
 90
        0
102
RTVSPost2010PropOp40
 70
     1
102
RTVSPost2010Prop41ColorIndex
 90
       18
102
RTVSPost2010Prop41ColorRGB
 90
        0
102
RTVSPost2010PropOp41
 70
     1
102
RTVSPost2010Prop42
 90
       50
102
RTVSPost2010PropOp42
 70
     1
102
RTVSPost2010Prop43
 90
        3
102
RTVSPost2010PropOp43
 70
     1
102
RTVSPost2010Prop44ColorIndex
 90
        5
102
RTVSPost2010Prop44ColorRGB
 90
      255
102
RTVSPost2010PropOp44
 70
     1
102
RTVSPost2010Prop45
280
     0
102
RTVSPost2010PropOp45
 70
     1
102
RTVSPost2010Prop46
 90
       50
102
RTVSPost2010PropOp46
 70
     1
102
RTVSPost2010Prop47
 90
       50
102
RTVSPost2010PropOp47
 70
     1
102
RTVSPost2010Prop48
 90
       50
102
RTVSPost2010PropOp48
 70
     1
102
RTVSPost2010Prop49
280
     0
102
RTVSPost2010PropOp49
 70
     1
102
RTVSPost2010Prop50
 90
       50
102
RTVSPost2010PropOp50
 70
     1
102
RTVSPost2010Prop51ColorIndex
 90
      256
102
RTVSPost2010Prop51ColorRGB
 90
-16777216
102
RTVSPost2010PropOp51
 70
     0
102
RTVSPost2010Prop52
140
1.0
102
RTVSPost2010PropOp52
 70
     0
102
RTVSPost2010Prop53
 90
        2
102
RTVSPost2010PropOp53
 70
     1
102
RTVSPost2010Prop54
  1
strokes_ogs.tif
102
RTVSPost2010PropOp54
 70
     1
102
RTVSPost2010Prop55
280
     0
102
RTVSPost2010PropOp55
 70
     1
102
RTVSPost2010Prop56
140
1.0
102
RTVSPost2010PropOp56
 70
     1
102
RTVSPost2010Prop57
140
1.0
102
RTVSPost2010PropOp57
 70
     1
  0
XRECORD
  5
186
102
{ACAD_REACTORS
330
185
102
}
330
185
100
AcDbXrecord
280
     1
102
RTVSPost2010Prop28
280
     0
102
RTVSPost2010PropOp28
 70
     1
102
RTVSPost2010Prop29
280
     1
102
RTVSPost2010PropOp29
 70
     1
102
RTVSPost2010Prop30
280
     1
102
RTVSPost2010PropOp30
 70
     1
102
RTVSPost2010Prop31
280
     0
102
RTVSPost2010PropOp31
 70
     1
102
RTVSPost2010Prop32
280
     0
102
RTVSPost2010PropOp32
 70
     1
102
RTVSPost2010Prop33
280
     0
102
RTVSPost2010PropOp33
 70
     1
102
RTVSPost2010Prop34
280
     0
102
RTVSPost2010PropOp34
 70
     1
102
RTVSPost2010Prop35
280
     0
102
RTVSPost2010PropOp35
 70
     1
102
RTVSPost2010Prop36
280
     0
102
RTVSPost2010PropOp36
 70
     1
102
RTVSPost2010Prop37
 90
       50
102
RTVSPost2010PropOp37
 70
     1
102
RTVSPost2010Prop38
140
0.0
102
RTVSPost2010PropOp38
 70
     1
102
RTVSPost2010Prop39
140
1.0
102
RTVSPost2010PropOp39
 70
     1
102
RTVSPost2010Prop40
 90
        0
102
RTVSPost2010PropOp40
 70
     1
102
RTVSPost2010Prop41ColorIndex
 90
       18
102
RTVSPost2010Prop41ColorRGB
 90
        0
102
RTVSPost2010PropOp41
 70
     1
102
RTVSPost2010Prop42
 90
       50
102
RTVSPost2010PropOp42
 70
     1
102
RTVSPost2010Prop43
 90
        3
102
RTVSPost2010PropOp43
 70
     1
102
RTVSPost2010Prop44ColorIndex
 90
        5
102
RTVSPost2010Prop44ColorRGB
 90
      255
102
RTVSPost2010PropOp44
 70
     1
102
RTVSPost2010Prop45
280
     0
102
RTVSPost2010PropOp45
 70
     1
102
RTVSPost2010Prop46
 90
       50
102
RTVSPost2010PropOp46
 70
     1
102
RTVSPost2010Prop47
 90
       50
102
RTVSPost2010PropOp47
 70
     1
102
RTVSPost2010Prop48
 90
       50
102
RTVSPost2010PropOp48
 70
     1
102
RTVSPost2010Prop49
280
     0
102
RTVSPost2010PropOp49
 70
     1
102
RTVSPost2010Prop50
 90
       50
102
RTVSPost2010PropOp50
 70
     1
102
RTVSPost2010Prop51ColorIndex
 90
      256
102
RTVSPost2010Prop51ColorRGB
 90
-16777216
102
RTVSPost2010PropOp51
 70
     0
102
RTVSPost2010Prop52
140
1.0
102
RTVSPost2010PropOp52
 70
     0
102
RTVSPost2010Prop53
 90
        2
102
RTVSPost2010PropOp53
 70
     1
102
RTVSPost2010Prop54
  1
strokes_ogs.tif
102
RTVSPost2010PropOp54
 70
     1
102
RTVSPost2010Prop55
280
     0
102
RTVSPost2010PropOp55
 70
     1
102
RTVSPost2010Prop56
140
1.0
102
RTVSPost2010PropOp56
 70
     1
102
RTVSPost2010Prop57
140
1.0
102
RTVSPost2010PropOp57
 70
     1
  0
XRECORD
  5
17C
102
{ACAD_REACTORS
330
17B
102
}
330
17B
100
AcDbXrecord
280
     1
102
RTVSPost2010Prop28
280
     0
102
RTVSPost2010PropOp28
 70
     1
102
RTVSPost2010Prop29
280
     1
102
RTVSPost2010PropOp29
 70
     1
102
RTVSPost2010Prop30
280
     1
102
RTVSPost2010PropOp30
 70
     1
102
RTVSPost2010Prop31
280
     0
102
RTVSPost2010PropOp31
 70
     1
102
RTVSPost2010Prop32
280
     0
102
RTVSPost2010PropOp32
 70
     1
102
RTVSPost2010Prop33
280
     0
102
RTVSPost2010PropOp33
 70
     1
102
RTVSPost2010Prop34
280
     0
102
RTVSPost2010PropOp34
 70
     1
102
RTVSPost2010Prop35
280
     0
102
RTVSPost2010PropOp35
 70
     1
102
RTVSPost2010Prop36
280
     0
102
RTVSPost2010PropOp36
 70
     1
102
RTVSPost2010Prop37
 90
       50
102
RTVSPost2010PropOp37
 70
     1
102
RTVSPost2010Prop38
140
0.0
102
RTVSPost2010PropOp38
 70
     1
102
RTVSPost2010Prop39
140
1.0
102
RTVSPost2010PropOp39
 70
     1
102
RTVSPost2010Prop40
 90
        0
102
RTVSPost2010PropOp40
 70
     1
102
RTVSPost2010Prop41ColorIndex
 90
       18
102
RTVSPost2010Prop41ColorRGB
 90
        0
102
RTVSPost2010PropOp41
 70
     1
102
RTVSPost2010Prop42
 90
       50
102
RTVSPost2010PropOp42
 70
     1
102
RTVSPost2010Prop43
 90
        3
102
RTVSPost2010PropOp43
 70
     1
102
RTVSPost2010Prop44ColorIndex
 90
        5
102
RTVSPost2010Prop44ColorRGB
 90
      255
102
RTVSPost2010PropOp44
 70
     1
102
RTVSPost2010Prop45
280
     0
102
RTVSPost2010PropOp45
 70
     1
102
RTVSPost2010Prop46
 90
       50
102
RTVSPost2010PropOp46
 70
     1
102
RTVSPost2010Prop47
 90
       50
102
RTVSPost2010PropOp47
 70
     1
102
RTVSPost2010Prop48
 90
       50
102
RTVSPost2010PropOp48
 70
     1
102
RTVSPost2010Prop49
280
     0
102
RTVSPost2010PropOp49
 70
     1
102
RTVSPost2010Prop50
 90
       50
102
RTVSPost2010PropOp50
 70
     1
102
RTVSPost2010Prop51ColorIndex
 90
      256
102
RTVSPost2010Prop51ColorRGB
 90
-16777216
102
RTVSPost2010PropOp51
 70
     0
102
RTVSPost2010Prop52
140
1.0
102
RTVSPost2010PropOp52
 70
     0
102
RTVSPost2010Prop53
 90
        2
102
RTVSPost2010PropOp53
 70
     1
102
RTVSPost2010Prop54
  1
strokes_ogs.tif
102
RTVSPost2010PropOp54
 70
     1
102
RTVSPost2010Prop55
280
     0
102
RTVSPost2010PropOp55
 70
     1
102
RTVSPost2010Prop56
140
1.0
102
RTVSPost2010PropOp56
 70
     1
102
RTVSPost2010Prop57
140
1.0
102
RTVSPost2010PropOp57
 70
     1
  0
XRECORD
  5
170
102
{ACAD_REACTORS
330
16F
102
}
330
16F
100
AcDbXrecord
280
     1
102
RTVSPost2010Prop28
280
     0
102
RTVSPost2010PropOp28
 70
     1
102
RTVSPost2010Prop29
280
     1
102
RTVSPost2010PropOp29
 70
     1
102
RTVSPost2010Prop30
280
     1
102
RTVSPost2010PropOp30
 70
     1
102
RTVSPost2010Prop31
280
     0
102
RTVSPost2010PropOp31
 70
     1
102
RTVSPost2010Prop32
280
     0
102
RTVSPost2010PropOp32
 70
     1
102
RTVSPost2010Prop33
280
     0
102
RTVSPost2010PropOp33
 70
     1
102
RTVSPost2010Prop34
280
     0
102
RTVSPost2010PropOp34
 70
     1
102
RTVSPost2010Prop35
280
     0
102
RTVSPost2010PropOp35
 70
     1
102
RTVSPost2010Prop36
280
     0
102
RTVSPost2010PropOp36
 70
     1
102
RTVSPost2010Prop37
 90
       50
102
RTVSPost2010PropOp37
 70
     1
102
RTVSPost2010Prop38
140
0.0
102
RTVSPost2010PropOp38
 70
     1
102
RTVSPost2010Prop39
140
1.0
102
RTVSPost2010PropOp39
 70
     1
102
RTVSPost2010Prop40
 90
        0
102
RTVSPost2010PropOp40
 70
     1
102
RTVSPost2010Prop41ColorIndex
 90
       18
102
RTVSPost2010Prop41ColorRGB
 90
        0
102
RTVSPost2010PropOp41
 70
     1
102
RTVSPost2010Prop42
 90
       50
102
RTVSPost2010PropOp42
 70
     1
102
RTVSPost2010Prop43
 90
        3
102
RTVSPost2010PropOp43
 70
     1
102
RTVSPost2010Prop44ColorIndex
 90
        5
102
RTVSPost2010Prop44ColorRGB
 90
      255
102
RTVSPost2010PropOp44
 70
     1
102
RTVSPost2010Prop45
280
     0
102
RTVSPost2010PropOp45
 70
     1
102
RTVSPost2010Prop46
 90
       50
102
RTVSPost2010PropOp46
 70
     1
102
RTVSPost2010Prop47
 90
       50
102
RTVSPost2010PropOp47
 70
     1
102
RTVSPost2010Prop48
 90
       50
102
RTVSPost2010PropOp48
 70
     1
102
RTVSPost2010Prop49
280
     0
102
RTVSPost2010PropOp49
 70
     1
102
RTVSPost2010Prop50
 90
       50
102
RTVSPost2010PropOp50
 70
     1
102
RTVSPost2010Prop51ColorIndex
 90
      256
102
RTVSPost2010Prop51ColorRGB
 90
-16777216
102
RTVSPost2010PropOp51
 70
     0
102
RTVSPost2010Prop52
140
1.0
102
RTVSPost2010PropOp52
 70
     0
102
RTVSPost2010Prop53
 90
        2
102
RTVSPost2010PropOp53
 70
     1
102
RTVSPost2010Prop54
  1
strokes_ogs.tif
102
RTVSPost2010PropOp54
 70
     1
102
RTVSPost2010Prop55
280
     0
102
RTVSPost2010PropOp55
 70
     1
102
RTVSPost2010Prop56
140
1.0
102
RTVSPost2010PropOp56
 70
     1
102
RTVSPost2010Prop57
140
1.0
102
RTVSPost2010PropOp57
 70
     1
  0
XRECORD
  5
188
102
{ACAD_REACTORS
330
187
102
}
330
187
100
AcDbXrecord
280
     1
102
RTVSPost2010Prop28
280
     0
102
RTVSPost2010PropOp28
 70
     1
102
RTVSPost2010Prop29
280
     1
102
RTVSPost2010PropOp29
 70
     1
102
RTVSPost2010Prop30
280
     1
102
RTVSPost2010PropOp30
 70
     1
102
RTVSPost2010Prop31
280
     0
102
RTVSPost2010PropOp31
 70
     1
102
RTVSPost2010Prop32
280
     0
102
RTVSPost2010PropOp32
 70
     1
102
RTVSPost2010Prop33
280
     0
102
RTVSPost2010PropOp33
 70
     1
102
RTVSPost2010Prop34
280
     0
102
RTVSPost2010PropOp34
 70
     1
102
RTVSPost2010Prop35
280
     0
102
RTVSPost2010PropOp35
 70
     1
102
RTVSPost2010Prop36
280
     0
102
RTVSPost2010PropOp36
 70
     1
102
RTVSPost2010Prop37
 90
       50
102
RTVSPost2010PropOp37
 70
     1
102
RTVSPost2010Prop38
140
0.0
102
RTVSPost2010PropOp38
 70
     1
102
RTVSPost2010Prop39
140
1.0
102
RTVSPost2010PropOp39
 70
     1
102
RTVSPost2010Prop40
 90
        0
102
RTVSPost2010PropOp40
 70
     1
102
RTVSPost2010Prop41ColorIndex
 90
       18
102
RTVSPost2010Prop41ColorRGB
 90
        0
102
RTVSPost2010PropOp41
 70
     1
102
RTVSPost2010Prop42
 90
       50
102
RTVSPost2010PropOp42
 70
     1
102
RTVSPost2010Prop43
 90
        3
102
RTVSPost2010PropOp43
 70
     1
102
RTVSPost2010Prop44ColorIndex
 90
        5
102
RTVSPost2010Prop44ColorRGB
 90
      255
102
RTVSPost2010PropOp44
 70
     1
102
RTVSPost2010Prop45
280
     0
102
RTVSPost2010PropOp45
 70
     1
102
RTVSPost2010Prop46
 90
       50
102
RTVSPost2010PropOp46
 70
     1
102
RTVSPost2010Prop47
 90
       50
102
RTVSPost2010PropOp47
 70
     1
102
RTVSPost2010Prop48
 90
       50
102
RTVSPost2010PropOp48
 70
     1
102
RTVSPost2010Prop49
280
     0
102
RTVSPost2010PropOp49
 70
     1
102
RTVSPost2010Prop50
 90
       50
102
RTVSPost2010PropOp50
 70
     1
102
RTVSPost2010Prop51ColorIndex
 90
      256
102
RTVSPost2010Prop51ColorRGB
 90
-16777216
102
RTVSPost2010PropOp51
 70
     0
102
RTVSPost2010Prop52
140
1.0
102
RTVSPost2010PropOp52
 70
     0
102
RTVSPost2010Prop53
 90
        2
102
RTVSPost2010PropOp53
 70
     1
102
RTVSPost2010Prop54
  1
strokes_ogs.tif
102
RTVSPost2010PropOp54
 70
     1
102
RTVSPost2010Prop55
280
     0
102
RTVSPost2010PropOp55
 70
     1
102
RTVSPost2010Prop56
140
1.0
102
RTVSPost2010PropOp56
 70
     1
102
RTVSPost2010Prop57
140
1.0
102
RTVSPost2010PropOp57
 70
     1
  0
ENDSEC
  0
EOF
