  0
SECTION
  2
HEADER
  9
$ACADVER
  1
AC1024
  9
$ACADMAINTVER
 70
   205
  9
$DWGCODEPAGE
  3
ANSI_1251
  9
$INSBASE
 10
0.0
 20
0.0
 30
0.0
  9
$EXTMIN
 10
1.000000000000000E+20
 20
1.000000000000000E+20
 30
1.000000000000000E+20
  9
$EXTMAX
 10
-1.000000000000000E+20
 20
-1.000000000000000E+20
 30
-1.000000000000000E+20
  9
$LIMMIN
 10
0.0
 20
0.0
  9
$LIMMAX
 10
12.0
 20
9.0
  9
$ORTHOMODE
 70
     0
  9
$REGENMODE
 70
     1
  9
$FILLMODE
 70
     1
  9
$QTEXTMODE
 70
     0
  9
$MIRRTEXT
 70
     1
  9
$LTSCALE
 40
1.0
  9
$ATTMODE
 70
     1
  9
$TEXTSIZE
 40
0.2
  9
$TRACEWID
 40
0.05
  9
$TEXTSTYLE
  7
Standard
  9
$CLAYER
  8
OracDecor_cornice_mouldings
  9
$CELTYPE
  6
ByLayer
  9
$CECOLOR
 62
   256
  9
$CELTSCALE
 40
1.0
  9
$DISPSILH
 70
     0
  9
$DIMSCALE
 40
1.0
  9
$DIMASZ
 40
0.18
  9
$DIMEXO
 40
0.0625
  9
$DIMDLI
 40
0.38
  9
$DIMRND
 40
0.0
  9
$DIMDLE
 40
0.0
  9
$DIMEXE
 40
0.18
  9
$DIMTP
 40
0.0
  9
$DIMTM
 40
0.0
  9
$DIMTXT
 40
0.18
  9
$DIMCEN
 40
0.09
  9
$DIMTSZ
 40
0.0
  9
$DIMTOL
 70
     0
  9
$DIMLIM
 70
     0
  9
$DIMTIH
 70
     1
  9
$DIMTOH
 70
     1
  9
$DIMSE1
 70
     0
  9
$DIMSE2
 70
     0
  9
$DIMTAD
 70
     0
  9
$DIMZIN
 70
     0
  9
$DIMBLK
  1

  9
$DIMASO
 70
     1
  9
$DIMSHO
 70
     1
  9
$DIMPOST
  1

  9
$DIMAPOST
  1

  9
$DIMALT
 70
     0
  9
$DIMALTD
 70
     2
  9
$DIMALTF
 40
25.4
  9
$DIMLFAC
 40
1.0
  9
$DIMTOFL
 70
     0
  9
$DIMTVP
 40
0.0
  9
$DIMTIX
 70
     0
  9
$DIMSOXD
 70
     0
  9
$DIMSAH
 70
     0
  9
$DIMBLK1
  1

  9
$DIMBLK2
  1

  9
$DIMSTYLE
  2
Standard
  9
$DIMCLRD
 70
     0
  9
$DIMCLRE
 70
     0
  9
$DIMCLRT
 70
     0
  9
$DIMTFAC
 40
1.0
  9
$DIMGAP
 40
0.09
  9
$DIMJUST
 70
     0
  9
$DIMSD1
 70
     0
  9
$DIMSD2
 70
     0
  9
$DIMTOLJ
 70
     1
  9
$DIMTZIN
 70
     0
  9
$DIMALTZ
 70
     0
  9
$DIMALTTZ
 70
     0
  9
$DIMUPT
 70
     0
  9
$DIMDEC
 70
     4
  9
$DIMTDEC
 70
     4
  9
$DIMALTU
 70
     2
  9
$DIMALTTD
 70
     2
  9
$DIMTXSTY
  7
Standard
  9
$DIMAUNIT
 70
     0
  9
$DIMADEC
 70
     0
  9
$DIMALTRND
 40
0.0
  9
$DIMAZIN
 70
     0
  9
$DIMDSEP
 70
    46
  9
$DIMATFIT
 70
     3
  9
$DIMFRAC
 70
     0
  9
$DIMLDRBLK
  1

  9
$DIMLUNIT
 70
     2
  9
$DIMLWD
 70
    -2
  9
$DIMLWE
 70
    -2
  9
$DIMTMOVE
 70
     0
  9
$DIMFXL
 40
1.0
  9
$DIMFXLON
 70
     0
  9
$DIMJOGANG
 40
0.7853981633974483
  9
$DIMTFILL
 70
     0
  9
$DIMTFILLCLR
 70
     0
  9
$DIMARCSYM
 70
     0
  9
$DIMLTYPE
  6

  9
$DIMLTEX1
  6

  9
$DIMLTEX2
  6

  9
$DIMTXTDIRECTION
 70
     0
  9
$LUNITS
 70
     2
  9
$LUPREC
 70
     4
  9
$SKETCHINC
 40
0.1
  9
$FILLETRAD
 40
0.5
  9
$AUNITS
 70
     0
  9
$AUPREC
 70
     0
  9
$MENU
  1
.
  9
$ELEVATION
 40
0.0
  9
$PELEVATION
 40
0.0
  9
$THICKNESS
 40
0.0
  9
$LIMCHECK
 70
     0
  9
$CHAMFERA
 40
0.5
  9
$CHAMFERB
 40
0.5
  9
$CHAMFERC
 40
1.0
  9
$CHAMFERD
 40
0.0
  9
$SKPOLY
 70
     0
  9
$TDCREATE
 40
2451380.930432396
  9
$TDUCREATE
 40
2451380.805432396
  9
$TDUPDATE
 40
2451380.966180555
  9
$TDUUPDATE
 40
2451380.841180556
  9
$TDINDWG
 40
0.0075615856
  9
$TDUSRTIMER
 40
0.0075525463
  9
$USRTIMER
 70
     1
  9
$ANGBASE
 50
0.0
  9
$ANGDIR
 70
     0
  9
$PDMODE
 70
     0
  9
$PDSIZE
 40
0.0
  9
$PLINEWID
 40
0.0
  9
$SPLFRAME
 70
     0
  9
$SPLINETYPE
 70
     6
  9
$SPLINESEGS
 70
     8
  9
$HANDSEED
  5
192
  9
$SURFTAB1
 70
     6
  9
$SURFTAB2
 70
     6
  9
$SURFTYPE
 70
     6
  9
$SURFU
 70
     6
  9
$SURFV
 70
     6
  9
$UCSBASE
  2

  9
$UCSNAME
  2

  9
$UCSORG
 10
0.0
 20
0.0
 30
0.0
  9
$UCSXDIR
 10
1.0
 20
0.0
 30
0.0
  9
$UCSYDIR
 10
0.0
 20
1.0
 30
0.0
  9
$UCSORTHOREF
  2

  9
$UCSORTHOVIEW
 70
     0
  9
$UCSORGTOP
 10
0.0
 20
0.0
 30
0.0
  9
$UCSORGBOTTOM
 10
0.0
 20
0.0
 30
0.0
  9
$UCSORGLEFT
 10
0.0
 20
0.0
 30
0.0
  9
$UCSORGRIGHT
 10
0.0
 20
0.0
 30
0.0
  9
$UCSORGFRONT
 10
0.0
 20
0.0
 30
0.0
  9
$UCSORGBACK
 10
0.0
 20
0.0
 30
0.0
  9
$PUCSBASE
  2

  9
$PUCSNAME
  2

  9
$PUCSORG
 10
0.0
 20
0.0
 30
0.0
  9
$PUCSXDIR
 10
1.0
 20
0.0
 30
0.0
  9
$PUCSYDIR
 10
0.0
 20
1.0
 30
0.0
  9
$PUCSORTHOREF
  2

  9
$PUCSORTHOVIEW
 70
     0
  9
$PUCSORGTOP
 10
0.0
 20
0.0
 30
0.0
  9
$PUCSORGBOTTOM
 10
0.0
 20
0.0
 30
0.0
  9
$PUCSORGLEFT
 10
0.0
 20
0.0
 30
0.0
  9
$PUCSORGRIGHT
 10
0.0
 20
0.0
 30
0.0
  9
$PUCSORGFRONT
 10
0.0
 20
0.0
 30
0.0
  9
$PUCSORGBACK
 10
0.0
 20
0.0
 30
0.0
  9
$USERI1
 70
     0
  9
$USERI2
 70
     0
  9
$USERI3
 70
     0
  9
$USERI4
 70
     0
  9
$USERI5
 70
     0
  9
$USERR1
 40
0.0
  9
$USERR2
 40
0.0
  9
$USERR3
 40
0.0
  9
$USERR4
 40
0.0
  9
$USERR5
 40
0.0
  9
$WORLDVIEW
 70
     1
  9
$SHADEDGE
 70
     3
  9
$SHADEDIF
 70
    70
  9
$TILEMODE
 70
     1
  9
$MAXACTVP
 70
    64
  9
$PINSBASE
 10
0.0
 20
0.0
 30
0.0
  9
$PLIMCHECK
 70
     0
  9
$PEXTMIN
 10
1.000000000000000E+20
 20
1.000000000000000E+20
 30
1.000000000000000E+20
  9
$PEXTMAX
 10
-1.000000000000000E+20
 20
-1.000000000000000E+20
 30
-1.000000000000000E+20
  9
$PLIMMIN
 10
0.0
 20
0.0
  9
$PLIMMAX
 10
12.0
 20
9.0
  9
$UNITMODE
 70
     0
  9
$VISRETAIN
 70
     1
  9
$PLINEGEN
 70
     0
  9
$PSLTSCALE
 70
     1
  9
$TREEDEPTH
 70
  3020
  9
$CMLSTYLE
  2
Standard
  9
$CMLJUST
 70
     0
  9
$CMLSCALE
 40
1.0
  9
$PROXYGRAPHICS
 70
     1
  9
$MEASUREMENT
 70
     1
  9
$CELWEIGHT
370
    -1
  9
$ENDCAPS
280
     0
  9
$JOINSTYLE
280
     0
  9
$LWDISPLAY
290
     0
  9
$INSUNITS
 70
     4
  9
$HYPERLINKBASE
  1

  9
$STYLESHEET
  1

  9
$XEDIT
290
     1
  9
$CEPSNTYPE
380
     0
  9
$PSTYLEMODE
290
     1
  9
$FINGERPRINTGUID
  2
{12F50282-3ED8-11D3-A8B7-0060B0F84BC6}
  9
$VERSIONGUID
  2
{12F50293-3ED8-11D3-A8B7-0060B0F84BC6}
  9
$EXTNAMES
290
     1
  9
$PSVPSCALE
 40
0.0
  9
$OLESTARTUP
290
     0
  9
$SORTENTS
280
   127
  9
$INDEXCTL
280
     0
  9
$HIDETEXT
280
     0
  9
$XCLIPFRAME
280
     2
  9
$HALOGAP
280
     0
  9
$OBSCOLOR
 70
   257
  9
$OBSLTYPE
280
     0
  9
$INTERSECTIONDISPLAY
280
     0
  9
$INTERSECTIONCOLOR
 70
   257
  9
$DIMASSOC
280
     1
  9
$PROJECTNAME
  1

  9
$CAMERADISPLAY
290
     0
  9
$LENSLENGTH
 40
50.0
  9
$CAMERAHEIGHT
 40
0.0
  9
$STEPSPERSEC
 40
2.0
  9
$STEPSIZE
 40
6.0
  9
$3DDWFPREC
 40
2.0
  9
$PSOLWIDTH
 40
0.25
  9
$PSOLHEIGHT
 40
4.0
  9
$LOFTANG1
 40
1.570796326794896
  9
$LOFTANG2
 40
1.570796326794896
  9
$LOFTMAG1
 40
0.0
  9
$LOFTMAG2
 40
0.0
  9
$LOFTPARAM
 70
     7
  9
$LOFTNORMALS
280
     1
  9
$LATITUDE
 40
37.795
  9
$LONGITUDE
 40
-122.394
  9
$NORTHDIRECTION
 40
0.0
  9
$TIMEZONE
 70
 -8000
  9
$LIGHTGLYPHDISPLAY
280
     1
  9
$TILEMODELIGHTSYNCH
280
     1
  9
$CMATERIAL
347
AB
  9
$SOLIDHIST
280
     0
  9
$SHOWHIST
280
     1
  9
$DWFFRAME
280
     2
  9
$DGNFRAME
280
     0
  9
$REALWORLDSCALE
290
     1
  9
$INTERFERECOLOR
 62
     1
  9
$INTERFEREOBJVS
345
CD
  9
$INTERFEREVPVS
346
CA
  9
$CSHADOW
280
     0
  9
$SHADOWPLANELOCATION
 40
0.0
  0
ENDSEC
  0
SECTION
  2
CLASSES
  0
CLASS
  1
ACDBDICTIONARYWDFLT
  2
AcDbDictionaryWithDefault
  3
ObjectDBX Classes
 90
        0
 91
        1
280
     0
281
     0
  0
CLASS
  1
ACDBPLACEHOLDER
  2
AcDbPlaceHolder
  3
ObjectDBX Classes
 90
        0
 91
        2
280
     0
281
     0
  0
CLASS
  1
LAYOUT
  2
AcDbLayout
  3
ObjectDBX Classes
 90
        0
 91
        3
280
     0
281
     0
  0
CLASS
  1
MATERIAL
  2
AcDbMaterial
  3
ObjectDBX Classes
 90
     1153
 91
        3
280
     0
281
     0
  0
CLASS
  1
VISUALSTYLE
  2
AcDbVisualStyle
  3
ObjectDBX Classes
 90
     4095
 91
       24
280
     0
281
     0
  0
CLASS
  1
TABLESTYLE
  2
AcDbTableStyle
  3
ObjectDBX Classes
 90
     4095
 91
        1
280
     0
281
     0
  0
CLASS
  1
SCALE
  2
AcDbScale
  3
ObjectDBX Classes
 90
     1153
 91
       17
280
     0
281
     0
  0
CLASS
  1
MLEADERSTYLE
  2
AcDbMLeaderStyle
  3
ACDB_MLEADERSTYLE_CLASS
 90
     4095
 91
        1
280
     0
281
     0
  0
CLASS
  1
ACDBSECTIONVIEWSTYLE
  2
AcDbSectionViewStyle
  3
ObjectDBX Classes
 90
     1025
 91
        1
280
     0
281
     0
  0
CLASS
  1
ACDBDETAILVIEWSTYLE
  2
AcDbDetailViewStyle
  3
ObjectDBX Classes
 90
     1025
 91
        1
280
     0
281
     0
  0
CLASS
  1
MESH
  2
AcDbSubDMesh
  3
ObjectDBX Classes
 90
        0
 91
        1
280
     0
281
     1
  0
CLASS
  1
DICTIONARYVAR
  2
AcDbDictionaryVar
  3
ObjectDBX Classes
 90
        0
 91
        9
280
     0
281
     0
  0
CLASS
  1
CELLSTYLEMAP
  2
AcDbCellStyleMap
  3
ObjectDBX Classes
 90
     1152
 91
        1
280
     0
281
     0
  0
ENDSEC
  0
SECTION
  2
TABLES
  0
TABLE
  2
VPORT
  5
8
330
0
100
AcDbSymbolTable
 70
     1
  0
VPORT
  5
A8
330
8
100
AcDbSymbolTableRecord
100
AcDbViewportTableRecord
  2
*Active
 70
     0
 10
0.0
 20
0.0
 11
1.0
 21
1.0
 12
0.0000431583757745
 22
-32.65983200073242
 13
0.0
 23
0.0
 14
0.5
 24
0.5
 15
0.5
 25
0.5
 16
-1.0
 26
-1.0
 36
1.0
 17
0.0
 27
0.0
 37
0.0
 40
1160.000511627356
 41
1.612598567120677
 42
50.0
 43
0.0
 44
0.0
 50
0.0
 51
0.0
 71
     0
 72
   100
 73
     1
 74
     3
 75
     0
 76
     0
 77
     0
 78
     0
281
     0
 65
     1
110
0.0
120
0.0
130
0.0
111
1.0
121
0.0
131
0.0
112
0.0
122
1.0
132
0.0
 79
     0
146
0.0
348
C9
 60
     3
 61
     5
292
     1
282
     1
141
0.0
142
0.0
 63
   250
421
  3355443
  0
ENDTAB
  0
TABLE
  2
LTYPE
  5
5
330
0
100
AcDbSymbolTable
 70
     1
  0
LTYPE
  5
14
330
5
100
AcDbSymbolTableRecord
100
AcDbLinetypeTableRecord
  2
ByBlock
 70
     0
  3

 72
    65
 73
     0
 40
0.0
  0
LTYPE
  5
15
330
5
100
AcDbSymbolTableRecord
100
AcDbLinetypeTableRecord
  2
ByLayer
 70
     0
  3

 72
    65
 73
     0
 40
0.0
  0
LTYPE
  5
16
330
5
100
AcDbSymbolTableRecord
100
AcDbLinetypeTableRecord
  2
Continuous
 70
     0
  3
Solid line
 72
    65
 73
     0
 40
0.0
  0
ENDTAB
  0
TABLE
  2
LAYER
  5
2
330
0
100
AcDbSymbolTable
 70
     3
  0
LAYER
  5
10
330
2
100
AcDbSymbolTableRecord
100
AcDbLayerTableRecord
  2
0
 70
     0
 62
     7
  6
Continuous
370
    -3
390
F
347
BB
  0
LAYER
  5
2B
330
2
100
AcDbSymbolTableRecord
100
AcDbLayerTableRecord
  2
ASHADE
 70
     4
 62
     7
  6
Continuous
370
    -3
390
2D
347
BB
  0
LAYER
  5
F8
330
2
100
AcDbSymbolTableRecord
100
AcDbLayerTableRecord
  2
OracDecor_cornice_mouldings
 70
     0
 62
   156
420
   540042
  6
Continuous
370
    -3
390
F
347
BB
  0
ENDTAB
  0
TABLE
  2
STYLE
  5
3
330
0
100
AcDbSymbolTable
 70
     2
  0
STYLE
  5
11
330
3
100
AcDbSymbolTableRecord
100
AcDbTextStyleTableRecord
  2
Standard
 70
     0
 40
0.0
 41
1.0
 50
0.0
 71
     0
 42
0.2
  3
txt
  4

  0
STYLE
  5
2C
330
3
100
AcDbSymbolTableRecord
100
AcDbTextStyleTableRecord
  2
ASHADE
 70
     0
 40
0.2
 41
1.0
 50
0.0
 71
     0
 42
0.2
  3
simplex
  4

  0
ENDTAB
  0
TABLE
  2
VIEW
  5
6
330
0
100
AcDbSymbolTable
 70
     0
  0
ENDTAB
  0
TABLE
  2
UCS
  5
7
330
0
100
AcDbSymbolTable
 70
     0
  0
ENDTAB
  0
TABLE
  2
APPID
  5
9
330
0
100
AcDbSymbolTable
 70
     6
  0
APPID
  5
12
330
9
100
AcDbSymbolTableRecord
100
AcDbRegAppTableRecord
  2
ACAD
 70
     0
  0
APPID
  5
8F
330
9
100
AcDbSymbolTableRecord
100
AcDbRegAppTableRecord
  2
AVE_RENDER
 70
     0
  0
APPID
  5
90
330
9
100
AcDbSymbolTableRecord
100
AcDbRegAppTableRecord
  2
AVE_ENTITY_MATERIAL
 70
     0
  0
APPID
  5
9C
330
9
100
AcDbSymbolTableRecord
100
AcDbRegAppTableRecord
  2
AVE_FINISH
 70
     0
  0
APPID
  5
9D
330
9
100
AcDbSymbolTableRecord
100
AcDbRegAppTableRecord
  2
AVE_MATERIAL
 70
     0
  0
APPID
  5
9E
330
9
100
AcDbSymbolTableRecord
100
AcDbRegAppTableRecord
  2
AVE_GLOBAL
 70
     0
  0
ENDTAB
  0
TABLE
  2
DIMSTYLE
  5
A
330
0
100
AcDbSymbolTable
 70
     1
100
AcDbDimStyleTable
 71
     0
  0
DIMSTYLE
105
27
330
A
100
AcDbSymbolTableRecord
100
AcDbDimStyleTableRecord
  2
Standard
 70
     0
340
11
  0
ENDTAB
  0
TABLE
  2
BLOCK_RECORD
  5
1
330
0
100
AcDbSymbolTable
 70
     6
  0
BLOCK_RECORD
  5
1F
330
1
100
AcDbSymbolTableRecord
100
AcDbBlockTableRecord
  2
*Model_Space
340
22
 70
     0
280
     1
281
     0
  0
BLOCK_RECORD
  5
1B
330
1
100
AcDbSymbolTableRecord
100
AcDbBlockTableRecord
  2
*Paper_Space
340
1E
 70
     0
280
     1
281
     0
  0
BLOCK_RECORD
  5
23
330
1
100
AcDbSymbolTableRecord
100
AcDbBlockTableRecord
  2
*Paper_Space0
340
26
 70
     0
280
     1
281
     0
  0
BLOCK_RECORD
  5
2E
330
1
100
AcDbSymbolTableRecord
100
AcDbBlockTableRecord
  2
direct
340
0
 70
     0
280
     1
281
     0
  0
BLOCK_RECORD
  5
42
330
1
100
AcDbSymbolTableRecord
100
AcDbBlockTableRecord
  2
overhead
340
0
 70
     0
280
     1
281
     0
  0
BLOCK_RECORD
  5
5F
330
1
100
AcDbSymbolTableRecord
100
AcDbBlockTableRecord
  2
sh_spot
340
0
 70
     0
280
     1
281
     0
  0
BLOCK_RECORD
  5
91
330
1
100
AcDbSymbolTableRecord
100
AcDbBlockTableRecord
  2
AVE_RENDER
340
0
102
{BLKREFS
331
94
331
95
331
96
331
97
331
98
331
99
331
9A
331
9B
102
}
 70
     0
280
     1
281
     0
  0
BLOCK_RECORD
  5
9F
330
1
100
AcDbSymbolTableRecord
100
AcDbBlockTableRecord
  2
AVE_GLOBAL
340
0
102
{BLKREFS
331
A2
102
}
 70
     0
280
     1
281
     0
  0
ENDTAB
  0
ENDSEC
  0
SECTION
  2
BLOCKS
  0
BLOCK
  5
20
330
1F
100
AcDbEntity
  8
0
100
AcDbBlockBegin
  2
*Model_Space
 70
     0
 10
0.0
 20
0.0
 30
0.0
  3
*Model_Space
  1

  0
ENDBLK
  5
21
330
1F
100
AcDbEntity
  8
0
100
AcDbBlockEnd
  0
BLOCK
  5
1C
330
1B
100
AcDbEntity
 67
     1
  8
0
100
AcDbBlockBegin
  2
*Paper_Space
 70
     0
 10
0.0
 20
0.0
 30
0.0
  3
*Paper_Space
  1

  0
ENDBLK
  5
1D
330
1B
100
AcDbEntity
 67
     1
  8
0
100
AcDbBlockEnd
  0
BLOCK
  5
24
330
23
100
AcDbEntity
 67
     1
  8
0
100
AcDbBlockBegin
  2
*Paper_Space0
 70
     0
 10
0.0
 20
0.0
 30
0.0
  3
*Paper_Space0
  1

  0
ENDBLK
  5
25
330
23
100
AcDbEntity
 67
     1
  8
0
100
AcDbBlockEnd
  0
BLOCK
  5
40
330
2E
100
AcDbEntity
  8
0
100
AcDbBlockBegin
  2
direct
 70
     2
 10
0.0
 20
0.0
 30
0.0
  3
direct
  1

  0
ATTDEF
  5
2F
330
2E
100
AcDbEntity
  8
ASHADE
  6
Continuous
 62
     1
100
AcDbText
 10
0.0
 20
-0.1
 30
0.0
 40
0.2
  1

  7
ASHADE
 72
     1
 11
0.0
 21
-0.1
 31
0.0
100
AcDbAttributeDefinition
280
     0
  3
Light Name
  2
SNAME
 70
     0
280
     0
  0
ARC
  5
30
330
2E
100
AcDbEntity
  8
ASHADE
  6
Continuous
 62
     7
100
AcDbCircle
 10
0.0
 20
0.0
 30
0.0
 40
0.3
100
AcDbArc
 50
205.6792886194569
 51
334.3207113805431
  0
ARC
  5
31
330
2E
100
AcDbEntity
  8
ASHADE
  6
Continuous
 62
     7
100
AcDbCircle
 10
0.0
 20
0.0
 30
0.0
 40
0.3
100
AcDbArc
 50
25.67928861945685
 51
154.3207113805431
  0
LINE
  5
32
330
2E
100
AcDbEntity
  8
ASHADE
  6
Continuous
 62
     7
100
AcDbLine
 10
-0.21
 20
0.2142428528562855
 30
0.0
 11
-0.21
 21
0.5
 31
0.0
  0
LINE
  5
33
330
2E
100
AcDbEntity
  8
ASHADE
  6
Continuous
 62
     7
100
AcDbLine
 10
-0.11
 20
0.2791057147390572
 30
0.0
 11
-0.11
 21
0.5
 31
0.0
  0
LINE
  5
34
330
2E
100
AcDbEntity
  8
ASHADE
  6
Continuous
 62
     7
100
AcDbLine
 10
0.21
 20
0.2142428528562855
 30
0.0
 11
0.21
 21
0.5
 31
0.0
  0
ATTDEF
  5
35
330
2E
100
AcDbEntity
  8
ASHADE
  6
Continuous
 62
     7
100
AcDbText
 10
0.0
 20
0.25
 30
0.0
 40
0.01
  1

100
AcDbAttributeDefinition
280
     0
  3
Look-at Y
  2
LAY
 70
     1
280
     0
  0
ATTDEF
  5
36
330
2E
100
AcDbEntity
  8
ASHADE
  6
Continuous
 62
     7
100
AcDbText
 10
0.0
 20
0.22
 30
0.0
 40
0.01
  1
1
100
AcDbAttributeDefinition
280
     0
  3
Light Intensity
  2
INTENSITY
 70
     1
280
     0
  0
ATTDEF
  5
37
330
2E
100
AcDbEntity
  8
ASHADE
  6
Continuous
 62
     7
100
AcDbText
 10
0.0
 20
0.16
 30
0.0
 40
0.01
  1
-1
100
AcDbAttributeDefinition
280
     0
  3
*not used*
  2
BEAMD
 70
     1
280
     0
  0
ATTDEF
  5
38
330
2E
100
AcDbEntity
  8
ASHADE
  6
Continuous
 62
     7
100
AcDbText
 10
0.0
 20
0.175
 30
0.0
 40
0.01
  1
-1
100
AcDbAttributeDefinition
280
     0
  3
*not used*
  2
CONED
 70
     1
280
     0
  0
ATTDEF
  5
39
330
2E
100
AcDbEntity
  8
ASHADE
  6
Continuous
 62
     7
100
AcDbText
 10
0.0
 20
0.19
 30
0.0
 40
0.01
  1
0
100
AcDbAttributeDefinition
280
     0
  3
Depth Map Size
  2
CONEA
 70
     1
280
     0
  0
ATTDEF
  5
3A
330
2E
100
AcDbEntity
  8
ASHADE
  6
Continuous
 62
     7
100
AcDbText
 10
0.0
 20
0.2050000000000001
 30
0.0
 40
0.01
  1
1,1,1
100
AcDbAttributeDefinition
280
     0
  3
Light Color (RGB)
  2
COLOR
 70
     1
280
     0
  0
ATTDEF
  5
3B
330
2E
100
AcDbEntity
  8
ASHADE
  6
Continuous
 62
     7
100
AcDbText
 10
0.0
 20
0.235
 30
0.0
 40
0.01
  1

100
AcDbAttributeDefinition
280
     0
  3
Look-at Z
  2
LAZ
 70
     1
280
     0
  0
LINE
  5
3C
330
2E
100
AcDbEntity
  8
ASHADE
  6
Continuous
 62
     7
100
AcDbLine
 10
0.0
 20
0.3
 30
0.0
 11
0.0
 21
0.5
 31
0.0
  0
LINE
  5
3D
330
2E
100
AcDbEntity
  8
ASHADE
  6
Continuous
 62
     7
100
AcDbLine
 10
0.11
 20
0.2791057147390572
 30
0.0
 11
0.11
 21
0.5
 31
0.0
  0
ATTDEF
  5
3E
330
2E
100
AcDbEntity
  8
ASHADE
  6
Continuous
 62
     7
100
AcDbText
 10
0.0
 20
0.265
 30
0.0
 40
0.01
  1

100
AcDbAttributeDefinition
280
     0
  3
Look-at X
  2
LAX
 70
     1
280
     0
  0
ATTDEF
  5
3F
330
2E
100
AcDbEntity
  8
ASHADE
  6
Continuous
 62
     7
100
AcDbText
 10
0.0
 20
0.28
 30
0.0
 40
0.01
  1

100
AcDbAttributeDefinition
280
     0
  3

  2
GNAME
 70
     1
280
     0
  0
ENDBLK
  5
41
330
2E
100
AcDbEntity
  8
0
100
AcDbBlockEnd
  0
BLOCK
  5
5D
330
42
100
AcDbEntity
  8
0
100
AcDbBlockBegin
  2
overhead
 70
     2
 10
0.0
 20
0.0
 30
0.0
  3
overhead
  1

  0
ATTDEF
  5
43
330
42
100
AcDbEntity
  8
ASHADE
  6
Continuous
 62
     1
100
AcDbText
 10
0.0
 20
-0.1
 30
0.0
 40
0.2
  1

  7
ASHADE
 72
     1
 11
0.0
 21
-0.1
 31
0.0
100
AcDbAttributeDefinition
280
     0
  3
Light Name
  2
SNAME
 70
     0
280
     0
  0
ARC
  5
44
330
42
100
AcDbEntity
  8
ASHADE
  6
Continuous
 62
     7
100
AcDbCircle
 10
0.0
 20
0.0
 30
0.0
 40
0.3
100
AcDbArc
 50
205.6792886194569
 51
334.3207113805431
  0
LINE
  5
45
330
42
100
AcDbEntity
  8
ASHADE
  6
Continuous
 62
     7
100
AcDbLine
 10
-0.2041413561583015
 20
-0.2198324514393848
 30
0.0
 11
-0.2721884748777353
 21
-0.2931099352525131
 31
0.0
  0
LINE
  5
46
330
42
100
AcDbEntity
  8
ASHADE
  6
Continuous
 62
     7
100
AcDbLine
 10
-0.1096591641591904
 20
-0.2792398032442862
 30
0.0
 11
-0.1279356915190555
 21
-0.3257797704516673
 31
0.0
  0
LINE
  5
47
330
42
100
AcDbEntity
  8
ASHADE
  6
Continuous
 62
     7
100
AcDbLine
 10
0.0
 20
-0.2999999999999999
 30
0.0
 11
0.0
 21
-0.4
 31
0.0
  0
LINE
  5
48
330
42
100
AcDbEntity
  8
ASHADE
  6
Continuous
 62
     7
100
AcDbLine
 10
0.1096591641591904
 20
-0.2792398032442862
 30
0.0
 11
0.1279356915190555
 21
-0.3257797704516673
 31
0.0
  0
LINE
  5
49
330
42
100
AcDbEntity
  8
ASHADE
  6
Continuous
 62
     7
100
AcDbLine
 10
0.2041413561583015
 20
-0.2198324514393848
 30
0.0
 11
0.2721884748777353
 21
-0.2931099352525131
 31
0.0
  0
ARC
  5
4A
330
42
100
AcDbEntity
  8
ASHADE
  6
Continuous
 62
     7
100
AcDbCircle
 10
0.0
 20
0.0
 30
0.0
 40
0.3
100
AcDbArc
 50
25.67928861945685
 51
154.3207113805431
  0
LINE
  5
4B
330
42
100
AcDbEntity
  8
ASHADE
  6
Continuous
 62
     7
100
AcDbLine
 10
-0.2703701166919155
 20
0.13
 30
0.0
 11
-0.3154318028072347
 21
0.1516666666666666
 31
0.0
  0
LINE
  5
4C
330
42
100
AcDbEntity
  8
ASHADE
  6
Continuous
 62
     7
100
AcDbLine
 10
-0.2703701166919155
 20
-0.13
 30
0.0
 11
-0.3154318028072347
 21
-0.1516666666666666
 31
0.0
  0
LINE
  5
4D
330
42
100
AcDbEntity
  8
ASHADE
  6
Continuous
 62
     7
100
AcDbLine
 10
-0.2041413561583015
 20
0.2198324514393849
 30
0.0
 11
-0.2721884748777353
 21
0.2931099352525131
 31
0.0
  0
LINE
  5
4E
330
42
100
AcDbEntity
  8
ASHADE
  6
Continuous
 62
     7
100
AcDbLine
 10
-0.1096591641591904
 20
0.2792398032442862
 30
0.0
 11
-0.1279356915190555
 21
0.3257797704516674
 31
0.0
  0
LINE
  5
4F
330
42
100
AcDbEntity
  8
ASHADE
  6
Continuous
 62
     7
100
AcDbLine
 10
0.2703701166919155
 20
-0.13
 30
0.0
 11
0.3154318028072347
 21
-0.1516666666666666
 31
0.0
  0
LINE
  5
50
330
42
100
AcDbEntity
  8
ASHADE
  6
Continuous
 62
     7
100
AcDbLine
 10
0.2703701166919155
 20
0.13
 30
0.0
 11
0.3154318028072347
 21
0.1516666666666666
 31
0.0
  0
LINE
  5
51
330
42
100
AcDbEntity
  8
ASHADE
  6
Continuous
 62
     7
100
AcDbLine
 10
0.0
 20
0.3
 30
0.0
 11
0.0
 21
0.4
 31
0.0
  0
ATTDEF
  5
52
330
42
100
AcDbEntity
  8
ASHADE
  6
Continuous
 62
     7
100
AcDbText
 10
0.0
 20
0.22
 30
0.0
 40
0.01
  1
1
100
AcDbAttributeDefinition
280
     0
  3
Light Intensity
  2
INTENSITY
 70
     1
280
     0
  0
ATTDEF
  5
53
330
42
100
AcDbEntity
  8
ASHADE
  6
Continuous
 62
     7
100
AcDbText
 10
0.0
 20
0.16
 30
0.0
 40
0.01
  1
-1
100
AcDbAttributeDefinition
280
     0
  3
*not used*
  2
BEAMD
 70
     1
280
     0
  0
ATTDEF
  5
54
330
42
100
AcDbEntity
  8
ASHADE
  6
Continuous
 62
     7
100
AcDbText
 10
0.0
 20
0.175
 30
0.0
 40
0.01
  1
-1
100
AcDbAttributeDefinition
280
     0
  3
*not used*
  2
CONED
 70
     1
280
     0
  0
ATTDEF
  5
55
330
42
100
AcDbEntity
  8
ASHADE
  6
Continuous
 62
     7
100
AcDbText
 10
0.0
 20
0.19
 30
0.0
 40
0.01
  1
0
100
AcDbAttributeDefinition
280
     0
  3
Depth Map Size
  2
CONEA
 70
     1
280
     0
  0
ATTDEF
  5
56
330
42
100
AcDbEntity
  8
ASHADE
  6
Continuous
 62
     7
100
AcDbText
 10
0.0
 20
0.2050000000000001
 30
0.0
 40
0.01
  1
1,1,1
100
AcDbAttributeDefinition
280
     0
  3
Light Color (RGB)
  2
COLOR
 70
     1
280
     0
  0
ATTDEF
  5
57
330
42
100
AcDbEntity
  8
ASHADE
  6
Continuous
 62
     7
100
AcDbText
 10
0.0
 20
0.235
 30
0.0
 40
0.01
  1

100
AcDbAttributeDefinition
280
     0
  3
Look-at Z
  2
LAZ
 70
     1
280
     0
  0
ATTDEF
  5
58
330
42
100
AcDbEntity
  8
ASHADE
  6
Continuous
 62
     7
100
AcDbText
 10
0.0
 20
0.25
 30
0.0
 40
0.01
  1

100
AcDbAttributeDefinition
280
     0
  3
Look-at Y
  2
LAY
 70
     1
280
     0
  0
ATTDEF
  5
59
330
42
100
AcDbEntity
  8
ASHADE
  6
Continuous
 62
     7
100
AcDbText
 10
0.0
 20
0.265
 30
0.0
 40
0.01
  1

100
AcDbAttributeDefinition
280
     0
  3
Look-at X
  2
LAX
 70
     1
280
     0
  0
ATTDEF
  5
5A
330
42
100
AcDbEntity
  8
ASHADE
  6
Continuous
 62
     7
100
AcDbText
 10
0.0
 20
0.28
 30
0.0
 40
0.01
  1

100
AcDbAttributeDefinition
280
     0
  3

  2
GNAME
 70
     1
280
     0
  0
LINE
  5
5B
330
42
100
AcDbEntity
  8
ASHADE
  6
Continuous
 62
     7
100
AcDbLine
 10
0.1096591641591904
 20
0.2792398032442862
 30
0.0
 11
0.1279356915190555
 21
0.3257797704516674
 31
0.0
  0
LINE
  5
5C
330
42
100
AcDbEntity
  8
ASHADE
  6
Continuous
 62
     7
100
AcDbLine
 10
0.2041413561583015
 20
0.2198324514393849
 30
0.0
 11
0.2721884748777353
 21
0.2931099352525131
 31
0.0
  0
ENDBLK
  5
5E
330
42
100
AcDbEntity
  8
0
100
AcDbBlockEnd
  0
BLOCK
  5
85
330
5F
100
AcDbEntity
  8
0
100
AcDbBlockBegin
  2
sh_spot
 70
     2
 10
0.0
 20
0.0
 30
0.0
  3
sh_spot
  1

  0
LINE
  5
60
330
5F
100
AcDbEntity
  8
ASHADE
  6
Continuous
 62
     7
100
AcDbLine
 10
0.25
 20
0.26
 30
0.0
 11
-0.25
 21
0.26
 31
0.0
  0
LINE
  5
61
330
5F
100
AcDbEntity
  8
ASHADE
  6
Continuous
 62
     7
100
AcDbLine
 10
-0.25
 20
-0.3399999999999999
 30
0.0
 11
0.25
 21
-0.3399999999999999
 31
0.0
  0
ATTDEF
  5
62
330
5F
100
AcDbEntity
  8
ASHADE
  6
Continuous
 62
     1
100
AcDbText
 10
0.0
 20
-0.1
 30
0.0
 40
0.2
  1

  7
ASHADE
 72
     1
 11
0.0
 21
-0.1
 31
0.0
100
AcDbAttributeDefinition
280
     0
  3
Light Name
  2
SNAME
 70
     0
280
     0
  0
LINE
  5
63
330
5F
100
AcDbEntity
  8
ASHADE
  6
Continuous
 62
     7
100
AcDbLine
 10
-0.25
 20
-0.13
 30
0.0
 11
-0.25
 21
-0.3399999999999999
 31
0.0
  0
LINE
  5
64
330
5F
100
AcDbEntity
  8
ASHADE
  6
Continuous
 62
     7
100
AcDbLine
 10
-0.25
 20
-0.18
 30
0.0
 11
-0.29
 21
-0.18
 31
0.0
  0
LINE
  5
65
330
5F
100
AcDbEntity
  8
ASHADE
  6
Continuous
 62
     7
100
AcDbLine
 10
-0.29
 20
-0.22
 30
0.0
 11
-0.25
 21
-0.22
 31
0.0
  0
LINE
  5
66
330
5F
100
AcDbEntity
  8
ASHADE
  6
Continuous
 62
     7
100
AcDbLine
 10
-0.29
 20
-0.18
 30
0.0
 11
-0.29
 21
-0.22
 31
0.0
  0
LINE
  5
67
330
5F
100
AcDbEntity
  8
ASHADE
  6
Continuous
 62
     7
100
AcDbLine
 10
-0.1045454545454545
 20
0.26
 30
0.0
 11
-0.15
 21
0.46
 31
0.0
  0
LINE
  5
68
330
5F
100
AcDbEntity
  8
ASHADE
  6
Continuous
 62
     7
100
AcDbLine
 10
-0.21
 20
0.26
 30
0.0
 11
-0.301304347826087
 21
0.46
 31
0.0
  0
LINE
  5
69
330
5F
100
AcDbEntity
  8
ASHADE
  6
Continuous
 62
     7
100
AcDbLine
 10
-0.25
 20
0.26
 30
0.0
 11
-0.25
 21
0.13
 31
0.0
  0
LINE
  5
6A
330
5F
100
AcDbEntity
  8
ASHADE
  6
Continuous
 62
     7
100
AcDbLine
 10
-0.25
 20
0.22
 30
0.0
 11
-0.29
 21
0.22
 31
0.0
  0
LINE
  5
6B
330
5F
100
AcDbEntity
  8
ASHADE
  6
Continuous
 62
     7
100
AcDbLine
 10
-0.29
 20
0.1799999999999999
 30
0.0
 11
-0.25
 21
0.1799999999999999
 31
0.0
  0
LINE
  5
6C
330
5F
100
AcDbEntity
  8
ASHADE
  6
Continuous
 62
     7
100
AcDbLine
 10
-0.29
 20
0.22
 30
0.0
 11
-0.29
 21
0.1799999999999999
 31
0.0
  0
ATTDEF
  5
6D
330
5F
100
AcDbEntity
  8
ASHADE
  6
Continuous
 62
     7
100
AcDbText
 10
0.0
 20
-0.24
 30
0.0
 40
0.01
  1
0
100
AcDbAttributeDefinition
280
     0
  3
Depth Map Size
  2
ZSIZE
 70
     1
280
     0
  0
ATTDEF
  5
6E
330
5F
100
AcDbEntity
  8
ASHADE
  6
Continuous
 62
     7
100
AcDbText
 10
0.0
 20
-0.3300000000000001
 30
0.0
 40
0.01
  1
0,0,0
100
AcDbAttributeDefinition
280
     0
  3
Look-from XYZ
  2
LFXYZ
 70
     1
280
     0
  0
ATTDEF
  5
6F
330
5F
100
AcDbEntity
  8
ASHADE
  6
Continuous
 62
     7
100
AcDbText
 10
0.0
 20
-0.315
 30
0.0
 40
0.01
  1
0.0
100
AcDbAttributeDefinition
280
     0
  3
Beam Distribution
  2
BEAMDI
 70
     1
280
     0
  0
ATTDEF
  5
70
330
5F
100
AcDbEntity
  8
ASHADE
  6
Continuous
 62
     7
100
AcDbText
 10
0.0
 20
-0.3
 30
0.0
 40
0.01
  1
0.0
100
AcDbAttributeDefinition
280
     0
  3
Cone Delta
  2
CONEDE
 70
     1
280
     0
  0
ATTDEF
  5
71
330
5F
100
AcDbEntity
  8
ASHADE
  6
Continuous
 62
     7
100
AcDbText
 10
0.0
 20
-0.2850000000000001
 30
0.0
 40
0.01
  1
10.0
100
AcDbAttributeDefinition
280
     0
  3
Cone Angle
  2
CONEAN
 70
     1
280
     0
  0
ATTDEF
  5
72
330
5F
100
AcDbEntity
  8
ASHADE
  6
Continuous
 62
     7
100
AcDbText
 10
0.0
 20
-0.27
 30
0.0
 40
0.01
  1
-1
100
AcDbAttributeDefinition
280
     0
  3
*not used*
  2
BIASMAX
 70
     1
280
     0
  0
ATTDEF
  5
73
330
5F
100
AcDbEntity
  8
ASHADE
  6
Continuous
 62
     7
100
AcDbText
 10
0.0
 20
-0.255
 30
0.0
 40
0.01
  1
-1
100
AcDbAttributeDefinition
280
     0
  3
*not used*
  2
BIASMIN
 70
     1
280
     0
  0
ATTDEF
  5
74
330
5F
100
AcDbEntity
  8
ASHADE
  6
Continuous
 62
     7
100
AcDbText
 10
0.0
 20
-0.225
 30
0.0
 40
0.01
  1
1,1,1
100
AcDbAttributeDefinition
280
     0
  3
Light Color (RGB)
  2
COLOR
 70
     1
280
     0
  0
ATTDEF
  5
75
330
5F
100
AcDbEntity
  8
ASHADE
  6
Continuous
 62
     7
100
AcDbText
 10
0.0
 20
-0.21
 30
0.0
 40
0.01
  1
1
100
AcDbAttributeDefinition
280
     0
  3
Light Intensity
  2
INTENSITY
 70
     1
280
     0
  0
ATTDEF
  5
76
330
5F
100
AcDbEntity
  8
ASHADE
  6
Continuous
 62
     7
100
AcDbText
 10
0.0
 20
-0.15
 30
0.0
 40
0.01
  1

100
AcDbAttributeDefinition
280
     0
  3

  2
GNAME
 70
     1
280
     0
  0
ATTDEF
  5
77
330
5F
100
AcDbEntity
  8
ASHADE
  6
Continuous
 62
     7
100
AcDbText
 10
0.0
 20
-0.195
 30
0.0
 40
0.01
  1

100
AcDbAttributeDefinition
280
     0
  3
Look-at Z
  2
LAZ
 70
     1
280
     0
  0
ATTDEF
  5
78
330
5F
100
AcDbEntity
  8
ASHADE
  6
Continuous
 62
     7
100
AcDbText
 10
0.0
 20
-0.18
 30
0.0
 40
0.01
  1

100
AcDbAttributeDefinition
280
     0
  3
Look-at Y
  2
LAY
 70
     1
280
     0
  0
ATTDEF
  5
79
330
5F
100
AcDbEntity
  8
ASHADE
  6
Continuous
 62
     7
100
AcDbText
 10
0.0
 20
-0.165
 30
0.0
 40
0.01
  1

100
AcDbAttributeDefinition
280
     0
  3
Look-at X
  2
LAX
 70
     1
280
     0
  0
LINE
  5
7A
330
5F
100
AcDbEntity
  8
ASHADE
  6
Continuous
 62
     7
100
AcDbLine
 10
0.25
 20
-0.3399999999999999
 30
0.0
 11
0.25
 21
-0.13
 31
0.0
  0
LINE
  5
7B
330
5F
100
AcDbEntity
  8
ASHADE
  6
Continuous
 62
     7
100
AcDbLine
 10
0.25
 20
-0.18
 30
0.0
 11
0.29
 21
-0.18
 31
0.0
  0
LINE
  5
7C
330
5F
100
AcDbEntity
  8
ASHADE
  6
Continuous
 62
     7
100
AcDbLine
 10
0.29
 20
-0.22
 30
0.0
 11
0.25
 21
-0.22
 31
0.0
  0
LINE
  5
7D
330
5F
100
AcDbEntity
  8
ASHADE
  6
Continuous
 62
     7
100
AcDbLine
 10
0.29
 20
-0.18
 30
0.0
 11
0.29
 21
-0.22
 31
0.0
  0
LINE
  5
7E
330
5F
100
AcDbEntity
  8
ASHADE
  6
Continuous
 62
     7
100
AcDbLine
 10
0.21
 20
0.26
 30
0.0
 11
0.301304347826087
 21
0.46
 31
0.0
  0
LINE
  5
7F
330
5F
100
AcDbEntity
  8
ASHADE
  6
Continuous
 62
     7
100
AcDbLine
 10
0.1045454545454545
 20
0.26
 30
0.0
 11
0.15
 21
0.46
 31
0.0
  0
LINE
  5
80
330
5F
100
AcDbEntity
  8
ASHADE
  6
Continuous
 62
     7
100
AcDbLine
 10
0.0
 20
0.26
 30
0.0
 11
0.0
 21
0.46
 31
0.0
  0
LINE
  5
81
330
5F
100
AcDbEntity
  8
ASHADE
  6
Continuous
 62
     7
100
AcDbLine
 10
0.25
 20
0.13
 30
0.0
 11
0.25
 21
0.26
 31
0.0
  0
LINE
  5
82
330
5F
100
AcDbEntity
  8
ASHADE
  6
Continuous
 62
     7
100
AcDbLine
 10
0.25
 20
0.22
 30
0.0
 11
0.29
 21
0.22
 31
0.0
  0
LINE
  5
83
330
5F
100
AcDbEntity
  8
ASHADE
  6
Continuous
 62
     7
100
AcDbLine
 10
0.29
 20
0.1799999999999999
 30
0.0
 11
0.25
 21
0.1799999999999999
 31
0.0
  0
LINE
  5
84
330
5F
100
AcDbEntity
  8
ASHADE
  6
Continuous
 62
     7
100
AcDbLine
 10
0.29
 20
0.22
 30
0.0
 11
0.29
 21
0.1799999999999999
 31
0.0
  0
ENDBLK
  5
86
330
5F
100
AcDbEntity
  8
0
100
AcDbBlockEnd
  0
BLOCK
  5
92
330
91
100
AcDbEntity
  8
ASHADE
100
AcDbBlockBegin
  2
AVE_RENDER
 70
     0
 10
0.0
 20
0.0
 30
0.0
  3
AVE_RENDER
  1
AVE_RENDER
  0
ENDBLK
  5
93
330
91
100
AcDbEntity
  8
0
100
AcDbBlockEnd
  0
BLOCK
  5
A0
330
9F
100
AcDbEntity
  8
ASHADE
100
AcDbBlockBegin
  2
AVE_GLOBAL
 70
     0
 10
0.0
 20
0.0
 30
0.0
  3
AVE_GLOBAL
  1
AVE_GLOBAL
  0
ENDBLK
  5
A1
330
9F
100
AcDbEntity
  8
0
100
AcDbBlockEnd
  0
ENDSEC
  0
SECTION
  2
ENTITIES
  0
INSERT
  5
94
330
1F
100
AcDbEntity
  8
ASHADE
 62
     1
100
AcDbBlockReference
  2
AVE_RENDER
 10
0.0
 20
0.0
 30
0.0
1001
AVE_RENDER
1002
{
1070
     7
1000
Pref
1070
    30
1070
    20
1070
     1
1070
     0
1000

1070
    10
1070
     1
1070
    10
1040
1.0
1070
     1
1040
0.3
1040
0.7
1040
0.0
1040
10.0
1010
-1.0
1020
-1.0
1030
-1.0
1040
0.3
1070
    49
1070
     0
1070
     0
1010
1.0
1020
1.0
1030
1.0
1040
45.0
1070
     1
1070
     0
1000
WCS
1040
0.0
1070
     0
1040
10.0
1002
}
  0
INSERT
  5
95
330
1F
100
AcDbEntity
  8
ASHADE
 62
     3
100
AcDbBlockReference
  2
AVE_RENDER
 10
0.0
 20
0.0
 30
0.0
1001
AVE_RENDER
1002
{
1070
     0
1000
Full Opt
1070
     0
1070
     1
1070
     1
1070
     1
1070
     0
1070
     0
1070
     0
1070
     1
1070
     1
1040
0.0001
1040
0.0001
1002
}
  0
INSERT
  5
96
330
1F
100
AcDbEntity
  8
ASHADE
 62
     4
100
AcDbBlockReference
  2
AVE_RENDER
 10
0.0
 20
0.0
 30
0.0
1001
AVE_RENDER
1002
{
1070
     0
1000
Quick Opt
1070
     0
1070
     1
1070
     1
1070
     1
1070
     0
1070
     0
1070
     1
1002
}
  0
INSERT
  5
97
330
1F
100
AcDbEntity
  8
ASHADE
 62
     5
100
AcDbBlockReference
  2
AVE_RENDER
 10
0.0
 20
0.0
 30
0.0
1001
AVE_RENDER
1002
{
1070
     1
1000
Scanl Opt
1070
     2
1070
     0
1070
     2
1040
2.0
1040
4.0
1070
     0
1070
     1
1070
     0
1040
0.03
1002
}
  0
INSERT
  5
98
330
1F
100
AcDbEntity
  8
ASHADE
 62
     6
100
AcDbBlockReference
  2
AVE_RENDER
 10
0.0
 20
0.0
 30
0.0
1001
AVE_RENDER
1002
{
1070
     2
1000
Raytr Opt
1070
     2
1070
     0
1070
     2
1040
2.0
1040
4.0
1070
     0
1070
     1
1070
     1
1040
0.03
1070
     3
1040
0.03
1002
}
  0
INSERT
  5
99
330
1F
100
AcDbEntity
  8
ASHADE
 62
     7
100
AcDbBlockReference
  2
AVE_RENDER
 10
0.0
 20
0.0
 30
0.0
1001
AVE_RENDER
1002
{
1070
     0
1000
RFile Opt
1070
     1
1070
   640
1070
   480
1070
 10000
1070
     1
1070
     8
1070
     8
1070
     0
1070
     0
1070
     0
1070
     0
1070
     0
1070
     0
1070
     0
1002
}
  0
INSERT
  5
9A
330
1F
100
AcDbEntity
  8
ASHADE
 62
     8
100
AcDbBlockReference
  2
AVE_RENDER
 10
0.0
 20
0.0
 30
0.0
1001
AVE_RENDER
1002
{
1070
     0
1000
Fog Opt
1070
     0
1070
     0
1040
0.0
1040
1.0
1040
0.0
1040
1.0
1010
0.5
1020
0.5
1030
0.5
1002
}
  0
INSERT
  5
9B
330
1F
100
AcDbEntity
  8
ASHADE
 62
     9
100
AcDbBlockReference
  2
AVE_RENDER
 10
0.0
 20
0.0
 30
0.0
1001
AVE_RENDER
1002
{
1070
     0
1000
BG Opt
1070
     0
1070
     1
1010
0.0
1020
0.0
1030
0.0
1010
1.0
1020
0.0
1030
0.0
1010
0.0
1020
1.0
1030
0.0
1010
0.0
1020
0.0
1030
1.0
1040
0.5
1040
0.33
1040
0.0
1000

1070
     1
1000

1070
     1
1070
     1
1040
1.0
1040
1.0
1040
0.0
1040
0.0
1070
     0
1002
}
  0
INSERT
  5
A2
330
1F
100
AcDbEntity
  8
ASHADE
 62
     1
100
AcDbBlockReference
  2
AVE_GLOBAL
 10
0.0
 20
0.0
 30
0.0
1001
AVE_MATERIAL
1002
{
1000
*GLOBAL*
1000
2
1000
Global finish.
1002
{
1002
}
1002
{
1070
    63
1002
{
1002
{
1010
-1.0
1020
-1.0
1030
-1.0
1002
}
1040
0.1000000014901161
1000

1040
0.0
1002
{
1002
}
1040
0.0
1002
{
1002
}
1040
0.0
1002
}
1002
{
1002
{
1010
-1.0
1020
-1.0
1030
-1.0
1002
}
1040
0.6999999880790711
1000

1040
0.0
1002
{
1002
}
1040
0.0
1002
{
1002
}
1040
0.0
1002
}
1002
{
1002
{
1010
-1.0
1020
-1.0
1030
-1.0
1002
}
1040
0.2000000029802322
1000

1040
0.0
1002
{
1002
}
1040
0.0
1002
{
1002
}
1040
0.0
1002
}
1002
{
1070
     0
1002
{
1070
     1
1002
{
1040
1.0
1040
1.0
1000

1040
0.0
1002
{
1002
}
1040
0.0
1002
{
1002
}
1040
0.0
1002
}
1002
}
1040
1.0
1040
0.0
1040
0.0
1002
}
1002
{
1040
1.0
1040
1.0
1000

1040
0.0
1002
{
1002
}
1040
0.0
1002
{
1002
}
1040
0.0
1002
}
1002
{
1040
0.5
1040
1.0
1000

1040
0.0
1002
{
1002
}
1040
0.0
1002
{
1002
}
1040
0.0
1002
}
1002
{
1070
     0
1040
0.0
1002
{
1002
}
1040
1.0
1002
{
1002
}
1040
0.0
1002
}
1002
{
1040
0.0
1002
{
1002
{
1010
0.0
1020
0.0
1030
0.0
1002
}
1040
1.0
1000

1040
0.0
1002
{
1002
}
1040
0.0
1002
{
1002
}
1040
0.0
1002
}
1002
}
1002
{
1002
{
1070
     1
1002
{
1040
0.0
1040
1.0
1000

1040
0.0
1002
{
1002
}
1040
0.0
1002
{
1002
}
1040
0.0
1002
}
1002
}
1040
0.0
1002
{
1002
}
1010
1.0
1020
0.0
1030
0.0
1010
0.0
1020
1.0
1030
0.0
1010
0.0
1020
0.0
1030
1.0
1070
     0
1002
}
1002
{
1002
{
1040
1.0
1040
1.0
1002
{
1070
     1
1002
{
1040
1.0
1040
1.0
1000

1040
0.0
1002
{
1002
}
1040
0.0
1002
{
1002
}
1040
0.0
1002
}
1002
}
1002
}
1070
     0
1040
0.0
1002
{
1002
}
1002
}
1002
{
1002
}
1002
}
1002
{
1071
        3
1070
     3
1070
     0
1002
{
1070
     2
1070
     0
1070
     0
1040
0.0
1002
}
1070
     0
1070
     2
1002
{
1002
}
1002
}
1002
{
1040
8030.0
1040
190.3000030517578
1040
0.3050000071525574
1040
228.0
1040
545.0
1040
14.0
1040
17.39999961853027
1040
0.4560000002384186
1002
}
1002
}
  0
MESH
  5
F9
330
1F
100
AcDbEntity
  8
OracDecor_cornice_mouldings
 62
    34
420
 11622427
160
             24632
310
38600000AC0200000C00000013000000020000003C00000006000000020000000000006000408F40000000004CACD03E000000A0000054C00000006000408F40000000001838CE3E000000601CEF52C00C000000130000000A0000003C00000006000000020000000000000000408FC0000000E0EC9F163F00000020FEFF53
310
C00000006000408F40000000004CACD03E000000A0000054C00C00000013000000120000003C00000006000000020000000000000000408FC0000000E0E886163F000000E019EF52C00000000000408FC0000000E0EC9F163F00000020FEFF53C00C000000130000001A0000003C0000000600000002000000000000000040
310
8FC0000000E0E886163F000000E019EF52C00000006000408F40000000001838CE3E000000601CEF52C00C00000013000000220000003C00000006000000020000000000006000408F40000000004CACD03E000000A0000054C00000006000408F4000000060FFFF17C0000000A0000054C00C000000130000002A0000003C
310
00000006000000020000000000000000408FC0000000E0EAFF17C000000020FEFF53C00000006000408F4000000060FFFF17C0000000A0000054C00C00000013000000320000003C00000006000000020000000000000000408FC0000000E0EC9F163F00000020FEFF53C00000000000408FC0000000E0EAFF17C000000020
310
FEFF53C00C000000130000003A0000003C00000006000000020000000000006000408F4000000060FFFF17C0000000A0000054C00000006000408F4000000060722518C0000000E0E0D253C00C00000013000000420000003C00000006000000020000000000000000408FC0000000E05D2518C000000060DED253C0000000
310
6000408F4000000060722518C0000000E0E0D253C00C000000130000004A0000003C00000006000000020000000000000000408FC0000000E0EAFF17C000000020FEFF53C00000000000408FC0000000E05D2518C000000060DED253C00C00000013000000520000003C00000006000000020000000000006000408F400000
310
0080FAF118C0000000E0669053C00000006000408F4000000060722518C0000000E0E0D253C00C000000130000005A0000003C00000006000000020000000000000000408FC000000000E6F118C000000060649053C00000006000408F4000000080FAF118C0000000E0669053C00C00000013000000620000003C00000006
310
000000020000000000000000408FC0000000E05D2518C000000060DED253C00000000000408FC000000000E6F118C000000060649053C00C000000130000006A0000003C00000006000000020000000000006000408F40000000809DF11AC0000000E0233C53C00000006000408F4000000080FAF118C0000000E0669053C0
310
0C00000013000000720000003C00000006000000020000000000000000408FC00000008088F11AC000000060213C53C00000006000408F40000000809DF11AC0000000E0233C53C00C000000130000007A0000003C00000006000000020000000000000000408FC000000000E6F118C000000060649053C00000000000408F
310
C00000008088F11AC000000060213C53C00C00000013000000820000003C00000006000000020000000000006000408F4000000080BAFB1DC00000002043F052C00000006000408F40000000809DF11AC0000000E0233C53C00C000000130000008A0000003C00000006000000020000000000000000408FC000000000A6FB
310
1DC0000000A040F052C00000006000408F4000000080BAFB1DC00000002043F052C00C00000013000000920000003C00000006000000020000000000000000408FC00000008088F11AC000000060213C53C00000000000408FC000000000A6FB1DC0000000A040F052C00C000000130000009A0000003C0000000600000002
310
0000000000006000408F400000004082F720C00000002004B052C00000006000408F4000000080BAFB1DC00000002043F052C00C00000013000000A20000003C00000006000000020000000000000000408FC0000000C077F720C0000000C001B052C00000006000408F400000004082F720C00000002004B052C00C000000
310
13000000AA0000003C00000006000000020000000000000000408FC000000000A6FB1DC0000000A040F052C00000000000408FC0000000C077F720C0000000C001B052C00C00000013000000B20000003C00000006000000020000000000006000408F4000000080185023C0000000E0267E52C00000006000408F40000000
310
4082F720C00000002004B052C00C00000013000000BA0000003C00000006000000020000000000000000408FC0000000000E5023C000000040247E52C00000006000408F4000000080185023C0000000E0267E52C00C00000013000000C20000003C00000006000000020000000000000000408FC0000000C077F720C00000
310
00C001B052C00000000000408FC0000000000E5023C000000040247E52C00C00000013000000CA0000003C00000006000000020000000000006000408F4000000040ECED25C000000060CD5C52C00000006000408F4000000080185023C0000000E0267E52C00C00000013000000D20000003C000000060000000200000000
310
00000000408FC0000000C0E1ED25C0000000E0CA5C52C00000006000408F4000000040ECED25C000000060CD5C52C00C00000013000000DA0000003C00000006000000020000000000000000408FC0000000000E5023C000000040247E52C00000000000408FC0000000C0E1ED25C0000000E0CA5C52C00C00000013000000
310
E20000003C00000006000000020000000000006000408F4000000040000028C000000060EF4E52C00000006000408F4000000040ECED25C000000060CD5C52C00C00000013000000EA0000003C00000006000000020000000000000000408FC000000000F6FF27C0000000E0EC4E52C00000006000408F4000000040000028
310
C000000060EF4E52C00C00000013000000F20000003C00000006000000020000000000000000408FC0000000C0E1ED25C0000000E0CA5C52C00000000000408FC000000000F6FF27C0000000E0EC4E52C00C00000013000000FA0000003C00000006000000020000000000006000408F4000000040000028C000000060EF4E
310
52C00000006000408F4000000060000028C0000000A0008051C00C00000013000000020100003C00000006000000020000000000000000408FC000000020F6FF27C000000020FE7F51C00000006000408F4000000060000028C0000000A0008051C00C000000130000000A0100003C00000006000000020000000000000000
310
408FC000000000F6FF27C0000000E0EC4E52C00000000000408FC000000020F6FF27C000000020FE7F51C00C00000013000000120100003C00000006000000020000000000006000408F4000000060000028C0000000A0008051C00000006000408F40000000209A992DC0000000A0008051C00C000000130000001A010000
310
3C00000006000000020000000000000000408FC0000000A08F992DC000000020FE7F51C00000006000408F40000000209A992DC0000000A0008051C00C00000013000000220100003C00000006000000020000000000000000408FC000000020F6FF27C000000020FE7F51C00000000000408FC0000000A08F992DC0000000
310
20FE7F51C00C000000130000002A0100003C00000006000000020000000000006000408F40000000209A992DC0000000A0008051C00000006000408F40000000A099992DC00000002001004EC00C00000013000000320100003C00000006000000020000000000000000408FC0000000608F992DC0000000C0FBFF4DC00000
310
006000408F40000000A099992DC00000002001004EC00C000000130000003A0100003C00000006000000020000000000000000408FC0000000A08F992DC000000020FE7F51C00000000000408FC0000000608F992DC0000000C0FBFF4DC00C00000013000000420100003C00000006000000020000000000006000408F4000
310
0000A099992DC00000002001004EC00000006000408F4000000000CDCC31C00000002001004EC00C000000130000004A0100003C00000006000000020000000000000000408FC0000000C0C7CC31C0000000C0FBFF4DC00000006000408F4000000000CDCC31C00000002001004EC00C00000013000000520100003C000000
310
06000000020000000000000000408FC0000000608F992DC0000000C0FBFF4DC00000000000408FC0000000C0C7CC31C0000000C0FBFF4DC00C000000130000005A0100003C00000006000000020000000000006000408F4000000000CDCC31C00000002001004EC00000006000408F40000000A0A2D131C0000000E0E9F64C
310
C00C00000013000000620100003C00000006000000020000000000006000408F40000000A0A2D131C0000000E0E9F64CC00000000000408FC0000000609DD131C000000080E4F64CC00C000000130000006A0100003C00000006000000020000000000000000408FC0000000C0C7CC31C0000000C0FBFF4DC0000000000040
310
8FC0000000609DD131C000000080E4F64CC00C00000013000000720100003C00000006000000020000000000006000408F40000000A0A2D131C0000000E0E9F64CC00000006000408F40000000A0990B32C000000000CC174BC00C000000130000007A0100003C00000006000000020000000000000000408FC00000006094
310
0B32C0000000A0C6174BC00000006000408F40000000A0990B32C000000000CC174BC00C00000013000000820100003C00000006000000020000000000000000408FC0000000609DD131C000000080E4F64CC00000000000408FC000000060940B32C0000000A0C6174BC00C000000130000008A0100003C00000006000000
310
020000000000006000408F40000000207B9232C000000020923C49C00000006000408F40000000A0990B32C000000000CC174BC00C00000013000000920100003C00000006000000020000000000000000408FC0000000C0759232C0000000C08C3C49C00000006000408F40000000207B9232C000000020923C49C00C0000
310
00130000009A0100003C00000006000000020000000000000000408FC000000060940B32C0000000A0C6174BC00000000000408FC0000000C0759232C0000000C08C3C49C00C00000013000000A20100003C00000006000000020000000000006000408F40000000E0666533C0000000A0506847C00000006000408F400000
310
00207B9232C000000020923C49C00C00000013000000AA0100003C00000006000000020000000000000000408FC000000080616533C0000000404B6847C00000006000408F40000000E0666533C0000000A0506847C00C00000013000000B20100003C00000006000000020000000000000000408FC0000000C0759232C000
310
0000C08C3C49C00000000000408FC000000080616533C0000000404B6847C00C00000013000000BA0100003C00000006000000020000000000006000408F40000000E0FE8234C000000000119E45C00000006000408F40000000E0666533C0000000A0506847C00C00000013000000C20100003C0000000600000002000000
310
0000000000408FC000000080F98234C0000000A00B9E45C00000006000408F40000000E0FE8234C000000000119E45C00C00000013000000CA0100003C00000006000000020000000000000000408FC000000080616533C0000000404B6847C00000000000408FC000000080F98234C0000000A00B9E45C00C000000130000
310
00D20100003C00000006000000020000000000006000408F400000008068E935C0000000A0CBE043C00000006000408F40000000E0FE8234C000000000119E45C00C00000013000000DA0100003C00000006000000020000000000000000408FC00000004063E935C000000000C6E043C00000006000408F400000008068E9
310
35C0000000A0CBE043C00C00000013000000E20100003C00000006000000020000000000000000408FC000000080F98234C0000000A00B9E45C00000000000408FC00000004063E935C000000000C6E043C00C00000013000000EA0100003C00000006000000020000000000006000408F4000000080519637C0000000E062
310
3342C00000006000408F400000008068E935C0000000A0CBE043C00C00000013000000F20100003C00000006000000020000000000000000408FC0000000204C9637C0000000405D3342C00000006000408F4000000080519637C0000000E0623342C00C00000013000000FA0100003C000000060000000200000000000000
310
00408FC00000004063E935C000000000C6E043C00000000000408FC0000000204C9637C0000000405D3342C00C00000013000000020200003C00000006000000020000000000006000408F40000000C0F18639C0000000E09F9840C00000006000408F4000000080519637C0000000E0623342C00C000000130000000A0200
310
003C00000006000000020000000000000000408FC000000080EC8639C0000000609A9840C00000006000408F40000000C0F18639C0000000E09F9840C00C00000013000000120200003C00000006000000020000000000000000408FC0000000204C9637C0000000405D3342C00000000000408FC000000080EC8639C00000
310
00609A9840C00C000000130000001A0200003C00000006000000020000000000006000408F400000000012B83BC00000002058263EC00000006000408F40000000C0F18639C0000000E09F9840C00C00000013000000220200003C00000006000000020000000000000000408FC0000000A00CB83BC0000000E04D263EC000
310
00006000408F400000000012B83BC00000002058263EC00C000000130000002A0200003C00000006000000020000000000000000408FC000000080EC8639C0000000609A9840C00000000000408FC0000000A00CB83BC0000000E04D263EC00C00000013000000320200003C00000006000000020000000000006000408F40
310
000000800E263EC0000000001D4B3BC00000006000408F400000000012B83BC00000002058263EC00C000000130000003A0200003C00000006000000020000000000000000408FC00000000009263EC0000000C0124B3BC00000006000408F40000000800E263EC0000000001D4B3BC00C00000013000000420200003C0000
310
0006000000020000000000000000408FC0000000A00CB83BC0000000E04D263EC00000000000408FC00000000009263EC0000000C0124B3BC00C000000130000004A0200003C00000006000000020000000000006000408F40000000406F6640C0000000804CA438C00000006000408F40000000800E263EC0000000001D4B
310
3BC00C00000013000000520200003C00000006000000020000000000000000408FC0000000E06C6640C00000002042A438C00000006000408F40000000406F6640C0000000804CA438C00C000000130000005A0200003C00000006000000020000000000000000408FC00000000009263EC0000000C0124B3BC00000000000
310
408FC0000000E06C6640C00000002042A438C00C00000013000000620200003C00000006000000020000000000006000408F40000000E00CD441C0000000E04F3636C00000006000408F40000000406F6640C0000000804CA438C00C000000130000006A0200003C00000006000000020000000000000000408FC000000060
310
0AD441C0000000A0453636C00000006000408F40000000E00CD441C0000000E04F3636C00C00000013000000720200003C00000006000000020000000000000000408FC0000000E06C6640C00000002042A438C00000000000408FC0000000600AD441C0000000A0453636C00C000000130000007A0200003C000000060000
310
00020000000000006000408F40000000C0805943C000000020300534C00000006000408F40000000E00CD441C0000000E04F3636C00C00000013000000820200003C00000006000000020000000000000000408FC0000000207E5943C0000000A0250534C00000006000408F40000000C0805943C000000020300534C00C00
310
0000130000008A0200003C00000006000000020000000000000000408FC0000000600AD441C0000000A0453636C00000000000408FC0000000207E5943C0000000A0250534C00C00000013000000920200003C00000006000000020000000000006000408F40000000C043F444C0000000A08F1432C00000006000408F4000
310
0000C0805943C000000020300534C00C000000130000009A0200003C00000006000000020000000000000000408FC00000002041F444C000000040851432C00000006000408F40000000C043F444C0000000A08F1432C00C00000013000000A20200003C00000006000000020000000000000000408FC0000000207E5943C0
310
000000A0250534C00000000000408FC00000002041F444C000000040851432C00C00000013000000AA0200003C00000006000000020000000000006000408F4000000080ACA146C0000000A0A66730C00000006000408F40000000C043F444C0000000A08F1432C00C00000013000000B20200003C00000006000000020000
310
000000000000408FC0000000E0A9A146C0000000609C6730C00000006000408F4000000080ACA146C0000000A0A66730C00C00000013000000BA0200003C00000006000000020000000000000000408FC00000002041F444C000000040851432C00000000000408FC0000000E0A9A146C0000000609C6730C00C0000001300
310
0000C20200003C00000006000000020000000000006000408F4000000020F25E48C0000000E079022EC00000006000408F4000000080ACA146C0000000A0A66730C00C00000013000000CA0200003C00000006000000020000000000000000408FC000000080EF5E48C0000000E064022EC00000006000408F4000000020F2
310
5E48C0000000E079022EC00C00000013000000D20200003C00000006000000020000000000000000408FC0000000E0A9A146C0000000609C6730C00000000000408FC000000080EF5E48C0000000E064022EC00C00000013000000DA0200003C00000006000000020000000000006000408F400000000032294AC000000000
310
4AC72BC00000006000408F4000000020F25E48C0000000E079022EC00C00000013000000E20200003C00000006000000020000000000000000408FC0000000602F294AC00000000035C72BC00000006000408F400000000032294AC0000000004AC72BC00C00000013000000EA0200003C0000000600000002000000000000
310
0000408FC000000080EF5E48C0000000E064022EC00000000000408FC0000000602F294AC00000000035C72BC00C00000013000000F20200003C00000006000000020000000000006000408F400000006073FD4BC00000008072212AC00000006000408F400000000032294AC0000000004AC72BC00C00000013000000FA02
310
00003C00000006000000020000000000000000408FC0000000C070FD4BC0000000405D212AC00000006000408F400000006073FD4BC00000008072212AC00C00000013000000020300003C00000006000000020000000000000000408FC0000000602F294AC00000000035C72BC00000000000408FC0000000C070FD4BC000
310
0000405D212AC00C000000130000000A0300003C00000006000000020000000000006000408F4000000060ADD84DC000000080AF1329C00000006000408F400000006073FD4BC00000008072212AC00C00000013000000120300003C00000006000000020000000000000000408FC0000000C0AAD84DC0000000409A1329C0
310
0000006000408F4000000060ADD84DC000000080AF1329C00C000000130000001A0300003C00000006000000020000000000000000408FC0000000C070FD4BC0000000405D212AC00000000000408FC0000000C0AAD84DC0000000409A1329C00C00000013000000220300003C00000006000000020000000000006000408F
310
4000000040CBB74FC000000060C29F28C00000006000408F4000000060ADD84DC000000080AF1329C00C000000130000002A0300003C00000006000000020000000000000000408FC0000000A0C8B74FC000000020AD9F28C00000006000408F4000000040CBB74FC000000060C29F28C00C00000013000000320300003C00
310
000006000000020000000000000000408FC0000000A0C8B74FC000000020AD9F28C00000000000408FC0000000C0AAD84DC0000000409A1329C00C000000130000003A0300003C00000006000000020000000000006000408F400000000056D550C0000000A0169628C00000006000408F4000000040CBB74FC000000060C2
310
9F28C00C00000013000000420300003C00000006000000020000000000000000408FC00000008054D550C0000000A0019628C00000006000408F400000000056D550C0000000A0169628C00C000000130000004A0300003C00000006000000020000000000000000408FC0000000A0C8B74FC000000020AD9F28C000000000
310
00408FC00000008054D550C0000000A0019628C00C00000013000000520300003C00000006000000020000000000006000408F400000000056D550C0000000A0169628C00000006000408F400000000056D550C000000020CECC24C00C000000130000005A0300003C00000006000000020000000000000000408FC0000000
310
8054D550C000000020B9CC24C00000006000408F400000000056D550C000000020CECC24C00C00000013000000620300003C00000006000000020000000000000000408FC00000008054D550C0000000A0019628C00000000000408FC00000008054D550C000000020B9CC24C00C000000130000006A0300003C0000000600
310
0000020000000000006000408F400000000056D550C000000020CECC24C00000006000408F40000000C0291D51C0000000200BB024C00C00000013000000720300003C00000006000000020000000000000000408FC000000040281D51C0000000E0F5AF24C00000006000408F40000000C0291D51C0000000200BB024C00C
310
000000130000007A0300003C00000006000000020000000000000000408FC00000008054D550C000000020B9CC24C00000000000408FC000000040281D51C0000000E0F5AF24C00C00000013000000820300003C00000006000000020000000000006000408F4000000000866651C0000000E0B26E24C00000006000408F40
310
000000C0291D51C0000000200BB024C00C000000130000008A0300003C00000006000000020000000000000000408FC000000080846651C0000000E09D6E24C00000006000408F4000000000866651C0000000E0B26E24C00C00000013000000920300003C00000006000000020000000000000000408FC000000040281D51
310
C0000000E0F5AF24C00000000000408FC000000080846651C0000000E09D6E24C00C000000130000009A0300003C00000006000000020000000000006000408F4000000000A9AF51C0000000E0767623C00000006000408F4000000000866651C0000000E0B26E24C00C00000013000000A20300003C000000060000000200
310
00000000000000408FC000000080A7AF51C0000000E0617623C00000006000408F4000000000A9AF51C0000000E0767623C00C00000013000000AA0300003C00000006000000020000000000000000408FC000000080846651C0000000E09D6E24C00000000000408FC000000080A7AF51C0000000E0617623C00C00000013
310
000000B20300003C00000006000000020000000000006000408F40000000C023E251C00000004092F421C00000006000408F4000000000A9AF51C0000000E0767623C00C00000013000000BA0300003C00000006000000020000000000000000408FC00000004022E251C0000000407DF421C00000006000408F40000000C0
310
23E251C00000004092F421C00C00000013000000C20300003C00000006000000020000000000000000408FC000000080A7AF51C0000000E0617623C00000000000408FC00000004022E251C0000000407DF421C00C00000013000000CA0300003C00000006000000020000000000006000408F4000000080991452C0000000
310
C09A2120C00000006000408F40000000C023E251C00000004092F421C00C00000013000000D20300003C00000006000000020000000000000000408FC000000000981452C0000000C0852120C00000006000408F4000000080991452C0000000C09A2120C00C00000013000000DA0300003C00000006000000020000000000
310
000000408FC00000004022E251C0000000407DF421C00000000000408FC000000000981452C0000000C0852120C00C00000013000000E20300003C00000006000000020000000000006000408F4000000040534952C00000006065681DC00000006000408F4000000080991452C0000000C09A2120C00C00000013000000EA
310
0300003C00000006000000020000000000000000408FC0000000C0514952C0000000603B681DC00000006000408F4000000040534952C00000006065681DC00C00000013000000F20300003C00000006000000020000000000000000408FC000000000981452C0000000C0852120C00000000000408FC0000000C0514952C0
310
000000603B681DC00C00000013000000FA0300003C00000006000000020000000000006000408F40000000008D8052C000000080B2B71BC00000006000408F4000000040534952C00000006065681DC00C00000013000000020400003C00000006000000020000000000000000408FC0000000C08B8052C00000008088B71B
310
C00000006000408F40000000008D8052C000000080B2B71BC00C000000130000000A0400003C00000006000000020000000000000000408FC0000000C0514952C0000000603B681DC00000000000408FC0000000C08B8052C00000008088B71BC00C00000013000000120400003C0000000600000002000000000000600040
310
8F4000000040D9C652C000000080AECD1AC00000006000408F40000000008D8052C000000080B2B71BC00C000000130000001A0400003C00000006000000020000000000000000408FC000000000D8C652C00000008084CD1AC00000006000408F4000000040D9C652C000000080AECD1AC00C00000013000000220400003C
310
00000006000000020000000000000000408FC0000000C08B8052C00000008088B71BC00000000000408FC000000000D8C652C00000008084CD1AC00C000000130000002A0400003C00000006000000020000000000006000408F40000000C0000053C000000000ADAA1AC00000006000408F4000000040D9C652C000000080
310
AECD1AC00C00000013000000320400003C00000006000000020000000000000000408FC000000040FFFF52C00000000083AA1AC00000006000408F40000000C0000053C000000000ADAA1AC00C000000130000003A0400003C00000006000000020000000000000000408FC000000000D8C652C00000008084CD1AC0000000
310
0000408FC000000040FFFF52C00000000083AA1AC00C00000013000000420400003C00000006000000020000000000006000408F40000000C0000053C000000000ADAA1AC00000006000408F40000000C0000053C000000000ADAA12C00C000000130000004A0400003C00000006000000020000000000000000408FC00000
310
0040FFFF52C00000000083AA12C00000006000408F40000000C0000053C000000000ADAA12C00C00000013000000520400003C00000006000000020000000000000000408FC000000040FFFF52C00000000083AA1AC00000000000408FC000000040FFFF52C00000000083AA12C00C000000130000005A0400003C00000006
310
000000020000000000006000408F40000000C0000053C000000000ADAA12C00000006000408F40000000C0000054C0000000A0ADAA12C00C00000013000000620400003C00000006000000020000000000000000408FC000000040FFFF53C00000002083AA12C00000006000408F40000000C0000054C0000000A0ADAA12C0
310
0C000000130000006A0400003C00000006000000020000000000000000408FC000000040FFFF52C00000000083AA12C00000000000408FC000000040FFFF53C00000002083AA12C00C00000013000000720400003C00000006000000020000000000006000408F40000000C0000054C0000000A0ADAA12C00000006000408F
310
40000000C0000054C0000000002C56E4BE0C000000130000007A0400003C00000006000000020000000000000000408FC000000040FFFF53C00000008009F0233F0000006000408F40000000C0000054C0000000002C56E4BE0C00000013000000820400003C00000006000000020000000000000000408FC000000040FFFF
310
53C00000002083AA12C00000000000408FC000000040FFFF53C00000008009F0233F0C000000130000008A0400003C00000006000000020000000000006000408F40000000C0000054C0000000002C56E4BE0000006000408F40000000801CEF52C0000000000A8EE3BE0C00000013000000920400003C0000000600000002
310
0000000000006000408F40000000801CEF52C0000000000A8EE3BE0000000000408FC0000000001BEF52C0000000808BFC233F0C000000130000009A0400003C00000006000000020000000000000000408FC000000040FFFF53C00000008009F0233F0000000000408FC0000000001BEF52C0000000808BFC233F0C000000
310
13000000A20400003C00000006000000020000000000006000408F40000000801CEF52C0000000000A8EE3BE0000006000408F40000000C09FBC52C0000000E096B0D1BF0C00000013000000AA0400003C00000006000000020000000000000000408FC0000000409EBC52C000000020F0ADD1BF0000006000408F40000000
310
C09FBC52C0000000E096B0D1BF0C00000013000000B20400003C00000006000000020000000000000000408FC0000000001BEF52C0000000808BFC233F0000000000408FC0000000409EBC52C000000020F0ADD1BF0C00000013000000BA0400003C00000006000000020000000000006000408F40000000C09FBC52C00000
310
00E096B0D1BF0000006000408F40000000C000A052C0000000C0F64DD7BF0C00000013000000C20400003C00000006000000020000000000006000408F40000000C000A052C0000000C0F64DD7BF0000000000408FC000000040FF9F52C000000000504BD7BF0C00000013000000CA0400003C000000060000000200000000
310
00000000408FC0000000409EBC52C000000020F0ADD1BF0000000000408FC000000040FF9F52C000000000504BD7BF0C00000013000000D20400003C00000006000000020000000000006000408F4000000080618352C00000008096B0D1BF0000006000408F40000000C000A052C0000000C0F64DD7BF0C00000013000000
310
DA0400003C00000006000000020000000000006000408F4000000080618352C00000008096B0D1BF0000000000408FC000000000608352C0000000C0EFADD1BF0C00000013000000E20400003C00000006000000020000000000000000408FC000000000608352C0000000C0EFADD1BF0000000000408FC000000040FF9F52
310
C000000000504BD7BF0C00000013000000EA0400003C00000006000000020000000000006000408F4000000000E55052C000000000041AE3BE0000006000408F4000000080618352C00000008096B0D1BF0C00000013000000F20400003C00000006000000020000000000000000408FC000000080E35052C000000000CC03
310
243F0000006000408F4000000000E55052C000000000041AE3BE0C00000013000000FA0400003C00000006000000020000000000000000408FC000000080E35052C000000000CC03243F0000000000408FC000000000608352C0000000C0EFADD1BF0C00000013000000020500003C00000006000000020000000000006000
310
408F40000000C0004051C000000000E451E2BE0000006000408F4000000000E55052C000000000041AE3BE0C000000130000000A0500003C00000006000000020000000000000000408FC000000040FF3F51C0000000004E10243F0000006000408F40000000C0004051C000000000E451E2BE0C0000001300000012050000
310
3C00000006000000020000000000000000408FC000000080E35052C000000000CC03243F0000000000408FC000000040FF3F51C0000000004E10243F0C000000130000001A0500003C00000006000000020000000000006000408F40000000C0004051C000000000E451E2BE0000006000408F4000000080B87B4FC0000000
310
40C28B0DC00C00000013000000220500003C00000006000000020000000000000000408FC0000000E0B57B4FC0000000806D8B0DC00000006000408F4000000080B87B4FC000000040C28B0DC00C000000130000002A0500003C00000006000000020000000000000000408FC000000040FF3F51C0000000004E10243F0000
310
000000408FC0000000E0B57B4FC0000000806D8B0DC00C00000013000000320500003C00000006000000020000000000006000408F4000000080B87B4FC000000040C28B0DC00000006000408F4000000040D8EF4EC00000002081C510C00C000000130000003A0500003C00000006000000020000000000006000408F4000
310
000040D8EF4EC00000002081C510C00000000000408FC0000000A0D5EF4EC0000000A056C510C00C00000013000000420500003C00000006000000020000000000000000408FC0000000E0B57B4FC0000000806D8B0DC00000000000408FC0000000A0D5EF4EC0000000A056C510C00C000000130000004A0500003C000000
310
06000000020000000000006000408F4000000040A2D74DC0000000207C0412C00000006000408F4000000040D8EF4EC00000002081C510C00C00000013000000520500003C00000006000000020000000000000000408FC0000000A09FD74DC0000000A0510412C00000006000408F4000000040A2D74DC0000000207C0412
310
C00C000000130000005A0500003C00000006000000020000000000000000408FC0000000A09FD74DC0000000A0510412C00000000000408FC0000000A0D5EF4EC0000000A056C510C00C00000013000000620500003C00000006000000020000000000006000408F40000000804FD74AC0000000001D9815C0000000600040
310
8F4000000040A2D74DC0000000207C0412C00C000000130000006A0500003C00000006000000020000000000000000408FC0000000004DD74AC000000000F39715C00000006000408F40000000804FD74AC0000000001D9815C00C00000013000000720500003C00000006000000020000000000000000408FC0000000A09F
310
D74DC0000000A0510412C00000000000408FC0000000004DD74AC000000000F39715C00C000000130000007A0500003C00000006000000020000000000006000408F40000000604EF246C0000000C0FF441EC00000006000408F40000000804FD74AC0000000001D9815C00C00000013000000820500003C00000006000000
310
020000000000000000408FC0000000C04BF246C0000000C0D5441EC00000006000408F40000000604EF246C0000000C0FF441EC00C000000130000008A0500003C00000006000000020000000000000000408FC0000000004DD74AC000000000F39715C00000000000408FC0000000C04BF246C0000000C0D5441EC00C0000
310
0013000000920500003C00000006000000020000000000006000408F40000000804D4143C0000000207EBA25C00000006000408F40000000604EF246C0000000C0FF441EC00C000000130000009A0500003C00000006000000020000000000000000408FC0000000E04A4143C0000000E068BA25C00000006000408F400000
310
00804D4143C0000000207EBA25C00C00000013000000A20500003C00000006000000020000000000000000408FC0000000C04BF246C0000000C0D5441EC00000000000408FC0000000E04A4143C0000000E068BA25C00C00000013000000AA0500003C00000006000000020000000000006000408F40000000802CB23FC000
310
000080EC6E2EC00000006000408F40000000804D4143C0000000207EBA25C00C00000013000000B20500003C00000006000000020000000000000000408FC00000004027B23FC000000080D76E2EC00000006000408F40000000802CB23FC000000080EC6E2EC00C00000013000000BA0500003C0000000600000002000000
310
0000000000408FC0000000E04A4143C0000000E068BA25C00000000000408FC00000004027B23FC000000080D76E2EC00C00000013000000C20500003C00000006000000020000000000006000408F40000000A0B99939C0000000805B8734C00000006000408F40000000802CB23FC000000080EC6E2EC00C000000130000
310
00CA0500003C00000006000000020000000000000000408FC000000020B49939C000000020518734C00000006000408F40000000A0B99939C0000000805B8734C00C00000013000000D20500003C00000006000000020000000000000000408FC00000004027B23FC000000080D76E2EC00000000000408FC000000020B499
310
39C000000020518734C00C00000013000000DA0500003C00000006000000020000000000006000408F4000000060835B34C00000000012AF3AC00000006000408F40000000A0B99939C0000000805B8734C00C00000013000000E20500003C00000006000000020000000000000000408FC0000000E07D5B34C0000000A007
310
AF3AC00000006000408F4000000060835B34C00000000012AF3AC00C00000013000000EA0500003C00000006000000020000000000000000408FC000000020B49939C000000020518734C00000000000408FC0000000E07D5B34C0000000A007AF3AC00C00000013000000F20500003C000000060000000200000000000060
310
00408F40000000C00D1530C000000020FCC540C00000006000408F4000000060835B34C00000000012AF3AC00C00000013000000FA0500003C00000006000000020000000000000000408FC000000080081530C0000000C0F6C540C00000006000408F40000000C00D1530C000000020FCC540C00C00000013000000020600
310
003C00000006000000020000000000000000408FC0000000E07D5B34C0000000A007AF3AC00000000000408FC000000080081530C0000000C0F6C540C00C000000130000000A0600003C00000006000000020000000000006000408F40000000A0E6BC29C0000000A0AE7B44C00000006000408F40000000C00D1530C00000
310
0020FCC540C00C00000013000000120600003C00000006000000020000000000000000408FC000000060DCBC29C000000020A97B44C00000006000408F40000000A0E6BC29C0000000A0AE7B44C00C000000130000001A0600003C00000006000000020000000000000000408FC000000080081530C0000000C0F6C540C000
310
00000000408FC000000060DCBC29C000000020A97B44C00C00000013000000220600003C00000006000000020000000000006000408F400000002000BA25C000000000AE2348C00000006000408F40000000A0E6BC29C0000000A0AE7B44C00C000000130000002A0600003C00000006000000020000000000000000408FC0
310
000000A0F5B925C0000000A0A82348C00000006000408F400000002000BA25C000000000AE2348C00C00000013000000320600003C00000006000000020000000000000000408FC000000060DCBC29C000000020A97B44C00000000000408FC0000000A0F5B925C0000000A0A82348C00C000000130000003A0600003C0000
310
0006000000020000000000006000408F40000000C0DE8624C0000000608AE249C00000006000408F400000002000BA25C000000000AE2348C00C00000013000000420600003C00000006000000020000000000000000408FC000000040D48624C00000000085E249C00000006000408F40000000C0DE8624C0000000608AE2
310
49C00C000000130000004A0600003C00000006000000020000000000000000408FC0000000A0F5B925C0000000A0A82348C00000000000408FC000000040D48624C00000000085E249C00C00000013000000520600003C00000006000000020000000000006000408F40000000C0DE8624C0000000608AE249C00000006000
310
408F40000000C0753124C0000000E082434AC00C000000130000005A0600003C00000006000000020000000000000000408FC0000000C06B3124C0000000A07D434AC00000006000408F40000000C0753124C0000000E082434AC00C00000013000000620600003C00000006000000020000000000000000408FC000000040
310
D48624C00000000085E249C00000000000408FC0000000C06B3124C0000000A07D434AC00C000000130000006A0600003C00000006000000020000000000006000408F40000000C02CD422C0000000E07BF44AC00000006000408F40000000C0753124C0000000E082434AC00C00000013000000720600003C000000060000
310
00020000000000000000408FC0000000C022D422C00000006076F44AC00000006000408F40000000C02CD422C0000000E07BF44AC00C000000130000007A0600003C00000006000000020000000000000000408FC0000000C022D422C00000006076F44AC00000000000408FC0000000C06B3124C0000000A07D434AC00C00
310
000013000000820600003C00000006000000020000000000006000408F4000000040387C20C0000000A07AB74BC00000006000408F40000000C02CD422C0000000E07BF44AC00C000000130000008A0600003C00000006000000020000000000000000408FC0000000002E7C20C00000006075B74BC00000006000408F4000
310
000040387C20C0000000A07AB74BC00C00000013000000920600003C00000006000000020000000000000000408FC0000000C022D422C00000006076F44AC00000000000408FC0000000002E7C20C00000006075B74BC00C000000130000009A0600003C00000006000000020000000000006000408F4000000000D1F81DC0
310
0000006003624CC00000006000408F4000000040387C20C0000000A07AB74BC00C00000013000000A20600003C00000006000000020000000000000000408FC000000080BCF81DC000000020FE614CC00000006000408F4000000000D1F81DC00000006003624CC00C00000013000000AA0600003C00000006000000020000
310
000000000000408FC0000000002E7C20C00000006075B74BC00000000000408FC000000080BCF81DC000000020FE614CC00C00000013000000B20600003C00000006000000020000000000006000408F40000000609A621CC000000040E7EB4CC00000006000408F4000000000D1F81DC00000006003624CC00C0000001300
310
0000BA0600003C00000006000000020000000000006000408F40000000609A621CC000000040E7EB4CC00000000000408FC0000000E085621CC0000000E0E1EB4CC00C00000013000000C20600003C00000006000000020000000000000000408FC0000000E085621CC0000000E0E1EB4CC00000000000408FC000000080BC
310
F81DC000000020FE614CC00C00000013000000CA0600003C00000006000000020000000000006000408F4000000040FD4014C0000000A0984650C00000006000408F40000000609A621CC000000040E7EB4CC00C00000013000000D20600003C00000006000000020000000000000000408FC0000000C0E84014C000000020
310
964650C00000006000408F4000000040FD4014C0000000A0984650C00C00000013000000DA0600003C00000006000000020000000000000000408FC0000000C0E84014C000000020964650C00000000000408FC0000000E085621CC0000000E0E1EB4CC00C00000013000000E20600003C0000000600000002000000000000
310
6000408F4000000040FD4014C0000000A0984650C00000006000408F4000000040550313C000000060F77950C00C00000013000000EA0600003C00000006000000020000000000000000408FC000000040410313C0000000E0F47950C00000006000408F4000000040550313C000000060F77950C00C00000013000000F206
310
00003C00000006000000020000000000000000408FC0000000C0E84014C000000020964650C00000000000408FC000000040410313C0000000E0F47950C00C00000013000000FA0600003C00000006000000020000000000006000408F40000000802DA50AC0000000209FEB50C00000006000408F4000000040550313C000
310
000060F77950C00C00000013000000020700003C00000006000000020000000000000000408FC00000004003A50AC0000000C09CEB50C00000006000408F40000000802DA50AC0000000209FEB50C00C000000130000000A0700003C00000006000000020000000000000000408FC000000040410313C0000000E0F47950C0
310
0000000000408FC00000004003A50AC0000000C09CEB50C00C00000013000000120700003C00000006000000020000000000006000408F40000000E03CC8F8BF000000604E2551C00000006000408F40000000802DA50AC0000000209FEB50C00C000000130000001A0700003C00000006000000020000000000006000408F
310
40000000E03CC8F8BF000000604E2551C00000000000408FC0000000A0E2C7F8BF000000E04B2551C00C00000013000000220700003C00000006000000020000000000000000408FC0000000A0E2C7F8BF000000E04B2551C00000000000408FC00000004003A50AC0000000C09CEB50C00C000000130000002A0700003C00
310
000006000000020000000000006000408F400000000020E2AABE000000A0004051C00000006000408F40000000E03CC8F8BF000000604E2551C00C00000013000000320700003C00000006000000020000000000006000408F400000000020E2AABE000000A0004051C00000000000408FC0000000E0635F163F00000020FE
310
3F51C00C000000130000003A0700003C00000006000000020000000000000000408FC0000000E0635F163F00000020FE3F51C00000000000408FC0000000A0E2C7F8BF000000E04B2551C00C00000013000000420700003C00000006000000020000000000006000408F400000000040C09CBE000000E0E45052C000000060
310
00408F400000000020E2AABE000000A0004051C00C000000130000004A0700003C00000006000000020000000000006000408F400000000040C09CBE000000E0E45052C00000000000408FC0000000006878163F00000060E25052C00C00000013000000520700003C00000006000000020000000000000000408FC0000000
310
E0635F163F00000020FE3F51C00000000000408FC0000000006878163F00000060E25052C00C000000130000005A0700003C00000006000000020000000000006000408F400000000040C09CBE000000E0E45052C00000006000408F40000000600136D4BF000000A0568A52C00C00000013000000620700003C0000000600
310
0000020000000000006000408F40000000600136D4BF000000A0568A52C00000000000408FC000000020A834D4BF00000020548A52C00C000000130000006A0700003C00000006000000020000000000000000408FC0000000006878163F00000060E25052C00000000000408FC000000020A834D4BF00000020548A52C00C
310
00000013000000720700003C00000006000000020000000000006000408F40000000600136D4BF000000A0568A52C00000006000408F4000000040D196D7BF000000E05AA752C00C000000130000007A0700003C00000006000000020000000000006000408F4000000040D196D7BF000000E05AA752C00000000000408FC0
310
000000007895D7BF000000A058A752C00C00000013000000820700003C00000006000000020000000000000000408FC000000020A834D4BF00000020548A52C00000000000408FC0000000007895D7BF000000A058A752C00C000000130000008A0700003C00000006000000020000000000006000408F400000002061B0D1
310
BF000000A09FBC52C00000006000408F4000000040D196D7BF000000E05AA752C00C00000013000000920700003C00000006000000020000000000006000408F400000002061B0D1BF000000A09FBC52C00000000000408FC0000000E007AFD1BF000000209DBC52C00C000000130000009A0700003C000000060000000200
310
00000000000000408FC0000000E007AFD1BF000000209DBC52C00000000000408FC0000000007895D7BF000000A058A752C00C00000013000000A20700003C00000006000000020000000000006000408F40000000001838CE3E000000601CEF52C00000006000408F400000002061B0D1BF000000A09FBC52C00C00000013
310
000000AA0700003C00000006000000020000000000000000408FC0000000E0E886163F000000E019EF52C00000000000408FC0000000E007AFD1BF000000209DBC52C00C00000013000000B20700003C00000006000000020000000000000000408FC00000008054D550C0000000A0019628C00000000000408FC0000000A0
310
D5EF4EC0000000A056C510C00C00000013000000BA0700003C00000006000000020000000000000000408FC0000000A0C8B74FC000000020AD9F28C00000000000408FC0000000A09FD74DC0000000A0510412C00C00000013000000C20700003C00000006000000020000000000000000408FC0000000E0E886163F000000
310
E019EF52C00000000000408FC0000000E05D2518C000000060DED253C00C00000013000000CA0700003C00000006000000020000000000000000408FC000000000E6F118C000000060649053C00000000000408FC0000000E007AFD1BF000000209DBC52C00C00000013000000D20700003C00000006000000020000000000
310
000000408FC00000008088F11AC000000060213C53C00000000000408FC0000000007895D7BF000000A058A752C00C00000013000000DA0700003C00000006000000020000000000000000408FC000000000A6FB1DC0000000A040F052C00000000000408FC000000020A834D4BF00000020548A52C00C00000013000000E2
310
0700003C00000006000000020000000000000000408FC000000020F6FF27C000000020FE7F51C00000000000408FC000000040410313C0000000E0F47950C00C00000013000000EA0700003C00000006000000020000000000000000408FC0000000A08F992DC000000020FE7F51C00000000000408FC0000000C0E84014C0
310
00000020964650C00C00000013000000F20700003C00000006000000020000000000000000408FC000000000F6FF27C0000000E0EC4E52C00000000000408FC00000004003A50AC0000000C09CEB50C00C00000013000000FA0700003C00000006000000020000000000000000408FC0000000C0E1ED25C0000000E0CA5C52
310
C00000000000408FC0000000A0E2C7F8BF000000E04B2551C00C00000013000000020800003C00000006000000020000000000000000408FC0000000E0635F163F00000020FE3F51C00000000000408FC0000000000E5023C000000040247E52C00C000000130000000A0800003C0000000600000002000000000000000040
310
8FC0000000006878163F00000060E25052C00000000000408FC0000000C077F720C0000000C001B052C00C00000013000000120800003C00000006000000020000000000000000408FC0000000608F992DC0000000C0FBFF4DC00000000000408FC0000000E085621CC0000000E0E1EB4CC00C000000130000001A0800003C
310
00000006000000020000000000000000408FC000000060940B32C0000000A0C6174BC00000000000408FC000000040D48624C00000000085E249C00C00000013000000220800003C00000006000000020000000000000000408FC0000000C0759232C0000000C08C3C49C00000000000408FC0000000A0F5B925C0000000A0
310
A82348C00C000000130000002A0800003C00000006000000020000000000000000408FC000000060940B32C0000000A0C6174BC00000000000408FC0000000C06B3124C0000000A07D434AC00C00000013000000320800003C00000006000000020000000000000000408FC0000000609DD131C000000080E4F64CC0000000
310
0000408FC0000000C022D422C00000006076F44AC00C000000130000003A0800003C00000006000000020000000000000000408FC0000000C0C7CC31C0000000C0FBFF4DC00000000000408FC0000000002E7C20C00000006075B74BC00C00000013000000420800003C00000006000000020000000000000000408FC00000
310
00608F992DC0000000C0FBFF4DC00000000000408FC000000080BCF81DC000000020FE614CC00C000000130000004A0800003C00000006000000020000000000000000408FC0000000C0AAD84DC0000000409A1329C00000000000408FC0000000004DD74AC000000000F39715C00C00000013000000520800003C00000006
310
000000020000000000000000408FC0000000602F294AC00000000035C72BC00000000000408FC0000000C04BF246C0000000C0D5441EC00C000000130000005A0800003C00000006000000020000000000000000408FC0000000C070FD4BC0000000405D212AC00000000000408FC0000000004DD74AC000000000F39715C0
310
0C00000013000000620800003C00000006000000020000000000000000408FC0000000E0A9A146C0000000609C6730C00000000000408FC0000000E04A4143C0000000E068BA25C00C000000130000006A0800003C00000006000000020000000000000000408FC000000080EF5E48C0000000E064022EC00000000000408F
310
C0000000C04BF246C0000000C0D5441EC00C00000013000000720800003C00000006000000020000000000000000408FC0000000207E5943C0000000A0250534C00000000000408FC00000004027B23FC000000080D76E2EC00C000000130000007A0800003C00000006000000020000000000000000408FC00000002041F4
310
44C000000040851432C00000000000408FC0000000E04A4143C0000000E068BA25C00C00000013000000820800003C00000006000000020000000000000000408FC0000000E06C6640C00000002042A438C00000000000408FC000000020B49939C000000020518734C00C000000130000008A0800003C0000000600000002
310
0000000000000000408FC0000000600AD441C0000000A0453636C00000000000408FC00000004027B23FC000000080D76E2EC00C00000013000000920800003C00000006000000020000000000000000408FC0000000A00CB83BC0000000E04D263EC00000000000408FC0000000E07D5B34C0000000A007AF3AC00C000000
310
130000009A0800003C00000006000000020000000000000000408FC00000000009263EC0000000C0124B3BC00000000000408FC000000020B49939C000000020518734C00C00000013000000A20800003C00000006000000020000000000000000408FC0000000204C9637C0000000405D3342C00000000000408FC0000000
310
80081530C0000000C0F6C540C00C00000013000000AA0800003C00000006000000020000000000000000408FC000000080EC8639C0000000609A9840C00000000000408FC0000000E07D5B34C0000000A007AF3AC00C00000013000000B20800003C00000006000000020000000000000000408FC000000080F98234C00000
310
00A00B9E45C00000000000408FC000000060DCBC29C000000020A97B44C00C00000013000000BA0800003C00000006000000020000000000000000408FC00000004063E935C000000000C6E043C00000000000408FC000000080081530C0000000C0F6C540C00C00000013000000C20800003C000000060000000200000000
310
00000000408FC000000080616533C0000000404B6847C00000000000408FC000000060DCBC29C000000020A97B44C00C00000013000000CA0800003C00000006000000020000000000000000408FC00000008054D550C000000020B9CC24C00000000000408FC0000000E0B57B4FC0000000806D8B0DC00C00000013000000
310
D20800003C00000006000000020000000000000000408FC000000040281D51C0000000E0F5AF24C00000000000408FC0000000E0B57B4FC0000000806D8B0DC00C00000013000000DA0800003C00000006000000020000000000000000408FC000000040FFFF52C00000000083AA12C00000000000408FC0000000001BEF52
310
C0000000808BFC233F0C00000013000000E20800003C00000006000000020000000000000000408FC000000080846651C0000000E09D6E24C00000000000408FC0000000E0B57B4FC0000000806D8B0DC00C00000013000000EA0800003C00000006000000020000000000000000408FC000000080A7AF51C0000000E06176
310
23C00000000000408FC0000000E0B57B4FC0000000806D8B0DC00C00000013000000F20800003C00000006000000020000000000000000408FC000000040FFFF52C00000000083AA12C00000000000408FC0000000409EBC52C000000020F0ADD1BF0C00000013000000FA0800003C00000006000000020000000000000000
310
408FC000000040FFFF52C00000000083AA1AC00000000000408FC000000040FF9F52C000000000504BD7BF0C00000013000000020900003C00000006000000020000000000000000408FC000000000D8C652C00000008084CD1AC00000000000408FC000000040FF9F52C000000000504BD7BF0C000000130000000A090000
310
3C00000006000000020000000000000000408FC0000000C08B8052C00000008088B71BC00000000000408FC000000000608352C0000000C0EFADD1BF0C00000013000000120900003C00000006000000020000000000000000408FC0000000C0514952C0000000603B681DC00000000000408FC000000080E35052C0000000
310
00CC03243F0C000000130000001A0900003C00000006000000020000000000000000408FC000000000981452C0000000C0852120C00000000000408FC000000040FF3F51C0000000004E10243F0C00000013000000220900003C00000006000000020000000000000000408FC00000004022E251C0000000407DF421C00000
310
000000408FC000000040FF3F51C0000000004E10243F0C000000130000002A0900003C00000006000000020000000000000000408FC000000080A7AF51C0000000E0617623C00000000000408FC000000040FF3F51C0000000004E10243F0C00000013000000320900003C00000006000000020000000000006000408F4000
310
000040CBB74FC000000060C29F28C00000006000408F4000000040A2D74DC0000000207C0412C00C000000130000003A0900003C00000006000000020000000000006000408F400000000056D550C0000000A0169628C00000006000408F4000000040D8EF4EC00000002081C510C00C00000013000000420900003C000000
310
06000000020000000000006000408F40000000001838CE3E000000601CEF52C00000006000408F4000000060722518C0000000E0E0D253C00C000000130000004A0900003C00000006000000020000000000006000408F4000000080FAF118C0000000E0669053C00000006000408F400000002061B0D1BF000000A09FBC52
310
C00C00000013000000520900003C00000006000000020000000000006000408F40000000809DF11AC0000000E0233C53C00000006000408F4000000040D196D7BF000000E05AA752C00C000000130000005A0900003C00000006000000020000000000006000408F4000000080BAFB1DC00000002043F052C0000000600040
310
8F40000000600136D4BF000000A0568A52C00C00000013000000620900003C00000006000000020000000000006000408F40000000209A992DC0000000A0008051C00000006000408F4000000040FD4014C0000000A0984650C00C000000130000006A0900003C00000006000000020000000000006000408F400000006000
310
0028C0000000A0008051C00000006000408F4000000040550313C000000060F77950C00C00000013000000720900003C00000006000000020000000000006000408F4000000040000028C000000060EF4E52C00000006000408F40000000802DA50AC0000000209FEB50C00C000000130000007A0900003C00000006000000
310
020000000000006000408F4000000040ECED25C000000060CD5C52C00000006000408F40000000E03CC8F8BF000000604E2551C00C00000013000000820900003C00000006000000020000000000006000408F400000000020E2AABE000000A0004051C00000006000408F4000000080185023C0000000E0267E52C00C0000
310
00130000008A0900003C00000006000000020000000000006000408F400000000040C09CBE000000E0E45052C00000006000408F400000004082F720C00000002004B052C00C00000013000000920900003C00000006000000020000000000006000408F40000000A099992DC00000002001004EC00000006000408F400000
310
00609A621CC000000040E7EB4CC00C000000130000009A0900003C00000006000000020000000000006000408F40000000207B9232C000000020923C49C00000006000408F400000002000BA25C000000000AE2348C00C00000013000000A20900003C00000006000000020000000000006000408F40000000A0990B32C000
310
000000CC174BC00000006000408F40000000C0DE8624C0000000608AE249C00C00000013000000AA0900003C00000006000000020000000000006000408F40000000A0990B32C000000000CC174BC00000006000408F40000000C0753124C0000000E082434AC00C00000013000000B20900003C0000000600000002000000
310
0000006000408F40000000A0A2D131C0000000E0E9F64CC00000006000408F40000000C02CD422C0000000E07BF44AC00C00000013000000BA0900003C00000006000000020000000000006000408F4000000000CDCC31C00000002001004EC00000006000408F4000000040387C20C0000000A07AB74BC00C000000130000
310
00C20900003C00000006000000020000000000006000408F40000000A099992DC00000002001004EC00000006000408F4000000000D1F81DC00000006003624CC00C00000013000000CA0900003C00000006000000020000000000006000408F4000000060ADD84DC000000080AF1329C00000006000408F40000000804FD7
310
4AC0000000001D9815C00C00000013000000D20900003C00000006000000020000000000006000408F400000006073FD4BC00000008072212AC00000006000408F40000000804FD74AC0000000001D9815C00C00000013000000DA0900003C00000006000000020000000000006000408F400000000032294AC0000000004A
310
C72BC00000006000408F40000000604EF246C0000000C0FF441EC00C00000013000000E20900003C00000006000000020000000000006000408F4000000020F25E48C0000000E079022EC00000006000408F40000000604EF246C0000000C0FF441EC00C00000013000000EA0900003C000000060000000200000000000060
310
00408F4000000080ACA146C0000000A0A66730C00000006000408F40000000804D4143C0000000207EBA25C00C00000013000000F20900003C00000006000000020000000000006000408F40000000C043F444C0000000A08F1432C00000006000408F40000000804D4143C0000000207EBA25C00C00000013000000FA0900
310
003C00000006000000020000000000006000408F40000000C0805943C000000020300534C00000006000408F40000000802CB23FC000000080EC6E2EC00C00000013000000020A00003C00000006000000020000000000006000408F40000000E00CD441C0000000E04F3636C00000006000408F40000000802CB23FC00000
310
0080EC6E2EC00C000000130000000A0A00003C00000006000000020000000000006000408F40000000406F6640C0000000804CA438C00000006000408F40000000A0B99939C0000000805B8734C00C00000013000000120A00003C00000006000000020000000000006000408F40000000800E263EC0000000001D4B3BC000
310
00006000408F40000000A0B99939C0000000805B8734C00C000000130000001A0A00003C00000006000000020000000000006000408F400000000012B83BC00000002058263EC00000006000408F4000000060835B34C00000000012AF3AC00C00000013000000220A00003C00000006000000020000000000006000408F40
310
000000C0F18639C0000000E09F9840C00000006000408F4000000060835B34C00000000012AF3AC00C000000130000002A0A00003C00000006000000020000000000006000408F4000000080519637C0000000E0623342C00000006000408F40000000C00D1530C000000020FCC540C00C00000013000000320A00003C0000
310
0006000000020000000000006000408F400000008068E935C0000000A0CBE043C00000006000408F40000000C00D1530C000000020FCC540C00C000000130000003A0A00003C00000006000000020000000000006000408F40000000E0FE8234C000000000119E45C00000006000408F40000000A0E6BC29C0000000A0AE7B
310
44C00C00000013000000420A00003C00000006000000020000000000006000408F40000000E0666533C0000000A0506847C00000006000408F40000000A0E6BC29C0000000A0AE7B44C00C000000130000004A0A00003C00000006000000020000000000006000408F400000000056D550C000000020CECC24C00000006000
310
408F4000000080B87B4FC000000040C28B0DC00C00000013000000520A00003C00000006000000020000000000006000408F40000000C0291D51C0000000200BB024C00000006000408F4000000080B87B4FC000000040C28B0DC00C000000130000005A0A00003C00000006000000020000000000006000408F40000000C0
310
000053C000000000ADAA12C00000006000408F40000000801CEF52C0000000000A8EE3BE0C00000013000000620A00003C00000006000000020000000000006000408F4000000000866651C0000000E0B26E24C00000006000408F4000000080B87B4FC000000040C28B0DC00C000000130000006A0A00003C000000060000
310
00020000000000006000408F4000000000A9AF51C0000000E0767623C00000006000408F4000000080B87B4FC000000040C28B0DC00C00000013000000720A00003C00000006000000020000000000006000408F40000000C0000053C000000000ADAA12C00000006000408F40000000C09FBC52C0000000E096B0D1BF0C00
310
0000130000007A0A00003C00000006000000020000000000006000408F40000000C0000053C000000000ADAA1AC00000006000408F40000000C000A052C0000000C0F64DD7BF0C00000013000000820A00003C00000006000000020000000000006000408F4000000040D9C652C000000080AECD1AC00000006000408F4000
310
0000C000A052C0000000C0F64DD7BF0C000000130000008A0A00003C00000006000000020000000000006000408F40000000008D8052C000000080B2B71BC00000006000408F4000000080618352C00000008096B0D1BF0C00000013000000920A00003C00000006000000020000000000006000408F4000000040534952C0
310
0000006065681DC00000006000408F4000000000E55052C000000000041AE3BE0C000000130000009A0A00003C00000006000000020000000000006000408F4000000080991452C0000000C09A2120C00000006000408F40000000C0004051C000000000E451E2BE0C00000013000000A20A00003C00000006000000020000
310
000000006000408F40000000C023E251C00000004092F421C00000006000408F40000000C0004051C000000000E451E2BE0C00000013000000AA0A00003C00000006000000020000000000006000408F4000000000A9AF51C0000000E0767623C00000006000408F40000000C0004051C000000000E451E2BE
100
AcDbSubDMesh
 71
     2
 72
     0
 91
        0
 92
      164
 10
-1000.0
 20
-63.43581008911133
 30
-12.31186771392822
 10
-1000.0
 20
-67.33328247070312
 30
-12.29298114776611
 10
1000.000183105469
 20
-67.3333740234375
 30
-12.29314136505127
 10
-1000.0
 20
-67.33328247070312
 30
-10.3998498916626
 10
1000.000183105469
 20
-67.3333740234375
 30
-10.40001010894775
 10
-1000.0
 20
-68.45558166503906
 30
-10.34367275238037
 10
-1000.0
 20
-69.60183715820313
 30
-10.21604824066162
 10
-1000.0
 20
-70.74459838867188
 30
-9.731215476989746
 10
-1000.0
 20
-71.53334045410156
 30
-8.977518081665039
 10
-1000.0
 20
-72.32177734375
 30
-8.065473556518554
 10
-1000.0
 20
-73.14561462402344
 30
-7.351788997650146
 10
-1000.0
 20
-74.00852966308594
 30
-6.929231643676757
 10
-1000.0
 20
-75.10693359375
 30
-6.700700759887695
 10
-1000.0
 20
-75.99995422363281
 30
-6.666515350341796
 10
1000.000183105469
 20
-76.00004577636719
 30
-6.666675567626953
 10
1000.000183105469
 20
-75.10700988769531
 30
-6.700860977172851
 10
1000.000183105469
 20
-74.00860595703125
 30
-6.929391860961914
 10
1000.000183105469
 20
-73.14570617675781
 30
-7.351949214935302
 10
1000.000183105469
 20
-72.32186889648438
 30
-8.06563377380371
 10
1000.000183105469
 20
-71.53343200683593
 30
-8.977678298950195
 10
1000.000183105469
 20
-70.74468994140625
 30
-9.731375694274902
 10
1000.000183105469
 20
-69.6019287109375
 30
-10.21620845794678
 10
1000.000183105469
 20
-68.45567321777344
 30
-10.34383487701416
 10
-1000.0
 20
-75.99995422363281
 30
-4.666515350341796
 10
1000.000183105469
 20
-76.00004577636719
 30
-4.666675567626953
 10
-1000.0
 20
-79.99995422363281
 30
-4.666515827178955
 10
1000.000183105469
 20
-80.00004577636719
 30
-4.666677951812744
 10
-1000.0
 20
-79.99995422363281
 30
0.0001521121594124
 10
1000.000183105469
 20
-80.00004577636719
 30
-0.000009697250789
 10
1000.000183105469
 20
-75.73611450195312
 30
-0.0000093244743766
 10
-1000.0
 20
-75.73602294921875
 30
0.0001524849212728
 10
-1000.0
 20
-73.26388549804687
 30
0.0001527010463178
 10
-1000.0
 20
-68.99995422363281
 30
0.0001530738081783
 10
1000.000183105469
 20
-69.00004577636718
 30
-0.0000087356020231
 10
1000.000183105469
 20
-73.26397705078125
 30
-0.0000091083638836
 10
-1000.0
 20
0.0000859336505528
 30
-75.73595428466797
 10
-1000.0
 20
0.0000863064124133
 30
-79.99988555908203
 10
1000.000183105469
 20
0.0000039751612348
 30
-80.00003814697265
 10
1000.000183105469
 20
0.0000036023993744
 30
-75.73610687255859
 10
1000.000183105469
 20
-0.0000004284229362
 30
-73.26396942138671
 10
1000.000183105469
 20
-0.0000008011847967
 30
-69.00003814697265
 10
-1000.0
 20
0.0000853447636473
 30
-68.99988555908203
 10
-1000.0
 20
0.0000857175327837
 30
-73.26381683349609
 10
-1000.0
 20
-5.999919414520263
 30
-79.99988555908203
 10
1000.000183105469
 20
-5.999997615814208
 30
-80.00003814697265
 10
-1000.0
 20
-6.03649091720581
 30
-79.2948226928711
 10
-1000.0
 20
-6.236228942871093
 30
-78.25612640380859
 10
-1000.0
 20
-6.735872268676757
 30
-76.93953704833984
 10
-1000.0
 20
-7.495750427246093
 30
-75.75394439697266
 10
-1000.0
 20
-8.483335494995117
 30
-74.75010681152344
 10
-1000.0
 20
-9.656356811523437
 30
-73.97096252441406
 10
-1000.0
 20
-10.96461296081543
 30
-73.44988250732422
 10
-1000.0
 20
-11.99992370605468
 30
-73.23320770263672
 10
1000.000183105469
 20
-12.00000190734863
 30
-73.23336029052734
 10
1000.000183105469
 20
-10.96469306945801
 30
-73.45003509521484
 10
1000.000183105469
 20
-9.656436920166015
 30
-73.97112274169922
 10
1000.000183105469
 20
-8.483415603637695
 30
-74.75025177001953
 10
1000.000183105469
 20
-7.495828628540039
 30
-75.75409698486328
 10
1000.000183105469
 20
-6.735952377319335
 30
-76.93968963623047
 10
1000.000183105469
 20
-6.236307144165039
 30
-78.25627899169922
 10
1000.000183105469
 20
-6.036569118499755
 30
-79.29497528076172
 10
-1000.0
 20
-11.999924659729
 30
-69.99988555908203
 10
1000.000183105469
 20
-12.00000286102295
 30
-70.00003814697265
 10
-1000.0
 20
-14.79992389678955
 30
-69.99988555908203
 10
1000.000183105469
 20
-14.80000400543213
 30
-70.00003814697265
 10
-1000.0
 20
-14.79992198944092
 30
-59.99987030029297
 10
1000.000183105469
 20
-14.80000019073486
 30
-60.00003433227539
 10
-1000.0
 20
-17.79992294311523
 30
-59.99987030029297
 10
1000.000183105469
 20
-17.80000305175781
 30
-60.00003433227539
 10
1000.000183105469
 20
-17.81888771057129
 30
-57.92901229858398
 10
-1000.0
 20
-17.81880760192871
 30
-57.92884826660156
 10
-1000.0
 20
-18.04523277282715
 30
-54.18574905395508
 10
-1000.0
 20
-18.57210922241211
 30
-50.47304534912109
 10
-1000.0
 20
-19.39601898193359
 30
-46.8147964477539
 10
-1000.0
 20
-20.51161956787109
 30
-43.2347297668457
 10
-1000.0
 20
-21.91167068481445
 30
-39.75604248046875
 10
-1000.0
 20
-23.58709907531738
 30
-36.40128326416016
 10
-1000.0
 20
-25.52704620361328
 30
-33.19221115112305
 10
-1000.0
 20
-27.71894264221192
 30
-30.14962577819825
 10
-1000.0
 20
-30.14857482910156
 30
-27.29325485229492
 10
-1000.0
 20
-32.80019760131836
 30
-24.64163398742676
 10
-1000.0
 20
-35.65656661987305
 30
-22.21199989318848
 10
-1000.0
 20
-38.69916152954102
 30
-20.02010536193848
 10
-1000.0
 20
-41.90823745727539
 30
-18.08015823364257
 10
-1000.0
 20
-45.26299667358398
 30
-16.40472984313965
 10
-1000.0
 20
-48.74168395996093
 30
-15.00467586517334
 10
-1000.0
 20
-52.32175827026367
 30
-13.88907623291016
 10
-1000.0
 20
-55.9800033569336
 30
-13.06516456604004
 10
-1000.0
 20
-59.69271087646484
 30
-12.53828620910644
 10
1000.000183105469
 20
-63.4358901977539
 30
-12.31202983856201
 10
1000.000183105469
 20
-59.69279098510742
 30
-12.53844833374023
 10
1000.000183105469
 20
-55.98008346557617
 30
-13.06532669067383
 10
1000.000183105469
 20
-52.32183837890625
 30
-13.88923645019531
 10
1000.000183105469
 20
-48.74176406860351
 30
-15.00483608245849
 10
1000.000183105469
 20
-45.26307678222656
 30
-16.40488624572754
 10
1000.000183105469
 20
-41.90831756591797
 30
-18.0803165435791
 10
1000.000183105469
 20
-38.69924163818359
 30
-20.02026557922363
 10
1000.000183105469
 20
-35.65664291381836
 30
-22.21215629577637
 10
1000.000183105469
 20
-32.80027008056641
 30
-24.64179229736328
 10
1000.000183105469
 20
-30.14865875244141
 30
-27.29341125488281
 10
1000.000183105469
 20
-27.71902465820313
 30
-30.14978218078613
 10
1000.000183105469
 20
-25.52712631225586
 30
-33.19237899780274
 10
1000.000183105469
 20
-23.58718109130859
 30
-36.40145492553711
 10
1000.000183105469
 20
-21.91175079345703
 30
-39.75621414184571
 10
1000.000183105469
 20
-20.51170158386231
 30
-43.23489379882812
 10
1000.000183105469
 20
-19.3961009979248
 30
-46.81496047973633
 10
1000.000183105469
 20
-18.57219123840332
 30
-50.47320938110352
 10
1000.000183105469
 20
-18.04531288146973
 30
-54.1859130859375
 10
-1000.0
 20
-62.96648788452149
 30
-3.693079948425292
 10
1000.000183105469
 20
-62.96656799316406
 30
-3.693241596221923
 10
1000.000183105469
 20
-1.548886179924011
 30
-68.58290863037109
 10
-1000.0
 20
-1.548800110816955
 30
-68.58275604248047
 10
-1000.0
 20
-5.063387870788574
 30
-65.10291290283203
 10
1000.000183105469
 20
-5.063466072082519
 30
-65.10306549072265
 10
1000.000183105469
 20
-7.09629201889038
 30
-57.84299468994141
 10
-1000.0
 20
-7.096213817596435
 30
-57.84283065795898
 10
-1000.0
 20
-9.41432762145996
 30
-53.90986251831055
 10
-1000.0
 20
-8.242538452148437
 30
-55.43326950073242
 10
-1000.0
 20
-7.49290657043457
 30
-56.76556777954101
 10
1000.000183105469
 20
-7.492984771728515
 30
-56.76572799682617
 10
1000.000183105469
 20
-8.242616653442382
 30
-55.43342971801758
 10
-1000.0
 20
-59.6845588684082
 30
-4.504217624664306
 10
-1000.0
 20
-53.68203735351563
 30
-5.398387908935546
 10
-1000.0
 20
-45.89293670654297
 30
-7.567221641540527
 10
-1000.0
 20
-38.51009750366211
 30
-10.86408138275146
 10
-1000.0
 20
-31.6959114074707
 30
-15.21648788452148
 10
-1000.0
 20
-25.60040473937988
 30
-20.5285816192627
 10
-1000.0
 20
-20.35738945007324
 30
-26.6837100982666
 10
-1000.0
 20
-16.08216094970703
 30
-33.54659271240234
 10
-1000.0
 20
-12.86886882781982
 30
-40.96609878540038
 10
-1000.0
 20
-10.86320209503174
 30
-48.27858352661133
 10
-1000.0
 20
-10.26333808898926
 30
-51.76968383789063
 10
1000.000183105469
 20
-10.26341819763183
 30
-51.76984786987304
 10
1000.000183105469
 20
-10.86328220367431
 30
-48.27874755859375
 10
1000.000183105469
 20
-12.86894702911377
 30
-40.96626663208008
 10
1000.000183105469
 20
-16.08224105834961
 30
-33.54675674438477
 10
1000.000183105469
 20
-20.35747337341309
 30
-26.68386840820313
 10
1000.000183105469
 20
-25.60048866271973
 30
-20.52873992919922
 10
1000.000183105469
 20
-31.69599151611328
 30
-15.21664810180664
 10
1000.000183105469
 20
-38.51017761230469
 30
-10.86424350738525
 10
1000.000183105469
 20
-45.89301681518555
 30
-7.567381858825683
 10
1000.000183105469
 20
-53.68211364746094
 30
-5.398548126220703
 10
1000.000183105469
 20
-59.68463897705078
 30
-4.504379749298095
 10
1000.000183105469
 20
-0.2763903439044952
 30
-74.9472427368164
 10
-1000.0
 20
-0.2763080298900604
 30
-74.94709014892578
 10
1000.000183105469
 20
-0.3157962262630463
 30
-74.16153717041016
 10
1000.000183105469
 20
-74.05282592773438
 30
-0.2764030694961548
 10
-1000.0
 20
-74.052734375
 30
-0.2762412428855896
 10
-1000.0
 20
-74.94715881347656
 30
-0.2762413322925568
 10
1000.000183105469
 20
-74.94725036621094
 30
-0.2764031589031219
 10
-1000.0
 20
-4.753178596496582
 30
-65.90557098388671
 10
-1000.0
 20
-3.330572605133056
 30
-67.68144226074219
 10
1000.000183105469
 20
-3.330653190612792
 30
-67.68158721923828
 10
1000.000183105469
 20
-4.753254890441894
 30
-65.90572357177734
 10
-1000.0
 20
-10.09652519226074
 30
-52.52727127075195
 10
1000.000183105469
 20
-9.414403915405273
 30
-53.91003036499023
 10
1000.000183105469
 20
-10.09660148620605
 30
-52.52743148803711
 10
1000.000183105469
 20
-61.87378692626953
 30
-4.192875385284423
 10
-1000.0
 20
-61.87370681762695
 30
-4.192713260650634
 10
1000.000183105469
 20
-0.368580162525177
 30
-74.61492156982422
 10
-1000.0
 20
-0.3157139122486114
 30
-74.16138458251953
 10
-1000.0
 20
-0.3684978485107422
 30
-74.61478424072265
 10
1000.000183105469
 20
-74.50004577636718
 30
-0.3641335368156433
 10
-1000.0
 20
-74.49995422363281
 30
-0.3639717102050781
 93
      864
 90
        4
 90
       38
 90
       37
 90
       36
 90
       35
 90
        4
 90
       37
 90
       44
 90
       43
 90
       36
 90
        4
 90
       44
 90
       60
 90
       45
 90
       43
 90
        4
 90
       60
 90
       59
 90
       46
 90
       45
 90
        4
 90
       59
 90
       58
 90
       47
 90
       46
 90
        4
 90
       58
 90
       57
 90
       48
 90
       47
 90
        4
 90
       57
 90
       56
 90
       49
 90
       48
 90
        4
 90
       56
 90
       55
 90
       50
 90
       49
 90
        4
 90
       55
 90
       54
 90
       51
 90
       50
 90
        4
 90
       54
 90
       53
 90
       52
 90
       51
 90
        4
 90
       53
 90
       62
 90
       61
 90
       52
 90
        4
 90
       62
 90
       64
 90
       63
 90
       61
 90
        4
 90
       64
 90
       66
 90
       65
 90
       63
 90
        4
 90
       66
 90
       68
 90
       67
 90
       65
 90
        4
 90
       68
 90
       69
 90
       70
 90
       67
 90
        4
 90
       69
 90
      107
 90
       71
 90
       70
 90
        4
 90
      107
 90
      106
 90
       72
 90
       71
 90
        4
 90
      106
 90
      105
 90
       73
 90
       72
 90
        4
 90
      105
 90
      104
 90
       74
 90
       73
 90
        4
 90
      104
 90
      103
 90
       75
 90
       74
 90
        4
 90
      103
 90
      102
 90
       76
 90
       75
 90
        4
 90
      102
 90
      101
 90
       77
 90
       76
 90
        4
 90
      101
 90
      100
 90
       78
 90
       77
 90
        4
 90
      100
 90
       99
 90
       79
 90
       78
 90
        4
 90
       99
 90
       98
 90
       80
 90
       79
 90
        4
 90
       98
 90
       97
 90
       81
 90
       80
 90
        4
 90
       97
 90
       96
 90
       82
 90
       81
 90
        4
 90
       96
 90
       95
 90
       83
 90
       82
 90
        4
 90
       95
 90
       94
 90
       84
 90
       83
 90
        4
 90
       94
 90
       93
 90
       85
 90
       84
 90
        4
 90
       93
 90
       92
 90
       86
 90
       85
 90
        4
 90
       92
 90
       91
 90
       87
 90
       86
 90
        4
 90
       91
 90
       90
 90
       88
 90
       87
 90
        4
 90
       90
 90
       89
 90
        0
 90
       88
 90
        4
 90
       89
 90
        2
 90
        1
 90
        0
 90
        4
 90
        2
 90
        4
 90
        3
 90
        1
 90
        4
 90
        4
 90
       22
 90
        5
 90
        3
 90
        4
 90
       22
 90
       21
 90
        6
 90
        5
 90
        4
 90
       21
 90
       20
 90
        7
 90
        6
 90
        4
 90
       20
 90
       19
 90
        8
 90
        7
 90
        4
 90
       19
 90
       18
 90
        9
 90
        8
 90
        4
 90
       18
 90
       17
 90
       10
 90
        9
 90
        4
 90
       17
 90
       16
 90
       11
 90
       10
 90
        4
 90
       16
 90
       15
 90
       12
 90
       11
 90
        4
 90
       15
 90
       14
 90
       13
 90
       12
 90
        4
 90
       14
 90
       24
 90
       23
 90
       13
 90
        4
 90
       24
 90
       26
 90
       25
 90
       23
 90
        4
 90
       26
 90
       28
 90
       27
 90
       25
 90
        4
 90
       28
 90
       29
 90
       30
 90
       27
 90
        4
 90
       29
 90
      149
 90
      148
 90
       30
 90
        4
 90
      149
 90
      162
 90
      163
 90
      148
 90
        4
 90
      162
 90
      146
 90
      147
 90
      163
 90
        4
 90
      146
 90
       34
 90
       31
 90
      147
 90
        4
 90
       34
 90
       33
 90
       32
 90
       31
 90
        4
 90
       33
 90
      109
 90
      108
 90
       32
 90
        4
 90
      109
 90
      157
 90
      158
 90
      108
 90
        4
 90
      157
 90
      142
 90
      121
 90
      158
 90
        4
 90
      142
 90
      141
 90
      122
 90
      121
 90
        4
 90
      141
 90
      140
 90
      123
 90
      122
 90
        4
 90
      140
 90
      139
 90
      124
 90
      123
 90
        4
 90
      139
 90
      138
 90
      125
 90
      124
 90
        4
 90
      138
 90
      137
 90
      126
 90
      125
 90
        4
 90
      137
 90
      136
 90
      127
 90
      126
 90
        4
 90
      136
 90
      135
 90
      128
 90
      127
 90
        4
 90
      135
 90
      134
 90
      129
 90
      128
 90
        4
 90
      134
 90
      133
 90
      130
 90
      129
 90
        4
 90
      133
 90
      132
 90
      131
 90
      130
 90
        4
 90
      132
 90
      156
 90
      154
 90
      131
 90
        4
 90
      156
 90
      155
 90
      116
 90
      154
 90
        4
 90
      155
 90
      120
 90
      117
 90
      116
 90
        4
 90
      120
 90
      119
 90
      118
 90
      117
 90
        4
 90
      119
 90
      114
 90
      115
 90
      118
 90
        4
 90
      114
 90
      113
 90
      112
 90
      115
 90
        4
 90
      113
 90
      153
 90
      150
 90
      112
 90
        4
 90
      153
 90
      152
 90
      151
 90
      150
 90
        4
 90
      152
 90
      110
 90
      111
 90
      151
 90
        4
 90
      110
 90
       40
 90
       41
 90
      111
 90
        4
 90
       40
 90
       39
 90
       42
 90
       41
 90
        4
 90
       39
 90
      145
 90
      160
 90
       42
 90
        4
 90
      145
 90
      159
 90
      161
 90
      160
 90
        4
 90
      159
 90
      143
 90
      144
 90
      161
 90
        4
 90
      143
 90
       38
 90
       35
 90
      144
 90
        4
 90
        1
 90
      158
 90
      121
 90
        0
 90
        4
 90
       35
 90
       36
 90
       43
 90
       45
 90
        4
 90
      144
 90
       35
 90
       45
 90
       46
 90
        4
 90
      161
 90
      144
 90
       46
 90
       47
 90
        4
 90
      160
 90
      161
 90
       47
 90
       48
 90
        4
 90
      112
 90
      150
 90
       61
 90
       63
 90
        4
 90
      150
 90
      151
 90
       52
 90
       61
 90
        4
 90
      151
 90
      111
 90
       51
 90
       52
 90
        4
 90
      111
 90
       41
 90
       50
 90
       51
 90
        4
 90
       41
 90
       42
 90
       49
 90
       50
 90
        4
 90
       42
 90
      160
 90
       48
 90
       49
 90
        4
 90
      115
 90
      112
 90
       63
 90
       65
 90
        4
 90
      130
 90
      131
 90
       71
 90
       72
 90
        3
 90
      131
 90
      154
 90
       71
 90
        4
 90
      154
 90
      116
 90
       70
 90
       71
 90
        4
 90
      116
 90
      117
 90
       67
 90
       70
 90
        4
 90
      117
 90
      118
 90
       65
 90
       67
 90
        3
 90
      118
 90
      115
 90
       65
 90
        4
 90
      121
 90
      122
 90
       88
 90
        0
 90
        4
 90
      122
 90
      123
 90
       86
 90
       87
 90
        3
 90
      122
 90
       87
 90
       88
 90
        4
 90
      123
 90
      124
 90
       84
 90
       85
 90
        3
 90
      123
 90
       85
 90
       86
 90
        4
 90
      124
 90
      125
 90
       82
 90
       83
 90
        3
 90
      124
 90
       83
 90
       84
 90
        4
 90
      125
 90
      126
 90
       80
 90
       81
 90
        3
 90
      125
 90
       81
 90
       82
 90
        4
 90
      126
 90
      127
 90
       78
 90
       79
 90
        3
 90
      126
 90
       79
 90
       80
 90
        4
 90
      127
 90
      128
 90
       76
 90
       77
 90
        3
 90
      127
 90
       77
 90
       78
 90
        4
 90
      128
 90
      129
 90
       74
 90
       75
 90
        3
 90
      128
 90
       75
 90
       76
 90
        4
 90
      129
 90
      130
 90
       72
 90
       73
 90
        3
 90
      129
 90
       73
 90
       74
 90
        4
 90
        1
 90
        3
 90
      108
 90
      158
 90
        3
 90
        3
 90
        5
 90
      108
 90
        4
 90
       23
 90
       25
 90
       27
 90
       30
 90
        3
 90
        5
 90
        6
 90
      108
 90
        3
 90
        6
 90
        7
 90
      108
 90
        3
 90
       23
 90
       30
 90
      148
 90
        4
 90
       13
 90
       23
 90
      148
 90
      163
 90
        3
 90
       12
 90
       13
 90
      163
 90
        4
 90
       11
 90
       12
 90
      163
 90
      147
 90
        4
 90
       10
 90
       11
 90
      147
 90
       31
 90
        4
 90
        9
 90
       10
 90
       31
 90
       32
 90
        3
 90
        8
 90
        9
 90
       32
 90
        3
 90
        7
 90
        8
 90
       32
 90
        3
 90
        7
 90
       32
 90
      108
 90
        4
 90
        2
 90
       89
 90
      142
 90
      157
 90
        4
 90
       38
 90
       60
 90
       44
 90
       37
 90
        4
 90
      143
 90
       59
 90
       60
 90
       38
 90
        4
 90
      159
 90
       58
 90
       59
 90
      143
 90
        4
 90
      145
 90
       57
 90
       58
 90
      159
 90
        4
 90
      113
 90
       64
 90
       62
 90
      153
 90
        4
 90
      153
 90
       62
 90
       53
 90
      152
 90
        4
 90
      152
 90
       53
 90
       54
 90
      110
 90
        4
 90
      110
 90
       54
 90
       55
 90
       40
 90
        4
 90
       40
 90
       55
 90
       56
 90
       39
 90
        4
 90
       39
 90
       56
 90
       57
 90
      145
 90
        4
 90
      114
 90
       66
 90
       64
 90
      113
 90
        4
 90
      133
 90
      106
 90
      107
 90
      132
 90
        3
 90
      132
 90
      107
 90
      156
 90
        4
 90
      156
 90
      107
 90
       69
 90
      155
 90
        4
 90
      155
 90
       69
 90
       68
 90
      120
 90
        4
 90
      120
 90
       68
 90
       66
 90
      119
 90
        3
 90
      119
 90
       66
 90
      114
 90
        4
 90
      142
 90
       89
 90
       90
 90
      141
 90
        4
 90
      141
 90
       91
 90
       92
 90
      140
 90
        3
 90
      141
 90
       90
 90
       91
 90
        4
 90
      140
 90
       93
 90
       94
 90
      139
 90
        3
 90
      140
 90
       92
 90
       93
 90
        4
 90
      139
 90
       95
 90
       96
 90
      138
 90
        3
 90
      139
 90
       94
 90
       95
 90
        4
 90
      138
 90
       97
 90
       98
 90
      137
 90
        3
 90
      138
 90
       96
 90
       97
 90
        4
 90
      137
 90
       99
 90
      100
 90
      136
 90
        3
 90
      137
 90
       98
 90
       99
 90
        4
 90
      136
 90
      101
 90
      102
 90
      135
 90
        3
 90
      136
 90
      100
 90
      101
 90
        4
 90
      135
 90
      103
 90
      104
 90
      134
 90
        3
 90
      135
 90
      102
 90
      103
 90
        4
 90
      134
 90
      105
 90
      106
 90
      133
 90
        3
 90
      134
 90
      104
 90
      105
 90
        4
 90
        2
 90
      157
 90
      109
 90
        4
 90
        3
 90
        4
 90
      109
 90
       22
 90
        4
 90
       24
 90
       29
 90
       28
 90
       26
 90
        3
 90
       22
 90
      109
 90
       21
 90
        3
 90
       21
 90
      109
 90
       20
 90
        3
 90
       24
 90
      149
 90
       29
 90
        4
 90
       14
 90
      162
 90
      149
 90
       24
 90
        3
 90
       15
 90
      162
 90
       14
 90
        4
 90
       16
 90
      146
 90
      162
 90
       15
 90
        4
 90
       17
 90
       34
 90
      146
 90
       16
 90
        4
 90
       18
 90
       33
 90
       34
 90
       17
 90
        3
 90
       19
 90
       33
 90
       18
 90
        3
 90
       20
 90
       33
 90
       19
 90
        3
 90
       20
 90
      109
 90
       33
 94
      342
 90
       37
 90
       38
 90
       36
 90
       37
 90
       35
 90
       36
 90
       35
 90
       38
 90
       37
 90
       44
 90
       43
 90
       44
 90
       36
 90
       43
 90
       44
 90
       60
 90
       45
 90
       60
 90
       43
 90
       45
 90
       59
 90
       60
 90
       46
 90
       59
 90
       45
 90
       46
 90
       58
 90
       59
 90
       47
 90
       58
 90
       46
 90
       47
 90
       57
 90
       58
 90
       48
 90
       57
 90
       47
 90
       48
 90
       56
 90
       57
 90
       49
 90
       56
 90
       48
 90
       49
 90
       55
 90
       56
 90
       50
 90
       55
 90
       49
 90
       50
 90
       54
 90
       55
 90
       51
 90
       54
 90
       50
 90
       51
 90
       53
 90
       54
 90
       52
 90
       53
 90
       51
 90
       52
 90
       53
 90
       62
 90
       61
 90
       62
 90
       52
 90
       61
 90
       62
 90
       64
 90
       63
 90
       64
 90
       61
 90
       63
 90
       64
 90
       66
 90
       65
 90
       66
 90
       63
 90
       65
 90
       66
 90
       68
 90
       67
 90
       68
 90
       65
 90
       67
 90
       68
 90
       69
 90
       69
 90
       70
 90
       67
 90
       70
 90
       69
 90
      107
 90
       71
 90
      107
 90
       70
 90
       71
 90
      106
 90
      107
 90
       72
 90
      106
 90
       71
 90
       72
 90
      105
 90
      106
 90
       73
 90
      105
 90
       72
 90
       73
 90
      104
 90
      105
 90
       74
 90
      104
 90
       73
 90
       74
 90
      103
 90
      104
 90
       75
 90
      103
 90
       74
 90
       75
 90
      102
 90
      103
 90
       76
 90
      102
 90
       75
 90
       76
 90
      101
 90
      102
 90
       77
 90
      101
 90
       76
 90
       77
 90
      100
 90
      101
 90
       78
 90
      100
 90
       77
 90
       78
 90
       99
 90
      100
 90
       79
 90
       99
 90
       78
 90
       79
 90
       98
 90
       99
 90
       80
 90
       98
 90
       79
 90
       80
 90
       97
 90
       98
 90
       81
 90
       97
 90
       80
 90
       81
 90
       96
 90
       97
 90
       82
 90
       96
 90
       81
 90
       82
 90
       95
 90
       96
 90
       83
 90
       95
 90
       82
 90
       83
 90
       94
 90
       95
 90
       84
 90
       94
 90
       83
 90
       84
 90
       93
 90
       94
 90
       85
 90
       93
 90
       84
 90
       85
 90
       92
 90
       93
 90
       86
 90
       92
 90
       85
 90
       86
 90
       91
 90
       92
 90
       87
 90
       91
 90
       86
 90
       87
 90
       90
 90
       91
 90
       88
 90
       90
 90
       87
 90
       88
 90
       89
 90
       90
 90
        0
 90
       89
 90
        0
 90
       88
 90
        2
 90
       89
 90
        1
 90
        2
 90
        0
 90
        1
 90
        2
 90
        4
 90
        3
 90
        4
 90
        1
 90
        3
 90
        4
 90
       22
 90
        5
 90
       22
 90
        3
 90
        5
 90
       21
 90
       22
 90
        6
 90
       21
 90
        5
 90
        6
 90
       20
 90
       21
 90
        7
 90
       20
 90
        6
 90
        7
 90
       19
 90
       20
 90
        8
 90
       19
 90
        7
 90
        8
 90
       18
 90
       19
 90
        9
 90
       18
 90
        8
 90
        9
 90
       17
 90
       18
 90
       10
 90
       17
 90
        9
 90
       10
 90
       16
 90
       17
 90
       11
 90
       16
 90
       10
 90
       11
 90
       15
 90
       16
 90
       12
 90
       15
 90
       11
 90
       12
 90
       14
 90
       15
 90
       13
 90
       14
 90
       12
 90
       13
 90
       14
 90
       24
 90
       23
 90
       24
 90
       13
 90
       23
 90
       24
 90
       26
 90
       25
 90
       26
 90
       23
 90
       25
 90
       26
 90
       28
 90
       27
 90
       28
 90
       25
 90
       27
 90
       28
 90
       29
 90
       29
 90
       30
 90
       27
 90
       30
 90
       29
 90
      149
 90
      148
 90
      149
 90
       30
 90
      148
 90
      149
 90
      162
 90
      162
 90
      163
 90
      148
 90
      163
 90
      146
 90
      162
 90
      146
 90
      147
 90
      147
 90
      163
 90
       34
 90
      146
 90
       31
 90
       34
 90
       31
 90
      147
 90
       33
 90
       34
 90
       32
 90
       33
 90
       31
 90
       32
 90
       33
 90
      109
 90
      108
 90
      109
 90
       32
 90
      108
 90
      109
 90
      157
 90
      157
 90
      158
 90
      108
 90
      158
 90
      142
 90
      157
 90
      121
 90
      142
 90
      121
 90
      158
 90
      141
 90
      142
 90
      122
 90
      141
 90
      121
 90
      122
 90
      140
 90
      141
 90
      123
 90
      140
 90
      122
 90
      123
 90
      139
 90
      140
 90
      124
 90
      139
 90
      123
 90
      124
 90
      138
 90
      139
 90
      125
 90
      138
 90
      124
 90
      125
 90
      137
 90
      138
 90
      126
 90
      137
 90
      125
 90
      126
 90
      136
 90
      137
 90
      127
 90
      136
 90
      126
 90
      127
 90
      135
 90
      136
 90
      128
 90
      135
 90
      127
 90
      128
 90
      134
 90
      135
 90
      129
 90
      134
 90
      128
 90
      129
 90
      133
 90
      134
 90
      130
 90
      133
 90
      129
 90
      130
 90
      132
 90
      133
 90
      131
 90
      132
 90
      130
 90
      131
 90
      132
 90
      156
 90
      154
 90
      156
 90
      131
 90
      154
 90
      155
 90
      156
 90
      116
 90
      155
 90
      116
 90
      154
 90
      120
 90
      155
 90
      117
 90
      120
 90
      116
 90
      117
 90
      119
 90
      120
 90
      118
 90
      119
 90
      117
 90
      118
 90
      114
 90
      119
 90
      114
 90
      115
 90
      115
 90
      118
 90
      113
 90
      114
 90
      112
 90
      113
 90
      112
 90
      115
 90
      113
 90
      153
 90
      150
 90
      153
 90
      112
 90
      150
 90
      152
 90
      153
 90
      151
 90
      152
 90
      150
 90
      151
 90
      110
 90
      152
 90
      110
 90
      111
 90
      111
 90
      151
 90
       40
 90
      110
 90
       40
 90
       41
 90
       41
 90
      111
 90
       39
 90
       40
 90
       39
 90
       42
 90
       41
 90
       42
 90
       39
 90
      145
 90
      145
 90
      160
 90
       42
 90
      160
 90
      145
 90
      159
 90
      159
 90
      161
 90
      160
 90
      161
 90
      143
 90
      159
 90
      143
 90
      144
 90
      144
 90
      161
 90
       38
 90
      143
 90
       35
 90
      144
 90
        1
 90
      158
 90
        0
 90
      121
 90
       35
 90
       45
 90
       46
 90
      144
 90
       47
 90
      161
 90
       48
 90
      160
 90
       61
 90
      150
 90
       63
 90
      112
 90
       52
 90
      151
 90
       51
 90
      111
 90
       41
 90
       50
 90
       42
 90
       49
 90
       65
 90
      115
 90
       71
 90
      131
 90
       72
 90
      130
 90
       71
 90
      154
 90
       70
 90
      116
 90
       67
 90
      117
 90
       65
 90
      118
 90
       88
 90
      122
 90
       86
 90
      123
 90
       87
 90
      122
 90
       84
 90
      124
 90
       85
 90
      123
 90
       82
 90
      125
 90
       83
 90
      124
 90
       80
 90
      126
 90
       81
 90
      125
 90
       78
 90
      127
 90
       79
 90
      126
 90
       76
 90
      128
 90
       77
 90
      127
 90
       74
 90
      129
 90
       75
 90
      128
 90
       73
 90
      129
 90
        3
 90
      108
 90
        5
 90
      108
 90
       23
 90
       30
 90
        6
 90
      108
 90
        7
 90
      108
 90
       23
 90
      148
 90
       13
 90
      163
 90
       12
 90
      163
 90
       11
 90
      147
 90
       10
 90
       31
 90
        9
 90
       32
 90
        8
 90
       32
 90
        7
 90
       32
 90
       89
 90
      142
 90
        2
 90
      157
 90
       38
 90
       60
 90
       59
 90
      143
 90
       58
 90
      159
 90
       57
 90
      145
 90
       64
 90
      113
 90
       62
 90
      153
 90
       53
 90
      152
 90
       54
 90
      110
 90
       40
 90
       55
 90
       39
 90
       56
 90
       66
 90
      114
 90
      106
 90
      133
 90
      107
 90
      132
 90
      107
 90
      156
 90
       69
 90
      155
 90
       68
 90
      120
 90
       66
 90
      119
 90
       90
 90
      141
 90
       91
 90
      141
 90
       92
 90
      140
 90
       93
 90
      140
 90
       94
 90
      139
 90
       95
 90
      139
 90
       96
 90
      138
 90
       97
 90
      138
 90
       98
 90
      137
 90
       99
 90
      137
 90
      100
 90
      136
 90
      101
 90
      136
 90
      102
 90
      135
 90
      103
 90
      135
 90
      104
 90
      134
 90
      105
 90
      134
 90
        4
 90
      109
 90
       22
 90
      109
 90
       24
 90
       29
 90
       21
 90
      109
 90
       20
 90
      109
 90
       24
 90
      149
 90
       14
 90
      162
 90
       15
 90
      162
 90
       16
 90
      146
 90
       17
 90
       34
 90
       18
 90
       33
 90
       19
 90
       33
 90
       20
 90
       33
 95
      342
140
0.0
140
0.0
140
0.0
140
0.0
140
0.0
140
0.0
140
0.0
140
0.0
140
0.0
140
0.0
140
0.0
140
0.0
140
0.0
140
0.0
140
0.0
140
0.0
140
0.0
140
0.0
140
0.0
140
0.0
140
0.0
140
0.0
140
0.0
140
0.0
140
0.0
140
0.0
140
0.0
140
0.0
140
0.0
140
0.0
140
0.0
140
0.0
140
0.0
140
0.0
140
0.0
140
0.0
140
0.0
140
0.0
140
0.0
140
0.0
140
0.0
140
0.0
140
0.0
140
0.0
140
0.0
140
0.0
140
0.0
140
0.0
140
0.0
140
0.0
140
0.0
140
0.0
140
0.0
140
0.0
140
0.0
140
0.0
140
0.0
140
0.0
140
0.0
140
0.0
140
0.0
140
0.0
140
0.0
140
0.0
140
0.0
140
0.0
140
0.0
140
0.0
140
0.0
140
0.0
140
0.0
140
0.0
140
0.0
140
0.0
140
0.0
140
0.0
140
0.0
140
0.0
140
0.0
140
0.0
140
0.0
140
0.0
140
0.0
140
0.0
140
0.0
140
0.0
140
0.0
140
0.0
140
0.0
140
0.0
140
0.0
140
0.0
140
0.0
140
0.0
140
0.0
140
0.0
140
0.0
140
0.0
140
0.0
140
0.0
140
0.0
140
0.0
140
0.0
140
0.0
140
0.0
140
0.0
140
0.0
140
0.0
140
0.0
140
0.0
140
0.0
140
0.0
140
0.0
140
0.0
140
0.0
140
0.0
140
0.0
140
0.0
140
0.0
140
0.0
140
0.0
140
0.0
140
0.0
140
0.0
140
0.0
140
0.0
140
0.0
140
0.0
140
0.0
140
0.0
140
0.0
140
0.0
140
0.0
140
0.0
140
0.0
140
0.0
140
0.0
140
0.0
140
0.0
140
0.0
140
0.0
140
0.0
140
0.0
140
0.0
140
0.0
140
0.0
140
0.0
140
0.0
140
0.0
140
0.0
140
0.0
140
0.0
140
0.0
140
0.0
140
0.0
140
0.0
140
0.0
140
0.0
140
0.0
140
0.0
140
0.0
140
0.0
140
0.0
140
0.0
140
0.0
140
0.0
140
0.0
140
0.0
140
0.0
140
0.0
140
0.0
140
0.0
140
0.0
140
0.0
140
0.0
140
0.0
140
0.0
140
0.0
140
0.0
140
0.0
140
0.0
140
0.0
140
0.0
140
0.0
140
0.0
140
0.0
140
0.0
140
0.0
140
0.0
140
0.0
140
0.0
140
0.0
140
0.0
140
0.0
140
0.0
140
0.0
140
0.0
140
0.0
140
0.0
140
0.0
140
0.0
140
0.0
140
0.0
140
0.0
140
0.0
140
0.0
140
0.0
140
0.0
140
0.0
140
0.0
140
0.0
140
0.0
140
0.0
140
0.0
140
0.0
140
0.0
140
0.0
140
0.0
140
0.0
140
0.0
140
0.0
140
0.0
140
0.0
140
0.0
140
0.0
140
0.0
140
0.0
140
0.0
140
0.0
140
0.0
140
0.0
140
0.0
140
0.0
140
0.0
140
0.0
140
0.0
140
0.0
140
0.0
140
0.0
140
0.0
140
0.0
140
0.0
140
0.0
140
0.0
140
0.0
140
0.0
140
0.0
140
0.0
140
0.0
140
0.0
140
0.0
140
0.0
140
0.0
140
0.0
140
0.0
140
0.0
140
0.0
140
0.0
140
0.0
140
0.0
140
0.0
140
0.0
140
0.0
140
0.0
140
0.0
140
0.0
140
0.0
140
0.0
140
0.0
140
0.0
140
0.0
140
0.0
140
0.0
140
0.0
140
0.0
140
0.0
140
0.0
140
0.0
140
0.0
140
0.0
140
0.0
140
0.0
140
0.0
140
0.0
140
0.0
140
0.0
140
0.0
140
0.0
140
0.0
140
0.0
140
0.0
140
0.0
140
0.0
140
0.0
140
0.0
140
0.0
140
0.0
140
0.0
140
0.0
140
0.0
140
0.0
140
0.0
140
0.0
140
0.0
140
0.0
140
0.0
140
0.0
140
0.0
140
0.0
140
0.0
140
0.0
140
0.0
140
0.0
140
0.0
140
0.0
140
0.0
140
0.0
140
0.0
140
0.0
140
0.0
140
0.0
140
0.0
140
0.0
140
0.0
140
0.0
140
0.0
140
0.0
140
0.0
140
0.0
140
0.0
140
0.0
140
0.0
140
0.0
140
0.0
140
0.0
140
0.0
140
0.0
140
0.0
140
0.0
140
0.0
140
0.0
140
0.0
 90
        0
  0
POLYLINE
  5
FA
330
1F
100
AcDbEntity
  8
OracDecor_cornice_mouldings
 62
    24
420
 11541018
100
AcDb3dPolyline
 66
     1
 10
0.0
 20
0.0
 30
0.0
 70
     9
  0
VERTEX
  5
FB
330
FA
100
AcDbEntity
  8
OracDecor_cornice_mouldings
 62
    24
420
 11541018
100
AcDbVertex
100
AcDb3dPolylineVertex
 10
74.12602996826172
 20
63.43596649169922
 30
-12.31217575073242
 70
    32
  0
VERTEX
  5
FC
330
FA
100
AcDbEntity
  8
OracDecor_cornice_mouldings
 62
    24
420
 11541018
100
AcDbVertex
100
AcDb3dPolylineVertex
 10
74.12603759765625
 20
67.33343505859375
 30
-12.29328918457031
 70
    32
  0
VERTEX
  5
FD
330
FA
100
AcDbEntity
  8
OracDecor_cornice_mouldings
 62
    24
420
 11541018
100
AcDbVertex
100
AcDb3dPolylineVertex
 10
74.12602996826172
 20
67.33343505859375
 30
-10.40015792846679
 70
    32
  0
VERTEX
  5
FE
330
FA
100
AcDbEntity
  8
OracDecor_cornice_mouldings
 62
    24
420
 11541018
100
AcDbVertex
100
AcDb3dPolylineVertex
 10
74.12603759765625
 20
67.66159820556641
 30
-10.3731460571289
 70
    32
  0
VERTEX
  5
FF
330
FA
100
AcDbEntity
  8
OracDecor_cornice_mouldings
 62
    24
420
 11541018
100
AcDbVertex
100
AcDb3dPolylineVertex
 10
74.12603759765625
 20
68.45574188232422
 30
-10.3439826965332
 70
    32
  0
VERTEX
  5
100
330
FA
100
AcDbEntity
  8
OracDecor_cornice_mouldings
 62
    24
420
 11541018
100
AcDbVertex
100
AcDb3dPolylineVertex
 10
74.12603759765625
 20
69.60199737548828
 30
-10.2163553237915
 70
    32
  0
VERTEX
  5
101
330
FA
100
AcDbEntity
  8
OracDecor_cornice_mouldings
 62
    24
420
 11541018
100
AcDbVertex
100
AcDb3dPolylineVertex
 10
74.12603759765625
 20
70.74475860595703
 30
-9.731524467468261
 70
    32
  0
VERTEX
  5
102
330
FA
100
AcDbEntity
  8
OracDecor_cornice_mouldings
 62
    24
420
 11541018
100
AcDbVertex
100
AcDb3dPolylineVertex
 10
74.12603759765625
 20
71.53350830078125
 30
-8.977824211120605
 70
    32
  0
VERTEX
  5
103
330
FA
100
AcDbEntity
  8
OracDecor_cornice_mouldings
 62
    24
420
 11541018
100
AcDbVertex
100
AcDb3dPolylineVertex
 10
74.12603759765625
 20
72.32192993164062
 30
-8.065779685974121
 70
    32
  0
VERTEX
  5
104
330
FA
100
AcDbEntity
  8
OracDecor_cornice_mouldings
 62
    24
420
 11541018
100
AcDbVertex
100
AcDb3dPolylineVertex
 10
74.12603759765625
 20
73.14577484130859
 30
-7.352095603942871
 70
    32
  0
VERTEX
  5
105
330
FA
100
AcDbEntity
  8
OracDecor_cornice_mouldings
 62
    24
420
 11541018
100
AcDbVertex
100
AcDb3dPolylineVertex
 10
74.12603759765625
 20
74.00868225097656
 30
-6.929536342620849
 70
    32
  0
VERTEX
  5
106
330
FA
100
AcDbEntity
  8
OracDecor_cornice_mouldings
 62
    24
420
 11541018
100
AcDbVertex
100
AcDb3dPolylineVertex
 10
74.12603759765625
 20
75.10708618164063
 30
-6.701005935668945
 70
    32
  0
VERTEX
  5
107
330
FA
100
AcDbEntity
  8
OracDecor_cornice_mouldings
 62
    24
420
 11541018
100
AcDbVertex
100
AcDb3dPolylineVertex
 10
74.12603759765625
 20
76.00010681152344
 30
-6.666821479797363
 70
    32
  0
VERTEX
  5
108
330
FA
100
AcDbEntity
  8
OracDecor_cornice_mouldings
 62
    24
420
 11541018
100
AcDbVertex
100
AcDb3dPolylineVertex
 10
74.12603759765625
 20
76.00010681152344
 30
-4.666821479797363
 70
    32
  0
VERTEX
  5
109
330
FA
100
AcDbEntity
  8
OracDecor_cornice_mouldings
 62
    24
420
 11541018
100
AcDbVertex
100
AcDb3dPolylineVertex
 10
74.12602996826172
 20
80.00010681152344
 30
-4.666821002960205
 70
    32
  0
VERTEX
  5
10A
330
FA
100
AcDbEntity
  8
OracDecor_cornice_mouldings
 62
    24
420
 11541018
100
AcDbVertex
100
AcDb3dPolylineVertex
 10
74.12602996826172
 20
80.00010681152344
 30
-0.0001573157787789
 70
    32
  0
VERTEX
  5
10B
330
FA
100
AcDbEntity
  8
OracDecor_cornice_mouldings
 62
    24
420
 11541018
100
AcDbVertex
100
AcDb3dPolylineVertex
 10
74.12603759765625
 20
75.73617553710938
 30
-0.0001575614442118
 70
    32
  0
VERTEX
  5
10C
330
FA
100
AcDbEntity
  8
OracDecor_cornice_mouldings
 62
    24
420
 11541018
100
AcDbVertex
100
AcDb3dPolylineVertex
 10
74.12603759765625
 20
74.94732666015625
 30
-0.2765476703643799
 70
    32
  0
VERTEX
  5
10D
330
FA
100
AcDbEntity
  8
OracDecor_cornice_mouldings
 62
    24
420
 11541018
100
AcDbVertex
100
AcDb3dPolylineVertex
 10
74.12603759765625
 20
74.50010681152344
 30
-0.3642819225788116
 70
    32
  0
VERTEX
  5
10E
330
FA
100
AcDbEntity
  8
OracDecor_cornice_mouldings
 62
    24
420
 11541018
100
AcDbVertex
100
AcDb3dPolylineVertex
 10
74.12603759765625
 20
74.05290222167969
 30
-0.2765477299690247
 70
    32
  0
VERTEX
  5
10F
330
FA
100
AcDbEntity
  8
OracDecor_cornice_mouldings
 62
    24
420
 11541018
100
AcDbVertex
100
AcDb3dPolylineVertex
 10
74.12603759765625
 20
73.2640380859375
 30
-0.0001577039074618
 70
    32
  0
VERTEX
  5
110
330
FA
100
AcDbEntity
  8
OracDecor_cornice_mouldings
 62
    24
420
 11541018
100
AcDbVertex
100
AcDb3dPolylineVertex
 10
74.12602996826172
 20
69.00010681152344
 30
-0.0001541349047329
 70
    32
  0
VERTEX
  5
111
330
FA
100
AcDbEntity
  8
OracDecor_cornice_mouldings
 62
    24
420
 11541018
100
AcDbVertex
100
AcDb3dPolylineVertex
 10
74.12602996826172
 20
62.96664428710937
 30
-3.693387985229492
 70
    32
  0
VERTEX
  5
112
330
FA
100
AcDbEntity
  8
OracDecor_cornice_mouldings
 62
    24
420
 11541018
100
AcDbVertex
100
AcDb3dPolylineVertex
 10
74.12602996826172
 20
61.87385940551758
 30
-4.193023681640625
 70
    32
  0
VERTEX
  5
113
330
FA
100
AcDbEntity
  8
OracDecor_cornice_mouldings
 62
    24
420
 11541018
100
AcDbVertex
100
AcDb3dPolylineVertex
 10
74.12602996826172
 20
59.68471527099609
 30
-4.504526138305664
 70
    32
  0
VERTEX
  5
114
330
FA
100
AcDbEntity
  8
OracDecor_cornice_mouldings
 62
    24
420
 11541018
100
AcDbVertex
100
AcDb3dPolylineVertex
 10
74.12602996826172
 20
53.68218994140625
 30
-5.398695945739746
 70
    32
  0
VERTEX
  5
115
330
FA
100
AcDbEntity
  8
OracDecor_cornice_mouldings
 62
    24
420
 11541018
100
AcDbVertex
100
AcDb3dPolylineVertex
 10
74.12602996826172
 20
45.89309310913086
 30
-7.567532062530517
 70
    32
  0
VERTEX
  5
116
330
FA
100
AcDbEntity
  8
OracDecor_cornice_mouldings
 62
    24
420
 11541018
100
AcDbVertex
100
AcDb3dPolylineVertex
 10
74.12603759765625
 20
38.51025390625
 30
-10.86439418792724
 70
    32
  0
VERTEX
  5
117
330
FA
100
AcDbEntity
  8
OracDecor_cornice_mouldings
 62
    24
420
 11541018
100
AcDbVertex
100
AcDb3dPolylineVertex
 10
74.12603759765625
 20
31.69606971740723
 30
-15.21679782867431
 70
    32
  0
VERTEX
  5
118
330
FA
100
AcDbEntity
  8
OracDecor_cornice_mouldings
 62
    24
420
 11541018
100
AcDbVertex
100
AcDb3dPolylineVertex
 10
74.12603759765625
 20
25.60056686401367
 30
-20.52889251708984
 70
    32
  0
VERTEX
  5
119
330
FA
100
AcDbEntity
  8
OracDecor_cornice_mouldings
 62
    24
420
 11541018
100
AcDbVertex
100
AcDb3dPolylineVertex
 10
74.12603759765625
 20
20.35755157470703
 30
-26.68402290344238
 70
    32
  0
VERTEX
  5
11A
330
FA
100
AcDbEntity
  8
OracDecor_cornice_mouldings
 62
    24
420
 11541018
100
AcDbVertex
100
AcDb3dPolylineVertex
 10
74.12603759765625
 20
16.08232307434082
 30
-33.54691696166992
 70
    32
  0
VERTEX
  5
11B
330
FA
100
AcDbEntity
  8
OracDecor_cornice_mouldings
 62
    24
420
 11541018
100
AcDbVertex
100
AcDb3dPolylineVertex
 10
74.12603759765625
 20
12.8690299987793
 30
-40.96642303466796
 70
    32
  0
VERTEX
  5
11C
330
FA
100
AcDbEntity
  8
OracDecor_cornice_mouldings
 62
    24
420
 11541018
100
AcDbVertex
100
AcDb3dPolylineVertex
 10
74.12603759765625
 20
10.86336135864258
 30
-48.27890396118164
 70
    32
  0
VERTEX
  5
11D
330
FA
100
AcDbEntity
  8
OracDecor_cornice_mouldings
 62
    24
420
 11541018
100
AcDbVertex
100
AcDb3dPolylineVertex
 10
74.12603759765625
 20
10.26349925994873
 30
-51.77000427246094
 70
    32
  0
VERTEX
  5
11E
330
FA
100
AcDbEntity
  8
OracDecor_cornice_mouldings
 62
    24
420
 11541018
100
AcDbVertex
100
AcDb3dPolylineVertex
 10
74.12603759765625
 20
10.09668350219726
 30
-52.527587890625
 70
    32
  0
VERTEX
  5
11F
330
FA
100
AcDbEntity
  8
OracDecor_cornice_mouldings
 62
    24
420
 11541018
100
AcDbVertex
100
AcDb3dPolylineVertex
 10
74.12603759765625
 20
9.414485931396484
 30
-53.91018676757813
 70
    32
  0
VERTEX
  5
120
330
FA
100
AcDbEntity
  8
OracDecor_cornice_mouldings
 62
    24
420
 11541018
100
AcDbVertex
100
AcDb3dPolylineVertex
 10
74.12602996826172
 20
8.242695808410644
 30
-55.4335823059082
 70
    32
  0
VERTEX
  5
121
330
FA
100
AcDbEntity
  8
OracDecor_cornice_mouldings
 62
    24
420
 11541018
100
AcDbVertex
100
AcDb3dPolylineVertex
 10
74.12602996826172
 20
7.493067264556884
 30
-56.76588821411133
 70
    32
  0
VERTEX
  5
122
330
FA
100
AcDbEntity
  8
OracDecor_cornice_mouldings
 62
    24
420
 11541018
100
AcDbVertex
100
AcDb3dPolylineVertex
 10
74.12602996826172
 20
7.096374034881591
 30
-57.84315109252929
 70
    32
  0
VERTEX
  5
123
330
FA
100
AcDbEntity
  8
OracDecor_cornice_mouldings
 62
    24
420
 11541018
100
AcDbVertex
100
AcDb3dPolylineVertex
 10
74.12602996826172
 20
5.063550949096679
 30
-65.10323333740235
 70
    32
  0
VERTEX
  5
124
330
FA
100
AcDbEntity
  8
OracDecor_cornice_mouldings
 62
    24
420
 11541018
100
AcDbVertex
100
AcDb3dPolylineVertex
 10
74.12602996826172
 20
4.753340721130371
 30
-65.90589141845703
 70
    32
  0
VERTEX
  5
125
330
FA
100
AcDbEntity
  8
OracDecor_cornice_mouldings
 62
    24
420
 11541018
100
AcDbVertex
100
AcDb3dPolylineVertex
 10
74.12602996826172
 20
3.330739736557006
 30
-67.68174743652344
 70
    32
  0
VERTEX
  5
126
330
FA
100
AcDbEntity
  8
OracDecor_cornice_mouldings
 62
    24
420
 11541018
100
AcDbVertex
100
AcDb3dPolylineVertex
 10
74.12602996826172
 20
1.548967361450195
 30
-68.58306121826172
 70
    32
  0
VERTEX
  5
127
330
FA
100
AcDbEntity
  8
OracDecor_cornice_mouldings
 62
    24
420
 11541018
100
AcDbVertex
100
AcDb3dPolylineVertex
 10
74.12602996826172
 20
0.0000820514324005
 30
-69.00019073486328
 70
    32
  0
VERTEX
  5
128
330
FA
100
AcDbEntity
  8
OracDecor_cornice_mouldings
 62
    24
420
 11541018
100
AcDbVertex
100
AcDb3dPolylineVertex
 10
74.12602996826172
 20
0.0000822971196612
 30
-73.26412200927734
 70
    32
  0
VERTEX
  5
129
330
FA
100
AcDbEntity
  8
OracDecor_cornice_mouldings
 62
    24
420
 11541018
100
AcDbVertex
100
AcDb3dPolylineVertex
 10
74.12602996826172
 20
0.3158820569515228
 30
-74.16169738769531
 70
    32
  0
VERTEX
  5
12A
330
FA
100
AcDbEntity
  8
OracDecor_cornice_mouldings
 62
    24
420
 11541018
100
AcDbVertex
100
AcDb3dPolylineVertex
 10
74.12602996826172
 20
0.3686660528182983
 30
-74.61508178710937
 70
    32
  0
VERTEX
  5
12B
330
FA
100
AcDbEntity
  8
OracDecor_cornice_mouldings
 62
    24
420
 11541018
100
AcDbVertex
100
AcDb3dPolylineVertex
 10
74.12602996826172
 20
0.2764762938022613
 30
-74.94741058349609
 70
    32
  0
VERTEX
  5
12C
330
FA
100
AcDbEntity
  8
OracDecor_cornice_mouldings
 62
    24
420
 11541018
100
AcDbVertex
100
AcDb3dPolylineVertex
 10
74.12602996826172
 20
0.0000824395683594
 30
-75.73625946044922
 70
    32
  0
VERTEX
  5
12D
330
FA
100
AcDbEntity
  8
OracDecor_cornice_mouldings
 62
    24
420
 11541018
100
AcDbVertex
100
AcDb3dPolylineVertex
 10
74.12602996826172
 20
0.0000826852556202
 30
-80.00019073486328
 70
    32
  0
VERTEX
  5
12E
330
FA
100
AcDbEntity
  8
OracDecor_cornice_mouldings
 62
    24
420
 11541018
100
AcDbVertex
100
AcDb3dPolylineVertex
 10
74.12603759765625
 20
6.00008487701416
 30
-80.00019073486328
 70
    32
  0
VERTEX
  5
12F
330
FA
100
AcDbEntity
  8
OracDecor_cornice_mouldings
 62
    24
420
 11541018
100
AcDbVertex
100
AcDb3dPolylineVertex
 10
74.12603759765625
 20
6.036654472351074
 30
-79.2951431274414
 70
    32
  0
VERTEX
  5
130
330
FA
100
AcDbEntity
  8
OracDecor_cornice_mouldings
 62
    24
420
 11541018
100
AcDbVertex
100
AcDb3dPolylineVertex
 10
74.12603759765625
 20
6.236393451690673
 30
-78.25643157958984
 70
    32
  0
VERTEX
  5
131
330
FA
100
AcDbEntity
  8
OracDecor_cornice_mouldings
 62
    24
420
 11541018
100
AcDbVertex
100
AcDb3dPolylineVertex
 10
74.12603759765625
 20
6.736037731170654
 30
-76.93984985351562
 70
    32
  0
VERTEX
  5
132
330
FA
100
AcDbEntity
  8
OracDecor_cornice_mouldings
 62
    24
420
 11541018
100
AcDbVertex
100
AcDb3dPolylineVertex
 10
74.12603759765625
 20
7.495914936065673
 30
-75.75426483154297
 70
    32
  0
VERTEX
  5
133
330
FA
100
AcDbEntity
  8
OracDecor_cornice_mouldings
 62
    24
420
 11541018
100
AcDbVertex
100
AcDb3dPolylineVertex
 10
74.12603759765625
 20
8.483499526977539
 30
-74.75041198730469
 70
    32
  0
VERTEX
  5
134
330
FA
100
AcDbEntity
  8
OracDecor_cornice_mouldings
 62
    24
420
 11541018
100
AcDbVertex
100
AcDb3dPolylineVertex
 10
74.12603759765625
 20
9.656522750854492
 30
-73.97128295898437
 70
    32
  0
VERTEX
  5
135
330
FA
100
AcDbEntity
  8
OracDecor_cornice_mouldings
 62
    24
420
 11541018
100
AcDbVertex
100
AcDb3dPolylineVertex
 10
74.12603759765625
 20
10.96477794647217
 30
-73.45020294189453
 70
    32
  0
VERTEX
  5
136
330
FA
100
AcDbEntity
  8
OracDecor_cornice_mouldings
 62
    24
420
 11541018
100
AcDbVertex
100
AcDb3dPolylineVertex
 10
74.12602996826172
 20
12.00008773803711
 30
-73.23352813720703
 70
    32
  0
VERTEX
  5
137
330
FA
100
AcDbEntity
  8
OracDecor_cornice_mouldings
 62
    24
420
 11541018
100
AcDbVertex
100
AcDb3dPolylineVertex
 10
74.12603759765625
 20
12.00008583068848
 30
-70.00019073486328
 70
    32
  0
VERTEX
  5
138
330
FA
100
AcDbEntity
  8
OracDecor_cornice_mouldings
 62
    24
420
 11541018
100
AcDbVertex
100
AcDb3dPolylineVertex
 10
74.12602996826172
 20
14.80008697509765
 30
-70.00019073486328
 70
    32
  0
VERTEX
  5
139
330
FA
100
AcDbEntity
  8
OracDecor_cornice_mouldings
 62
    24
420
 11541018
100
AcDbVertex
100
AcDb3dPolylineVertex
 10
74.12603759765625
 20
14.80008697509765
 30
-60.00018692016602
 70
    32
  0
VERTEX
  5
13A
330
FA
100
AcDbEntity
  8
OracDecor_cornice_mouldings
 62
    24
420
 11541018
100
AcDbVertex
100
AcDb3dPolylineVertex
 10
74.12603759765625
 20
17.80008888244629
 30
-60.00018692016602
 70
    32
  0
VERTEX
  5
13B
330
FA
100
AcDbEntity
  8
OracDecor_cornice_mouldings
 62
    24
420
 11541018
100
AcDbVertex
100
AcDb3dPolylineVertex
 10
74.12603759765625
 20
17.8189754486084
 30
-57.92917251586914
 70
    32
  0
VERTEX
  5
13C
330
FA
100
AcDbEntity
  8
OracDecor_cornice_mouldings
 62
    24
420
 11541018
100
AcDbVertex
100
AcDb3dPolylineVertex
 10
74.12603759765625
 20
18.0453929901123
 30
-54.18607330322266
 70
    32
  0
VERTEX
  5
13D
330
FA
100
AcDbEntity
  8
OracDecor_cornice_mouldings
 62
    24
420
 11541018
100
AcDbVertex
100
AcDb3dPolylineVertex
 10
74.12603759765625
 20
18.5722713470459
 30
-50.4733657836914
 70
    32
  0
VERTEX
  5
13E
330
FA
100
AcDbEntity
  8
OracDecor_cornice_mouldings
 62
    24
420
 11541018
100
AcDbVertex
100
AcDb3dPolylineVertex
 10
74.12603759765625
 20
19.39618110656738
 30
-46.81512069702148
 70
    32
  0
VERTEX
  5
13F
330
FA
100
AcDbEntity
  8
OracDecor_cornice_mouldings
 62
    24
420
 11541018
100
AcDbVertex
100
AcDb3dPolylineVertex
 10
74.12603759765625
 20
20.51177978515625
 30
-43.23505020141602
 70
    32
  0
VERTEX
  5
140
330
FA
100
AcDbEntity
  8
OracDecor_cornice_mouldings
 62
    24
420
 11541018
100
AcDbVertex
100
AcDb3dPolylineVertex
 10
74.12603759765625
 20
21.91183280944824
 30
-39.7563591003418
 70
    32
  0
VERTEX
  5
141
330
FA
100
AcDbEntity
  8
OracDecor_cornice_mouldings
 62
    24
420
 11541018
100
AcDbVertex
100
AcDb3dPolylineVertex
 10
74.12603759765625
 20
23.58726119995117
 30
-36.40159988403321
 70
    32
  0
VERTEX
  5
142
330
FA
100
AcDbEntity
  8
OracDecor_cornice_mouldings
 62
    24
420
 11541018
100
AcDbVertex
100
AcDb3dPolylineVertex
 10
74.12603759765625
 20
25.52720832824707
 30
-33.1925277709961
 70
    32
  0
VERTEX
  5
143
330
FA
100
AcDbEntity
  8
OracDecor_cornice_mouldings
 62
    24
420
 11541018
100
AcDbVertex
100
AcDb3dPolylineVertex
 10
74.12603759765625
 20
27.71910285949707
 30
-30.14993667602539
 70
    32
  0
VERTEX
  5
144
330
FA
100
AcDbEntity
  8
OracDecor_cornice_mouldings
 62
    24
420
 11541018
100
AcDbVertex
100
AcDb3dPolylineVertex
 10
74.12603759765625
 20
30.14873695373535
 30
-27.29356575012207
 70
    32
  0
VERTEX
  5
145
330
FA
100
AcDbEntity
  8
OracDecor_cornice_mouldings
 62
    24
420
 11541018
100
AcDbVertex
100
AcDb3dPolylineVertex
 10
74.12603759765625
 20
32.80035781860352
 30
-24.64194297790527
 70
    32
  0
VERTEX
  5
146
330
FA
100
AcDbEntity
  8
OracDecor_cornice_mouldings
 62
    24
420
 11541018
100
AcDbVertex
100
AcDb3dPolylineVertex
 10
74.12603759765625
 20
35.65673065185547
 30
-22.21230697631836
 70
    32
  0
VERTEX
  5
147
330
FA
100
AcDbEntity
  8
OracDecor_cornice_mouldings
 62
    24
420
 11541018
100
AcDbVertex
100
AcDb3dPolylineVertex
 10
74.12602996826172
 20
38.69931793212891
 30
-20.02041625976563
 70
    32
  0
VERTEX
  5
148
330
FA
100
AcDbEntity
  8
OracDecor_cornice_mouldings
 62
    24
420
 11541018
100
AcDbVertex
100
AcDb3dPolylineVertex
 10
74.12602996826172
 20
41.90839385986328
 30
-18.08046722412109
 70
    32
  0
VERTEX
  5
149
330
FA
100
AcDbEntity
  8
OracDecor_cornice_mouldings
 62
    24
420
 11541018
100
AcDbVertex
100
AcDb3dPolylineVertex
 10
74.12602996826172
 20
45.26315307617188
 30
-16.40503883361816
 70
    32
  0
VERTEX
  5
14A
330
FA
100
AcDbEntity
  8
OracDecor_cornice_mouldings
 62
    24
420
 11541018
100
AcDbVertex
100
AcDb3dPolylineVertex
 10
74.12602996826172
 20
48.74184036254883
 30
-15.00498580932617
 70
    32
  0
VERTEX
  5
14B
330
FA
100
AcDbEntity
  8
OracDecor_cornice_mouldings
 62
    24
420
 11541018
100
AcDbVertex
100
AcDb3dPolylineVertex
 10
74.12602996826172
 20
52.32191467285156
 30
-13.88938617706299
 70
    32
  0
VERTEX
  5
14C
330
FA
100
AcDbEntity
  8
OracDecor_cornice_mouldings
 62
    24
420
 11541018
100
AcDbVertex
100
AcDb3dPolylineVertex
 10
74.12602996826172
 20
55.98015975952148
 30
-13.06547546386719
 70
    32
  0
VERTEX
  5
14D
330
FA
100
AcDbEntity
  8
OracDecor_cornice_mouldings
 62
    24
420
 11541018
100
AcDbVertex
100
AcDb3dPolylineVertex
 10
74.12602996826172
 20
59.69286727905274
 30
-12.53859519958496
 70
    32
  0
SEQEND
  5
14E
330
FA
100
AcDbEntity
  8
OracDecor_cornice_mouldings
 62
    24
420
 11541018
  0
ENDSEC
  0
SECTION
  2
OBJECTS
  0
DICTIONARY
  5
C
330
0
100
AcDbDictionary
281
     1
  3
ACAD_COLOR
350
DC
  3
ACAD_DETAILVIEWSTYLE
350
F5
  3
ACAD_GROUP
350
D
  3
ACAD_LAYOUT
350
1A
  3
ACAD_MATERIAL
350
AA
  3
ACAD_MLEADERSTYLE
350
F1
  3
ACAD_MLINESTYLE
350
17
  3
ACAD_PLOTSETTINGS
350
19
  3
ACAD_PLOTSTYLENAME
350
E
  3
ACAD_SCALELIST
350
DF
  3
ACAD_SECTIONVIEWSTYLE
350
F3
  3
ACAD_TABLESTYLE
350
DD
  3
ACAD_VISUALSTYLE
350
C3
  3
ACDB_RECOMPOSE_DATA
350
15B
  3
AcDbVariableDictionary
350
14F
  0
DICTIONARY
  5
DC
102
{ACAD_REACTORS
330
C
102
}
330
C
100
AcDbDictionary
281
     1
  0
DICTIONARY
  5
F5
102
{ACAD_REACTORS
330
C
102
}
330
C
100
AcDbDictionary
281
     1
  3
Imperial24
350
F6
  0
DICTIONARY
  5
D
102
{ACAD_REACTORS
330
C
102
}
330
C
100
AcDbDictionary
281
     1
  0
DICTIONARY
  5
1A
102
{ACAD_REACTORS
330
C
102
}
330
C
100
AcDbDictionary
281
     1
  3
Layout1
350
1E
  3
Layout2
350
26
  3
Model
350
22
  0
DICTIONARY
  5
AA
102
{ACAD_REACTORS
330
C
102
}
330
C
100
AcDbDictionary
281
     1
  3
ByBlock
350
B3
  3
ByLayer
350
AB
  3
Global
350
BB
  0
DICTIONARY
  5
F1
102
{ACAD_REACTORS
330
C
102
}
330
C
100
AcDbDictionary
281
     1
  3
Standard
350
F2
  0
DICTIONARY
  5
17
102
{ACAD_REACTORS
330
C
102
}
330
C
100
AcDbDictionary
281
     1
  3
Standard
350
18
  0
DICTIONARY
  5
19
102
{ACAD_REACTORS
330
C
102
}
330
C
100
AcDbDictionary
281
     1
  0
ACDBDICTIONARYWDFLT
  5
E
102
{ACAD_REACTORS
330
C
102
}
330
C
100
AcDbDictionary
281
     1
  3
ByLayer
350
2D
  3
Normal
350
F
100
AcDbDictionaryWithDefault
340
F
  0
DICTIONARY
  5
DF
102
{ACAD_REACTORS
330
C
102
}
330
C
100
AcDbDictionary
281
     1
  3
A0
350
E0
  3
A1
350
E1
  3
A2
350
E2
  3
A3
350
E3
  3
A4
350
E4
  3
A5
350
E5
  3
A6
350
E6
  3
A7
350
E7
  3
A8
350
E8
  3
A9
350
E9
  3
B0
350
EA
  3
B1
350
EB
  3
B2
350
EC
  3
B3
350
ED
  3
B4
350
EE
  3
B5
350
EF
  3
B6
350
F0
  0
DICTIONARY
  5
F3
102
{ACAD_REACTORS
330
C
102
}
330
C
100
AcDbDictionary
281
     1
  3
Imperial24
350
F4
  0
DICTIONARY
  5
DD
102
{ACAD_REACTORS
330
C
102
}
330
C
100
AcDbDictionary
281
     1
  3
Standard
350
DE
  0
DICTIONARY
  5
C3
102
{ACAD_REACTORS
330
C
102
}
330
C
100
AcDbDictionary
281
     1
  3
2dWireframe
350
C9
  3
Basic
350
C8
  3
Brighten
350
CF
  3
ColorChange
350
D3
  3
Conceptual
350
CC
  3
Dim
350
CE
  3
EdgeColorOff
350
DB
  3
Facepattern
350
D2
  3
Flat
350
C4
  3
FlatWithEdges
350
C5
  3
Gouraud
350
C6
  3
GouraudWithEdges
350
C7
  3
Hidden
350
CB
  3
JitterOff
350
D9
  3
Linepattern
350
D1
  3
OverhangOff
350
DA
  3
Realistic
350
CD
  3
Shaded
350
D8
  3
Shaded with edges
350
D7
  3
Shades of Gray
350
D4
  3
Sketchy
350
D5
  3
Thicken
350
D0
  3
Wireframe
350
CA
  3
X-Ray
350
D6
  0
XRECORD
  5
15B
102
{ACAD_REACTORS
330
C
102
}
330
C
100
AcDbXrecord
280
     1
 90
        1
330
DE
  0
DICTIONARY
  5
14F
102
{ACAD_REACTORS
330
C
102
}
330
C
100
AcDbDictionary
281
     1
  3
CANNOSCALE
350
155
  3
CMLEADERSTYLE
350
151
  3
CTABLESTYLE
350
150
  3
CVIEWDETAILSTYLE
350
152
  3
CVIEWSECTIONSTYLE
350
153
  3
LAYEREVAL
350
157
  3
LAYERNOTIFY
350
158
  3
LIGHTINGUNITS
350
156
  3
MSLTSCALE
350
154
  0
ACDBDETAILVIEWSTYLE
  5
F6
102
{ACAD_XDICTIONARY
360
190
102
}
102
{ACAD_REACTORS
330
F5
102
}
330
F5
100
AcDbModelDocViewStyle
 70
     0
  3
Imperial24
290
     0
100
AcDbDetailViewStyle
 70
     0
 71
     0
 90
        3
 71
     1
340
11
 62
   256
 40
0.24
340
0
 62
   256
 40
0.24
300

 40
0.36
280
     3
 71
     2
340
16
 90
       25
 62
   256
 71
     3
340
11
 62
   256
 40
0.24
 90
        1
 40
0.75
 90
        1
300
%<\AcVar ViewType \f "%tc1">% %<\AcVar ViewDetailId>%\PSCALE %<\AcVar ViewScale \f "%sn">%
 71
     4
340
16
 90
       25
 62
   256
340
16
 90
       25
 62
   256
280
     0
  0
LAYOUT
  5
1E
102
{ACAD_REACTORS
330
1A
102
}
330
1A
100
AcDbPlotSettings
  1

  2
\\KTXNTBDC\CASF2PN1
  4

  6

 40
0.0
 41
0.0
 42
0.0
 43
0.0
 44
0.0
 45
0.0
 46
0.0
 47
0.0
 48
0.0
 49
0.0
140
0.0
141
0.0
142
1.0
143
1.0
 70
   688
 72
     0
 73
     0
 74
     5
  7

 75
    16
147
1.0
 76
     0
 77
     2
 78
   300
148
0.0
149
0.0
100
AcDbLayout
  1
Layout1
 70
     1
 71
     1
 10
0.0
 20
0.0
 11
12.0
 21
9.0
 12
0.0
 22
0.0
 32
0.0
 14
1.000000000000000E+20
 24
1.000000000000000E+20
 34
1.000000000000000E+20
 15
-1.000000000000000E+20
 25
-1.000000000000000E+20
 35
-1.000000000000000E+20
146
0.0
 13
0.0
 23
0.0
 33
0.0
 16
1.0
 26
0.0
 36
0.0
 17
0.0
 27
1.0
 37
0.0
 76
     0
330
1B
  0
LAYOUT
  5
26
102
{ACAD_REACTORS
330
1A
102
}
330
1A
100
AcDbPlotSettings
  1

  2
\\KTXNTBDC\CASF2PN1
  4

  6

 40
0.0
 41
0.0
 42
0.0
 43
0.0
 44
0.0
 45
0.0
 46
0.0
 47
0.0
 48
0.0
 49
0.0
140
0.0
141
0.0
142
1.0
143
1.0
 70
   688
 72
     0
 73
     0
 74
     5
  7

 75
    16
147
1.0
 76
     0
 77
     2
 78
   300
148
0.0
149
0.0
100
AcDbLayout
  1
Layout2
 70
     1
 71
     2
 10
0.0
 20
0.0
 11
12.0
 21
9.0
 12
0.0
 22
0.0
 32
0.0
 14
0.0
 24
0.0
 34
0.0
 15
0.0
 25
0.0
 35
0.0
146
0.0
 13
0.0
 23
0.0
 33
0.0
 16
1.0
 26
0.0
 36
0.0
 17
0.0
 27
1.0
 37
0.0
 76
     0
330
23
  0
LAYOUT
  5
22
102
{ACAD_REACTORS
330
1A
102
}
330
1A
100
AcDbPlotSettings
  1

  2
\\KTXNTBDC\CASF2PN1
  4

  6

 40
0.0
 41
0.0
 42
0.0
 43
0.0
 44
0.0
 45
0.0
 46
0.0
 47
0.0
 48
0.0
 49
0.0
140
0.0
141
0.0
142
1.0
143
1.0
 70
  1712
 72
     0
 73
     0
 74
     0
  7

 75
     0
147
1.0
 76
     0
 77
     2
 78
   300
148
0.0
149
0.0
100
AcDbLayout
  1
Model
 70
     1
 71
     0
 10
0.0
 20
0.0
 11
12.0
 21
9.0
 12
0.0
 22
0.0
 32
0.0
 14
0.0
 24
0.0
 34
0.0
 15
0.0
 25
0.0
 35
0.0
146
0.0
 13
0.0
 23
0.0
 33
0.0
 16
1.0
 26
0.0
 36
0.0
 17
0.0
 27
1.0
 37
0.0
 76
     0
330
1F
  0
MATERIAL
  5
B3
102
{ACAD_XDICTIONARY
360
B4
102
}
102
{ACAD_REACTORS
330
AA
102
}
330
AA
100
AcDbMaterial
  1
ByBlock
 72
     0
 43
0.0208333333333333
 43
0.0
 43
0.0
 43
0.0
 43
0.0
 43
0.0208333333333333
 43
0.0
 43
0.0
 43
0.0
 43
0.0
 43
1.0
 43
0.0
 43
0.0
 43
0.0
 43
0.0
 43
1.0
 77
     0
 47
0.0208333333333333
 47
0.0
 47
0.0
 47
0.0
 47
0.0
 47
0.0208333333333333
 47
0.0
 47
0.0
 47
0.0
 47
0.0
 47
1.0
 47
0.0
 47
0.0
 47
0.0
 47
0.0
 47
1.0
171
     0
 49
0.0208333333333333
 49
0.0
 49
0.0
 49
0.0
 49
0.0
 49
0.0208333333333333
 49
0.0
 49
0.0
 49
0.0
 49
0.0
 49
1.0
 49
0.0
 49
0.0
 49
0.0
 49
0.0
 49
1.0
175
     0
142
0.0208333333333333
142
0.0
142
0.0
142
0.0
142
0.0
142
0.0208333333333333
142
0.0
142
0.0
142
0.0
142
0.0
142
1.0
142
0.0
142
0.0
142
0.0
142
0.0
142
1.0
179
     0
144
0.0208333333333333
144
0.0
144
0.0
144
0.0
144
0.0
144
0.0208333333333333
144
0.0
144
0.0
144
0.0
144
0.0
144
1.0
144
0.0
144
0.0
144
0.0
144
0.0
144
1.0
147
0.0208333333333333
147
0.0
147
0.0
147
0.0
147
0.0
147
0.0208333333333333
147
0.0
147
0.0
147
0.0
147
0.0
147
1.0
147
0.0
147
0.0
147
0.0
147
0.0
147
1.0
  0
MATERIAL
  5
AB
102
{ACAD_XDICTIONARY
360
AC
102
}
102
{ACAD_REACTORS
330
AA
102
}
330
AA
100
AcDbMaterial
  1
ByLayer
 72
     0
 43
0.0208333333333333
 43
0.0
 43
0.0
 43
0.0
 43
0.0
 43
0.0208333333333333
 43
0.0
 43
0.0
 43
0.0
 43
0.0
 43
1.0
 43
0.0
 43
0.0
 43
0.0
 43
0.0
 43
1.0
 77
     0
 47
0.0208333333333333
 47
0.0
 47
0.0
 47
0.0
 47
0.0
 47
0.0208333333333333
 47
0.0
 47
0.0
 47
0.0
 47
0.0
 47
1.0
 47
0.0
 47
0.0
 47
0.0
 47
0.0
 47
1.0
171
     0
 49
0.0208333333333333
 49
0.0
 49
0.0
 49
0.0
 49
0.0
 49
0.0208333333333333
 49
0.0
 49
0.0
 49
0.0
 49
0.0
 49
1.0
 49
0.0
 49
0.0
 49
0.0
 49
0.0
 49
1.0
175
     0
142
0.0208333333333333
142
0.0
142
0.0
142
0.0
142
0.0
142
0.0208333333333333
142
0.0
142
0.0
142
0.0
142
0.0
142
1.0
142
0.0
142
0.0
142
0.0
142
0.0
142
1.0
179
     0
144
0.0208333333333333
144
0.0
144
0.0
144
0.0
144
0.0
144
0.0208333333333333
144
0.0
144
0.0
144
0.0
144
0.0
144
1.0
144
0.0
144
0.0
144
0.0
144
0.0
144
1.0
147
0.0208333333333333
147
0.0
147
0.0
147
0.0
147
0.0
147
0.0208333333333333
147
0.0
147
0.0
147
0.0
147
0.0
147
1.0
147
0.0
147
0.0
147
0.0
147
0.0
147
1.0
  0
MATERIAL
  5
BB
102
{ACAD_XDICTIONARY
360
BC
102
}
102
{ACAD_REACTORS
330
AA
102
}
330
AA
100
AcDbMaterial
  1
Global
 72
     0
 43
0.0208333333333333
 43
0.0
 43
0.0
 43
0.0
 43
0.0
 43
0.0208333333333333
 43
0.0
 43
0.0
 43
0.0
 43
0.0
 43
1.0
 43
0.0
 43
0.0
 43
0.0
 43
0.0
 43
1.0
 77
     0
 47
0.0208333333333333
 47
0.0
 47
0.0
 47
0.0
 47
0.0
 47
0.0208333333333333
 47
0.0
 47
0.0
 47
0.0
 47
0.0
 47
1.0
 47
0.0
 47
0.0
 47
0.0
 47
0.0
 47
1.0
171
     0
 49
0.0208333333333333
 49
0.0
 49
0.0
 49
0.0
 49
0.0
 49
0.0208333333333333
 49
0.0
 49
0.0
 49
0.0
 49
0.0
 49
1.0
 49
0.0
 49
0.0
 49
0.0
 49
0.0
 49
1.0
175
     0
142
0.0208333333333333
142
0.0
142
0.0
142
0.0
142
0.0
142
0.0208333333333333
142
0.0
142
0.0
142
0.0
142
0.0
142
1.0
142
0.0
142
0.0
142
0.0
142
0.0
142
1.0
179
     0
144
0.0208333333333333
144
0.0
144
0.0
144
0.0
144
0.0
144
0.0208333333333333
144
0.0
144
0.0
144
0.0
144
0.0
144
1.0
144
0.0
144
0.0
144
0.0
144
0.0
144
1.0
147
0.0208333333333333
147
0.0
147
0.0
147
0.0
147
0.0
147
0.0208333333333333
147
0.0
147
0.0
147
0.0
147
0.0
147
1.0
147
0.0
147
0.0
147
0.0
147
0.0
147
1.0
  0
MLEADERSTYLE
  5
F2
102
{ACAD_XDICTIONARY
360
18C
102
}
102
{ACAD_REACTORS
330
F1
102
}
330
F1
100
AcDbMLeaderStyle
179
     2
170
     2
171
     1
172
     0
 90
        2
 40
0.0
 41
0.0
173
     1
 91
-1056964608
340
14
 92
       -2
290
     1
 42
0.09
291
     1
 43
0.36
  3
Standard
 44
0.18
300

342
11
174
     1
178
     6
175
     1
176
     0
 93
-1056964608
 45
0.18
292
     0
297
     0
 46
0.18
 94
-1056964608
 47
1.0
 49
1.0
140
1.0
293
     1
141
0.0
294
     1
177
     0
142
1.0
295
     0
296
     0
143
0.125
271
     0
272
     9
273
     9
  0
MLINESTYLE
  5
18
102
{ACAD_REACTORS
330
17
102
}
330
17
100
AcDbMlineStyle
  2
STANDARD
 70
     0
  3

 62
   256
 51
90.0
 52
90.0
 71
     2
 49
0.5
 62
   256
  6
BYLAYER
 49
-0.5
 62
   256
  6
BYLAYER
  0
ACDBPLACEHOLDER
  5
2D
102
{ACAD_REACTORS
330
E
102
}
330
E
  0
ACDBPLACEHOLDER
  5
F
102
{ACAD_REACTORS
330
E
102
}
330
E
  0
SCALE
  5
E0
102
{ACAD_REACTORS
330
DF
102
}
330
DF
100
AcDbScale
 70
     0
300
1:1
140
1.0
141
1.0
290
     1
  0
SCALE
  5
E1
102
{ACAD_REACTORS
330
DF
102
}
330
DF
100
AcDbScale
 70
     0
300
1/128" = 1'-0"
140
0.0078125
141
12.0
290
     0
  0
SCALE
  5
E2
102
{ACAD_REACTORS
330
DF
102
}
330
DF
100
AcDbScale
 70
     0
300
1/64" = 1'-0"
140
0.015625
141
12.0
290
     0
  0
SCALE
  5
E3
102
{ACAD_REACTORS
330
DF
102
}
330
DF
100
AcDbScale
 70
     0
300
1/32" = 1'-0"
140
0.03125
141
12.0
290
     0
  0
SCALE
  5
E4
102
{ACAD_REACTORS
330
DF
102
}
330
DF
100
AcDbScale
 70
     0
300
1/16" = 1'-0"
140
0.0625
141
12.0
290
     0
  0
SCALE
  5
E5
102
{ACAD_REACTORS
330
DF
102
}
330
DF
100
AcDbScale
 70
     0
300
3/32" = 1'-0"
140
0.09375
141
12.0
290
     0
  0
SCALE
  5
E6
102
{ACAD_REACTORS
330
DF
102
}
330
DF
100
AcDbScale
 70
     0
300
1/8" = 1'-0"
140
0.125
141
12.0
290
     0
  0
SCALE
  5
E7
102
{ACAD_REACTORS
330
DF
102
}
330
DF
100
AcDbScale
 70
     0
300
3/16" = 1'-0"
140
0.1875
141
12.0
290
     0
  0
SCALE
  5
E8
102
{ACAD_REACTORS
330
DF
102
}
330
DF
100
AcDbScale
 70
     0
300
1/4" = 1'-0"
140
0.25
141
12.0
290
     0
  0
SCALE
  5
E9
102
{ACAD_REACTORS
330
DF
102
}
330
DF
100
AcDbScale
 70
     0
300
3/8" = 1'-0"
140
0.375
141
12.0
290
     0
  0
SCALE
  5
EA
102
{ACAD_REACTORS
330
DF
102
}
330
DF
100
AcDbScale
 70
     0
300
1/2" = 1'-0"
140
0.5
141
12.0
290
     0
  0
SCALE
  5
EB
102
{ACAD_REACTORS
330
DF
102
}
330
DF
100
AcDbScale
 70
     0
300
3/4" = 1'-0"
140
0.75
141
12.0
290
     0
  0
SCALE
  5
EC
102
{ACAD_REACTORS
330
DF
102
}
330
DF
100
AcDbScale
 70
     0
300
1" = 1'-0"
140
1.0
141
12.0
290
     0
  0
SCALE
  5
ED
102
{ACAD_REACTORS
330
DF
102
}
330
DF
100
AcDbScale
 70
     0
300
1-1/2" = 1'-0"
140
1.5
141
12.0
290
     0
  0
SCALE
  5
EE
102
{ACAD_REACTORS
330
DF
102
}
330
DF
100
AcDbScale
 70
     0
300
3" = 1'-0"
140
3.0
141
12.0
290
     0
  0
SCALE
  5
EF
102
{ACAD_REACTORS
330
DF
102
}
330
DF
100
AcDbScale
 70
     0
300
6" = 1'-0"
140
6.0
141
12.0
290
     0
  0
SCALE
  5
F0
102
{ACAD_REACTORS
330
DF
102
}
330
DF
100
AcDbScale
 70
     0
300
1'-0" = 1'-0"
140
12.0
141
12.0
290
     0
  0
ACDBSECTIONVIEWSTYLE
  5
F4
102
{ACAD_XDICTIONARY
360
18E
102
}
102
{ACAD_REACTORS
330
F3
102
}
330
F3
100
AcDbModelDocViewStyle
 70
     0
  3
Imperial24
290
     0
100
AcDbSectionViewStyle
 70
     0
 71
     0
 90
       78
 71
     1
340
11
 62
   256
 40
0.24
340
0
340
0
 62
   256
 40
0.24
300
I, O, Q, S, X, Z
 40
0.48
 90
        3
 40
0.18
 90
        1
 71
     2
340
16
 90
       25
 62
   256
340
16
 90
       50
 62
   256
 40
0.24
 40
0.0
 40
0.24
 71
     3
340
11
 62
   256
 40
0.24
 90
        1
 40
0.75
 90
        1
300
%<\AcVar ViewType \f "%tc1">% %<\AcVar ViewSectionStartId>%-%<\AcVar ViewSectionEndId>%\PSCALE %<\AcVar ViewScale \f "%sn">%
 71
     4
 62
   256
 62
   257
300
ANSI31
 40
1.0
 90
        0
290
     0
290
     0
 90
        6
 40
0.0
 40
1.570796326794896
 40
0.2617993877991494
 40
1.308996938995747
 40
-0.2617993877991494
 40
1.832595714594046
  0
TABLESTYLE
  5
DE
102
{ACAD_XDICTIONARY
360
159
102
}
102
{ACAD_REACTORS
330
DD
102
}
330
DD
100
AcDbTableStyle
280
     0
  3
Standard
 70
     0
 71
     0
 40
0.06
 41
0.06
280
     0
281
     0
  7
Standard
140
0.18
170
     2
 62
     0
 63
     7
283
     0
 90
      512
 91
        0
  1

274
    -2
284
     1
 64
     0
275
    -2
285
     1
 65
     0
276
    -2
286
     1
 66
     0
277
    -2
287
     1
 67
     0
278
    -2
288
     1
 68
     0
279
    -2
289
     1
 69
     0
  7
Standard
140
0.25
170
     5
 62
     0
 63
     7
283
     0
 90
      512
 91
        0
  1

274
    -2
284
     1
 64
     0
275
    -2
285
     1
 65
     0
276
    -2
286
     1
 66
     0
277
    -2
287
     1
 67
     0
278
    -2
288
     1
 68
     0
279
    -2
289
     1
 69
     0
  7
Standard
140
0.18
170
     5
 62
     0
 63
     7
283
     0
 90
      512
 91
        0
  1

274
    -2
284
     1
 64
     0
275
    -2
285
     1
 65
     0
276
    -2
286
     1
 66
     0
277
    -2
287
     1
 67
     0
278
    -2
288
     1
 68
     0
279
    -2
289
     1
 69
     0
  0
VISUALSTYLE
  5
C9
102
{ACAD_XDICTIONARY
360
166
102
}
102
{ACAD_REACTORS
330
C3
102
}
330
C3
100
AcDbVisualStyle
  2
2dWireframe
 70
     4
177
     2
291
     0
 71
     0
176
     1
 72
     2
176
     1
 73
     0
176
     1
 90
        0
176
     1
 40
0.6
176
     1
 41
30.0
176
     1
 63
     7
421
 16777215
176
     1
 74
     1
176
     1
 91
        4
176
     1
 64
     7
176
     1
 65
   257
176
     1
 75
     1
176
     1
175
     1
176
     1
 42
1.0
176
     1
 92
        0
176
     1
 66
   257
176
     1
 43
1.0
176
     1
 76
     1
176
     1
 77
     6
176
     1
 78
     2
176
     1
 67
     7
176
     1
 79
     5
176
     1
170
     0
176
     1
171
     0
176
     1
290
     0
176
     1
 93
        1
176
     1
 44
0.0
176
     1
173
     0
176
     1
1001
ACAD
1000
AcDbSavedByObjectVersion
1070
     0
  0
VISUALSTYLE
  5
C8
102
{ACAD_XDICTIONARY
360
164
102
}
102
{ACAD_REACTORS
330
C3
102
}
330
C3
100
AcDbVisualStyle
  2
Basic
 70
     7
177
     2
291
     1
 71
     1
176
     1
 72
     0
176
     1
 73
     1
176
     1
 90
        0
176
     1
 40
0.6
176
     1
 41
30.0
176
     1
 63
     7
421
 16777215
176
     1
 74
     0
176
     1
 91
        4
176
     1
 64
     7
176
     1
 65
   257
176
     1
 75
     1
176
     1
175
     1
176
     1
 42
1.0
176
     1
 92
        8
176
     1
 66
     7
176
     1
 43
1.0
176
     1
 76
     1
176
     1
 77
     6
176
     1
 78
     2
176
     1
 67
     7
176
     1
 79
     5
176
     1
170
     0
176
     1
171
     0
176
     1
290
     0
176
     1
 93
        1
176
     1
 44
0.0
176
     1
173
     0
176
     1
1001
ACAD
1000
AcDbSavedByObjectVersion
1070
     0
  0
VISUALSTYLE
  5
CF
102
{ACAD_XDICTIONARY
360
172
102
}
102
{ACAD_REACTORS
330
C3
102
}
330
C3
100
AcDbVisualStyle
  2
Brighten
 70
    12
177
     2
291
     1
 71
     2
176
     1
 72
     2
176
     1
 73
     0
176
     1
 90
        0
176
     1
 40
0.6
176
     1
 41
30.0
176
     1
 63
     7
421
 16777215
176
     1
 74
     1
176
     1
 91
        4
176
     1
 64
     7
176
     1
 65
   257
176
     1
 75
     1
176
     1
175
     1
176
     1
 42
1.0
176
     1
 92
        8
176
     1
 66
     7
176
     1
 43
1.0
176
     1
 76
     1
176
     1
 77
     6
176
     1
 78
     2
176
     1
 67
     7
176
     1
 79
     5
176
     1
170
     0
176
     1
171
     0
176
     1
290
     0
176
     1
 93
        1
176
     1
 44
50.0
176
     1
173
     0
176
     1
1001
ACAD
1000
AcDbSavedByObjectVersion
1070
     0
  0
VISUALSTYLE
  5
D3
102
{ACAD_XDICTIONARY
360
17A
102
}
102
{ACAD_REACTORS
330
C3
102
}
330
C3
100
AcDbVisualStyle
  2
ColorChange
 70
    16
177
     2
291
     1
 71
     2
176
     1
 72
     2
176
     1
 73
     3
176
     1
 90
        0
176
     1
 40
0.6
176
     1
 41
30.0
176
     1
 63
     8
421
  8421504
176
     1
 74
     1
176
     1
 91
        4
176
     1
 64
     7
176
     1
 65
   257
176
     1
 75
     1
176
     1
175
     1
176
     1
 42
1.0
176
     1
 92
        8
176
     1
 66
     8
424
  8421504
176
     1
 43
1.0
176
     1
 76
     1
176
     1
 77
     6
176
     1
 78
     2
176
     1
 67
     7
176
     1
 79
     5
176
     1
170
     0
176
     1
171
     0
176
     1
290
     0
176
     1
 93
        1
176
     1
 44
0.0
176
     1
173
     0
176
     1
1001
ACAD
1000
AcDbSavedByObjectVersion
1070
     0
  0
VISUALSTYLE
  5
CC
102
{ACAD_XDICTIONARY
360
16C
102
}
102
{ACAD_REACTORS
330
C3
102
}
330
C3
100
AcDbVisualStyle
  2
Conceptual
 70
     9
177
     2
291
     0
 71
     3
176
     1
 72
     2
176
     1
 73
     0
176
     1
 90
        0
176
     1
 40
0.6
176
     1
 41
30.0
176
     1
 63
     7
421
 16777215
176
     1
 74
     2
176
     1
 91
        2
176
     1
 64
     7
176
     1
 65
   257
176
     1
 75
     1
176
     1
175
     1
176
     1
 42
179.0
176
     1
 92
        8
176
     1
 66
     7
176
     1
 43
1.0
176
     1
 76
     1
176
     1
 77
     6
176
     1
 78
     2
176
     1
 67
     7
176
     1
 79
     3
176
     1
170
     0
176
     1
171
     0
176
     1
290
     0
176
     1
 93
        1
176
     1
 44
0.0
176
     1
173
     0
176
     1
1001
ACAD
1000
AcDbSavedByObjectVersion
1070
     0
  0
VISUALSTYLE
  5
CE
102
{ACAD_XDICTIONARY
360
170
102
}
102
{ACAD_REACTORS
330
C3
102
}
330
C3
100
AcDbVisualStyle
  2
Dim
 70
    11
177
     2
291
     1
 71
     2
176
     1
 72
     2
176
     1
 73
     0
176
     1
 90
        0
176
     1
 40
0.6
176
     1
 41
30.0
176
     1
 63
     7
421
 16777215
176
     1
 74
     1
176
     1
 91
        4
176
     1
 64
     7
176
     1
 65
   257
176
     1
 75
     1
176
     1
175
     1
176
     1
 42
1.0
176
     1
 92
        8
176
     1
 66
     7
176
     1
 43
1.0
176
     1
 76
     1
176
     1
 77
     6
176
     1
 78
     2
176
     1
 67
     7
176
     1
 79
     5
176
     1
170
     0
176
     1
171
     0
176
     1
290
     0
176
     1
 93
        1
176
     1
 44
-50.0
176
     1
173
     0
176
     1
1001
ACAD
1000
AcDbSavedByObjectVersion
1070
     0
  0
VISUALSTYLE
  5
DB
102
{ACAD_XDICTIONARY
360
18A
102
}
102
{ACAD_REACTORS
330
C3
102
}
330
C3
100
AcDbVisualStyle
  2
EdgeColorOff
 70
    22
177
     2
291
     1
 71
     2
176
     0
 72
     2
176
     0
 73
     0
176
     0
 90
        0
176
     0
 40
0.6
176
     0
 41
30.0
176
     0
 63
     7
421
 16777215
176
     0
 74
     1
176
     0
 91
        4
176
     0
 64
     7
176
     0
 65
   257
176
     0
 75
     1
176
     0
175
     1
176
     0
 42
1.0
176
     0
 92
        8
176
     2
 66
     7
176
     0
 43
1.0
176
     0
 76
     1
176
     0
 77
     6
176
     0
 78
     2
176
     0
 67
     7
176
     0
 79
     5
176
     0
170
     0
176
     0
171
     0
176
     0
290
     0
176
     0
 93
        1
176
     0
 44
0.0
176
     0
173
     0
176
     0
1001
ACAD
1000
AcDbSavedByObjectVersion
1070
     0
  0
VISUALSTYLE
  5
D2
102
{ACAD_XDICTIONARY
360
178
102
}
102
{ACAD_REACTORS
330
C3
102
}
330
C3
100
AcDbVisualStyle
  2
Facepattern
 70
    15
177
     2
291
     1
 71
     2
176
     1
 72
     2
176
     1
 73
     0
176
     1
 90
        0
176
     1
 40
0.6
176
     1
 41
30.0
176
     1
 63
     7
421
 16777215
176
     1
 74
     1
176
     1
 91
        4
176
     1
 64
     7
176
     1
 65
   257
176
     1
 75
     1
176
     1
175
     1
176
     1
 42
1.0
176
     1
 92
        8
176
     1
 66
     7
176
     1
 43
1.0
176
     1
 76
     1
176
     1
 77
     6
176
     1
 78
     2
176
     1
 67
     7
176
     1
 79
     5
176
     1
170
     0
176
     1
171
     0
176
     1
290
     0
176
     1
 93
        1
176
     1
 44
0.0
176
     1
173
     0
176
     1
1001
ACAD
1000
AcDbSavedByObjectVersion
1070
     0
  0
VISUALSTYLE
  5
C4
102
{ACAD_XDICTIONARY
360
15C
102
}
102
{ACAD_REACTORS
330
C3
102
}
330
C3
100
AcDbVisualStyle
  2
Flat
 70
     0
177
     2
291
     1
 71
     2
176
     1
 72
     1
176
     1
 73
     1
176
     1
 90
        2
176
     1
 40
0.6
176
     1
 41
30.0
176
     1
 63
     7
421
 16777215
176
     1
 74
     0
176
     1
 91
        0
176
     1
 64
     7
176
     1
 65
   257
176
     1
 75
     1
176
     1
175
     1
176
     1
 42
1.0
176
     1
 92
        8
176
     1
 66
     7
176
     1
 43
1.0
176
     1
 76
     1
176
     1
 77
     6
176
     1
 78
     2
176
     1
 67
     7
176
     1
 79
     5
176
     1
170
     0
176
     1
171
     0
176
     1
290
     0
176
     1
 93
       13
176
     1
 44
0.0
176
     1
173
     0
176
     1
1001
ACAD
1000
AcDbSavedByObjectVersion
1070
     0
  0
VISUALSTYLE
  5
C5
102
{ACAD_XDICTIONARY
360
15E
102
}
102
{ACAD_REACTORS
330
C3
102
}
330
C3
100
AcDbVisualStyle
  2
FlatWithEdges
 70
     1
177
     2
291
     1
 71
     2
176
     1
 72
     1
176
     1
 73
     1
176
     1
 90
        2
176
     1
 40
0.6
176
     1
 41
30.0
176
     1
 63
     7
421
 16777215
176
     1
 74
     1
176
     1
 91
        0
176
     1
 64
     7
176
     1
 65
   257
176
     1
 75
     1
176
     1
175
     1
176
     1
 42
1.0
176
     1
 92
        0
176
     1
 66
   257
176
     1
 43
1.0
176
     1
 76
     1
176
     1
 77
     6
176
     1
 78
     2
176
     1
 67
     7
176
     1
 79
     5
176
     1
170
     0
176
     1
171
     0
176
     1
290
     0
176
     1
 93
       13
176
     1
 44
0.0
176
     1
173
     0
176
     1
1001
ACAD
1000
AcDbSavedByObjectVersion
1070
     0
  0
VISUALSTYLE
  5
C6
102
{ACAD_XDICTIONARY
360
160
102
}
102
{ACAD_REACTORS
330
C3
102
}
330
C3
100
AcDbVisualStyle
  2
Gouraud
 70
     2
177
     2
291
     1
 71
     2
176
     1
 72
     2
176
     1
 73
     1
176
     1
 90
        2
176
     1
 40
0.6
176
     1
 41
30.0
176
     1
 63
     7
421
 16777215
176
     1
 74
     0
176
     1
 91
        0
176
     1
 64
     7
176
     1
 65
   257
176
     1
 75
     1
176
     1
175
     1
176
     1
 42
1.0
176
     1
 92
        0
176
     1
 66
     7
176
     1
 43
1.0
176
     1
 76
     1
176
     1
 77
     6
176
     1
 78
     2
176
     1
 67
     7
176
     1
 79
     5
176
     1
170
     0
176
     1
171
     0
176
     1
290
     0
176
     1
 93
       13
176
     1
 44
0.0
176
     1
173
     0
176
     1
1001
ACAD
1000
AcDbSavedByObjectVersion
1070
     0
  0
VISUALSTYLE
  5
C7
102
{ACAD_XDICTIONARY
360
162
102
}
102
{ACAD_REACTORS
330
C3
102
}
330
C3
100
AcDbVisualStyle
  2
GouraudWithEdges
 70
     3
177
     2
291
     1
 71
     2
176
     1
 72
     2
176
     1
 73
     1
176
     1
 90
        2
176
     1
 40
0.6
176
     1
 41
30.0
176
     1
 63
     7
421
 16777215
176
     1
 74
     1
176
     1
 91
        0
176
     1
 64
     7
176
     1
 65
   257
176
     1
 75
     1
176
     1
175
     1
176
     1
 42
1.0
176
     1
 92
        0
176
     1
 66
   257
176
     1
 43
1.0
176
     1
 76
     1
176
     1
 77
     6
176
     1
 78
     2
176
     1
 67
     7
176
     1
 79
     5
176
     1
170
     0
176
     1
171
     0
176
     1
290
     0
176
     1
 93
       13
176
     1
 44
0.0
176
     1
173
     0
176
     1
1001
ACAD
1000
AcDbSavedByObjectVersion
1070
     0
  0
VISUALSTYLE
  5
CB
102
{ACAD_XDICTIONARY
360
16A
102
}
102
{ACAD_REACTORS
330
C3
102
}
330
C3
100
AcDbVisualStyle
  2
Hidden
 70
     6
177
     2
291
     0
 71
     1
176
     1
 72
     2
176
     1
 73
     2
176
     1
 90
        0
176
     1
 40
0.6
176
     1
 41
30.0
176
     1
 63
     7
421
 16777215
176
     1
 74
     2
176
     1
 91
        2
176
     1
 64
     7
176
     1
 65
   257
176
     1
 75
     2
176
     1
175
     1
176
     1
 42
40.0
176
     1
 92
        0
176
     1
 66
   257
176
     1
 43
1.0
176
     1
 76
     1
176
     1
 77
     6
176
     1
 78
     2
176
     1
 67
     7
176
     1
 79
     3
176
     1
170
     0
176
     1
171
     0
176
     1
290
     0
176
     1
 93
        1
176
     1
 44
0.0
176
     1
173
     0
176
     1
1001
ACAD
1000
AcDbSavedByObjectVersion
1070
     0
  0
VISUALSTYLE
  5
D9
102
{ACAD_XDICTIONARY
360
186
102
}
102
{ACAD_REACTORS
330
C3
102
}
330
C3
100
AcDbVisualStyle
  2
JitterOff
 70
    20
177
     2
291
     1
 71
     2
176
     0
 72
     2
176
     0
 73
     0
176
     0
 90
        0
176
     0
 40
0.6
176
     0
 41
30.0
176
     0
 63
     7
421
 16777215
176
     0
 74
     1
176
     0
 91
        4
176
     0
 64
     7
176
     0
 65
   257
176
     0
 75
     1
176
     0
175
     1
176
     0
 42
1.0
176
     0
 92
       10
176
     2
 66
     7
176
     0
 43
1.0
176
     0
 76
     1
176
     0
 77
     6
176
     0
 78
     2
176
     0
 67
     7
176
     0
 79
     5
176
     0
170
     0
176
     0
171
     0
176
     0
290
     0
176
     0
 93
        1
176
     0
 44
0.0
176
     0
173
     0
176
     0
1001
ACAD
1000
AcDbSavedByObjectVersion
1070
     0
  0
VISUALSTYLE
  5
D1
102
{ACAD_XDICTIONARY
360
176
102
}
102
{ACAD_REACTORS
330
C3
102
}
330
C3
100
AcDbVisualStyle
  2
Linepattern
 70
    14
177
     2
291
     1
 71
     2
176
     1
 72
     2
176
     1
 73
     0
176
     1
 90
        0
176
     1
 40
0.6
176
     1
 41
30.0
176
     1
 63
     7
421
 16777215
176
     1
 74
     1
176
     1
 91
        4
176
     1
 64
     7
176
     1
 65
   257
176
     1
 75
     7
176
     1
175
     7
176
     1
 42
1.0
176
     1
 92
        8
176
     1
 66
     7
176
     1
 43
1.0
176
     1
 76
     1
176
     1
 77
     6
176
     1
 78
     2
176
     1
 67
     7
176
     1
 79
     5
176
     1
170
     0
176
     1
171
     0
176
     1
290
     0
176
     1
 93
        1
176
     1
 44
0.0
176
     1
173
     0
176
     1
1001
ACAD
1000
AcDbSavedByObjectVersion
1070
     0
  0
VISUALSTYLE
  5
DA
102
{ACAD_XDICTIONARY
360
188
102
}
102
{ACAD_REACTORS
330
C3
102
}
330
C3
100
AcDbVisualStyle
  2
OverhangOff
 70
    21
177
     2
291
     1
 71
     2
176
     0
 72
     2
176
     0
 73
     0
176
     0
 90
        0
176
     0
 40
0.6
176
     0
 41
30.0
176
     0
 63
     7
421
 16777215
176
     0
 74
     1
176
     0
 91
        4
176
     0
 64
     7
176
     0
 65
   257
176
     0
 75
     1
176
     0
175
     1
176
     0
 42
1.0
176
     0
 92
        9
176
     2
 66
     7
176
     0
 43
1.0
176
     0
 76
     1
176
     0
 77
     6
176
     0
 78
     2
176
     0
 67
     7
176
     0
 79
     5
176
     0
170
     0
176
     0
171
     0
176
     0
290
     0
176
     0
 93
        1
176
     0
 44
0.0
176
     0
173
     0
176
     0
1001
ACAD
1000
AcDbSavedByObjectVersion
1070
     0
  0
VISUALSTYLE
  5
CD
102
{ACAD_XDICTIONARY
360
16E
102
}
102
{ACAD_REACTORS
330
C3
102
}
330
C3
100
AcDbVisualStyle
  2
Realistic
 70
     8
177
     2
291
     0
 71
     2
176
     1
 72
     3
176
     1
 73
     0
176
     1
 90
        2
176
     1
 40
0.6
176
     1
 41
30.0
176
     1
 63
     7
421
 16777215
176
     1
 74
     0
176
     1
 91
        0
176
     1
 64
     7
176
     1
 65
   257
176
     1
 75
     1
176
     1
175
     1
176
     1
 42
1.0
176
     1
 92
        8
176
     1
 66
   257
176
     1
 43
1.0
176
     1
 76
     1
176
     1
 77
     6
176
     1
 78
     2
176
     1
 67
     7
176
     1
 79
     3
176
     1
170
     0
176
     1
171
     0
176
     1
290
     0
176
     1
 93
       13
176
     1
 44
0.0
176
     1
173
     0
176
     1
1001
ACAD
1000
AcDbSavedByObjectVersion
1070
     0
  0
VISUALSTYLE
  5
D8
102
{ACAD_XDICTIONARY
360
184
102
}
102
{ACAD_REACTORS
330
C3
102
}
330
C3
100
AcDbVisualStyle
  2
Shaded
 70
    27
177
     2
291
     0
 71
     2
176
     1
 72
     2
176
     1
 73
     1
176
     1
 90
        2
176
     1
 40
0.6
176
     1
 41
30.0
176
     1
 63
     7
421
 16777215
176
     1
 74
     0
176
     1
 91
        4
176
     1
 64
     7
176
     1
 65
   257
176
     1
 75
     1
176
     1
175
     1
176
     1
 42
1.0
176
     1
 92
        8
176
     1
 66
   257
176
     1
 43
1.0
176
     1
 76
     1
176
     1
 77
     6
176
     1
 78
     2
176
     1
 67
     8
425
  7895160
176
     1
 79
     3
176
     1
170
     0
176
     1
171
     0
176
     1
290
     0
176
     1
 93
        5
176
     1
 44
0.0
176
     1
173
     0
176
     1
1001
ACAD
1000
AcDbSavedByObjectVersion
1070
     0
  0
VISUALSTYLE
  5
D7
102
{ACAD_XDICTIONARY
360
182
102
}
102
{ACAD_REACTORS
330
C3
102
}
330
C3
100
AcDbVisualStyle
  2
Shaded with edges
 70
    26
177
     2
291
     0
 71
     2
176
     1
 72
     2
176
     1
 73
     1
176
     1
 90
        2
176
     1
 40
0.6
176
     1
 41
30.0
176
     1
 63
     7
421
 16777215
176
     1
 74
     1
176
     1
 91
       10
176
     1
 64
     7
176
     1
 65
   257
176
     1
 75
     2
176
     1
175
     1
176
     1
 42
1.0
176
     1
 92
        8
176
     1
 66
   257
176
     1
 43
1.0
176
     1
 76
     1
176
     1
 77
     6
176
     1
 78
     2
176
     1
 67
     7
176
     1
 79
     3
176
     1
170
     0
176
     1
171
     0
176
     1
290
     0
176
     1
 93
        5
176
     1
 44
0.0
176
     1
173
     0
176
     1
1001
ACAD
1000
AcDbSavedByObjectVersion
1070
     0
  0
VISUALSTYLE
  5
D4
102
{ACAD_XDICTIONARY
360
17C
102
}
102
{ACAD_REACTORS
330
C3
102
}
330
C3
100
AcDbVisualStyle
  2
Shades of Gray
 70
    23
177
     2
291
     0
 71
     2
176
     1
 72
     2
176
     1
 73
     3
176
     1
 90
        0
176
     1
 40
0.6
176
     1
 41
30.0
176
     1
 63
     7
421
 16777215
176
     1
 74
     2
176
     1
 91
        2
176
     1
 64
     7
176
     1
 65
     7
176
     1
 75
     1
176
     1
175
     1
176
     1
 42
40.0
176
     1
 92
        8
176
     1
 66
     7
176
     1
 43
1.0
176
     1
 76
     1
176
     1
 77
     6
176
     1
 78
     2
176
     1
 67
     7
176
     1
 79
     3
176
     1
170
     0
176
     1
171
     0
176
     1
290
     0
176
     1
 93
        1
176
     1
 44
0.0
176
     1
173
     0
176
     1
1001
ACAD
1000
AcDbSavedByObjectVersion
1070
     0
  0
VISUALSTYLE
  5
D5
102
{ACAD_XDICTIONARY
360
17E
102
}
102
{ACAD_REACTORS
330
C3
102
}
330
C3
100
AcDbVisualStyle
  2
Sketchy
 70
    24
177
     2
291
     0
 71
     1
176
     1
 72
     2
176
     1
 73
     2
176
     1
 90
        0
176
     1
 40
0.6
176
     1
 41
30.0
176
     1
 63
     7
421
 16777215
176
     1
 74
     2
176
     1
 91
        2
176
     1
 64
     7
176
     1
 65
     7
176
     1
 75
     1
176
     1
175
     1
176
     1
 42
40.0
176
     1
 92
       11
176
     1
 66
     7
176
     1
 43
1.0
176
     1
 76
     1
176
     1
 77
     6
176
     1
 78
     2
176
     1
 67
     7
176
     1
 79
     6
176
     1
170
     0
176
     1
171
     0
176
     1
290
     0
176
     1
 93
        1
176
     1
 44
0.0
176
     1
173
     0
176
     1
1001
ACAD
1000
AcDbSavedByObjectVersion
1070
     0
  0
VISUALSTYLE
  5
D0
102
{ACAD_XDICTIONARY
360
174
102
}
102
{ACAD_REACTORS
330
C3
102
}
330
C3
100
AcDbVisualStyle
  2
Thicken
 70
    13
177
     2
291
     1
 71
     2
176
     1
 72
     2
176
     1
 73
     0
176
     1
 90
        0
176
     1
 40
0.6
176
     1
 41
30.0
176
     1
 63
     7
421
 16777215
176
     1
 74
     1
176
     1
 91
        4
176
     1
 64
     7
176
     1
 65
   257
176
     1
 75
     1
176
     1
175
     1
176
     1
 42
1.0
176
     1
 92
       12
176
     1
 66
     7
176
     1
 43
1.0
176
     1
 76
     1
176
     1
 77
     6
176
     1
 78
     2
176
     1
 67
     7
176
     1
 79
     5
176
     1
170
     0
176
     1
171
     0
176
     1
290
     0
176
     1
 93
        1
176
     1
 44
0.0
176
     1
173
     0
176
     1
1001
ACAD
1000
AcDbSavedByObjectVersion
1070
     0
  0
VISUALSTYLE
  5
CA
102
{ACAD_XDICTIONARY
360
168
102
}
102
{ACAD_REACTORS
330
C3
102
}
330
C3
100
AcDbVisualStyle
  2
Wireframe
 70
     5
177
     2
291
     0
 71
     0
176
     1
 72
     2
176
     1
 73
     0
176
     1
 90
        0
176
     1
 40
0.6
176
     1
 41
30.0
176
     1
 63
     7
421
 16777215
176
     1
 74
     1
176
     1
 91
        4
176
     1
 64
     7
176
     1
 65
   257
176
     1
 75
     1
176
     1
175
     1
176
     1
 42
1.0
176
     1
 92
        0
176
     1
 66
   257
176
     1
 43
1.0
176
     1
 76
     1
176
     1
 77
     6
176
     1
 78
     2
176
     1
 67
     7
176
     1
 79
     3
176
     1
170
     0
176
     1
171
     0
176
     1
290
     0
176
     1
 93
        1
176
     1
 44
0.0
176
     1
173
     0
176
     1
1001
ACAD
1000
AcDbSavedByObjectVersion
1070
     0
  0
VISUALSTYLE
  5
D6
102
{ACAD_XDICTIONARY
360
180
102
}
102
{ACAD_REACTORS
330
C3
102
}
330
C3
100
AcDbVisualStyle
  2
X-Ray
 70
    25
177
     2
291
     0
 71
     2
176
     1
 72
     2
176
     1
 73
     1
176
     1
 90
        1
176
     1
 40
0.5
176
     1
 41
30.0
176
     1
 63
     7
421
 16777215
176
     1
 74
     1
176
     1
 91
        0
176
     1
 64
     7
176
     1
 65
   257
176
     1
 75
     1
176
     1
175
     1
176
     1
 42
1.0
176
     1
 92
        8
176
     1
 66
     7
176
     1
 43
1.0
176
     1
 76
     1
176
     1
 77
     6
176
     1
 78
     2
176
     1
 67
     7
176
     1
 79
     3
176
     1
170
     0
176
     1
171
     0
176
     1
290
     0
176
     1
 93
       13
176
     1
 44
0.0
176
     1
173
     0
176
     1
1001
ACAD
1000
AcDbSavedByObjectVersion
1070
     0
  0
DICTIONARYVAR
  5
155
102
{ACAD_REACTORS
330
14F
102
}
330
14F
100
DictionaryVariables
280
     0
  1
1:1
  0
DICTIONARYVAR
  5
151
102
{ACAD_REACTORS
330
14F
102
}
330
14F
100
DictionaryVariables
280
     0
  1
STANDARD
  0
DICTIONARYVAR
  5
150
102
{ACAD_REACTORS
330
14F
102
}
330
14F
100
DictionaryVariables
280
     0
  1
STANDARD
  0
DICTIONARYVAR
  5
152
102
{ACAD_REACTORS
330
14F
102
}
330
14F
100
DictionaryVariables
280
     0
  1
Imperial24
  0
DICTIONARYVAR
  5
153
102
{ACAD_REACTORS
330
14F
102
}
330
14F
100
DictionaryVariables
280
     0
  1
Imperial24
  0
DICTIONARYVAR
  5
157
102
{ACAD_REACTORS
330
14F
102
}
330
14F
100
DictionaryVariables
280
     0
  1
1
  0
DICTIONARYVAR
  5
158
102
{ACAD_REACTORS
330
14F
102
}
330
14F
100
DictionaryVariables
280
     0
  1
15
  0
DICTIONARYVAR
  5
156
102
{ACAD_REACTORS
330
14F
102
}
330
14F
100
DictionaryVariables
280
     0
  1
0
  0
DICTIONARYVAR
  5
154
102
{ACAD_REACTORS
330
14F
102
}
330
14F
100
DictionaryVariables
280
     0
  1
0
  0
DICTIONARY
  5
190
330
F6
100
AcDbDictionary
280
     1
281
     1
  3
ACAD_XREC_ROUNDTRIP
360
191
  0
DICTIONARY
  5
B4
330
B3
100
AcDbDictionary
280
     1
281
     1
  3
BUMPTILE
360
B6
  3
DIFFUSETILE
360
B5
  3
OPACITYTILE
360
B9
  3
REFLECTIONTILE
360
B8
  3
REFRACTIONTILE
360
BA
  3
SPECULARTILE
360
B7
  0
DICTIONARY
  5
AC
330
AB
100
AcDbDictionary
280
     1
281
     1
  3
BUMPTILE
360
AE
  3
DIFFUSETILE
360
AD
  3
OPACITYTILE
360
B1
  3
REFLECTIONTILE
360
B0
  3
REFRACTIONTILE
360
B2
  3
SPECULARTILE
360
AF
  0
DICTIONARY
  5
BC
330
BB
100
AcDbDictionary
280
     1
281
     1
  3
BUMPTILE
360
BE
  3
DIFFUSETILE
360
BD
  3
OPACITYTILE
360
C1
  3
REFLECTIONTILE
360
C0
  3
REFRACTIONTILE
360
C2
  3
SPECULARTILE
360
BF
  0
DICTIONARY
  5
18C
330
F2
100
AcDbDictionary
280
     1
281
     1
  3
ACAD_XREC_ROUNDTRIP
360
18D
  0
DICTIONARY
  5
18E
330
F4
100
AcDbDictionary
280
     1
281
     1
  3
ACAD_XREC_ROUNDTRIP
360
18F
  0
DICTIONARY
  5
159
330
DE
100
AcDbDictionary
280
     1
281
     1
  3
ACAD_ROUNDTRIP_2008_TABLESTYLE_CELLSTYLEMAP
360
15A
  0
DICTIONARY
  5
166
330
C9
100
AcDbDictionary
280
     1
281
     1
  3
ACAD_XREC_ROUNDTRIP
360
167
  0
DICTIONARY
  5
164
330
C8
100
AcDbDictionary
280
     1
281
     1
  3
ACAD_XREC_ROUNDTRIP
360
165
  0
DICTIONARY
  5
172
330
CF
100
AcDbDictionary
280
     1
281
     1
  3
ACAD_XREC_ROUNDTRIP
360
173
  0
DICTIONARY
  5
17A
330
D3
100
AcDbDictionary
280
     1
281
     1
  3
ACAD_XREC_ROUNDTRIP
360
17B
  0
DICTIONARY
  5
16C
330
CC
100
AcDbDictionary
280
     1
281
     1
  3
ACAD_XREC_ROUNDTRIP
360
16D
  0
DICTIONARY
  5
170
330
CE
100
AcDbDictionary
280
     1
281
     1
  3
ACAD_XREC_ROUNDTRIP
360
171
  0
DICTIONARY
  5
18A
330
DB
100
AcDbDictionary
280
     1
281
     1
  3
ACAD_XREC_ROUNDTRIP
360
18B
  0
DICTIONARY
  5
178
330
D2
100
AcDbDictionary
280
     1
281
     1
  3
ACAD_XREC_ROUNDTRIP
360
179
  0
DICTIONARY
  5
15C
330
C4
100
AcDbDictionary
280
     1
281
     1
  3
ACAD_XREC_ROUNDTRIP
360
15D
  0
DICTIONARY
  5
15E
330
C5
100
AcDbDictionary
280
     1
281
     1
  3
ACAD_XREC_ROUNDTRIP
360
15F
  0
DICTIONARY
  5
160
330
C6
100
AcDbDictionary
280
     1
281
     1
  3
ACAD_XREC_ROUNDTRIP
360
161
  0
DICTIONARY
  5
162
330
C7
100
AcDbDictionary
280
     1
281
     1
  3
ACAD_XREC_ROUNDTRIP
360
163
  0
DICTIONARY
  5
16A
330
CB
100
AcDbDictionary
280
     1
281
     1
  3
ACAD_XREC_ROUNDTRIP
360
16B
  0
DICTIONARY
  5
186
330
D9
100
AcDbDictionary
280
     1
281
     1
  3
ACAD_XREC_ROUNDTRIP
360
187
  0
DICTIONARY
  5
176
330
D1
100
AcDbDictionary
280
     1
281
     1
  3
ACAD_XREC_ROUNDTRIP
360
177
  0
DICTIONARY
  5
188
330
DA
100
AcDbDictionary
280
     1
281
     1
  3
ACAD_XREC_ROUNDTRIP
360
189
  0
DICTIONARY
  5
16E
330
CD
100
AcDbDictionary
280
     1
281
     1
  3
ACAD_XREC_ROUNDTRIP
360
16F
  0
DICTIONARY
  5
184
330
D8
100
AcDbDictionary
280
     1
281
     1
  3
ACAD_XREC_ROUNDTRIP
360
185
  0
DICTIONARY
  5
182
330
D7
100
AcDbDictionary
280
     1
281
     1
  3
ACAD_XREC_ROUNDTRIP
360
183
  0
DICTIONARY
  5
17C
330
D4
100
AcDbDictionary
280
     1
281
     1
  3
ACAD_XREC_ROUNDTRIP
360
17D
  0
DICTIONARY
  5
17E
330
D5
100
AcDbDictionary
280
     1
281
     1
  3
ACAD_XREC_ROUNDTRIP
360
17F
  0
DICTIONARY
  5
174
330
D0
100
AcDbDictionary
280
     1
281
     1
  3
ACAD_XREC_ROUNDTRIP
360
175
  0
DICTIONARY
  5
168
330
CA
100
AcDbDictionary
280
     1
281
     1
  3
ACAD_XREC_ROUNDTRIP
360
169
  0
DICTIONARY
  5
180
330
D6
100
AcDbDictionary
280
     1
281
     1
  3
ACAD_XREC_ROUNDTRIP
360
181
  0
XRECORD
  5
191
102
{ACAD_REACTORS
330
190
102
}
330
190
100
AcDbXrecord
280
     1
102
DISPLAYNAME
  1
Imperial24
102
FLAGS
 90
        0
  0
XRECORD
  5
B6
102
{ACAD_REACTORS
330
B4
102
}
330
B4
100
AcDbXrecord
280
     1
270
     1
271
     1
  0
XRECORD
  5
B5
102
{ACAD_REACTORS
330
B4
102
}
330
B4
100
AcDbXrecord
280
     1
270
     1
271
     1
  0
XRECORD
  5
B9
102
{ACAD_REACTORS
330
B4
102
}
330
B4
100
AcDbXrecord
280
     1
270
     1
271
     1
  0
XRECORD
  5
B8
102
{ACAD_REACTORS
330
B4
102
}
330
B4
100
AcDbXrecord
280
     1
270
     1
271
     1
  0
XRECORD
  5
BA
102
{ACAD_REACTORS
330
B4
102
}
330
B4
100
AcDbXrecord
280
     1
270
     1
271
     1
  0
XRECORD
  5
B7
102
{ACAD_REACTORS
330
B4
102
}
330
B4
100
AcDbXrecord
280
     1
270
     1
271
     1
  0
XRECORD
  5
AE
102
{ACAD_REACTORS
330
AC
102
}
330
AC
100
AcDbXrecord
280
     1
270
     1
271
     1
  0
XRECORD
  5
AD
102
{ACAD_REACTORS
330
AC
102
}
330
AC
100
AcDbXrecord
280
     1
270
     1
271
     1
  0
XRECORD
  5
B1
102
{ACAD_REACTORS
330
AC
102
}
330
AC
100
AcDbXrecord
280
     1
270
     1
271
     1
  0
XRECORD
  5
B0
102
{ACAD_REACTORS
330
AC
102
}
330
AC
100
AcDbXrecord
280
     1
270
     1
271
     1
  0
XRECORD
  5
B2
102
{ACAD_REACTORS
330
AC
102
}
330
AC
100
AcDbXrecord
280
     1
270
     1
271
     1
  0
XRECORD
  5
AF
102
{ACAD_REACTORS
330
AC
102
}
330
AC
100
AcDbXrecord
280
     1
270
     1
271
     1
  0
XRECORD
  5
BE
102
{ACAD_REACTORS
330
BC
102
}
330
BC
100
AcDbXrecord
280
     1
270
     1
271
     1
  0
XRECORD
  5
BD
102
{ACAD_REACTORS
330
BC
102
}
330
BC
100
AcDbXrecord
280
     1
270
     1
271
     1
  0
XRECORD
  5
C1
102
{ACAD_REACTORS
330
BC
102
}
330
BC
100
AcDbXrecord
280
     1
270
     1
271
     1
  0
XRECORD
  5
C0
102
{ACAD_REACTORS
330
BC
102
}
330
BC
100
AcDbXrecord
280
     1
270
     1
271
     1
  0
XRECORD
  5
C2
102
{ACAD_REACTORS
330
BC
102
}
330
BC
100
AcDbXrecord
280
     1
270
     1
271
     1
  0
XRECORD
  5
BF
102
{ACAD_REACTORS
330
BC
102
}
330
BC
100
AcDbXrecord
280
     1
270
     1
271
     1
  0
XRECORD
  5
18D
102
{ACAD_REACTORS
330
18C
102
}
330
18C
100
AcDbXrecord
280
     1
102
ACAD_ROUNDTRIP_2012_MLEADER_STYLE
298
     1
  0
XRECORD
  5
18F
102
{ACAD_REACTORS
330
18E
102
}
330
18E
100
AcDbXrecord
280
     1
102
DISPLAYNAME
  1
Imperial24
102
FLAGS
 90
        0
  0
CELLSTYLEMAP
  5
15A
102
{ACAD_REACTORS
330
159
102
}
330
159
100
AcDbCellStyleMap
 90
        3
300
CELLSTYLE
  1
TABLEFORMAT_BEGIN
 90
        5
170
     1
 91
        0
 92
    32768
 62
   257
 93
        1
300
CONTENTFORMAT
  1
CONTENTFORMAT_BEGIN
 90
        0
 91
        0
 92
      512
 93
        0
300

 40
0.0
140
1.0
 94
        5
 62
     0
340
11
144
0.25
309
CONTENTFORMAT_END
171
     0
 94
        0
309
TABLEFORMAT_END
  1
CELLSTYLE_BEGIN
 90
        1
 91
        1
300
_TITLE
309
CELLSTYLE_END
300
CELLSTYLE
  1
TABLEFORMAT_BEGIN
 90
        5
170
     1
 91
        0
 92
        0
 62
   257
 93
        1
300
CONTENTFORMAT
  1
CONTENTFORMAT_BEGIN
 90
        0
 91
        0
 92
      512
 93
        0
300

 40
0.0
140
1.0
 94
        5
 62
     0
340
11
144
0.18
309
CONTENTFORMAT_END
171
     0
 94
        0
309
TABLEFORMAT_END
  1
CELLSTYLE_BEGIN
 90
        2
 91
        1
300
_HEADER
309
CELLSTYLE_END
300
CELLSTYLE
  1
TABLEFORMAT_BEGIN
 90
        5
170
     1
 91
        0
 92
        0
 62
   257
 93
        1
300
CONTENTFORMAT
  1
CONTENTFORMAT_BEGIN
 90
        0
 91
        0
 92
      512
 93
        0
300

 40
0.0
140
1.0
 94
        2
 62
     0
340
11
144
0.18
309
CONTENTFORMAT_END
171
     0
 94
        0
309
TABLEFORMAT_END
  1
CELLSTYLE_BEGIN
 90
        3
 91
        2
300
_DATA
309
CELLSTYLE_END
  0
XRECORD
  5
167
102
{ACAD_REACTORS
330
166
102
}
330
166
100
AcDbXrecord
280
     1
102
RTVSPost2010Prop28
280
     1
102
RTVSPost2010PropOp28
 70
     1
102
RTVSPost2010Prop29
280
     1
102
RTVSPost2010PropOp29
 70
     1
102
RTVSPost2010Prop30
280
     0
102
RTVSPost2010PropOp30
 70
     1
102
RTVSPost2010Prop31
280
     0
102
RTVSPost2010PropOp31
 70
     1
102
RTVSPost2010Prop32
280
     0
102
RTVSPost2010PropOp32
 70
     1
102
RTVSPost2010Prop33
280
     0
102
RTVSPost2010PropOp33
 70
     1
102
RTVSPost2010Prop34
280
     0
102
RTVSPost2010PropOp34
 70
     1
102
RTVSPost2010Prop35
280
     0
102
RTVSPost2010PropOp35
 70
     1
102
RTVSPost2010Prop36
280
     0
102
RTVSPost2010PropOp36
 70
     1
102
RTVSPost2010Prop37
 90
       50
102
RTVSPost2010PropOp37
 70
     1
102
RTVSPost2010Prop38
140
0.0
102
RTVSPost2010PropOp38
 70
     1
102
RTVSPost2010Prop39
140
1.0
102
RTVSPost2010PropOp39
 70
     1
102
RTVSPost2010Prop40
 90
        0
102
RTVSPost2010PropOp40
 70
     1
102
RTVSPost2010Prop41ColorIndex
 90
       18
102
RTVSPost2010Prop41ColorRGB
 90
        0
102
RTVSPost2010PropOp41
 70
     1
102
RTVSPost2010Prop42
 90
       50
102
RTVSPost2010PropOp42
 70
     1
102
RTVSPost2010Prop43
 90
        3
102
RTVSPost2010PropOp43
 70
     1
102
RTVSPost2010Prop44ColorIndex
 90
        5
102
RTVSPost2010Prop44ColorRGB
 90
      255
102
RTVSPost2010PropOp44
 70
     1
102
RTVSPost2010Prop45
280
     0
102
RTVSPost2010PropOp45
 70
     1
102
RTVSPost2010Prop46
 90
       50
102
RTVSPost2010PropOp46
 70
     1
102
RTVSPost2010Prop47
 90
       50
102
RTVSPost2010PropOp47
 70
     1
102
RTVSPost2010Prop48
 90
       50
102
RTVSPost2010PropOp48
 70
     1
102
RTVSPost2010Prop49
280
     0
102
RTVSPost2010PropOp49
 70
     1
102
RTVSPost2010Prop50
 90
       50
102
RTVSPost2010PropOp50
 70
     1
102
RTVSPost2010Prop51ColorIndex
 90
      256
102
RTVSPost2010Prop51ColorRGB
 90
-16777216
102
RTVSPost2010PropOp51
 70
     0
102
RTVSPost2010Prop52
140
1.0
102
RTVSPost2010PropOp52
 70
     0
102
RTVSPost2010Prop53
 90
        2
102
RTVSPost2010PropOp53
 70
     1
102
RTVSPost2010Prop54
  1
strokes_ogs.tif
102
RTVSPost2010PropOp54
 70
     1
102
RTVSPost2010Prop55
280
     0
102
RTVSPost2010PropOp55
 70
     1
102
RTVSPost2010Prop56
140
1.0
102
RTVSPost2010PropOp56
 70
     1
102
RTVSPost2010Prop57
140
1.0
102
RTVSPost2010PropOp57
 70
     1
  0
XRECORD
  5
165
102
{ACAD_REACTORS
330
164
102
}
330
164
100
AcDbXrecord
280
     1
102
RTVSPost2010Prop28
280
     0
102
RTVSPost2010PropOp28
 70
     1
102
RTVSPost2010Prop29
280
     1
102
RTVSPost2010PropOp29
 70
     1
102
RTVSPost2010Prop30
280
     1
102
RTVSPost2010PropOp30
 70
     1
102
RTVSPost2010Prop31
280
     0
102
RTVSPost2010PropOp31
 70
     1
102
RTVSPost2010Prop32
280
     0
102
RTVSPost2010PropOp32
 70
     1
102
RTVSPost2010Prop33
280
     0
102
RTVSPost2010PropOp33
 70
     1
102
RTVSPost2010Prop34
280
     0
102
RTVSPost2010PropOp34
 70
     1
102
RTVSPost2010Prop35
280
     0
102
RTVSPost2010PropOp35
 70
     1
102
RTVSPost2010Prop36
280
     0
102
RTVSPost2010PropOp36
 70
     1
102
RTVSPost2010Prop37
 90
       50
102
RTVSPost2010PropOp37
 70
     1
102
RTVSPost2010Prop38
140
0.0
102
RTVSPost2010PropOp38
 70
     1
102
RTVSPost2010Prop39
140
1.0
102
RTVSPost2010PropOp39
 70
     1
102
RTVSPost2010Prop40
 90
        0
102
RTVSPost2010PropOp40
 70
     1
102
RTVSPost2010Prop41ColorIndex
 90
       18
102
RTVSPost2010Prop41ColorRGB
 90
        0
102
RTVSPost2010PropOp41
 70
     1
102
RTVSPost2010Prop42
 90
       50
102
RTVSPost2010PropOp42
 70
     1
102
RTVSPost2010Prop43
 90
        3
102
RTVSPost2010PropOp43
 70
     1
102
RTVSPost2010Prop44ColorIndex
 90
        5
102
RTVSPost2010Prop44ColorRGB
 90
      255
102
RTVSPost2010PropOp44
 70
     1
102
RTVSPost2010Prop45
280
     0
102
RTVSPost2010PropOp45
 70
     1
102
RTVSPost2010Prop46
 90
       50
102
RTVSPost2010PropOp46
 70
     1
102
RTVSPost2010Prop47
 90
       50
102
RTVSPost2010PropOp47
 70
     1
102
RTVSPost2010Prop48
 90
       50
102
RTVSPost2010PropOp48
 70
     1
102
RTVSPost2010Prop49
280
     0
102
RTVSPost2010PropOp49
 70
     1
102
RTVSPost2010Prop50
 90
       50
102
RTVSPost2010PropOp50
 70
     1
102
RTVSPost2010Prop51ColorIndex
 90
      256
102
RTVSPost2010Prop51ColorRGB
 90
-16777216
102
RTVSPost2010PropOp51
 70
     0
102
RTVSPost2010Prop52
140
1.0
102
RTVSPost2010PropOp52
 70
     0
102
RTVSPost2010Prop53
 90
        2
102
RTVSPost2010PropOp53
 70
     1
102
RTVSPost2010Prop54
  1
strokes_ogs.tif
102
RTVSPost2010PropOp54
 70
     1
102
RTVSPost2010Prop55
280
     0
102
RTVSPost2010PropOp55
 70
     1
102
RTVSPost2010Prop56
140
1.0
102
RTVSPost2010PropOp56
 70
     1
102
RTVSPost2010Prop57
140
1.0
102
RTVSPost2010PropOp57
 70
     1
  0
XRECORD
  5
173
102
{ACAD_REACTORS
330
172
102
}
330
172
100
AcDbXrecord
280
     1
102
RTVSPost2010Prop28
280
     0
102
RTVSPost2010PropOp28
 70
     1
102
RTVSPost2010Prop29
280
     1
102
RTVSPost2010PropOp29
 70
     1
102
RTVSPost2010Prop30
280
     1
102
RTVSPost2010PropOp30
 70
     1
102
RTVSPost2010Prop31
280
     0
102
RTVSPost2010PropOp31
 70
     1
102
RTVSPost2010Prop32
280
     0
102
RTVSPost2010PropOp32
 70
     1
102
RTVSPost2010Prop33
280
     0
102
RTVSPost2010PropOp33
 70
     1
102
RTVSPost2010Prop34
280
     0
102
RTVSPost2010PropOp34
 70
     1
102
RTVSPost2010Prop35
280
     0
102
RTVSPost2010PropOp35
 70
     1
102
RTVSPost2010Prop36
280
     0
102
RTVSPost2010PropOp36
 70
     1
102
RTVSPost2010Prop37
 90
       50
102
RTVSPost2010PropOp37
 70
     1
102
RTVSPost2010Prop38
140
0.0
102
RTVSPost2010PropOp38
 70
     1
102
RTVSPost2010Prop39
140
1.0
102
RTVSPost2010PropOp39
 70
     1
102
RTVSPost2010Prop40
 90
        0
102
RTVSPost2010PropOp40
 70
     1
102
RTVSPost2010Prop41ColorIndex
 90
       18
102
RTVSPost2010Prop41ColorRGB
 90
        0
102
RTVSPost2010PropOp41
 70
     1
102
RTVSPost2010Prop42
 90
       50
102
RTVSPost2010PropOp42
 70
     1
102
RTVSPost2010Prop43
 90
        3
102
RTVSPost2010PropOp43
 70
     1
102
RTVSPost2010Prop44ColorIndex
 90
        5
102
RTVSPost2010Prop44ColorRGB
 90
      255
102
RTVSPost2010PropOp44
 70
     1
102
RTVSPost2010Prop45
280
     0
102
RTVSPost2010PropOp45
 70
     1
102
RTVSPost2010Prop46
 90
       50
102
RTVSPost2010PropOp46
 70
     1
102
RTVSPost2010Prop47
 90
       50
102
RTVSPost2010PropOp47
 70
     1
102
RTVSPost2010Prop48
 90
       50
102
RTVSPost2010PropOp48
 70
     1
102
RTVSPost2010Prop49
280
     0
102
RTVSPost2010PropOp49
 70
     1
102
RTVSPost2010Prop50
 90
       50
102
RTVSPost2010PropOp50
 70
     1
102
RTVSPost2010Prop51ColorIndex
 90
      256
102
RTVSPost2010Prop51ColorRGB
 90
-16777216
102
RTVSPost2010PropOp51
 70
     0
102
RTVSPost2010Prop52
140
1.0
102
RTVSPost2010PropOp52
 70
     0
102
RTVSPost2010Prop53
 90
        2
102
RTVSPost2010PropOp53
 70
     1
102
RTVSPost2010Prop54
  1
strokes_ogs.tif
102
RTVSPost2010PropOp54
 70
     1
102
RTVSPost2010Prop55
280
     0
102
RTVSPost2010PropOp55
 70
     1
102
RTVSPost2010Prop56
140
1.0
102
RTVSPost2010PropOp56
 70
     1
102
RTVSPost2010Prop57
140
1.0
102
RTVSPost2010PropOp57
 70
     1
  0
XRECORD
  5
17B
102
{ACAD_REACTORS
330
17A
102
}
330
17A
100
AcDbXrecord
280
     1
102
RTVSPost2010Prop28
280
     0
102
RTVSPost2010PropOp28
 70
     1
102
RTVSPost2010Prop29
280
     1
102
RTVSPost2010PropOp29
 70
     1
102
RTVSPost2010Prop30
280
     1
102
RTVSPost2010PropOp30
 70
     1
102
RTVSPost2010Prop31
280
     0
102
RTVSPost2010PropOp31
 70
     1
102
RTVSPost2010Prop32
280
     0
102
RTVSPost2010PropOp32
 70
     1
102
RTVSPost2010Prop33
280
     0
102
RTVSPost2010PropOp33
 70
     1
102
RTVSPost2010Prop34
280
     0
102
RTVSPost2010PropOp34
 70
     1
102
RTVSPost2010Prop35
280
     0
102
RTVSPost2010PropOp35
 70
     1
102
RTVSPost2010Prop36
280
     0
102
RTVSPost2010PropOp36
 70
     1
102
RTVSPost2010Prop37
 90
       50
102
RTVSPost2010PropOp37
 70
     1
102
RTVSPost2010Prop38
140
0.0
102
RTVSPost2010PropOp38
 70
     1
102
RTVSPost2010Prop39
140
1.0
102
RTVSPost2010PropOp39
 70
     1
102
RTVSPost2010Prop40
 90
        0
102
RTVSPost2010PropOp40
 70
     1
102
RTVSPost2010Prop41ColorIndex
 90
       18
102
RTVSPost2010Prop41ColorRGB
 90
        0
102
RTVSPost2010PropOp41
 70
     1
102
RTVSPost2010Prop42
 90
       50
102
RTVSPost2010PropOp42
 70
     1
102
RTVSPost2010Prop43
 90
        3
102
RTVSPost2010PropOp43
 70
     1
102
RTVSPost2010Prop44ColorIndex
 90
        5
102
RTVSPost2010Prop44ColorRGB
 90
      255
102
RTVSPost2010PropOp44
 70
     1
102
RTVSPost2010Prop45
280
     0
102
RTVSPost2010PropOp45
 70
     1
102
RTVSPost2010Prop46
 90
       50
102
RTVSPost2010PropOp46
 70
     1
102
RTVSPost2010Prop47
 90
       50
102
RTVSPost2010PropOp47
 70
     1
102
RTVSPost2010Prop48
 90
       50
102
RTVSPost2010PropOp48
 70
     1
102
RTVSPost2010Prop49
280
     0
102
RTVSPost2010PropOp49
 70
     1
102
RTVSPost2010Prop50
 90
       50
102
RTVSPost2010PropOp50
 70
     1
102
RTVSPost2010Prop51ColorIndex
 90
      256
102
RTVSPost2010Prop51ColorRGB
 90
-16777216
102
RTVSPost2010PropOp51
 70
     0
102
RTVSPost2010Prop52
140
1.0
102
RTVSPost2010PropOp52
 70
     0
102
RTVSPost2010Prop53
 90
        2
102
RTVSPost2010PropOp53
 70
     1
102
RTVSPost2010Prop54
  1
strokes_ogs.tif
102
RTVSPost2010PropOp54
 70
     1
102
RTVSPost2010Prop55
280
     0
102
RTVSPost2010PropOp55
 70
     1
102
RTVSPost2010Prop56
140
1.0
102
RTVSPost2010PropOp56
 70
     1
102
RTVSPost2010Prop57
140
1.0
102
RTVSPost2010PropOp57
 70
     1
  0
XRECORD
  5
16D
102
{ACAD_REACTORS
330
16C
102
}
330
16C
100
AcDbXrecord
280
     1
102
RTVSPost2010Prop28
280
     0
102
RTVSPost2010PropOp28
 70
     1
102
RTVSPost2010Prop29
280
     1
102
RTVSPost2010PropOp29
 70
     1
102
RTVSPost2010Prop30
280
     1
102
RTVSPost2010PropOp30
 70
     1
102
RTVSPost2010Prop31
280
     0
102
RTVSPost2010PropOp31
 70
     1
102
RTVSPost2010Prop32
280
     0
102
RTVSPost2010PropOp32
 70
     1
102
RTVSPost2010Prop33
280
     0
102
RTVSPost2010PropOp33
 70
     1
102
RTVSPost2010Prop34
280
     0
102
RTVSPost2010PropOp34
 70
     1
102
RTVSPost2010Prop35
280
     0
102
RTVSPost2010PropOp35
 70
     1
102
RTVSPost2010Prop36
280
     0
102
RTVSPost2010PropOp36
 70
     1
102
RTVSPost2010Prop37
 90
       50
102
RTVSPost2010PropOp37
 70
     1
102
RTVSPost2010Prop38
140
0.0
102
RTVSPost2010PropOp38
 70
     1
102
RTVSPost2010Prop39
140
1.0
102
RTVSPost2010PropOp39
 70
     1
102
RTVSPost2010Prop40
 90
        0
102
RTVSPost2010PropOp40
 70
     1
102
RTVSPost2010Prop41ColorIndex
 90
       18
102
RTVSPost2010Prop41ColorRGB
 90
        0
102
RTVSPost2010PropOp41
 70
     1
102
RTVSPost2010Prop42
 90
       50
102
RTVSPost2010PropOp42
 70
     1
102
RTVSPost2010Prop43
 90
        3
102
RTVSPost2010PropOp43
 70
     1
102
RTVSPost2010Prop44ColorIndex
 90
        5
102
RTVSPost2010Prop44ColorRGB
 90
      255
102
RTVSPost2010PropOp44
 70
     1
102
RTVSPost2010Prop45
280
     0
102
RTVSPost2010PropOp45
 70
     1
102
RTVSPost2010Prop46
 90
       50
102
RTVSPost2010PropOp46
 70
     1
102
RTVSPost2010Prop47
 90
       50
102
RTVSPost2010PropOp47
 70
     1
102
RTVSPost2010Prop48
 90
       50
102
RTVSPost2010PropOp48
 70
     1
102
RTVSPost2010Prop49
280
     0
102
RTVSPost2010PropOp49
 70
     1
102
RTVSPost2010Prop50
 90
       50
102
RTVSPost2010PropOp50
 70
     1
102
RTVSPost2010Prop51ColorIndex
 90
      256
102
RTVSPost2010Prop51ColorRGB
 90
-16777216
102
RTVSPost2010PropOp51
 70
     0
102
RTVSPost2010Prop52
140
1.0
102
RTVSPost2010PropOp52
 70
     0
102
RTVSPost2010Prop53
 90
        2
102
RTVSPost2010PropOp53
 70
     1
102
RTVSPost2010Prop54
  1
strokes_ogs.tif
102
RTVSPost2010PropOp54
 70
     1
102
RTVSPost2010Prop55
280
     0
102
RTVSPost2010PropOp55
 70
     1
102
RTVSPost2010Prop56
140
1.0
102
RTVSPost2010PropOp56
 70
     1
102
RTVSPost2010Prop57
140
1.0
102
RTVSPost2010PropOp57
 70
     1
  0
XRECORD
  5
171
102
{ACAD_REACTORS
330
170
102
}
330
170
100
AcDbXrecord
280
     1
102
RTVSPost2010Prop28
280
     0
102
RTVSPost2010PropOp28
 70
     1
102
RTVSPost2010Prop29
280
     1
102
RTVSPost2010PropOp29
 70
     1
102
RTVSPost2010Prop30
280
     1
102
RTVSPost2010PropOp30
 70
     1
102
RTVSPost2010Prop31
280
     0
102
RTVSPost2010PropOp31
 70
     1
102
RTVSPost2010Prop32
280
     0
102
RTVSPost2010PropOp32
 70
     1
102
RTVSPost2010Prop33
280
     0
102
RTVSPost2010PropOp33
 70
     1
102
RTVSPost2010Prop34
280
     0
102
RTVSPost2010PropOp34
 70
     1
102
RTVSPost2010Prop35
280
     0
102
RTVSPost2010PropOp35
 70
     1
102
RTVSPost2010Prop36
280
     0
102
RTVSPost2010PropOp36
 70
     1
102
RTVSPost2010Prop37
 90
       50
102
RTVSPost2010PropOp37
 70
     1
102
RTVSPost2010Prop38
140
0.0
102
RTVSPost2010PropOp38
 70
     1
102
RTVSPost2010Prop39
140
1.0
102
RTVSPost2010PropOp39
 70
     1
102
RTVSPost2010Prop40
 90
        0
102
RTVSPost2010PropOp40
 70
     1
102
RTVSPost2010Prop41ColorIndex
 90
       18
102
RTVSPost2010Prop41ColorRGB
 90
        0
102
RTVSPost2010PropOp41
 70
     1
102
RTVSPost2010Prop42
 90
       50
102
RTVSPost2010PropOp42
 70
     1
102
RTVSPost2010Prop43
 90
        3
102
RTVSPost2010PropOp43
 70
     1
102
RTVSPost2010Prop44ColorIndex
 90
        5
102
RTVSPost2010Prop44ColorRGB
 90
      255
102
RTVSPost2010PropOp44
 70
     1
102
RTVSPost2010Prop45
280
     0
102
RTVSPost2010PropOp45
 70
     1
102
RTVSPost2010Prop46
 90
       50
102
RTVSPost2010PropOp46
 70
     1
102
RTVSPost2010Prop47
 90
       50
102
RTVSPost2010PropOp47
 70
     1
102
RTVSPost2010Prop48
 90
       50
102
RTVSPost2010PropOp48
 70
     1
102
RTVSPost2010Prop49
280
     0
102
RTVSPost2010PropOp49
 70
     1
102
RTVSPost2010Prop50
 90
       50
102
RTVSPost2010PropOp50
 70
     1
102
RTVSPost2010Prop51ColorIndex
 90
      256
102
RTVSPost2010Prop51ColorRGB
 90
-16777216
102
RTVSPost2010PropOp51
 70
     0
102
RTVSPost2010Prop52
140
1.0
102
RTVSPost2010PropOp52
 70
     0
102
RTVSPost2010Prop53
 90
        2
102
RTVSPost2010PropOp53
 70
     1
102
RTVSPost2010Prop54
  1
strokes_ogs.tif
102
RTVSPost2010PropOp54
 70
     1
102
RTVSPost2010Prop55
280
     0
102
RTVSPost2010PropOp55
 70
     1
102
RTVSPost2010Prop56
140
1.0
102
RTVSPost2010PropOp56
 70
     1
102
RTVSPost2010Prop57
140
1.0
102
RTVSPost2010PropOp57
 70
     1
  0
XRECORD
  5
18B
102
{ACAD_REACTORS
330
18A
102
}
330
18A
100
AcDbXrecord
280
     1
102
RTVSPost2010Prop28
280
     0
102
RTVSPost2010PropOp28
 70
     0
102
RTVSPost2010Prop29
280
     1
102
RTVSPost2010PropOp29
 70
     0
102
RTVSPost2010Prop30
280
     1
102
RTVSPost2010PropOp30
 70
     0
102
RTVSPost2010Prop31
280
     0
102
RTVSPost2010PropOp31
 70
     0
102
RTVSPost2010Prop32
280
     0
102
RTVSPost2010PropOp32
 70
     0
102
RTVSPost2010Prop33
280
     0
102
RTVSPost2010PropOp33
 70
     0
102
RTVSPost2010Prop34
280
     0
102
RTVSPost2010PropOp34
 70
     0
102
RTVSPost2010Prop35
280
     0
102
RTVSPost2010PropOp35
 70
     0
102
RTVSPost2010Prop36
280
     0
102
RTVSPost2010PropOp36
 70
     0
102
RTVSPost2010Prop37
 90
       50
102
RTVSPost2010PropOp37
 70
     0
102
RTVSPost2010Prop38
140
0.0
102
RTVSPost2010PropOp38
 70
     0
102
RTVSPost2010Prop39
140
1.0
102
RTVSPost2010PropOp39
 70
     0
102
RTVSPost2010Prop40
 90
        0
102
RTVSPost2010PropOp40
 70
     0
102
RTVSPost2010Prop41ColorIndex
 90
       18
102
RTVSPost2010Prop41ColorRGB
 90
        0
102
RTVSPost2010PropOp41
 70
     0
102
RTVSPost2010Prop42
 90
       50
102
RTVSPost2010PropOp42
 70
     0
102
RTVSPost2010Prop43
 90
        3
102
RTVSPost2010PropOp43
 70
     0
102
RTVSPost2010Prop44ColorIndex
 90
        5
102
RTVSPost2010Prop44ColorRGB
 90
      255
102
RTVSPost2010PropOp44
 70
     0
102
RTVSPost2010Prop45
280
     0
102
RTVSPost2010PropOp45
 70
     0
102
RTVSPost2010Prop46
 90
       50
102
RTVSPost2010PropOp46
 70
     0
102
RTVSPost2010Prop47
 90
       50
102
RTVSPost2010PropOp47
 70
     0
102
RTVSPost2010Prop48
 90
       50
102
RTVSPost2010PropOp48
 70
     0
102
RTVSPost2010Prop49
280
     0
102
RTVSPost2010PropOp49
 70
     0
102
RTVSPost2010Prop50
 90
       50
102
RTVSPost2010PropOp50
 70
     0
102
RTVSPost2010Prop51ColorIndex
 90
      256
102
RTVSPost2010Prop51ColorRGB
 90
-16777216
102
RTVSPost2010PropOp51
 70
     0
102
RTVSPost2010Prop52
140
1.0
102
RTVSPost2010PropOp52
 70
     0
102
RTVSPost2010Prop53
 90
        2
102
RTVSPost2010PropOp53
 70
     0
102
RTVSPost2010Prop54
  1
strokes_ogs.tif
102
RTVSPost2010PropOp54
 70
     0
102
RTVSPost2010Prop55
280
     0
102
RTVSPost2010PropOp55
 70
     0
102
RTVSPost2010Prop56
140
1.0
102
RTVSPost2010PropOp56
 70
     0
102
RTVSPost2010Prop57
140
1.0
102
RTVSPost2010PropOp57
 70
     0
  0
XRECORD
  5
179
102
{ACAD_REACTORS
330
178
102
}
330
178
100
AcDbXrecord
280
     1
102
RTVSPost2010Prop28
280
     0
102
RTVSPost2010PropOp28
 70
     1
102
RTVSPost2010Prop29
280
     1
102
RTVSPost2010PropOp29
 70
     1
102
RTVSPost2010Prop30
280
     1
102
RTVSPost2010PropOp30
 70
     1
102
RTVSPost2010Prop31
280
     0
102
RTVSPost2010PropOp31
 70
     1
102
RTVSPost2010Prop32
280
     0
102
RTVSPost2010PropOp32
 70
     1
102
RTVSPost2010Prop33
280
     0
102
RTVSPost2010PropOp33
 70
     1
102
RTVSPost2010Prop34
280
     0
102
RTVSPost2010PropOp34
 70
     1
102
RTVSPost2010Prop35
280
     0
102
RTVSPost2010PropOp35
 70
     1
102
RTVSPost2010Prop36
280
     0
102
RTVSPost2010PropOp36
 70
     1
102
RTVSPost2010Prop37
 90
       50
102
RTVSPost2010PropOp37
 70
     1
102
RTVSPost2010Prop38
140
0.0
102
RTVSPost2010PropOp38
 70
     1
102
RTVSPost2010Prop39
140
1.0
102
RTVSPost2010PropOp39
 70
     1
102
RTVSPost2010Prop40
 90
        0
102
RTVSPost2010PropOp40
 70
     1
102
RTVSPost2010Prop41ColorIndex
 90
       18
102
RTVSPost2010Prop41ColorRGB
 90
        0
102
RTVSPost2010PropOp41
 70
     1
102
RTVSPost2010Prop42
 90
       50
102
RTVSPost2010PropOp42
 70
     1
102
RTVSPost2010Prop43
 90
        3
102
RTVSPost2010PropOp43
 70
     1
102
RTVSPost2010Prop44ColorIndex
 90
        5
102
RTVSPost2010Prop44ColorRGB
 90
      255
102
RTVSPost2010PropOp44
 70
     1
102
RTVSPost2010Prop45
280
     0
102
RTVSPost2010PropOp45
 70
     1
102
RTVSPost2010Prop46
 90
       50
102
RTVSPost2010PropOp46
 70
     1
102
RTVSPost2010Prop47
 90
       50
102
RTVSPost2010PropOp47
 70
     1
102
RTVSPost2010Prop48
 90
       50
102
RTVSPost2010PropOp48
 70
     1
102
RTVSPost2010Prop49
280
     0
102
RTVSPost2010PropOp49
 70
     1
102
RTVSPost2010Prop50
 90
       50
102
RTVSPost2010PropOp50
 70
     1
102
RTVSPost2010Prop51ColorIndex
 90
      256
102
RTVSPost2010Prop51ColorRGB
 90
-16777216
102
RTVSPost2010PropOp51
 70
     0
102
RTVSPost2010Prop52
140
1.0
102
RTVSPost2010PropOp52
 70
     0
102
RTVSPost2010Prop53
 90
        2
102
RTVSPost2010PropOp53
 70
     1
102
RTVSPost2010Prop54
  1
strokes_ogs.tif
102
RTVSPost2010PropOp54
 70
     1
102
RTVSPost2010Prop55
280
     0
102
RTVSPost2010PropOp55
 70
     1
102
RTVSPost2010Prop56
140
1.0
102
RTVSPost2010PropOp56
 70
     1
102
RTVSPost2010Prop57
140
1.0
102
RTVSPost2010PropOp57
 70
     1
  0
XRECORD
  5
15D
102
{ACAD_REACTORS
330
15C
102
}
330
15C
100
AcDbXrecord
280
     1
102
RTVSPost2010Prop28
280
     0
102
RTVSPost2010PropOp28
 70
     1
102
RTVSPost2010Prop29
280
     1
102
RTVSPost2010PropOp29
 70
     1
102
RTVSPost2010Prop30
280
     1
102
RTVSPost2010PropOp30
 70
     1
102
RTVSPost2010Prop31
280
     0
102
RTVSPost2010PropOp31
 70
     1
102
RTVSPost2010Prop32
280
     0
102
RTVSPost2010PropOp32
 70
     1
102
RTVSPost2010Prop33
280
     0
102
RTVSPost2010PropOp33
 70
     1
102
RTVSPost2010Prop34
280
     0
102
RTVSPost2010PropOp34
 70
     1
102
RTVSPost2010Prop35
280
     0
102
RTVSPost2010PropOp35
 70
     1
102
RTVSPost2010Prop36
280
     0
102
RTVSPost2010PropOp36
 70
     1
102
RTVSPost2010Prop37
 90
       50
102
RTVSPost2010PropOp37
 70
     1
102
RTVSPost2010Prop38
140
0.0
102
RTVSPost2010PropOp38
 70
     1
102
RTVSPost2010Prop39
140
1.0
102
RTVSPost2010PropOp39
 70
     1
102
RTVSPost2010Prop40
 90
        0
102
RTVSPost2010PropOp40
 70
     1
102
RTVSPost2010Prop41ColorIndex
 90
       18
102
RTVSPost2010Prop41ColorRGB
 90
        0
102
RTVSPost2010PropOp41
 70
     1
102
RTVSPost2010Prop42
 90
       50
102
RTVSPost2010PropOp42
 70
     1
102
RTVSPost2010Prop43
 90
        3
102
RTVSPost2010PropOp43
 70
     1
102
RTVSPost2010Prop44ColorIndex
 90
        5
102
RTVSPost2010Prop44ColorRGB
 90
      255
102
RTVSPost2010PropOp44
 70
     1
102
RTVSPost2010Prop45
280
     0
102
RTVSPost2010PropOp45
 70
     1
102
RTVSPost2010Prop46
 90
       50
102
RTVSPost2010PropOp46
 70
     1
102
RTVSPost2010Prop47
 90
       50
102
RTVSPost2010PropOp47
 70
     1
102
RTVSPost2010Prop48
 90
       50
102
RTVSPost2010PropOp48
 70
     1
102
RTVSPost2010Prop49
280
     0
102
RTVSPost2010PropOp49
 70
     1
102
RTVSPost2010Prop50
 90
       50
102
RTVSPost2010PropOp50
 70
     1
102
RTVSPost2010Prop51ColorIndex
 90
      256
102
RTVSPost2010Prop51ColorRGB
 90
-16777216
102
RTVSPost2010PropOp51
 70
     0
102
RTVSPost2010Prop52
140
1.0
102
RTVSPost2010PropOp52
 70
     0
102
RTVSPost2010Prop53
 90
        2
102
RTVSPost2010PropOp53
 70
     1
102
RTVSPost2010Prop54
  1
strokes_ogs.tif
102
RTVSPost2010PropOp54
 70
     1
102
RTVSPost2010Prop55
280
     0
102
RTVSPost2010PropOp55
 70
     1
102
RTVSPost2010Prop56
140
1.0
102
RTVSPost2010PropOp56
 70
     1
102
RTVSPost2010Prop57
140
1.0
102
RTVSPost2010PropOp57
 70
     1
  0
XRECORD
  5
15F
102
{ACAD_REACTORS
330
15E
102
}
330
15E
100
AcDbXrecord
280
     1
102
RTVSPost2010Prop28
280
     0
102
RTVSPost2010PropOp28
 70
     1
102
RTVSPost2010Prop29
280
     1
102
RTVSPost2010PropOp29
 70
     1
102
RTVSPost2010Prop30
280
     1
102
RTVSPost2010PropOp30
 70
     1
102
RTVSPost2010Prop31
280
     0
102
RTVSPost2010PropOp31
 70
     1
102
RTVSPost2010Prop32
280
     0
102
RTVSPost2010PropOp32
 70
     1
102
RTVSPost2010Prop33
280
     0
102
RTVSPost2010PropOp33
 70
     1
102
RTVSPost2010Prop34
280
     0
102
RTVSPost2010PropOp34
 70
     1
102
RTVSPost2010Prop35
280
     0
102
RTVSPost2010PropOp35
 70
     1
102
RTVSPost2010Prop36
280
     0
102
RTVSPost2010PropOp36
 70
     1
102
RTVSPost2010Prop37
 90
       50
102
RTVSPost2010PropOp37
 70
     1
102
RTVSPost2010Prop38
140
0.0
102
RTVSPost2010PropOp38
 70
     1
102
RTVSPost2010Prop39
140
1.0
102
RTVSPost2010PropOp39
 70
     1
102
RTVSPost2010Prop40
 90
        0
102
RTVSPost2010PropOp40
 70
     1
102
RTVSPost2010Prop41ColorIndex
 90
       18
102
RTVSPost2010Prop41ColorRGB
 90
        0
102
RTVSPost2010PropOp41
 70
     1
102
RTVSPost2010Prop42
 90
       50
102
RTVSPost2010PropOp42
 70
     1
102
RTVSPost2010Prop43
 90
        3
102
RTVSPost2010PropOp43
 70
     1
102
RTVSPost2010Prop44ColorIndex
 90
        5
102
RTVSPost2010Prop44ColorRGB
 90
      255
102
RTVSPost2010PropOp44
 70
     1
102
RTVSPost2010Prop45
280
     0
102
RTVSPost2010PropOp45
 70
     1
102
RTVSPost2010Prop46
 90
       50
102
RTVSPost2010PropOp46
 70
     1
102
RTVSPost2010Prop47
 90
       50
102
RTVSPost2010PropOp47
 70
     1
102
RTVSPost2010Prop48
 90
       50
102
RTVSPost2010PropOp48
 70
     1
102
RTVSPost2010Prop49
280
     0
102
RTVSPost2010PropOp49
 70
     1
102
RTVSPost2010Prop50
 90
       50
102
RTVSPost2010PropOp50
 70
     1
102
RTVSPost2010Prop51ColorIndex
 90
      256
102
RTVSPost2010Prop51ColorRGB
 90
-16777216
102
RTVSPost2010PropOp51
 70
     0
102
RTVSPost2010Prop52
140
1.0
102
RTVSPost2010PropOp52
 70
     0
102
RTVSPost2010Prop53
 90
        2
102
RTVSPost2010PropOp53
 70
     1
102
RTVSPost2010Prop54
  1
strokes_ogs.tif
102
RTVSPost2010PropOp54
 70
     1
102
RTVSPost2010Prop55
280
     0
102
RTVSPost2010PropOp55
 70
     1
102
RTVSPost2010Prop56
140
1.0
102
RTVSPost2010PropOp56
 70
     1
102
RTVSPost2010Prop57
140
1.0
102
RTVSPost2010PropOp57
 70
     1
  0
XRECORD
  5
161
102
{ACAD_REACTORS
330
160
102
}
330
160
100
AcDbXrecord
280
     1
102
RTVSPost2010Prop28
280
     0
102
RTVSPost2010PropOp28
 70
     1
102
RTVSPost2010Prop29
280
     1
102
RTVSPost2010PropOp29
 70
     1
102
RTVSPost2010Prop30
280
     1
102
RTVSPost2010PropOp30
 70
     1
102
RTVSPost2010Prop31
280
     0
102
RTVSPost2010PropOp31
 70
     1
102
RTVSPost2010Prop32
280
     0
102
RTVSPost2010PropOp32
 70
     1
102
RTVSPost2010Prop33
280
     0
102
RTVSPost2010PropOp33
 70
     1
102
RTVSPost2010Prop34
280
     0
102
RTVSPost2010PropOp34
 70
     1
102
RTVSPost2010Prop35
280
     0
102
RTVSPost2010PropOp35
 70
     1
102
RTVSPost2010Prop36
280
     0
102
RTVSPost2010PropOp36
 70
     1
102
RTVSPost2010Prop37
 90
       50
102
RTVSPost2010PropOp37
 70
     1
102
RTVSPost2010Prop38
140
0.0
102
RTVSPost2010PropOp38
 70
     1
102
RTVSPost2010Prop39
140
1.0
102
RTVSPost2010PropOp39
 70
     1
102
RTVSPost2010Prop40
 90
        0
102
RTVSPost2010PropOp40
 70
     1
102
RTVSPost2010Prop41ColorIndex
 90
       18
102
RTVSPost2010Prop41ColorRGB
 90
        0
102
RTVSPost2010PropOp41
 70
     1
102
RTVSPost2010Prop42
 90
       50
102
RTVSPost2010PropOp42
 70
     1
102
RTVSPost2010Prop43
 90
        3
102
RTVSPost2010PropOp43
 70
     1
102
RTVSPost2010Prop44ColorIndex
 90
        5
102
RTVSPost2010Prop44ColorRGB
 90
      255
102
RTVSPost2010PropOp44
 70
     1
102
RTVSPost2010Prop45
280
     0
102
RTVSPost2010PropOp45
 70
     1
102
RTVSPost2010Prop46
 90
       50
102
RTVSPost2010PropOp46
 70
     1
102
RTVSPost2010Prop47
 90
       50
102
RTVSPost2010PropOp47
 70
     1
102
RTVSPost2010Prop48
 90
       50
102
RTVSPost2010PropOp48
 70
     1
102
RTVSPost2010Prop49
280
     0
102
RTVSPost2010PropOp49
 70
     1
102
RTVSPost2010Prop50
 90
       50
102
RTVSPost2010PropOp50
 70
     1
102
RTVSPost2010Prop51ColorIndex
 90
      256
102
RTVSPost2010Prop51ColorRGB
 90
-16777216
102
RTVSPost2010PropOp51
 70
     0
102
RTVSPost2010Prop52
140
1.0
102
RTVSPost2010PropOp52
 70
     0
102
RTVSPost2010Prop53
 90
        2
102
RTVSPost2010PropOp53
 70
     1
102
RTVSPost2010Prop54
  1
strokes_ogs.tif
102
RTVSPost2010PropOp54
 70
     1
102
RTVSPost2010Prop55
280
     0
102
RTVSPost2010PropOp55
 70
     1
102
RTVSPost2010Prop56
140
1.0
102
RTVSPost2010PropOp56
 70
     1
102
RTVSPost2010Prop57
140
1.0
102
RTVSPost2010PropOp57
 70
     1
  0
XRECORD
  5
163
102
{ACAD_REACTORS
330
162
102
}
330
162
100
AcDbXrecord
280
     1
102
RTVSPost2010Prop28
280
     0
102
RTVSPost2010PropOp28
 70
     1
102
RTVSPost2010Prop29
280
     1
102
RTVSPost2010PropOp29
 70
     1
102
RTVSPost2010Prop30
280
     1
102
RTVSPost2010PropOp30
 70
     1
102
RTVSPost2010Prop31
280
     0
102
RTVSPost2010PropOp31
 70
     1
102
RTVSPost2010Prop32
280
     0
102
RTVSPost2010PropOp32
 70
     1
102
RTVSPost2010Prop33
280
     0
102
RTVSPost2010PropOp33
 70
     1
102
RTVSPost2010Prop34
280
     0
102
RTVSPost2010PropOp34
 70
     1
102
RTVSPost2010Prop35
280
     0
102
RTVSPost2010PropOp35
 70
     1
102
RTVSPost2010Prop36
280
     0
102
RTVSPost2010PropOp36
 70
     1
102
RTVSPost2010Prop37
 90
       50
102
RTVSPost2010PropOp37
 70
     1
102
RTVSPost2010Prop38
140
0.0
102
RTVSPost2010PropOp38
 70
     1
102
RTVSPost2010Prop39
140
1.0
102
RTVSPost2010PropOp39
 70
     1
102
RTVSPost2010Prop40
 90
        0
102
RTVSPost2010PropOp40
 70
     1
102
RTVSPost2010Prop41ColorIndex
 90
       18
102
RTVSPost2010Prop41ColorRGB
 90
        0
102
RTVSPost2010PropOp41
 70
     1
102
RTVSPost2010Prop42
 90
       50
102
RTVSPost2010PropOp42
 70
     1
102
RTVSPost2010Prop43
 90
        3
102
RTVSPost2010PropOp43
 70
     1
102
RTVSPost2010Prop44ColorIndex
 90
        5
102
RTVSPost2010Prop44ColorRGB
 90
      255
102
RTVSPost2010PropOp44
 70
     1
102
RTVSPost2010Prop45
280
     0
102
RTVSPost2010PropOp45
 70
     1
102
RTVSPost2010Prop46
 90
       50
102
RTVSPost2010PropOp46
 70
     1
102
RTVSPost2010Prop47
 90
       50
102
RTVSPost2010PropOp47
 70
     1
102
RTVSPost2010Prop48
 90
       50
102
RTVSPost2010PropOp48
 70
     1
102
RTVSPost2010Prop49
280
     0
102
RTVSPost2010PropOp49
 70
     1
102
RTVSPost2010Prop50
 90
       50
102
RTVSPost2010PropOp50
 70
     1
102
RTVSPost2010Prop51ColorIndex
 90
      256
102
RTVSPost2010Prop51ColorRGB
 90
-16777216
102
RTVSPost2010PropOp51
 70
     0
102
RTVSPost2010Prop52
140
1.0
102
RTVSPost2010PropOp52
 70
     0
102
RTVSPost2010Prop53
 90
        2
102
RTVSPost2010PropOp53
 70
     1
102
RTVSPost2010Prop54
  1
strokes_ogs.tif
102
RTVSPost2010PropOp54
 70
     1
102
RTVSPost2010Prop55
280
     0
102
RTVSPost2010PropOp55
 70
     1
102
RTVSPost2010Prop56
140
1.0
102
RTVSPost2010PropOp56
 70
     1
102
RTVSPost2010Prop57
140
1.0
102
RTVSPost2010PropOp57
 70
     1
  0
XRECORD
  5
16B
102
{ACAD_REACTORS
330
16A
102
}
330
16A
100
AcDbXrecord
280
     1
102
RTVSPost2010Prop28
280
     0
102
RTVSPost2010PropOp28
 70
     1
102
RTVSPost2010Prop29
280
     1
102
RTVSPost2010PropOp29
 70
     1
102
RTVSPost2010Prop30
280
     1
102
RTVSPost2010PropOp30
 70
     1
102
RTVSPost2010Prop31
280
     0
102
RTVSPost2010PropOp31
 70
     1
102
RTVSPost2010Prop32
280
     0
102
RTVSPost2010PropOp32
 70
     1
102
RTVSPost2010Prop33
280
     0
102
RTVSPost2010PropOp33
 70
     1
102
RTVSPost2010Prop34
280
     0
102
RTVSPost2010PropOp34
 70
     1
102
RTVSPost2010Prop35
280
     0
102
RTVSPost2010PropOp35
 70
     1
102
RTVSPost2010Prop36
280
     0
102
RTVSPost2010PropOp36
 70
     1
102
RTVSPost2010Prop37
 90
       50
102
RTVSPost2010PropOp37
 70
     1
102
RTVSPost2010Prop38
140
0.0
102
RTVSPost2010PropOp38
 70
     1
102
RTVSPost2010Prop39
140
1.0
102
RTVSPost2010PropOp39
 70
     1
102
RTVSPost2010Prop40
 90
        0
102
RTVSPost2010PropOp40
 70
     1
102
RTVSPost2010Prop41ColorIndex
 90
       18
102
RTVSPost2010Prop41ColorRGB
 90
        0
102
RTVSPost2010PropOp41
 70
     1
102
RTVSPost2010Prop42
 90
       50
102
RTVSPost2010PropOp42
 70
     1
102
RTVSPost2010Prop43
 90
        3
102
RTVSPost2010PropOp43
 70
     1
102
RTVSPost2010Prop44ColorIndex
 90
        5
102
RTVSPost2010Prop44ColorRGB
 90
      255
102
RTVSPost2010PropOp44
 70
     1
102
RTVSPost2010Prop45
280
     0
102
RTVSPost2010PropOp45
 70
     1
102
RTVSPost2010Prop46
 90
       50
102
RTVSPost2010PropOp46
 70
     1
102
RTVSPost2010Prop47
 90
       50
102
RTVSPost2010PropOp47
 70
     1
102
RTVSPost2010Prop48
 90
       50
102
RTVSPost2010PropOp48
 70
     1
102
RTVSPost2010Prop49
280
     0
102
RTVSPost2010PropOp49
 70
     1
102
RTVSPost2010Prop50
 90
       50
102
RTVSPost2010PropOp50
 70
     1
102
RTVSPost2010Prop51ColorIndex
 90
      256
102
RTVSPost2010Prop51ColorRGB
 90
-16777216
102
RTVSPost2010PropOp51
 70
     0
102
RTVSPost2010Prop52
140
1.0
102
RTVSPost2010PropOp52
 70
     0
102
RTVSPost2010Prop53
 90
        2
102
RTVSPost2010PropOp53
 70
     1
102
RTVSPost2010Prop54
  1
strokes_ogs.tif
102
RTVSPost2010PropOp54
 70
     1
102
RTVSPost2010Prop55
280
     0
102
RTVSPost2010PropOp55
 70
     1
102
RTVSPost2010Prop56
140
1.0
102
RTVSPost2010PropOp56
 70
     1
102
RTVSPost2010Prop57
140
1.0
102
RTVSPost2010PropOp57
 70
     1
  0
XRECORD
  5
187
102
{ACAD_REACTORS
330
186
102
}
330
186
100
AcDbXrecord
280
     1
102
RTVSPost2010Prop28
280
     0
102
RTVSPost2010PropOp28
 70
     0
102
RTVSPost2010Prop29
280
     1
102
RTVSPost2010PropOp29
 70
     0
102
RTVSPost2010Prop30
280
     1
102
RTVSPost2010PropOp30
 70
     0
102
RTVSPost2010Prop31
280
     0
102
RTVSPost2010PropOp31
 70
     0
102
RTVSPost2010Prop32
280
     0
102
RTVSPost2010PropOp32
 70
     0
102
RTVSPost2010Prop33
280
     0
102
RTVSPost2010PropOp33
 70
     0
102
RTVSPost2010Prop34
280
     0
102
RTVSPost2010PropOp34
 70
     0
102
RTVSPost2010Prop35
280
     0
102
RTVSPost2010PropOp35
 70
     0
102
RTVSPost2010Prop36
280
     0
102
RTVSPost2010PropOp36
 70
     0
102
RTVSPost2010Prop37
 90
       50
102
RTVSPost2010PropOp37
 70
     0
102
RTVSPost2010Prop38
140
0.0
102
RTVSPost2010PropOp38
 70
     0
102
RTVSPost2010Prop39
140
1.0
102
RTVSPost2010PropOp39
 70
     0
102
RTVSPost2010Prop40
 90
        0
102
RTVSPost2010PropOp40
 70
     0
102
RTVSPost2010Prop41ColorIndex
 90
       18
102
RTVSPost2010Prop41ColorRGB
 90
        0
102
RTVSPost2010PropOp41
 70
     0
102
RTVSPost2010Prop42
 90
       50
102
RTVSPost2010PropOp42
 70
     0
102
RTVSPost2010Prop43
 90
        3
102
RTVSPost2010PropOp43
 70
     0
102
RTVSPost2010Prop44ColorIndex
 90
        5
102
RTVSPost2010Prop44ColorRGB
 90
      255
102
RTVSPost2010PropOp44
 70
     0
102
RTVSPost2010Prop45
280
     0
102
RTVSPost2010PropOp45
 70
     0
102
RTVSPost2010Prop46
 90
       50
102
RTVSPost2010PropOp46
 70
     0
102
RTVSPost2010Prop47
 90
       50
102
RTVSPost2010PropOp47
 70
     0
102
RTVSPost2010Prop48
 90
       50
102
RTVSPost2010PropOp48
 70
     0
102
RTVSPost2010Prop49
280
     0
102
RTVSPost2010PropOp49
 70
     0
102
RTVSPost2010Prop50
 90
       50
102
RTVSPost2010PropOp50
 70
     0
102
RTVSPost2010Prop51ColorIndex
 90
      256
102
RTVSPost2010Prop51ColorRGB
 90
-16777216
102
RTVSPost2010PropOp51
 70
     0
102
RTVSPost2010Prop52
140
1.0
102
RTVSPost2010PropOp52
 70
     0
102
RTVSPost2010Prop53
 90
        2
102
RTVSPost2010PropOp53
 70
     0
102
RTVSPost2010Prop54
  1
strokes_ogs.tif
102
RTVSPost2010PropOp54
 70
     0
102
RTVSPost2010Prop55
280
     0
102
RTVSPost2010PropOp55
 70
     0
102
RTVSPost2010Prop56
140
1.0
102
RTVSPost2010PropOp56
 70
     0
102
RTVSPost2010Prop57
140
1.0
102
RTVSPost2010PropOp57
 70
     0
  0
XRECORD
  5
177
102
{ACAD_REACTORS
330
176
102
}
330
176
100
AcDbXrecord
280
     1
102
RTVSPost2010Prop28
280
     0
102
RTVSPost2010PropOp28
 70
     1
102
RTVSPost2010Prop29
280
     1
102
RTVSPost2010PropOp29
 70
     1
102
RTVSPost2010Prop30
280
     1
102
RTVSPost2010PropOp30
 70
     1
102
RTVSPost2010Prop31
280
     0
102
RTVSPost2010PropOp31
 70
     1
102
RTVSPost2010Prop32
280
     0
102
RTVSPost2010PropOp32
 70
     1
102
RTVSPost2010Prop33
280
     0
102
RTVSPost2010PropOp33
 70
     1
102
RTVSPost2010Prop34
280
     0
102
RTVSPost2010PropOp34
 70
     1
102
RTVSPost2010Prop35
280
     0
102
RTVSPost2010PropOp35
 70
     1
102
RTVSPost2010Prop36
280
     0
102
RTVSPost2010PropOp36
 70
     1
102
RTVSPost2010Prop37
 90
       50
102
RTVSPost2010PropOp37
 70
     1
102
RTVSPost2010Prop38
140
0.0
102
RTVSPost2010PropOp38
 70
     1
102
RTVSPost2010Prop39
140
1.0
102
RTVSPost2010PropOp39
 70
     1
102
RTVSPost2010Prop40
 90
        0
102
RTVSPost2010PropOp40
 70
     1
102
RTVSPost2010Prop41ColorIndex
 90
       18
102
RTVSPost2010Prop41ColorRGB
 90
        0
102
RTVSPost2010PropOp41
 70
     1
102
RTVSPost2010Prop42
 90
       50
102
RTVSPost2010PropOp42
 70
     1
102
RTVSPost2010Prop43
 90
        3
102
RTVSPost2010PropOp43
 70
     1
102
RTVSPost2010Prop44ColorIndex
 90
        5
102
RTVSPost2010Prop44ColorRGB
 90
      255
102
RTVSPost2010PropOp44
 70
     1
102
RTVSPost2010Prop45
280
     0
102
RTVSPost2010PropOp45
 70
     1
102
RTVSPost2010Prop46
 90
       50
102
RTVSPost2010PropOp46
 70
     1
102
RTVSPost2010Prop47
 90
       50
102
RTVSPost2010PropOp47
 70
     1
102
RTVSPost2010Prop48
 90
       50
102
RTVSPost2010PropOp48
 70
     1
102
RTVSPost2010Prop49
280
     0
102
RTVSPost2010PropOp49
 70
     1
102
RTVSPost2010Prop50
 90
       50
102
RTVSPost2010PropOp50
 70
     1
102
RTVSPost2010Prop51ColorIndex
 90
      256
102
RTVSPost2010Prop51ColorRGB
 90
-16777216
102
RTVSPost2010PropOp51
 70
     0
102
RTVSPost2010Prop52
140
1.0
102
RTVSPost2010PropOp52
 70
     0
102
RTVSPost2010Prop53
 90
        2
102
RTVSPost2010PropOp53
 70
     1
102
RTVSPost2010Prop54
  1
strokes_ogs.tif
102
RTVSPost2010PropOp54
 70
     1
102
RTVSPost2010Prop55
280
     0
102
RTVSPost2010PropOp55
 70
     1
102
RTVSPost2010Prop56
140
1.0
102
RTVSPost2010PropOp56
 70
     1
102
RTVSPost2010Prop57
140
1.0
102
RTVSPost2010PropOp57
 70
     1
  0
XRECORD
  5
189
102
{ACAD_REACTORS
330
188
102
}
330
188
100
AcDbXrecord
280
     1
102
RTVSPost2010Prop28
280
     0
102
RTVSPost2010PropOp28
 70
     0
102
RTVSPost2010Prop29
280
     1
102
RTVSPost2010PropOp29
 70
     0
102
RTVSPost2010Prop30
280
     1
102
RTVSPost2010PropOp30
 70
     0
102
RTVSPost2010Prop31
280
     0
102
RTVSPost2010PropOp31
 70
     0
102
RTVSPost2010Prop32
280
     0
102
RTVSPost2010PropOp32
 70
     0
102
RTVSPost2010Prop33
280
     0
102
RTVSPost2010PropOp33
 70
     0
102
RTVSPost2010Prop34
280
     0
102
RTVSPost2010PropOp34
 70
     0
102
RTVSPost2010Prop35
280
     0
102
RTVSPost2010PropOp35
 70
     0
102
RTVSPost2010Prop36
280
     0
102
RTVSPost2010PropOp36
 70
     0
102
RTVSPost2010Prop37
 90
       50
102
RTVSPost2010PropOp37
 70
     0
102
RTVSPost2010Prop38
140
0.0
102
RTVSPost2010PropOp38
 70
     0
102
RTVSPost2010Prop39
140
1.0
102
RTVSPost2010PropOp39
 70
     0
102
RTVSPost2010Prop40
 90
        0
102
RTVSPost2010PropOp40
 70
     0
102
RTVSPost2010Prop41ColorIndex
 90
       18
102
RTVSPost2010Prop41ColorRGB
 90
        0
102
RTVSPost2010PropOp41
 70
     0
102
RTVSPost2010Prop42
 90
       50
102
RTVSPost2010PropOp42
 70
     0
102
RTVSPost2010Prop43
 90
        3
102
RTVSPost2010PropOp43
 70
     0
102
RTVSPost2010Prop44ColorIndex
 90
        5
102
RTVSPost2010Prop44ColorRGB
 90
      255
102
RTVSPost2010PropOp44
 70
     0
102
RTVSPost2010Prop45
280
     0
102
RTVSPost2010PropOp45
 70
     0
102
RTVSPost2010Prop46
 90
       50
102
RTVSPost2010PropOp46
 70
     0
102
RTVSPost2010Prop47
 90
       50
102
RTVSPost2010PropOp47
 70
     0
102
RTVSPost2010Prop48
 90
       50
102
RTVSPost2010PropOp48
 70
     0
102
RTVSPost2010Prop49
280
     0
102
RTVSPost2010PropOp49
 70
     0
102
RTVSPost2010Prop50
 90
       50
102
RTVSPost2010PropOp50
 70
     0
102
RTVSPost2010Prop51ColorIndex
 90
      256
102
RTVSPost2010Prop51ColorRGB
 90
-16777216
102
RTVSPost2010PropOp51
 70
     0
102
RTVSPost2010Prop52
140
1.0
102
RTVSPost2010PropOp52
 70
     0
102
RTVSPost2010Prop53
 90
        2
102
RTVSPost2010PropOp53
 70
     0
102
RTVSPost2010Prop54
  1
strokes_ogs.tif
102
RTVSPost2010PropOp54
 70
     0
102
RTVSPost2010Prop55
280
     0
102
RTVSPost2010PropOp55
 70
     0
102
RTVSPost2010Prop56
140
1.0
102
RTVSPost2010PropOp56
 70
     0
102
RTVSPost2010Prop57
140
1.0
102
RTVSPost2010PropOp57
 70
     0
  0
XRECORD
  5
16F
102
{ACAD_REACTORS
330
16E
102
}
330
16E
100
AcDbXrecord
280
     1
102
RTVSPost2010Prop28
280
     0
102
RTVSPost2010PropOp28
 70
     1
102
RTVSPost2010Prop29
280
     1
102
RTVSPost2010PropOp29
 70
     1
102
RTVSPost2010Prop30
280
     1
102
RTVSPost2010PropOp30
 70
     1
102
RTVSPost2010Prop31
280
     0
102
RTVSPost2010PropOp31
 70
     1
102
RTVSPost2010Prop32
280
     0
102
RTVSPost2010PropOp32
 70
     1
102
RTVSPost2010Prop33
280
     0
102
RTVSPost2010PropOp33
 70
     1
102
RTVSPost2010Prop34
280
     0
102
RTVSPost2010PropOp34
 70
     1
102
RTVSPost2010Prop35
280
     0
102
RTVSPost2010PropOp35
 70
     1
102
RTVSPost2010Prop36
280
     0
102
RTVSPost2010PropOp36
 70
     1
102
RTVSPost2010Prop37
 90
       50
102
RTVSPost2010PropOp37
 70
     1
102
RTVSPost2010Prop38
140
0.0
102
RTVSPost2010PropOp38
 70
     1
102
RTVSPost2010Prop39
140
1.0
102
RTVSPost2010PropOp39
 70
     1
102
RTVSPost2010Prop40
 90
        0
102
RTVSPost2010PropOp40
 70
     1
102
RTVSPost2010Prop41ColorIndex
 90
       18
102
RTVSPost2010Prop41ColorRGB
 90
        0
102
RTVSPost2010PropOp41
 70
     1
102
RTVSPost2010Prop42
 90
       50
102
RTVSPost2010PropOp42
 70
     1
102
RTVSPost2010Prop43
 90
        3
102
RTVSPost2010PropOp43
 70
     1
102
RTVSPost2010Prop44ColorIndex
 90
        5
102
RTVSPost2010Prop44ColorRGB
 90
      255
102
RTVSPost2010PropOp44
 70
     1
102
RTVSPost2010Prop45
280
     0
102
RTVSPost2010PropOp45
 70
     1
102
RTVSPost2010Prop46
 90
       50
102
RTVSPost2010PropOp46
 70
     1
102
RTVSPost2010Prop47
 90
       50
102
RTVSPost2010PropOp47
 70
     1
102
RTVSPost2010Prop48
 90
       50
102
RTVSPost2010PropOp48
 70
     1
102
RTVSPost2010Prop49
280
     0
102
RTVSPost2010PropOp49
 70
     1
102
RTVSPost2010Prop50
 90
       50
102
RTVSPost2010PropOp50
 70
     1
102
RTVSPost2010Prop51ColorIndex
 90
      256
102
RTVSPost2010Prop51ColorRGB
 90
-16777216
102
RTVSPost2010PropOp51
 70
     0
102
RTVSPost2010Prop52
140
1.0
102
RTVSPost2010PropOp52
 70
     0
102
RTVSPost2010Prop53
 90
        2
102
RTVSPost2010PropOp53
 70
     1
102
RTVSPost2010Prop54
  1
strokes_ogs.tif
102
RTVSPost2010PropOp54
 70
     1
102
RTVSPost2010Prop55
280
     0
102
RTVSPost2010PropOp55
 70
     1
102
RTVSPost2010Prop56
140
1.0
102
RTVSPost2010PropOp56
 70
     1
102
RTVSPost2010Prop57
140
1.0
102
RTVSPost2010PropOp57
 70
     1
  0
XRECORD
  5
185
102
{ACAD_REACTORS
330
184
102
}
330
184
100
AcDbXrecord
280
     1
102
RTVSPost2010Prop28
280
     0
102
RTVSPost2010PropOp28
 70
     1
102
RTVSPost2010Prop29
280
     1
102
RTVSPost2010PropOp29
 70
     1
102
RTVSPost2010Prop30
280
     1
102
RTVSPost2010PropOp30
 70
     1
102
RTVSPost2010Prop31
280
     0
102
RTVSPost2010PropOp31
 70
     1
102
RTVSPost2010Prop32
280
     0
102
RTVSPost2010PropOp32
 70
     1
102
RTVSPost2010Prop33
280
     0
102
RTVSPost2010PropOp33
 70
     1
102
RTVSPost2010Prop34
280
     0
102
RTVSPost2010PropOp34
 70
     1
102
RTVSPost2010Prop35
280
     0
102
RTVSPost2010PropOp35
 70
     1
102
RTVSPost2010Prop36
280
     0
102
RTVSPost2010PropOp36
 70
     1
102
RTVSPost2010Prop37
 90
       50
102
RTVSPost2010PropOp37
 70
     1
102
RTVSPost2010Prop38
140
0.0
102
RTVSPost2010PropOp38
 70
     1
102
RTVSPost2010Prop39
140
1.0
102
RTVSPost2010PropOp39
 70
     1
102
RTVSPost2010Prop40
 90
        0
102
RTVSPost2010PropOp40
 70
     1
102
RTVSPost2010Prop41ColorIndex
 90
       18
102
RTVSPost2010Prop41ColorRGB
 90
        0
102
RTVSPost2010PropOp41
 70
     1
102
RTVSPost2010Prop42
 90
       50
102
RTVSPost2010PropOp42
 70
     1
102
RTVSPost2010Prop43
 90
        3
102
RTVSPost2010PropOp43
 70
     1
102
RTVSPost2010Prop44ColorIndex
 90
        5
102
RTVSPost2010Prop44ColorRGB
 90
      255
102
RTVSPost2010PropOp44
 70
     1
102
RTVSPost2010Prop45
280
     0
102
RTVSPost2010PropOp45
 70
     1
102
RTVSPost2010Prop46
 90
       50
102
RTVSPost2010PropOp46
 70
     1
102
RTVSPost2010Prop47
 90
       50
102
RTVSPost2010PropOp47
 70
     1
102
RTVSPost2010Prop48
 90
       50
102
RTVSPost2010PropOp48
 70
     1
102
RTVSPost2010Prop49
280
     0
102
RTVSPost2010PropOp49
 70
     1
102
RTVSPost2010Prop50
 90
       50
102
RTVSPost2010PropOp50
 70
     1
102
RTVSPost2010Prop51ColorIndex
 90
      256
102
RTVSPost2010Prop51ColorRGB
 90
-16777216
102
RTVSPost2010PropOp51
 70
     0
102
RTVSPost2010Prop52
140
1.0
102
RTVSPost2010PropOp52
 70
     0
102
RTVSPost2010Prop53
 90
        2
102
RTVSPost2010PropOp53
 70
     1
102
RTVSPost2010Prop54
  1
strokes_ogs.tif
102
RTVSPost2010PropOp54
 70
     1
102
RTVSPost2010Prop55
280
     0
102
RTVSPost2010PropOp55
 70
     1
102
RTVSPost2010Prop56
140
1.0
102
RTVSPost2010PropOp56
 70
     1
102
RTVSPost2010Prop57
140
1.0
102
RTVSPost2010PropOp57
 70
     1
  0
XRECORD
  5
183
102
{ACAD_REACTORS
330
182
102
}
330
182
100
AcDbXrecord
280
     1
102
RTVSPost2010Prop28
280
     0
102
RTVSPost2010PropOp28
 70
     1
102
RTVSPost2010Prop29
280
     1
102
RTVSPost2010PropOp29
 70
     1
102
RTVSPost2010Prop30
280
     1
102
RTVSPost2010PropOp30
 70
     1
102
RTVSPost2010Prop31
280
     0
102
RTVSPost2010PropOp31
 70
     1
102
RTVSPost2010Prop32
280
     0
102
RTVSPost2010PropOp32
 70
     1
102
RTVSPost2010Prop33
280
     0
102
RTVSPost2010PropOp33
 70
     1
102
RTVSPost2010Prop34
280
     0
102
RTVSPost2010PropOp34
 70
     1
102
RTVSPost2010Prop35
280
     0
102
RTVSPost2010PropOp35
 70
     1
102
RTVSPost2010Prop36
280
     0
102
RTVSPost2010PropOp36
 70
     1
102
RTVSPost2010Prop37
 90
       50
102
RTVSPost2010PropOp37
 70
     1
102
RTVSPost2010Prop38
140
0.0
102
RTVSPost2010PropOp38
 70
     1
102
RTVSPost2010Prop39
140
1.0
102
RTVSPost2010PropOp39
 70
     1
102
RTVSPost2010Prop40
 90
        0
102
RTVSPost2010PropOp40
 70
     1
102
RTVSPost2010Prop41ColorIndex
 90
       18
102
RTVSPost2010Prop41ColorRGB
 90
        0
102
RTVSPost2010PropOp41
 70
     1
102
RTVSPost2010Prop42
 90
       50
102
RTVSPost2010PropOp42
 70
     1
102
RTVSPost2010Prop43
 90
        3
102
RTVSPost2010PropOp43
 70
     1
102
RTVSPost2010Prop44ColorIndex
 90
        5
102
RTVSPost2010Prop44ColorRGB
 90
      255
102
RTVSPost2010PropOp44
 70
     1
102
RTVSPost2010Prop45
280
     0
102
RTVSPost2010PropOp45
 70
     1
102
RTVSPost2010Prop46
 90
       50
102
RTVSPost2010PropOp46
 70
     1
102
RTVSPost2010Prop47
 90
       50
102
RTVSPost2010PropOp47
 70
     1
102
RTVSPost2010Prop48
 90
       50
102
RTVSPost2010PropOp48
 70
     1
102
RTVSPost2010Prop49
280
     0
102
RTVSPost2010PropOp49
 70
     1
102
RTVSPost2010Prop50
 90
       50
102
RTVSPost2010PropOp50
 70
     1
102
RTVSPost2010Prop51ColorIndex
 90
      256
102
RTVSPost2010Prop51ColorRGB
 90
-16777216
102
RTVSPost2010PropOp51
 70
     0
102
RTVSPost2010Prop52
140
1.0
102
RTVSPost2010PropOp52
 70
     0
102
RTVSPost2010Prop53
 90
        2
102
RTVSPost2010PropOp53
 70
     1
102
RTVSPost2010Prop54
  1
strokes_ogs.tif
102
RTVSPost2010PropOp54
 70
     1
102
RTVSPost2010Prop55
280
     0
102
RTVSPost2010PropOp55
 70
     1
102
RTVSPost2010Prop56
140
1.0
102
RTVSPost2010PropOp56
 70
     1
102
RTVSPost2010Prop57
140
1.0
102
RTVSPost2010PropOp57
 70
     1
  0
XRECORD
  5
17D
102
{ACAD_REACTORS
330
17C
102
}
330
17C
100
AcDbXrecord
280
     1
102
RTVSPost2010Prop28
280
     0
102
RTVSPost2010PropOp28
 70
     1
102
RTVSPost2010Prop29
280
     1
102
RTVSPost2010PropOp29
 70
     1
102
RTVSPost2010Prop30
280
     1
102
RTVSPost2010PropOp30
 70
     1
102
RTVSPost2010Prop31
280
     0
102
RTVSPost2010PropOp31
 70
     1
102
RTVSPost2010Prop32
280
     0
102
RTVSPost2010PropOp32
 70
     1
102
RTVSPost2010Prop33
280
     0
102
RTVSPost2010PropOp33
 70
     1
102
RTVSPost2010Prop34
280
     0
102
RTVSPost2010PropOp34
 70
     1
102
RTVSPost2010Prop35
280
     0
102
RTVSPost2010PropOp35
 70
     1
102
RTVSPost2010Prop36
280
     0
102
RTVSPost2010PropOp36
 70
     1
102
RTVSPost2010Prop37
 90
       50
102
RTVSPost2010PropOp37
 70
     1
102
RTVSPost2010Prop38
140
0.0
102
RTVSPost2010PropOp38
 70
     1
102
RTVSPost2010Prop39
140
1.0
102
RTVSPost2010PropOp39
 70
     1
102
RTVSPost2010Prop40
 90
        0
102
RTVSPost2010PropOp40
 70
     1
102
RTVSPost2010Prop41ColorIndex
 90
       18
102
RTVSPost2010Prop41ColorRGB
 90
        0
102
RTVSPost2010PropOp41
 70
     1
102
RTVSPost2010Prop42
 90
       50
102
RTVSPost2010PropOp42
 70
     1
102
RTVSPost2010Prop43
 90
        3
102
RTVSPost2010PropOp43
 70
     1
102
RTVSPost2010Prop44ColorIndex
 90
        5
102
RTVSPost2010Prop44ColorRGB
 90
      255
102
RTVSPost2010PropOp44
 70
     1
102
RTVSPost2010Prop45
280
     0
102
RTVSPost2010PropOp45
 70
     1
102
RTVSPost2010Prop46
 90
       50
102
RTVSPost2010PropOp46
 70
     1
102
RTVSPost2010Prop47
 90
       50
102
RTVSPost2010PropOp47
 70
     1
102
RTVSPost2010Prop48
 90
       50
102
RTVSPost2010PropOp48
 70
     1
102
RTVSPost2010Prop49
280
     0
102
RTVSPost2010PropOp49
 70
     1
102
RTVSPost2010Prop50
 90
       50
102
RTVSPost2010PropOp50
 70
     1
102
RTVSPost2010Prop51ColorIndex
 90
      256
102
RTVSPost2010Prop51ColorRGB
 90
-16777216
102
RTVSPost2010PropOp51
 70
     0
102
RTVSPost2010Prop52
140
1.0
102
RTVSPost2010PropOp52
 70
     0
102
RTVSPost2010Prop53
 90
        2
102
RTVSPost2010PropOp53
 70
     1
102
RTVSPost2010Prop54
  1
strokes_ogs.tif
102
RTVSPost2010PropOp54
 70
     1
102
RTVSPost2010Prop55
280
     0
102
RTVSPost2010PropOp55
 70
     1
102
RTVSPost2010Prop56
140
1.0
102
RTVSPost2010PropOp56
 70
     1
102
RTVSPost2010Prop57
140
1.0
102
RTVSPost2010PropOp57
 70
     1
  0
XRECORD
  5
17F
102
{ACAD_REACTORS
330
17E
102
}
330
17E
100
AcDbXrecord
280
     1
102
RTVSPost2010Prop28
280
     0
102
RTVSPost2010PropOp28
 70
     1
102
RTVSPost2010Prop29
280
     1
102
RTVSPost2010PropOp29
 70
     1
102
RTVSPost2010Prop30
280
     1
102
RTVSPost2010PropOp30
 70
     1
102
RTVSPost2010Prop31
280
     0
102
RTVSPost2010PropOp31
 70
     1
102
RTVSPost2010Prop32
280
     0
102
RTVSPost2010PropOp32
 70
     1
102
RTVSPost2010Prop33
280
     0
102
RTVSPost2010PropOp33
 70
     1
102
RTVSPost2010Prop34
280
     0
102
RTVSPost2010PropOp34
 70
     1
102
RTVSPost2010Prop35
280
     0
102
RTVSPost2010PropOp35
 70
     1
102
RTVSPost2010Prop36
280
     0
102
RTVSPost2010PropOp36
 70
     1
102
RTVSPost2010Prop37
 90
       50
102
RTVSPost2010PropOp37
 70
     1
102
RTVSPost2010Prop38
140
0.0
102
RTVSPost2010PropOp38
 70
     1
102
RTVSPost2010Prop39
140
1.0
102
RTVSPost2010PropOp39
 70
     1
102
RTVSPost2010Prop40
 90
        0
102
RTVSPost2010PropOp40
 70
     1
102
RTVSPost2010Prop41ColorIndex
 90
       18
102
RTVSPost2010Prop41ColorRGB
 90
        0
102
RTVSPost2010PropOp41
 70
     1
102
RTVSPost2010Prop42
 90
       50
102
RTVSPost2010PropOp42
 70
     1
102
RTVSPost2010Prop43
 90
        3
102
RTVSPost2010PropOp43
 70
     1
102
RTVSPost2010Prop44ColorIndex
 90
        5
102
RTVSPost2010Prop44ColorRGB
 90
      255
102
RTVSPost2010PropOp44
 70
     1
102
RTVSPost2010Prop45
280
     0
102
RTVSPost2010PropOp45
 70
     1
102
RTVSPost2010Prop46
 90
       50
102
RTVSPost2010PropOp46
 70
     1
102
RTVSPost2010Prop47
 90
       50
102
RTVSPost2010PropOp47
 70
     1
102
RTVSPost2010Prop48
 90
       50
102
RTVSPost2010PropOp48
 70
     1
102
RTVSPost2010Prop49
280
     0
102
RTVSPost2010PropOp49
 70
     1
102
RTVSPost2010Prop50
 90
       50
102
RTVSPost2010PropOp50
 70
     1
102
RTVSPost2010Prop51ColorIndex
 90
      256
102
RTVSPost2010Prop51ColorRGB
 90
-16777216
102
RTVSPost2010PropOp51
 70
     0
102
RTVSPost2010Prop52
140
1.0
102
RTVSPost2010PropOp52
 70
     0
102
RTVSPost2010Prop53
 90
        2
102
RTVSPost2010PropOp53
 70
     1
102
RTVSPost2010Prop54
  1
strokes_ogs.tif
102
RTVSPost2010PropOp54
 70
     1
102
RTVSPost2010Prop55
280
     0
102
RTVSPost2010PropOp55
 70
     1
102
RTVSPost2010Prop56
140
1.0
102
RTVSPost2010PropOp56
 70
     1
102
RTVSPost2010Prop57
140
1.0
102
RTVSPost2010PropOp57
 70
     1
  0
XRECORD
  5
175
102
{ACAD_REACTORS
330
174
102
}
330
174
100
AcDbXrecord
280
     1
102
RTVSPost2010Prop28
280
     0
102
RTVSPost2010PropOp28
 70
     1
102
RTVSPost2010Prop29
280
     1
102
RTVSPost2010PropOp29
 70
     1
102
RTVSPost2010Prop30
280
     1
102
RTVSPost2010PropOp30
 70
     1
102
RTVSPost2010Prop31
280
     0
102
RTVSPost2010PropOp31
 70
     1
102
RTVSPost2010Prop32
280
     0
102
RTVSPost2010PropOp32
 70
     1
102
RTVSPost2010Prop33
280
     0
102
RTVSPost2010PropOp33
 70
     1
102
RTVSPost2010Prop34
280
     0
102
RTVSPost2010PropOp34
 70
     1
102
RTVSPost2010Prop35
280
     0
102
RTVSPost2010PropOp35
 70
     1
102
RTVSPost2010Prop36
280
     0
102
RTVSPost2010PropOp36
 70
     1
102
RTVSPost2010Prop37
 90
       50
102
RTVSPost2010PropOp37
 70
     1
102
RTVSPost2010Prop38
140
0.0
102
RTVSPost2010PropOp38
 70
     1
102
RTVSPost2010Prop39
140
1.0
102
RTVSPost2010PropOp39
 70
     1
102
RTVSPost2010Prop40
 90
        0
102
RTVSPost2010PropOp40
 70
     1
102
RTVSPost2010Prop41ColorIndex
 90
       18
102
RTVSPost2010Prop41ColorRGB
 90
        0
102
RTVSPost2010PropOp41
 70
     1
102
RTVSPost2010Prop42
 90
       50
102
RTVSPost2010PropOp42
 70
     1
102
RTVSPost2010Prop43
 90
        3
102
RTVSPost2010PropOp43
 70
     1
102
RTVSPost2010Prop44ColorIndex
 90
        5
102
RTVSPost2010Prop44ColorRGB
 90
      255
102
RTVSPost2010PropOp44
 70
     1
102
RTVSPost2010Prop45
280
     0
102
RTVSPost2010PropOp45
 70
     1
102
RTVSPost2010Prop46
 90
       50
102
RTVSPost2010PropOp46
 70
     1
102
RTVSPost2010Prop47
 90
       50
102
RTVSPost2010PropOp47
 70
     1
102
RTVSPost2010Prop48
 90
       50
102
RTVSPost2010PropOp48
 70
     1
102
RTVSPost2010Prop49
280
     0
102
RTVSPost2010PropOp49
 70
     1
102
RTVSPost2010Prop50
 90
       50
102
RTVSPost2010PropOp50
 70
     1
102
RTVSPost2010Prop51ColorIndex
 90
      256
102
RTVSPost2010Prop51ColorRGB
 90
-16777216
102
RTVSPost2010PropOp51
 70
     0
102
RTVSPost2010Prop52
140
1.0
102
RTVSPost2010PropOp52
 70
     0
102
RTVSPost2010Prop53
 90
        2
102
RTVSPost2010PropOp53
 70
     1
102
RTVSPost2010Prop54
  1
strokes_ogs.tif
102
RTVSPost2010PropOp54
 70
     1
102
RTVSPost2010Prop55
280
     0
102
RTVSPost2010PropOp55
 70
     1
102
RTVSPost2010Prop56
140
1.0
102
RTVSPost2010PropOp56
 70
     1
102
RTVSPost2010Prop57
140
1.0
102
RTVSPost2010PropOp57
 70
     1
  0
XRECORD
  5
169
102
{ACAD_REACTORS
330
168
102
}
330
168
100
AcDbXrecord
280
     1
102
RTVSPost2010Prop28
280
     0
102
RTVSPost2010PropOp28
 70
     1
102
RTVSPost2010Prop29
280
     1
102
RTVSPost2010PropOp29
 70
     1
102
RTVSPost2010Prop30
280
     1
102
RTVSPost2010PropOp30
 70
     1
102
RTVSPost2010Prop31
280
     0
102
RTVSPost2010PropOp31
 70
     1
102
RTVSPost2010Prop32
280
     0
102
RTVSPost2010PropOp32
 70
     1
102
RTVSPost2010Prop33
280
     0
102
RTVSPost2010PropOp33
 70
     1
102
RTVSPost2010Prop34
280
     0
102
RTVSPost2010PropOp34
 70
     1
102
RTVSPost2010Prop35
280
     0
102
RTVSPost2010PropOp35
 70
     1
102
RTVSPost2010Prop36
280
     0
102
RTVSPost2010PropOp36
 70
     1
102
RTVSPost2010Prop37
 90
       50
102
RTVSPost2010PropOp37
 70
     1
102
RTVSPost2010Prop38
140
0.0
102
RTVSPost2010PropOp38
 70
     1
102
RTVSPost2010Prop39
140
1.0
102
RTVSPost2010PropOp39
 70
     1
102
RTVSPost2010Prop40
 90
        0
102
RTVSPost2010PropOp40
 70
     1
102
RTVSPost2010Prop41ColorIndex
 90
       18
102
RTVSPost2010Prop41ColorRGB
 90
        0
102
RTVSPost2010PropOp41
 70
     1
102
RTVSPost2010Prop42
 90
       50
102
RTVSPost2010PropOp42
 70
     1
102
RTVSPost2010Prop43
 90
        3
102
RTVSPost2010PropOp43
 70
     1
102
RTVSPost2010Prop44ColorIndex
 90
        5
102
RTVSPost2010Prop44ColorRGB
 90
      255
102
RTVSPost2010PropOp44
 70
     1
102
RTVSPost2010Prop45
280
     0
102
RTVSPost2010PropOp45
 70
     1
102
RTVSPost2010Prop46
 90
       50
102
RTVSPost2010PropOp46
 70
     1
102
RTVSPost2010Prop47
 90
       50
102
RTVSPost2010PropOp47
 70
     1
102
RTVSPost2010Prop48
 90
       50
102
RTVSPost2010PropOp48
 70
     1
102
RTVSPost2010Prop49
280
     0
102
RTVSPost2010PropOp49
 70
     1
102
RTVSPost2010Prop50
 90
       50
102
RTVSPost2010PropOp50
 70
     1
102
RTVSPost2010Prop51ColorIndex
 90
      256
102
RTVSPost2010Prop51ColorRGB
 90
-16777216
102
RTVSPost2010PropOp51
 70
     0
102
RTVSPost2010Prop52
140
1.0
102
RTVSPost2010PropOp52
 70
     0
102
RTVSPost2010Prop53
 90
        2
102
RTVSPost2010PropOp53
 70
     1
102
RTVSPost2010Prop54
  1
strokes_ogs.tif
102
RTVSPost2010PropOp54
 70
     1
102
RTVSPost2010Prop55
280
     0
102
RTVSPost2010PropOp55
 70
     1
102
RTVSPost2010Prop56
140
1.0
102
RTVSPost2010PropOp56
 70
     1
102
RTVSPost2010Prop57
140
1.0
102
RTVSPost2010PropOp57
 70
     1
  0
XRECORD
  5
181
102
{ACAD_REACTORS
330
180
102
}
330
180
100
AcDbXrecord
280
     1
102
RTVSPost2010Prop28
280
     0
102
RTVSPost2010PropOp28
 70
     1
102
RTVSPost2010Prop29
280
     1
102
RTVSPost2010PropOp29
 70
     1
102
RTVSPost2010Prop30
280
     1
102
RTVSPost2010PropOp30
 70
     1
102
RTVSPost2010Prop31
280
     0
102
RTVSPost2010PropOp31
 70
     1
102
RTVSPost2010Prop32
280
     0
102
RTVSPost2010PropOp32
 70
     1
102
RTVSPost2010Prop33
280
     0
102
RTVSPost2010PropOp33
 70
     1
102
RTVSPost2010Prop34
280
     0
102
RTVSPost2010PropOp34
 70
     1
102
RTVSPost2010Prop35
280
     0
102
RTVSPost2010PropOp35
 70
     1
102
RTVSPost2010Prop36
280
     0
102
RTVSPost2010PropOp36
 70
     1
102
RTVSPost2010Prop37
 90
       50
102
RTVSPost2010PropOp37
 70
     1
102
RTVSPost2010Prop38
140
0.0
102
RTVSPost2010PropOp38
 70
     1
102
RTVSPost2010Prop39
140
1.0
102
RTVSPost2010PropOp39
 70
     1
102
RTVSPost2010Prop40
 90
        0
102
RTVSPost2010PropOp40
 70
     1
102
RTVSPost2010Prop41ColorIndex
 90
       18
102
RTVSPost2010Prop41ColorRGB
 90
        0
102
RTVSPost2010PropOp41
 70
     1
102
RTVSPost2010Prop42
 90
       50
102
RTVSPost2010PropOp42
 70
     1
102
RTVSPost2010Prop43
 90
        3
102
RTVSPost2010PropOp43
 70
     1
102
RTVSPost2010Prop44ColorIndex
 90
        5
102
RTVSPost2010Prop44ColorRGB
 90
      255
102
RTVSPost2010PropOp44
 70
     1
102
RTVSPost2010Prop45
280
     0
102
RTVSPost2010PropOp45
 70
     1
102
RTVSPost2010Prop46
 90
       50
102
RTVSPost2010PropOp46
 70
     1
102
RTVSPost2010Prop47
 90
       50
102
RTVSPost2010PropOp47
 70
     1
102
RTVSPost2010Prop48
 90
       50
102
RTVSPost2010PropOp48
 70
     1
102
RTVSPost2010Prop49
280
     0
102
RTVSPost2010PropOp49
 70
     1
102
RTVSPost2010Prop50
 90
       50
102
RTVSPost2010PropOp50
 70
     1
102
RTVSPost2010Prop51ColorIndex
 90
      256
102
RTVSPost2010Prop51ColorRGB
 90
-16777216
102
RTVSPost2010PropOp51
 70
     0
102
RTVSPost2010Prop52
140
1.0
102
RTVSPost2010PropOp52
 70
     0
102
RTVSPost2010Prop53
 90
        2
102
RTVSPost2010PropOp53
 70
     1
102
RTVSPost2010Prop54
  1
strokes_ogs.tif
102
RTVSPost2010PropOp54
 70
     1
102
RTVSPost2010Prop55
280
     0
102
RTVSPost2010PropOp55
 70
     1
102
RTVSPost2010Prop56
140
1.0
102
RTVSPost2010PropOp56
 70
     1
102
RTVSPost2010Prop57
140
1.0
102
RTVSPost2010PropOp57
 70
     1
  0
ENDSEC
  0
EOF
