  0
SECTION
  2
HEADER
  9
$ACADVER
  1
AC1024
  9
$ACADMAINTVER
 70
   205
  9
$DWGCODEPAGE
  3
ANSI_1251
  9
$INSBASE
 10
0.0
 20
0.0
 30
0.0
  9
$EXTMIN
 10
1.000000000000000E+20
 20
1.000000000000000E+20
 30
1.000000000000000E+20
  9
$EXTMAX
 10
-1.000000000000000E+20
 20
-1.000000000000000E+20
 30
-1.000000000000000E+20
  9
$LIMMIN
 10
0.0
 20
0.0
  9
$LIMMAX
 10
12.0
 20
9.0
  9
$ORTHOMODE
 70
     0
  9
$REGENMODE
 70
     1
  9
$FILLMODE
 70
     1
  9
$QTEXTMODE
 70
     0
  9
$MIRRTEXT
 70
     1
  9
$LTSCALE
 40
1.0
  9
$ATTMODE
 70
     1
  9
$TEXTSIZE
 40
0.2
  9
$TRACEWID
 40
0.05
  9
$TEXTSTYLE
  7
Standard
  9
$CLAYER
  8
OracDecor_cornice_mouldings
  9
$CELTYPE
  6
ByLayer
  9
$CECOLOR
 62
   256
  9
$CELTSCALE
 40
1.0
  9
$DISPSILH
 70
     0
  9
$DIMSCALE
 40
1.0
  9
$DIMASZ
 40
0.18
  9
$DIMEXO
 40
0.0625
  9
$DIMDLI
 40
0.38
  9
$DIMRND
 40
0.0
  9
$DIMDLE
 40
0.0
  9
$DIMEXE
 40
0.18
  9
$DIMTP
 40
0.0
  9
$DIMTM
 40
0.0
  9
$DIMTXT
 40
0.18
  9
$DIMCEN
 40
0.09
  9
$DIMTSZ
 40
0.0
  9
$DIMTOL
 70
     0
  9
$DIMLIM
 70
     0
  9
$DIMTIH
 70
     1
  9
$DIMTOH
 70
     1
  9
$DIMSE1
 70
     0
  9
$DIMSE2
 70
     0
  9
$DIMTAD
 70
     0
  9
$DIMZIN
 70
     0
  9
$DIMBLK
  1

  9
$DIMASO
 70
     1
  9
$DIMSHO
 70
     1
  9
$DIMPOST
  1

  9
$DIMAPOST
  1

  9
$DIMALT
 70
     0
  9
$DIMALTD
 70
     2
  9
$DIMALTF
 40
25.4
  9
$DIMLFAC
 40
1.0
  9
$DIMTOFL
 70
     0
  9
$DIMTVP
 40
0.0
  9
$DIMTIX
 70
     0
  9
$DIMSOXD
 70
     0
  9
$DIMSAH
 70
     0
  9
$DIMBLK1
  1

  9
$DIMBLK2
  1

  9
$DIMSTYLE
  2
Standard
  9
$DIMCLRD
 70
     0
  9
$DIMCLRE
 70
     0
  9
$DIMCLRT
 70
     0
  9
$DIMTFAC
 40
1.0
  9
$DIMGAP
 40
0.09
  9
$DIMJUST
 70
     0
  9
$DIMSD1
 70
     0
  9
$DIMSD2
 70
     0
  9
$DIMTOLJ
 70
     1
  9
$DIMTZIN
 70
     0
  9
$DIMALTZ
 70
     0
  9
$DIMALTTZ
 70
     0
  9
$DIMUPT
 70
     0
  9
$DIMDEC
 70
     4
  9
$DIMTDEC
 70
     4
  9
$DIMALTU
 70
     2
  9
$DIMALTTD
 70
     2
  9
$DIMTXSTY
  7
Standard
  9
$DIMAUNIT
 70
     0
  9
$DIMADEC
 70
     0
  9
$DIMALTRND
 40
0.0
  9
$DIMAZIN
 70
     0
  9
$DIMDSEP
 70
    46
  9
$DIMATFIT
 70
     3
  9
$DIMFRAC
 70
     0
  9
$DIMLDRBLK
  1

  9
$DIMLUNIT
 70
     2
  9
$DIMLWD
 70
    -2
  9
$DIMLWE
 70
    -2
  9
$DIMTMOVE
 70
     0
  9
$DIMFXL
 40
1.0
  9
$DIMFXLON
 70
     0
  9
$DIMJOGANG
 40
0.7853981633974483
  9
$DIMTFILL
 70
     0
  9
$DIMTFILLCLR
 70
     0
  9
$DIMARCSYM
 70
     0
  9
$DIMLTYPE
  6

  9
$DIMLTEX1
  6

  9
$DIMLTEX2
  6

  9
$DIMTXTDIRECTION
 70
     0
  9
$LUNITS
 70
     2
  9
$LUPREC
 70
     4
  9
$SKETCHINC
 40
0.1
  9
$FILLETRAD
 40
0.5
  9
$AUNITS
 70
     0
  9
$AUPREC
 70
     0
  9
$MENU
  1
.
  9
$ELEVATION
 40
0.0
  9
$PELEVATION
 40
0.0
  9
$THICKNESS
 40
0.0
  9
$LIMCHECK
 70
     0
  9
$CHAMFERA
 40
0.5
  9
$CHAMFERB
 40
0.5
  9
$CHAMFERC
 40
1.0
  9
$CHAMFERD
 40
0.0
  9
$SKPOLY
 70
     0
  9
$TDCREATE
 40
2451380.930432396
  9
$TDUCREATE
 40
2451380.805432396
  9
$TDUPDATE
 40
2451380.966180555
  9
$TDUUPDATE
 40
2451380.841180556
  9
$TDINDWG
 40
0.0075622917
  9
$TDUSRTIMER
 40
0.0075532523
  9
$USRTIMER
 70
     1
  9
$ANGBASE
 50
0.0
  9
$ANGDIR
 70
     0
  9
$PDMODE
 70
     0
  9
$PDSIZE
 40
0.0
  9
$PLINEWID
 40
0.0
  9
$SPLFRAME
 70
     0
  9
$SPLINETYPE
 70
     6
  9
$SPLINESEGS
 70
     8
  9
$HANDSEED
  5
1AF
  9
$SURFTAB1
 70
     6
  9
$SURFTAB2
 70
     6
  9
$SURFTYPE
 70
     6
  9
$SURFU
 70
     6
  9
$SURFV
 70
     6
  9
$UCSBASE
  2

  9
$UCSNAME
  2

  9
$UCSORG
 10
0.0
 20
0.0
 30
0.0
  9
$UCSXDIR
 10
1.0
 20
0.0
 30
0.0
  9
$UCSYDIR
 10
0.0
 20
1.0
 30
0.0
  9
$UCSORTHOREF
  2

  9
$UCSORTHOVIEW
 70
     0
  9
$UCSORGTOP
 10
0.0
 20
0.0
 30
0.0
  9
$UCSORGBOTTOM
 10
0.0
 20
0.0
 30
0.0
  9
$UCSORGLEFT
 10
0.0
 20
0.0
 30
0.0
  9
$UCSORGRIGHT
 10
0.0
 20
0.0
 30
0.0
  9
$UCSORGFRONT
 10
0.0
 20
0.0
 30
0.0
  9
$UCSORGBACK
 10
0.0
 20
0.0
 30
0.0
  9
$PUCSBASE
  2

  9
$PUCSNAME
  2

  9
$PUCSORG
 10
0.0
 20
0.0
 30
0.0
  9
$PUCSXDIR
 10
1.0
 20
0.0
 30
0.0
  9
$PUCSYDIR
 10
0.0
 20
1.0
 30
0.0
  9
$PUCSORTHOREF
  2

  9
$PUCSORTHOVIEW
 70
     0
  9
$PUCSORGTOP
 10
0.0
 20
0.0
 30
0.0
  9
$PUCSORGBOTTOM
 10
0.0
 20
0.0
 30
0.0
  9
$PUCSORGLEFT
 10
0.0
 20
0.0
 30
0.0
  9
$PUCSORGRIGHT
 10
0.0
 20
0.0
 30
0.0
  9
$PUCSORGFRONT
 10
0.0
 20
0.0
 30
0.0
  9
$PUCSORGBACK
 10
0.0
 20
0.0
 30
0.0
  9
$USERI1
 70
     0
  9
$USERI2
 70
     0
  9
$USERI3
 70
     0
  9
$USERI4
 70
     0
  9
$USERI5
 70
     0
  9
$USERR1
 40
0.0
  9
$USERR2
 40
0.0
  9
$USERR3
 40
0.0
  9
$USERR4
 40
0.0
  9
$USERR5
 40
0.0
  9
$WORLDVIEW
 70
     1
  9
$SHADEDGE
 70
     3
  9
$SHADEDIF
 70
    70
  9
$TILEMODE
 70
     1
  9
$MAXACTVP
 70
    64
  9
$PINSBASE
 10
0.0
 20
0.0
 30
0.0
  9
$PLIMCHECK
 70
     0
  9
$PEXTMIN
 10
1.000000000000000E+20
 20
1.000000000000000E+20
 30
1.000000000000000E+20
  9
$PEXTMAX
 10
-1.000000000000000E+20
 20
-1.000000000000000E+20
 30
-1.000000000000000E+20
  9
$PLIMMIN
 10
0.0
 20
0.0
  9
$PLIMMAX
 10
12.0
 20
9.0
  9
$UNITMODE
 70
     0
  9
$VISRETAIN
 70
     1
  9
$PLINEGEN
 70
     0
  9
$PSLTSCALE
 70
     1
  9
$TREEDEPTH
 70
  3020
  9
$CMLSTYLE
  2
Standard
  9
$CMLJUST
 70
     0
  9
$CMLSCALE
 40
1.0
  9
$PROXYGRAPHICS
 70
     1
  9
$MEASUREMENT
 70
     1
  9
$CELWEIGHT
370
    -1
  9
$ENDCAPS
280
     0
  9
$JOINSTYLE
280
     0
  9
$LWDISPLAY
290
     0
  9
$INSUNITS
 70
     4
  9
$HYPERLINKBASE
  1

  9
$STYLESHEET
  1

  9
$XEDIT
290
     1
  9
$CEPSNTYPE
380
     0
  9
$PSTYLEMODE
290
     1
  9
$FINGERPRINTGUID
  2
{12F50282-3ED8-11D3-A8B7-0060B0F84BC6}
  9
$VERSIONGUID
  2
{12F50293-3ED8-11D3-A8B7-0060B0F84BC6}
  9
$EXTNAMES
290
     1
  9
$PSVPSCALE
 40
0.0
  9
$OLESTARTUP
290
     0
  9
$SORTENTS
280
   127
  9
$INDEXCTL
280
     0
  9
$HIDETEXT
280
     0
  9
$XCLIPFRAME
280
     2
  9
$HALOGAP
280
     0
  9
$OBSCOLOR
 70
   257
  9
$OBSLTYPE
280
     0
  9
$INTERSECTIONDISPLAY
280
     0
  9
$INTERSECTIONCOLOR
 70
   257
  9
$DIMASSOC
280
     1
  9
$PROJECTNAME
  1

  9
$CAMERADISPLAY
290
     0
  9
$LENSLENGTH
 40
50.0
  9
$CAMERAHEIGHT
 40
0.0
  9
$STEPSPERSEC
 40
2.0
  9
$STEPSIZE
 40
6.0
  9
$3DDWFPREC
 40
2.0
  9
$PSOLWIDTH
 40
0.25
  9
$PSOLHEIGHT
 40
4.0
  9
$LOFTANG1
 40
1.570796326794896
  9
$LOFTANG2
 40
1.570796326794896
  9
$LOFTMAG1
 40
0.0
  9
$LOFTMAG2
 40
0.0
  9
$LOFTPARAM
 70
     7
  9
$LOFTNORMALS
280
     1
  9
$LATITUDE
 40
37.795
  9
$LONGITUDE
 40
-122.394
  9
$NORTHDIRECTION
 40
0.0
  9
$TIMEZONE
 70
 -8000
  9
$LIGHTGLYPHDISPLAY
280
     1
  9
$TILEMODELIGHTSYNCH
280
     1
  9
$CMATERIAL
347
AB
  9
$SOLIDHIST
280
     0
  9
$SHOWHIST
280
     1
  9
$DWFFRAME
280
     2
  9
$DGNFRAME
280
     0
  9
$REALWORLDSCALE
290
     1
  9
$INTERFERECOLOR
 62
     1
  9
$INTERFEREOBJVS
345
CD
  9
$INTERFEREVPVS
346
CA
  9
$CSHADOW
280
     0
  9
$SHADOWPLANELOCATION
 40
0.0
  0
ENDSEC
  0
SECTION
  2
CLASSES
  0
CLASS
  1
ACDBDICTIONARYWDFLT
  2
AcDbDictionaryWithDefault
  3
ObjectDBX Classes
 90
        0
 91
        1
280
     0
281
     0
  0
CLASS
  1
ACDBPLACEHOLDER
  2
AcDbPlaceHolder
  3
ObjectDBX Classes
 90
        0
 91
        2
280
     0
281
     0
  0
CLASS
  1
LAYOUT
  2
AcDbLayout
  3
ObjectDBX Classes
 90
        0
 91
        3
280
     0
281
     0
  0
CLASS
  1
MATERIAL
  2
AcDbMaterial
  3
ObjectDBX Classes
 90
     1153
 91
        3
280
     0
281
     0
  0
CLASS
  1
VISUALSTYLE
  2
AcDbVisualStyle
  3
ObjectDBX Classes
 90
     4095
 91
       24
280
     0
281
     0
  0
CLASS
  1
TABLESTYLE
  2
AcDbTableStyle
  3
ObjectDBX Classes
 90
     4095
 91
        1
280
     0
281
     0
  0
CLASS
  1
SCALE
  2
AcDbScale
  3
ObjectDBX Classes
 90
     1153
 91
       17
280
     0
281
     0
  0
CLASS
  1
MLEADERSTYLE
  2
AcDbMLeaderStyle
  3
ACDB_MLEADERSTYLE_CLASS
 90
     4095
 91
        1
280
     0
281
     0
  0
CLASS
  1
ACDBSECTIONVIEWSTYLE
  2
AcDbSectionViewStyle
  3
ObjectDBX Classes
 90
     1025
 91
        1
280
     0
281
     0
  0
CLASS
  1
ACDBDETAILVIEWSTYLE
  2
AcDbDetailViewStyle
  3
ObjectDBX Classes
 90
     1025
 91
        1
280
     0
281
     0
  0
CLASS
  1
MESH
  2
AcDbSubDMesh
  3
ObjectDBX Classes
 90
        0
 91
        1
280
     0
281
     1
  0
CLASS
  1
DICTIONARYVAR
  2
AcDbDictionaryVar
  3
ObjectDBX Classes
 90
        0
 91
        9
280
     0
281
     0
  0
CLASS
  1
CELLSTYLEMAP
  2
AcDbCellStyleMap
  3
ObjectDBX Classes
 90
     1152
 91
        1
280
     0
281
     0
  0
ENDSEC
  0
SECTION
  2
TABLES
  0
TABLE
  2
VPORT
  5
8
330
0
100
AcDbSymbolTable
 70
     1
  0
VPORT
  5
A8
330
8
100
AcDbSymbolTableRecord
100
AcDbViewportTableRecord
  2
*Active
 70
     0
 10
0.0
 20
0.0
 11
1.0
 21
1.0
 12
0.0000080921963672
 22
-5.309324741363525
 13
0.0
 23
0.0
 14
0.5
 24
0.5
 15
0.5
 25
0.5
 16
-1.0
 26
-1.0
 36
1.0
 17
0.0
 27
0.0
 37
0.0
 40
1088.005125845885
 41
1.711347376064767
 42
50.0
 43
0.0
 44
0.0
 50
0.0
 51
0.0
 71
     0
 72
   100
 73
     1
 74
     3
 75
     0
 76
     0
 77
     0
 78
     0
281
     0
 65
     1
110
0.0
120
0.0
130
0.0
111
1.0
121
0.0
131
0.0
112
0.0
122
1.0
132
0.0
 79
     0
146
0.0
348
C9
 60
     3
 61
     5
292
     1
282
     1
141
0.0
142
0.0
 63
   250
421
  3355443
  0
ENDTAB
  0
TABLE
  2
LTYPE
  5
5
330
0
100
AcDbSymbolTable
 70
     1
  0
LTYPE
  5
14
330
5
100
AcDbSymbolTableRecord
100
AcDbLinetypeTableRecord
  2
ByBlock
 70
     0
  3

 72
    65
 73
     0
 40
0.0
  0
LTYPE
  5
15
330
5
100
AcDbSymbolTableRecord
100
AcDbLinetypeTableRecord
  2
ByLayer
 70
     0
  3

 72
    65
 73
     0
 40
0.0
  0
LTYPE
  5
16
330
5
100
AcDbSymbolTableRecord
100
AcDbLinetypeTableRecord
  2
Continuous
 70
     0
  3
Solid line
 72
    65
 73
     0
 40
0.0
  0
ENDTAB
  0
TABLE
  2
LAYER
  5
2
330
0
100
AcDbSymbolTable
 70
     3
  0
LAYER
  5
10
330
2
100
AcDbSymbolTableRecord
100
AcDbLayerTableRecord
  2
0
 70
     0
 62
     7
  6
Continuous
370
    -3
390
F
347
BB
  0
LAYER
  5
2B
330
2
100
AcDbSymbolTableRecord
100
AcDbLayerTableRecord
  2
ASHADE
 70
     4
 62
     7
  6
Continuous
370
    -3
390
2D
347
BB
  0
LAYER
  5
F8
330
2
100
AcDbSymbolTableRecord
100
AcDbLayerTableRecord
  2
OracDecor_cornice_mouldings
 70
     0
 62
    13
420
 14702166
  6
Continuous
370
    -3
390
F
347
BB
  0
ENDTAB
  0
TABLE
  2
STYLE
  5
3
330
0
100
AcDbSymbolTable
 70
     2
  0
STYLE
  5
11
330
3
100
AcDbSymbolTableRecord
100
AcDbTextStyleTableRecord
  2
Standard
 70
     0
 40
0.0
 41
1.0
 50
0.0
 71
     0
 42
0.2
  3
txt
  4

  0
STYLE
  5
2C
330
3
100
AcDbSymbolTableRecord
100
AcDbTextStyleTableRecord
  2
ASHADE
 70
     0
 40
0.2
 41
1.0
 50
0.0
 71
     0
 42
0.2
  3
simplex
  4

  0
ENDTAB
  0
TABLE
  2
VIEW
  5
6
330
0
100
AcDbSymbolTable
 70
     0
  0
ENDTAB
  0
TABLE
  2
UCS
  5
7
330
0
100
AcDbSymbolTable
 70
     0
  0
ENDTAB
  0
TABLE
  2
APPID
  5
9
330
0
100
AcDbSymbolTable
 70
     6
  0
APPID
  5
12
330
9
100
AcDbSymbolTableRecord
100
AcDbRegAppTableRecord
  2
ACAD
 70
     0
  0
APPID
  5
8F
330
9
100
AcDbSymbolTableRecord
100
AcDbRegAppTableRecord
  2
AVE_RENDER
 70
     0
  0
APPID
  5
90
330
9
100
AcDbSymbolTableRecord
100
AcDbRegAppTableRecord
  2
AVE_ENTITY_MATERIAL
 70
     0
  0
APPID
  5
9C
330
9
100
AcDbSymbolTableRecord
100
AcDbRegAppTableRecord
  2
AVE_FINISH
 70
     0
  0
APPID
  5
9D
330
9
100
AcDbSymbolTableRecord
100
AcDbRegAppTableRecord
  2
AVE_MATERIAL
 70
     0
  0
APPID
  5
9E
330
9
100
AcDbSymbolTableRecord
100
AcDbRegAppTableRecord
  2
AVE_GLOBAL
 70
     0
  0
ENDTAB
  0
TABLE
  2
DIMSTYLE
  5
A
330
0
100
AcDbSymbolTable
 70
     1
100
AcDbDimStyleTable
 71
     0
  0
DIMSTYLE
105
27
330
A
100
AcDbSymbolTableRecord
100
AcDbDimStyleTableRecord
  2
Standard
 70
     0
340
11
  0
ENDTAB
  0
TABLE
  2
BLOCK_RECORD
  5
1
330
0
100
AcDbSymbolTable
 70
     6
  0
BLOCK_RECORD
  5
1F
330
1
100
AcDbSymbolTableRecord
100
AcDbBlockTableRecord
  2
*Model_Space
340
22
 70
     0
280
     1
281
     0
  0
BLOCK_RECORD
  5
1B
330
1
100
AcDbSymbolTableRecord
100
AcDbBlockTableRecord
  2
*Paper_Space
340
1E
 70
     0
280
     1
281
     0
  0
BLOCK_RECORD
  5
23
330
1
100
AcDbSymbolTableRecord
100
AcDbBlockTableRecord
  2
*Paper_Space0
340
26
 70
     0
280
     1
281
     0
  0
BLOCK_RECORD
  5
2E
330
1
100
AcDbSymbolTableRecord
100
AcDbBlockTableRecord
  2
direct
340
0
 70
     0
280
     1
281
     0
  0
BLOCK_RECORD
  5
42
330
1
100
AcDbSymbolTableRecord
100
AcDbBlockTableRecord
  2
overhead
340
0
 70
     0
280
     1
281
     0
  0
BLOCK_RECORD
  5
5F
330
1
100
AcDbSymbolTableRecord
100
AcDbBlockTableRecord
  2
sh_spot
340
0
 70
     0
280
     1
281
     0
  0
BLOCK_RECORD
  5
91
330
1
100
AcDbSymbolTableRecord
100
AcDbBlockTableRecord
  2
AVE_RENDER
340
0
102
{BLKREFS
331
94
331
95
331
96
331
97
331
98
331
99
331
9A
331
9B
102
}
 70
     0
280
     1
281
     0
  0
BLOCK_RECORD
  5
9F
330
1
100
AcDbSymbolTableRecord
100
AcDbBlockTableRecord
  2
AVE_GLOBAL
340
0
102
{BLKREFS
331
A2
102
}
 70
     0
280
     1
281
     0
  0
ENDTAB
  0
ENDSEC
  0
SECTION
  2
BLOCKS
  0
BLOCK
  5
20
330
1F
100
AcDbEntity
  8
0
100
AcDbBlockBegin
  2
*Model_Space
 70
     0
 10
0.0
 20
0.0
 30
0.0
  3
*Model_Space
  1

  0
ENDBLK
  5
21
330
1F
100
AcDbEntity
  8
0
100
AcDbBlockEnd
  0
BLOCK
  5
1C
330
1B
100
AcDbEntity
 67
     1
  8
0
100
AcDbBlockBegin
  2
*Paper_Space
 70
     0
 10
0.0
 20
0.0
 30
0.0
  3
*Paper_Space
  1

  0
ENDBLK
  5
1D
330
1B
100
AcDbEntity
 67
     1
  8
0
100
AcDbBlockEnd
  0
BLOCK
  5
24
330
23
100
AcDbEntity
 67
     1
  8
0
100
AcDbBlockBegin
  2
*Paper_Space0
 70
     0
 10
0.0
 20
0.0
 30
0.0
  3
*Paper_Space0
  1

  0
ENDBLK
  5
25
330
23
100
AcDbEntity
 67
     1
  8
0
100
AcDbBlockEnd
  0
BLOCK
  5
40
330
2E
100
AcDbEntity
  8
0
100
AcDbBlockBegin
  2
direct
 70
     2
 10
0.0
 20
0.0
 30
0.0
  3
direct
  1

  0
ATTDEF
  5
2F
330
2E
100
AcDbEntity
  8
ASHADE
  6
Continuous
 62
     1
100
AcDbText
 10
0.0
 20
-0.1
 30
0.0
 40
0.2
  1

  7
ASHADE
 72
     1
 11
0.0
 21
-0.1
 31
0.0
100
AcDbAttributeDefinition
280
     0
  3
Light Name
  2
SNAME
 70
     0
280
     0
  0
ARC
  5
30
330
2E
100
AcDbEntity
  8
ASHADE
  6
Continuous
 62
     7
100
AcDbCircle
 10
0.0
 20
0.0
 30
0.0
 40
0.3
100
AcDbArc
 50
205.6792886194569
 51
334.3207113805431
  0
ARC
  5
31
330
2E
100
AcDbEntity
  8
ASHADE
  6
Continuous
 62
     7
100
AcDbCircle
 10
0.0
 20
0.0
 30
0.0
 40
0.3
100
AcDbArc
 50
25.67928861945685
 51
154.3207113805431
  0
LINE
  5
32
330
2E
100
AcDbEntity
  8
ASHADE
  6
Continuous
 62
     7
100
AcDbLine
 10
-0.21
 20
0.2142428528562855
 30
0.0
 11
-0.21
 21
0.5
 31
0.0
  0
LINE
  5
33
330
2E
100
AcDbEntity
  8
ASHADE
  6
Continuous
 62
     7
100
AcDbLine
 10
-0.11
 20
0.2791057147390572
 30
0.0
 11
-0.11
 21
0.5
 31
0.0
  0
LINE
  5
34
330
2E
100
AcDbEntity
  8
ASHADE
  6
Continuous
 62
     7
100
AcDbLine
 10
0.21
 20
0.2142428528562855
 30
0.0
 11
0.21
 21
0.5
 31
0.0
  0
ATTDEF
  5
35
330
2E
100
AcDbEntity
  8
ASHADE
  6
Continuous
 62
     7
100
AcDbText
 10
0.0
 20
0.25
 30
0.0
 40
0.01
  1

100
AcDbAttributeDefinition
280
     0
  3
Look-at Y
  2
LAY
 70
     1
280
     0
  0
ATTDEF
  5
36
330
2E
100
AcDbEntity
  8
ASHADE
  6
Continuous
 62
     7
100
AcDbText
 10
0.0
 20
0.22
 30
0.0
 40
0.01
  1
1
100
AcDbAttributeDefinition
280
     0
  3
Light Intensity
  2
INTENSITY
 70
     1
280
     0
  0
ATTDEF
  5
37
330
2E
100
AcDbEntity
  8
ASHADE
  6
Continuous
 62
     7
100
AcDbText
 10
0.0
 20
0.16
 30
0.0
 40
0.01
  1
-1
100
AcDbAttributeDefinition
280
     0
  3
*not used*
  2
BEAMD
 70
     1
280
     0
  0
ATTDEF
  5
38
330
2E
100
AcDbEntity
  8
ASHADE
  6
Continuous
 62
     7
100
AcDbText
 10
0.0
 20
0.175
 30
0.0
 40
0.01
  1
-1
100
AcDbAttributeDefinition
280
     0
  3
*not used*
  2
CONED
 70
     1
280
     0
  0
ATTDEF
  5
39
330
2E
100
AcDbEntity
  8
ASHADE
  6
Continuous
 62
     7
100
AcDbText
 10
0.0
 20
0.19
 30
0.0
 40
0.01
  1
0
100
AcDbAttributeDefinition
280
     0
  3
Depth Map Size
  2
CONEA
 70
     1
280
     0
  0
ATTDEF
  5
3A
330
2E
100
AcDbEntity
  8
ASHADE
  6
Continuous
 62
     7
100
AcDbText
 10
0.0
 20
0.2050000000000001
 30
0.0
 40
0.01
  1
1,1,1
100
AcDbAttributeDefinition
280
     0
  3
Light Color (RGB)
  2
COLOR
 70
     1
280
     0
  0
ATTDEF
  5
3B
330
2E
100
AcDbEntity
  8
ASHADE
  6
Continuous
 62
     7
100
AcDbText
 10
0.0
 20
0.235
 30
0.0
 40
0.01
  1

100
AcDbAttributeDefinition
280
     0
  3
Look-at Z
  2
LAZ
 70
     1
280
     0
  0
LINE
  5
3C
330
2E
100
AcDbEntity
  8
ASHADE
  6
Continuous
 62
     7
100
AcDbLine
 10
0.0
 20
0.3
 30
0.0
 11
0.0
 21
0.5
 31
0.0
  0
LINE
  5
3D
330
2E
100
AcDbEntity
  8
ASHADE
  6
Continuous
 62
     7
100
AcDbLine
 10
0.11
 20
0.2791057147390572
 30
0.0
 11
0.11
 21
0.5
 31
0.0
  0
ATTDEF
  5
3E
330
2E
100
AcDbEntity
  8
ASHADE
  6
Continuous
 62
     7
100
AcDbText
 10
0.0
 20
0.265
 30
0.0
 40
0.01
  1

100
AcDbAttributeDefinition
280
     0
  3
Look-at X
  2
LAX
 70
     1
280
     0
  0
ATTDEF
  5
3F
330
2E
100
AcDbEntity
  8
ASHADE
  6
Continuous
 62
     7
100
AcDbText
 10
0.0
 20
0.28
 30
0.0
 40
0.01
  1

100
AcDbAttributeDefinition
280
     0
  3

  2
GNAME
 70
     1
280
     0
  0
ENDBLK
  5
41
330
2E
100
AcDbEntity
  8
0
100
AcDbBlockEnd
  0
BLOCK
  5
5D
330
42
100
AcDbEntity
  8
0
100
AcDbBlockBegin
  2
overhead
 70
     2
 10
0.0
 20
0.0
 30
0.0
  3
overhead
  1

  0
ATTDEF
  5
43
330
42
100
AcDbEntity
  8
ASHADE
  6
Continuous
 62
     1
100
AcDbText
 10
0.0
 20
-0.1
 30
0.0
 40
0.2
  1

  7
ASHADE
 72
     1
 11
0.0
 21
-0.1
 31
0.0
100
AcDbAttributeDefinition
280
     0
  3
Light Name
  2
SNAME
 70
     0
280
     0
  0
ARC
  5
44
330
42
100
AcDbEntity
  8
ASHADE
  6
Continuous
 62
     7
100
AcDbCircle
 10
0.0
 20
0.0
 30
0.0
 40
0.3
100
AcDbArc
 50
205.6792886194569
 51
334.3207113805431
  0
LINE
  5
45
330
42
100
AcDbEntity
  8
ASHADE
  6
Continuous
 62
     7
100
AcDbLine
 10
-0.2041413561583015
 20
-0.2198324514393848
 30
0.0
 11
-0.2721884748777353
 21
-0.2931099352525131
 31
0.0
  0
LINE
  5
46
330
42
100
AcDbEntity
  8
ASHADE
  6
Continuous
 62
     7
100
AcDbLine
 10
-0.1096591641591904
 20
-0.2792398032442862
 30
0.0
 11
-0.1279356915190555
 21
-0.3257797704516673
 31
0.0
  0
LINE
  5
47
330
42
100
AcDbEntity
  8
ASHADE
  6
Continuous
 62
     7
100
AcDbLine
 10
0.0
 20
-0.2999999999999999
 30
0.0
 11
0.0
 21
-0.4
 31
0.0
  0
LINE
  5
48
330
42
100
AcDbEntity
  8
ASHADE
  6
Continuous
 62
     7
100
AcDbLine
 10
0.1096591641591904
 20
-0.2792398032442862
 30
0.0
 11
0.1279356915190555
 21
-0.3257797704516673
 31
0.0
  0
LINE
  5
49
330
42
100
AcDbEntity
  8
ASHADE
  6
Continuous
 62
     7
100
AcDbLine
 10
0.2041413561583015
 20
-0.2198324514393848
 30
0.0
 11
0.2721884748777353
 21
-0.2931099352525131
 31
0.0
  0
ARC
  5
4A
330
42
100
AcDbEntity
  8
ASHADE
  6
Continuous
 62
     7
100
AcDbCircle
 10
0.0
 20
0.0
 30
0.0
 40
0.3
100
AcDbArc
 50
25.67928861945685
 51
154.3207113805431
  0
LINE
  5
4B
330
42
100
AcDbEntity
  8
ASHADE
  6
Continuous
 62
     7
100
AcDbLine
 10
-0.2703701166919155
 20
0.13
 30
0.0
 11
-0.3154318028072347
 21
0.1516666666666666
 31
0.0
  0
LINE
  5
4C
330
42
100
AcDbEntity
  8
ASHADE
  6
Continuous
 62
     7
100
AcDbLine
 10
-0.2703701166919155
 20
-0.13
 30
0.0
 11
-0.3154318028072347
 21
-0.1516666666666666
 31
0.0
  0
LINE
  5
4D
330
42
100
AcDbEntity
  8
ASHADE
  6
Continuous
 62
     7
100
AcDbLine
 10
-0.2041413561583015
 20
0.2198324514393849
 30
0.0
 11
-0.2721884748777353
 21
0.2931099352525131
 31
0.0
  0
LINE
  5
4E
330
42
100
AcDbEntity
  8
ASHADE
  6
Continuous
 62
     7
100
AcDbLine
 10
-0.1096591641591904
 20
0.2792398032442862
 30
0.0
 11
-0.1279356915190555
 21
0.3257797704516674
 31
0.0
  0
LINE
  5
4F
330
42
100
AcDbEntity
  8
ASHADE
  6
Continuous
 62
     7
100
AcDbLine
 10
0.2703701166919155
 20
-0.13
 30
0.0
 11
0.3154318028072347
 21
-0.1516666666666666
 31
0.0
  0
LINE
  5
50
330
42
100
AcDbEntity
  8
ASHADE
  6
Continuous
 62
     7
100
AcDbLine
 10
0.2703701166919155
 20
0.13
 30
0.0
 11
0.3154318028072347
 21
0.1516666666666666
 31
0.0
  0
LINE
  5
51
330
42
100
AcDbEntity
  8
ASHADE
  6
Continuous
 62
     7
100
AcDbLine
 10
0.0
 20
0.3
 30
0.0
 11
0.0
 21
0.4
 31
0.0
  0
ATTDEF
  5
52
330
42
100
AcDbEntity
  8
ASHADE
  6
Continuous
 62
     7
100
AcDbText
 10
0.0
 20
0.22
 30
0.0
 40
0.01
  1
1
100
AcDbAttributeDefinition
280
     0
  3
Light Intensity
  2
INTENSITY
 70
     1
280
     0
  0
ATTDEF
  5
53
330
42
100
AcDbEntity
  8
ASHADE
  6
Continuous
 62
     7
100
AcDbText
 10
0.0
 20
0.16
 30
0.0
 40
0.01
  1
-1
100
AcDbAttributeDefinition
280
     0
  3
*not used*
  2
BEAMD
 70
     1
280
     0
  0
ATTDEF
  5
54
330
42
100
AcDbEntity
  8
ASHADE
  6
Continuous
 62
     7
100
AcDbText
 10
0.0
 20
0.175
 30
0.0
 40
0.01
  1
-1
100
AcDbAttributeDefinition
280
     0
  3
*not used*
  2
CONED
 70
     1
280
     0
  0
ATTDEF
  5
55
330
42
100
AcDbEntity
  8
ASHADE
  6
Continuous
 62
     7
100
AcDbText
 10
0.0
 20
0.19
 30
0.0
 40
0.01
  1
0
100
AcDbAttributeDefinition
280
     0
  3
Depth Map Size
  2
CONEA
 70
     1
280
     0
  0
ATTDEF
  5
56
330
42
100
AcDbEntity
  8
ASHADE
  6
Continuous
 62
     7
100
AcDbText
 10
0.0
 20
0.2050000000000001
 30
0.0
 40
0.01
  1
1,1,1
100
AcDbAttributeDefinition
280
     0
  3
Light Color (RGB)
  2
COLOR
 70
     1
280
     0
  0
ATTDEF
  5
57
330
42
100
AcDbEntity
  8
ASHADE
  6
Continuous
 62
     7
100
AcDbText
 10
0.0
 20
0.235
 30
0.0
 40
0.01
  1

100
AcDbAttributeDefinition
280
     0
  3
Look-at Z
  2
LAZ
 70
     1
280
     0
  0
ATTDEF
  5
58
330
42
100
AcDbEntity
  8
ASHADE
  6
Continuous
 62
     7
100
AcDbText
 10
0.0
 20
0.25
 30
0.0
 40
0.01
  1

100
AcDbAttributeDefinition
280
     0
  3
Look-at Y
  2
LAY
 70
     1
280
     0
  0
ATTDEF
  5
59
330
42
100
AcDbEntity
  8
ASHADE
  6
Continuous
 62
     7
100
AcDbText
 10
0.0
 20
0.265
 30
0.0
 40
0.01
  1

100
AcDbAttributeDefinition
280
     0
  3
Look-at X
  2
LAX
 70
     1
280
     0
  0
ATTDEF
  5
5A
330
42
100
AcDbEntity
  8
ASHADE
  6
Continuous
 62
     7
100
AcDbText
 10
0.0
 20
0.28
 30
0.0
 40
0.01
  1

100
AcDbAttributeDefinition
280
     0
  3

  2
GNAME
 70
     1
280
     0
  0
LINE
  5
5B
330
42
100
AcDbEntity
  8
ASHADE
  6
Continuous
 62
     7
100
AcDbLine
 10
0.1096591641591904
 20
0.2792398032442862
 30
0.0
 11
0.1279356915190555
 21
0.3257797704516674
 31
0.0
  0
LINE
  5
5C
330
42
100
AcDbEntity
  8
ASHADE
  6
Continuous
 62
     7
100
AcDbLine
 10
0.2041413561583015
 20
0.2198324514393849
 30
0.0
 11
0.2721884748777353
 21
0.2931099352525131
 31
0.0
  0
ENDBLK
  5
5E
330
42
100
AcDbEntity
  8
0
100
AcDbBlockEnd
  0
BLOCK
  5
85
330
5F
100
AcDbEntity
  8
0
100
AcDbBlockBegin
  2
sh_spot
 70
     2
 10
0.0
 20
0.0
 30
0.0
  3
sh_spot
  1

  0
LINE
  5
60
330
5F
100
AcDbEntity
  8
ASHADE
  6
Continuous
 62
     7
100
AcDbLine
 10
0.25
 20
0.26
 30
0.0
 11
-0.25
 21
0.26
 31
0.0
  0
LINE
  5
61
330
5F
100
AcDbEntity
  8
ASHADE
  6
Continuous
 62
     7
100
AcDbLine
 10
-0.25
 20
-0.3399999999999999
 30
0.0
 11
0.25
 21
-0.3399999999999999
 31
0.0
  0
ATTDEF
  5
62
330
5F
100
AcDbEntity
  8
ASHADE
  6
Continuous
 62
     1
100
AcDbText
 10
0.0
 20
-0.1
 30
0.0
 40
0.2
  1

  7
ASHADE
 72
     1
 11
0.0
 21
-0.1
 31
0.0
100
AcDbAttributeDefinition
280
     0
  3
Light Name
  2
SNAME
 70
     0
280
     0
  0
LINE
  5
63
330
5F
100
AcDbEntity
  8
ASHADE
  6
Continuous
 62
     7
100
AcDbLine
 10
-0.25
 20
-0.13
 30
0.0
 11
-0.25
 21
-0.3399999999999999
 31
0.0
  0
LINE
  5
64
330
5F
100
AcDbEntity
  8
ASHADE
  6
Continuous
 62
     7
100
AcDbLine
 10
-0.25
 20
-0.18
 30
0.0
 11
-0.29
 21
-0.18
 31
0.0
  0
LINE
  5
65
330
5F
100
AcDbEntity
  8
ASHADE
  6
Continuous
 62
     7
100
AcDbLine
 10
-0.29
 20
-0.22
 30
0.0
 11
-0.25
 21
-0.22
 31
0.0
  0
LINE
  5
66
330
5F
100
AcDbEntity
  8
ASHADE
  6
Continuous
 62
     7
100
AcDbLine
 10
-0.29
 20
-0.18
 30
0.0
 11
-0.29
 21
-0.22
 31
0.0
  0
LINE
  5
67
330
5F
100
AcDbEntity
  8
ASHADE
  6
Continuous
 62
     7
100
AcDbLine
 10
-0.1045454545454545
 20
0.26
 30
0.0
 11
-0.15
 21
0.46
 31
0.0
  0
LINE
  5
68
330
5F
100
AcDbEntity
  8
ASHADE
  6
Continuous
 62
     7
100
AcDbLine
 10
-0.21
 20
0.26
 30
0.0
 11
-0.301304347826087
 21
0.46
 31
0.0
  0
LINE
  5
69
330
5F
100
AcDbEntity
  8
ASHADE
  6
Continuous
 62
     7
100
AcDbLine
 10
-0.25
 20
0.26
 30
0.0
 11
-0.25
 21
0.13
 31
0.0
  0
LINE
  5
6A
330
5F
100
AcDbEntity
  8
ASHADE
  6
Continuous
 62
     7
100
AcDbLine
 10
-0.25
 20
0.22
 30
0.0
 11
-0.29
 21
0.22
 31
0.0
  0
LINE
  5
6B
330
5F
100
AcDbEntity
  8
ASHADE
  6
Continuous
 62
     7
100
AcDbLine
 10
-0.29
 20
0.1799999999999999
 30
0.0
 11
-0.25
 21
0.1799999999999999
 31
0.0
  0
LINE
  5
6C
330
5F
100
AcDbEntity
  8
ASHADE
  6
Continuous
 62
     7
100
AcDbLine
 10
-0.29
 20
0.22
 30
0.0
 11
-0.29
 21
0.1799999999999999
 31
0.0
  0
ATTDEF
  5
6D
330
5F
100
AcDbEntity
  8
ASHADE
  6
Continuous
 62
     7
100
AcDbText
 10
0.0
 20
-0.24
 30
0.0
 40
0.01
  1
0
100
AcDbAttributeDefinition
280
     0
  3
Depth Map Size
  2
ZSIZE
 70
     1
280
     0
  0
ATTDEF
  5
6E
330
5F
100
AcDbEntity
  8
ASHADE
  6
Continuous
 62
     7
100
AcDbText
 10
0.0
 20
-0.3300000000000001
 30
0.0
 40
0.01
  1
0,0,0
100
AcDbAttributeDefinition
280
     0
  3
Look-from XYZ
  2
LFXYZ
 70
     1
280
     0
  0
ATTDEF
  5
6F
330
5F
100
AcDbEntity
  8
ASHADE
  6
Continuous
 62
     7
100
AcDbText
 10
0.0
 20
-0.315
 30
0.0
 40
0.01
  1
0.0
100
AcDbAttributeDefinition
280
     0
  3
Beam Distribution
  2
BEAMDI
 70
     1
280
     0
  0
ATTDEF
  5
70
330
5F
100
AcDbEntity
  8
ASHADE
  6
Continuous
 62
     7
100
AcDbText
 10
0.0
 20
-0.3
 30
0.0
 40
0.01
  1
0.0
100
AcDbAttributeDefinition
280
     0
  3
Cone Delta
  2
CONEDE
 70
     1
280
     0
  0
ATTDEF
  5
71
330
5F
100
AcDbEntity
  8
ASHADE
  6
Continuous
 62
     7
100
AcDbText
 10
0.0
 20
-0.2850000000000001
 30
0.0
 40
0.01
  1
10.0
100
AcDbAttributeDefinition
280
     0
  3
Cone Angle
  2
CONEAN
 70
     1
280
     0
  0
ATTDEF
  5
72
330
5F
100
AcDbEntity
  8
ASHADE
  6
Continuous
 62
     7
100
AcDbText
 10
0.0
 20
-0.27
 30
0.0
 40
0.01
  1
-1
100
AcDbAttributeDefinition
280
     0
  3
*not used*
  2
BIASMAX
 70
     1
280
     0
  0
ATTDEF
  5
73
330
5F
100
AcDbEntity
  8
ASHADE
  6
Continuous
 62
     7
100
AcDbText
 10
0.0
 20
-0.255
 30
0.0
 40
0.01
  1
-1
100
AcDbAttributeDefinition
280
     0
  3
*not used*
  2
BIASMIN
 70
     1
280
     0
  0
ATTDEF
  5
74
330
5F
100
AcDbEntity
  8
ASHADE
  6
Continuous
 62
     7
100
AcDbText
 10
0.0
 20
-0.225
 30
0.0
 40
0.01
  1
1,1,1
100
AcDbAttributeDefinition
280
     0
  3
Light Color (RGB)
  2
COLOR
 70
     1
280
     0
  0
ATTDEF
  5
75
330
5F
100
AcDbEntity
  8
ASHADE
  6
Continuous
 62
     7
100
AcDbText
 10
0.0
 20
-0.21
 30
0.0
 40
0.01
  1
1
100
AcDbAttributeDefinition
280
     0
  3
Light Intensity
  2
INTENSITY
 70
     1
280
     0
  0
ATTDEF
  5
76
330
5F
100
AcDbEntity
  8
ASHADE
  6
Continuous
 62
     7
100
AcDbText
 10
0.0
 20
-0.15
 30
0.0
 40
0.01
  1

100
AcDbAttributeDefinition
280
     0
  3

  2
GNAME
 70
     1
280
     0
  0
ATTDEF
  5
77
330
5F
100
AcDbEntity
  8
ASHADE
  6
Continuous
 62
     7
100
AcDbText
 10
0.0
 20
-0.195
 30
0.0
 40
0.01
  1

100
AcDbAttributeDefinition
280
     0
  3
Look-at Z
  2
LAZ
 70
     1
280
     0
  0
ATTDEF
  5
78
330
5F
100
AcDbEntity
  8
ASHADE
  6
Continuous
 62
     7
100
AcDbText
 10
0.0
 20
-0.18
 30
0.0
 40
0.01
  1

100
AcDbAttributeDefinition
280
     0
  3
Look-at Y
  2
LAY
 70
     1
280
     0
  0
ATTDEF
  5
79
330
5F
100
AcDbEntity
  8
ASHADE
  6
Continuous
 62
     7
100
AcDbText
 10
0.0
 20
-0.165
 30
0.0
 40
0.01
  1

100
AcDbAttributeDefinition
280
     0
  3
Look-at X
  2
LAX
 70
     1
280
     0
  0
LINE
  5
7A
330
5F
100
AcDbEntity
  8
ASHADE
  6
Continuous
 62
     7
100
AcDbLine
 10
0.25
 20
-0.3399999999999999
 30
0.0
 11
0.25
 21
-0.13
 31
0.0
  0
LINE
  5
7B
330
5F
100
AcDbEntity
  8
ASHADE
  6
Continuous
 62
     7
100
AcDbLine
 10
0.25
 20
-0.18
 30
0.0
 11
0.29
 21
-0.18
 31
0.0
  0
LINE
  5
7C
330
5F
100
AcDbEntity
  8
ASHADE
  6
Continuous
 62
     7
100
AcDbLine
 10
0.29
 20
-0.22
 30
0.0
 11
0.25
 21
-0.22
 31
0.0
  0
LINE
  5
7D
330
5F
100
AcDbEntity
  8
ASHADE
  6
Continuous
 62
     7
100
AcDbLine
 10
0.29
 20
-0.18
 30
0.0
 11
0.29
 21
-0.22
 31
0.0
  0
LINE
  5
7E
330
5F
100
AcDbEntity
  8
ASHADE
  6
Continuous
 62
     7
100
AcDbLine
 10
0.21
 20
0.26
 30
0.0
 11
0.301304347826087
 21
0.46
 31
0.0
  0
LINE
  5
7F
330
5F
100
AcDbEntity
  8
ASHADE
  6
Continuous
 62
     7
100
AcDbLine
 10
0.1045454545454545
 20
0.26
 30
0.0
 11
0.15
 21
0.46
 31
0.0
  0
LINE
  5
80
330
5F
100
AcDbEntity
  8
ASHADE
  6
Continuous
 62
     7
100
AcDbLine
 10
0.0
 20
0.26
 30
0.0
 11
0.0
 21
0.46
 31
0.0
  0
LINE
  5
81
330
5F
100
AcDbEntity
  8
ASHADE
  6
Continuous
 62
     7
100
AcDbLine
 10
0.25
 20
0.13
 30
0.0
 11
0.25
 21
0.26
 31
0.0
  0
LINE
  5
82
330
5F
100
AcDbEntity
  8
ASHADE
  6
Continuous
 62
     7
100
AcDbLine
 10
0.25
 20
0.22
 30
0.0
 11
0.29
 21
0.22
 31
0.0
  0
LINE
  5
83
330
5F
100
AcDbEntity
  8
ASHADE
  6
Continuous
 62
     7
100
AcDbLine
 10
0.29
 20
0.1799999999999999
 30
0.0
 11
0.25
 21
0.1799999999999999
 31
0.0
  0
LINE
  5
84
330
5F
100
AcDbEntity
  8
ASHADE
  6
Continuous
 62
     7
100
AcDbLine
 10
0.29
 20
0.22
 30
0.0
 11
0.29
 21
0.1799999999999999
 31
0.0
  0
ENDBLK
  5
86
330
5F
100
AcDbEntity
  8
0
100
AcDbBlockEnd
  0
BLOCK
  5
92
330
91
100
AcDbEntity
  8
ASHADE
100
AcDbBlockBegin
  2
AVE_RENDER
 70
     0
 10
0.0
 20
0.0
 30
0.0
  3
AVE_RENDER
  1
AVE_RENDER
  0
ENDBLK
  5
93
330
91
100
AcDbEntity
  8
0
100
AcDbBlockEnd
  0
BLOCK
  5
A0
330
9F
100
AcDbEntity
  8
ASHADE
100
AcDbBlockBegin
  2
AVE_GLOBAL
 70
     0
 10
0.0
 20
0.0
 30
0.0
  3
AVE_GLOBAL
  1
AVE_GLOBAL
  0
ENDBLK
  5
A1
330
9F
100
AcDbEntity
  8
0
100
AcDbBlockEnd
  0
ENDSEC
  0
SECTION
  2
ENTITIES
  0
INSERT
  5
94
330
1F
100
AcDbEntity
  8
ASHADE
 62
     1
100
AcDbBlockReference
  2
AVE_RENDER
 10
0.0
 20
0.0
 30
0.0
1001
AVE_RENDER
1002
{
1070
     7
1000
Pref
1070
    30
1070
    20
1070
     1
1070
     0
1000

1070
    10
1070
     1
1070
    10
1040
1.0
1070
     1
1040
0.3
1040
0.7
1040
0.0
1040
10.0
1010
-1.0
1020
-1.0
1030
-1.0
1040
0.3
1070
    49
1070
     0
1070
     0
1010
1.0
1020
1.0
1030
1.0
1040
45.0
1070
     1
1070
     0
1000
WCS
1040
0.0
1070
     0
1040
10.0
1002
}
  0
INSERT
  5
95
330
1F
100
AcDbEntity
  8
ASHADE
 62
     3
100
AcDbBlockReference
  2
AVE_RENDER
 10
0.0
 20
0.0
 30
0.0
1001
AVE_RENDER
1002
{
1070
     0
1000
Full Opt
1070
     0
1070
     1
1070
     1
1070
     1
1070
     0
1070
     0
1070
     0
1070
     1
1070
     1
1040
0.0001
1040
0.0001
1002
}
  0
INSERT
  5
96
330
1F
100
AcDbEntity
  8
ASHADE
 62
     4
100
AcDbBlockReference
  2
AVE_RENDER
 10
0.0
 20
0.0
 30
0.0
1001
AVE_RENDER
1002
{
1070
     0
1000
Quick Opt
1070
     0
1070
     1
1070
     1
1070
     1
1070
     0
1070
     0
1070
     1
1002
}
  0
INSERT
  5
97
330
1F
100
AcDbEntity
  8
ASHADE
 62
     5
100
AcDbBlockReference
  2
AVE_RENDER
 10
0.0
 20
0.0
 30
0.0
1001
AVE_RENDER
1002
{
1070
     1
1000
Scanl Opt
1070
     2
1070
     0
1070
     2
1040
2.0
1040
4.0
1070
     0
1070
     1
1070
     0
1040
0.03
1002
}
  0
INSERT
  5
98
330
1F
100
AcDbEntity
  8
ASHADE
 62
     6
100
AcDbBlockReference
  2
AVE_RENDER
 10
0.0
 20
0.0
 30
0.0
1001
AVE_RENDER
1002
{
1070
     2
1000
Raytr Opt
1070
     2
1070
     0
1070
     2
1040
2.0
1040
4.0
1070
     0
1070
     1
1070
     1
1040
0.03
1070
     3
1040
0.03
1002
}
  0
INSERT
  5
99
330
1F
100
AcDbEntity
  8
ASHADE
 62
     7
100
AcDbBlockReference
  2
AVE_RENDER
 10
0.0
 20
0.0
 30
0.0
1001
AVE_RENDER
1002
{
1070
     0
1000
RFile Opt
1070
     1
1070
   640
1070
   480
1070
 10000
1070
     1
1070
     8
1070
     8
1070
     0
1070
     0
1070
     0
1070
     0
1070
     0
1070
     0
1070
     0
1002
}
  0
INSERT
  5
9A
330
1F
100
AcDbEntity
  8
ASHADE
 62
     8
100
AcDbBlockReference
  2
AVE_RENDER
 10
0.0
 20
0.0
 30
0.0
1001
AVE_RENDER
1002
{
1070
     0
1000
Fog Opt
1070
     0
1070
     0
1040
0.0
1040
1.0
1040
0.0
1040
1.0
1010
0.5
1020
0.5
1030
0.5
1002
}
  0
INSERT
  5
9B
330
1F
100
AcDbEntity
  8
ASHADE
 62
     9
100
AcDbBlockReference
  2
AVE_RENDER
 10
0.0
 20
0.0
 30
0.0
1001
AVE_RENDER
1002
{
1070
     0
1000
BG Opt
1070
     0
1070
     1
1010
0.0
1020
0.0
1030
0.0
1010
1.0
1020
0.0
1030
0.0
1010
0.0
1020
1.0
1030
0.0
1010
0.0
1020
0.0
1030
1.0
1040
0.5
1040
0.33
1040
0.0
1000

1070
     1
1000

1070
     1
1070
     1
1040
1.0
1040
1.0
1040
0.0
1040
0.0
1070
     0
1002
}
  0
INSERT
  5
A2
330
1F
100
AcDbEntity
  8
ASHADE
 62
     1
100
AcDbBlockReference
  2
AVE_GLOBAL
 10
0.0
 20
0.0
 30
0.0
1001
AVE_MATERIAL
1002
{
1000
*GLOBAL*
1000
2
1000
Global finish.
1002
{
1002
}
1002
{
1070
    63
1002
{
1002
{
1010
-1.0
1020
-1.0
1030
-1.0
1002
}
1040
0.1000000014901161
1000

1040
0.0
1002
{
1002
}
1040
0.0
1002
{
1002
}
1040
0.0
1002
}
1002
{
1002
{
1010
-1.0
1020
-1.0
1030
-1.0
1002
}
1040
0.6999999880790711
1000

1040
0.0
1002
{
1002
}
1040
0.0
1002
{
1002
}
1040
0.0
1002
}
1002
{
1002
{
1010
-1.0
1020
-1.0
1030
-1.0
1002
}
1040
0.2000000029802322
1000

1040
0.0
1002
{
1002
}
1040
0.0
1002
{
1002
}
1040
0.0
1002
}
1002
{
1070
     0
1002
{
1070
     1
1002
{
1040
1.0
1040
1.0
1000

1040
0.0
1002
{
1002
}
1040
0.0
1002
{
1002
}
1040
0.0
1002
}
1002
}
1040
1.0
1040
0.0
1040
0.0
1002
}
1002
{
1040
1.0
1040
1.0
1000

1040
0.0
1002
{
1002
}
1040
0.0
1002
{
1002
}
1040
0.0
1002
}
1002
{
1040
0.5
1040
1.0
1000

1040
0.0
1002
{
1002
}
1040
0.0
1002
{
1002
}
1040
0.0
1002
}
1002
{
1070
     0
1040
0.0
1002
{
1002
}
1040
1.0
1002
{
1002
}
1040
0.0
1002
}
1002
{
1040
0.0
1002
{
1002
{
1010
0.0
1020
0.0
1030
0.0
1002
}
1040
1.0
1000

1040
0.0
1002
{
1002
}
1040
0.0
1002
{
1002
}
1040
0.0
1002
}
1002
}
1002
{
1002
{
1070
     1
1002
{
1040
0.0
1040
1.0
1000

1040
0.0
1002
{
1002
}
1040
0.0
1002
{
1002
}
1040
0.0
1002
}
1002
}
1040
0.0
1002
{
1002
}
1010
1.0
1020
0.0
1030
0.0
1010
0.0
1020
1.0
1030
0.0
1010
0.0
1020
0.0
1030
1.0
1070
     0
1002
}
1002
{
1002
{
1040
1.0
1040
1.0
1002
{
1070
     1
1002
{
1040
1.0
1040
1.0
1000

1040
0.0
1002
{
1002
}
1040
0.0
1002
{
1002
}
1040
0.0
1002
}
1002
}
1002
}
1070
     0
1040
0.0
1002
{
1002
}
1002
}
1002
{
1002
}
1002
}
1002
{
1071
        3
1070
     3
1070
     0
1002
{
1070
     2
1070
     0
1070
     0
1040
0.0
1002
}
1070
     0
1070
     2
1002
{
1002
}
1002
}
1002
{
1040
8030.0
1040
190.3000030517578
1040
0.3050000071525574
1040
228.0
1040
545.0
1040
14.0
1040
17.39999961853027
1040
0.4560000002384186
1002
}
1002
}
  0
MESH
  5
F9
330
1F
100
AcDbEntity
  8
OracDecor_cornice_mouldings
 62
    24
420
 11541018
160
             33992
310
C8840000B00300000C00000013000000020000003C00000006000000020000000000000000408F40000000A0A5A251C0000000000000D2BE0000000000408F400000008024BE52C0000000000164E8BF0C000000130000000A0000003C00000006000000020000000000000000408F40000000A0A5A251C0000000000000D2
310
BE0000000000408F400000002001C052C0000000000000D2BE0C00000013000000120000003C00000006000000020000000000000000408F400000002001C052C0000000000000D2BE0000000000408F400000008024BE52C0000000000164E8BF0C000000130000001A0000003C0000000600000002000000000000000040
310
8F40000000A02BB552C0000000801444FCBF0000000000408F40000000200AA952C0000000406AE304C00C00000013000000220000003C00000006000000020000000000000000408F40000000200AA952C0000000406AE304C00000000000408F4000000040F48C51C00000000088FFB0BF0C000000130000002A0000003C
310
00000006000000020000000000000000408F40000000A02BB552C0000000801444FCBF0000000000408F4000000040F48C51C00000000088FFB0BF0C00000013000000320000003C00000006000000020000000000000000408F40000000A02BB552C0000000801444FCBF0000000000408F400000008024BE52C000000000
310
0164E8BF0C000000130000003A0000003C00000006000000020000000000000000408F40000000A0A5A251C0000000000000D2BE0000000000408F4000000040F48C51C00000000088FFB0BF0C00000013000000420000003C00000006000000020000000000000000408F40000000200AA952C0000000406AE304C0000000
310
0000408F4000000060059852C000000040E0E80BC00C000000130000004A0000003C00000006000000020000000000000000408F4000000060059852C000000040E0E80BC00000000000408F40000000C08F7451C000000000D237D4BF0C00000013000000520000003C00000006000000020000000000000000408F400000
310
0040F48C51C00000000088FFB0BF0000000000408F40000000C08F7451C000000000D237D4BF0C000000130000005A0000003C00000006000000020000000000000000408F4000000060059852C000000040E0E80BC00000000000408F4000000000BB8152C0000000207D9811C00C00000013000000620000003C00000006
310
000000020000000000000000408F4000000000BB8152C0000000207D9811C00000000000408F40000000C08F7451C000000000D237D4BF0C000000130000006A0000003C00000006000000020000000000000000408F4000000000BB8152C0000000207D9811C00000000000408F40000000001F6652C000000020BA5615C0
310
0C00000013000000720000003C00000006000000020000000000000000408F40000000001F6652C000000020BA5615C00000000000408F4000000020FD6251C0000000009998E7BF0C000000130000007A0000003C00000006000000020000000000000000408F40000000C08F7451C000000000D237D4BF0000000000408F
310
4000000020FD6251C0000000009998E7BF0C00000013000000820000003C00000006000000020000000000000000408F40000000001F6652C000000020BA5615C00000000000408F4000000000904452C000000000192519C00C000000130000008A0000003C00000006000000020000000000000000408F40000000009044
310
52C000000000192519C00000000000408F4000000020FD6251C0000000009998E7BF0C00000013000000920000003C00000006000000020000000000000000408F4000000000904452C000000000192519C00000000000408F4000000000601D52C00000000066FC1CC00C000000130000009A0000003C0000000600000002
310
0000000000000000408F4000000000601D52C00000000066FC1CC00000000000408F4000000060714851C0000000C0543FF3BF0C00000013000000A20000003C00000006000000020000000000000000408F4000000020FD6251C0000000009998E7BF0000000000408F4000000060714851C0000000C0543FF3BF0C000000
310
13000000AA0000003C00000006000000020000000000000000408F4000000000601D52C00000000066FC1CC00000000000408F400000008038F251C0000000C0C54F20C00C00000013000000B20000003C00000006000000020000000000000000408F400000008038F251C0000000C0C54F20C00000000000408F40000000
310
60714851C0000000C0543FF3BF0C00000013000000BA0000003C00000006000000020000000000000000408F400000008038F251C0000000C0C54F20C00000000000408F400000004009C351C000000080000722C00C00000013000000C20000003C00000006000000020000000000000000408F400000004009C351C00000
310
0080000722C00000000000408F4000000060042451C0000000C0DC55F7BF0C00000013000000CA0000003C00000006000000020000000000000000408F4000000060714851C0000000C0543FF3BF0000000000408F4000000060042451C0000000C0DC55F7BF0C00000013000000D20000003C000000060000000200000000
310
00000000408F400000004009C351C000000080000722C00000000000408F40000000207D9251C000000080E19023C00C00000013000000DA0000003C00000006000000020000000000000000408F40000000207D9251C000000080E19023C00000000000408F4000000060042451C0000000C0DC55F7BF0C00000013000000
310
E20000003C00000006000000020000000000000000408F40000000207D9251C000000080E19023C00000000000408F4000000040396151C000000000CFE624C00C00000013000000EA0000003C00000006000000020000000000000000408F4000000040396151C000000000CFE624C00000000000408F40000000E0FDFB50
310
C000000080D855F7BF0C00000013000000F20000003C00000006000000020000000000000000408F4000000060042451C0000000C0DC55F7BF0000000000408F40000000E0FDFB50C000000080D855F7BF0C00000013000000FA0000003C00000006000000020000000000000000408F4000000040396151C000000000CFE6
310
24C00000000000408F40000000E08B2F51C000000000EB0E26C00C00000013000000020100003C00000006000000020000000000000000408F40000000E08B2F51C000000000EB0E26C00000000000408F40000000E0FDFB50C000000080D855F7BF0C000000130000000A0100003C00000006000000020000000000000000
310
408F40000000E08B2F51C000000000EB0E26C00000000000408F40000000601BFE50C000000080DC0827C00C00000013000000120100003C00000006000000020000000000000000408F40000000601BFE50C000000080DC0827C00000000000408F40000000C090D750C000000080543FF3BF0C000000130000001A010000
310
3C00000006000000020000000000000000408F40000000E0FDFB50C000000080D855F7BF0000000000408F40000000C090D750C000000080543FF3BF0C00000013000000220100003C00000006000000020000000000000000408F40000000601BFE50C000000080DC0827C00000000000408F40000000C03BCC50C0000000
310
0083D927C00C000000130000002A0100003C00000006000000020000000000000000408F40000000C090D750C000000080543FF3BF0000000000408F40000000C03BCC50C00000000083D927C00C00000013000000320100003C00000006000000020000000000000000408F40000000C03BCC50C00000000083D927C00000
310
000000408F40000000C05AA14EC000000080300EE5BF0C000000130000003A0100003C00000006000000020000000000000000408F400000000005BD50C0000000009998E7BF0000000000408F40000000C05AA14EC000000080300EE5BF0C00000013000000420100003C00000006000000020000000000000000408F4000
310
0000C090D750C000000080543FF3BF0000000000408F400000000005BD50C0000000009998E7BF0C000000130000004A0100003C00000006000000020000000000000000408F4000000080A2194FC0000000000000D2BE0000000000408F40000000C08EFA4EC00000000020B09EBF0C00000013000000520100003C000000
310
06000000020000000000000000408F4000000080A2194FC0000000000000D2BE0000000000408F40000000805C7D50C0000000000000D2BE0C000000130000005A0100003C00000006000000020000000000000000408F40000000000E9350C00000000088FFB0BF0000000000408F40000000805C7D50C0000000000000D2
310
BE0C00000013000000620100003C00000006000000020000000000000000408F40000000000E9350C00000000088FFB0BF0000000000408F40000000C08EFA4EC00000000020B09EBF0C000000130000006A0100003C00000006000000020000000000000000408F400000000087DD4EC0000000004809BEBF000000000040
310
8F400000000006C44EC0000000002270D0BF0C00000013000000720100003C00000006000000020000000000000000408F400000006072AB50C000000000D237D4BF0000000000408F400000000087DD4EC0000000004809BEBF0C000000130000007A0100003C00000006000000020000000000000000408F400000006072
310
AB50C000000000D237D4BF0000000000408F400000000006C44EC0000000002270D0BF0C00000013000000820100003C00000006000000020000000000000000408F400000000087DD4EC0000000004809BEBF0000000000408F40000000C08EFA4EC00000000020B09EBF0C000000130000008A0100003C00000006000000
310
020000000000000000408F400000006072AB50C000000000D237D4BF0000000000408F40000000000E9350C00000000088FFB0BF0C00000013000000920100003C00000006000000020000000000000000408F40000000C05AA14EC000000080300EE5BF0000000000408F400000004096AF4EC000000000522ADCBF0C0000
310
00130000009A0100003C00000006000000020000000000000000408F400000000005BD50C0000000009998E7BF0000000000408F400000004096AF4EC000000000522ADCBF0C00000013000000A20100003C00000006000000020000000000000000408F400000004096AF4EC000000000522ADCBF0000000000408F400000
310
000006C44EC0000000002270D0BF0C00000013000000AA0100003C00000006000000020000000000000000408F400000000005BD50C0000000009998E7BF0000000000408F400000006072AB50C000000000D237D4BF0C00000013000000B20100003C00000006000000020000000000000000408F40000000C03BCC50C000
310
00000083D927C00000000000408F4000000000B19950C000000080488628C00C00000013000000BA0100003C00000006000000020000000000000000408F4000000000B19950C000000080488628C00000000000408F4000000080B2774EC00000008080D5F8BF0C00000013000000C20100003C0000000600000002000000
310
0000000000408F40000000C05AA14EC000000080300EE5BF0000000000408F4000000080B2774EC00000008080D5F8BF0C00000013000000CA0100003C00000006000000020000000000000000408F4000000000B19950C000000080488628C00000000000408F4000000000F56550C000000000710F29C00C000000130000
310
00D20100003C00000006000000020000000000000000408F4000000000F56550C000000000710F29C00000000000408F40000000C0F0554EC000000040125601C00C00000013000000DA0100003C00000006000000020000000000000000408F40000000C0F0554EC000000040125601C00000000000408F4000000080B277
310
4EC00000008080D5F8BF0C00000013000000E20100003C00000006000000020000000000000000408F4000000000F56550C000000000710F29C00000000000408F40000000809F2F50C000000000587829C00C00000013000000EA0100003C00000006000000020000000000000000408F40000000809F2F50C00000000058
310
7829C00000000000408F40000000C007FA4DC000000040D2440AC00C00000013000000F20100003C00000006000000020000000000000000408F40000000C007FA4DC000000040D2440AC00000000000408F4000000000222C4EC00000004064F205C00C00000013000000FA0100003C000000060000000200000000000000
310
00408F4000000000F56550C000000000710F29C00000000000408F4000000000222C4EC00000004064F205C00C00000013000000020200003C00000006000000020000000000000000408F4000000000222C4EC00000004064F205C00000000000408F40000000C0F0554EC000000040125601C00C000000130000000A0200
310
003C00000006000000020000000000000000408F40000000809F2F50C000000000587829C00000000000408F400000008080ED4FC0000000803BC129C00C00000013000000120200003C00000006000000020000000000000000408F400000008080ED4FC0000000803BC129C00000000000408F40000000C0AB804DC00000
310
0020E0DD10C00C000000130000001A0200003C00000006000000020000000000000000408F40000000C0AB804DC000000020E0DD10C00000000000408F40000000C0CFC04DC00000006052340EC00C00000013000000220200003C00000006000000020000000000000000408F40000000809F2F50C000000000587829C000
310
00000000408F40000000C0CFC04DC00000006052340EC00C000000130000002A0200003C00000006000000020000000000000000408F40000000C0CFC04DC00000006052340EC00000000000408F40000000C007FA4DC000000040D2440AC00C00000013000000320200003C00000006000000020000000000000000408F40
310
0000008080ED4FC0000000803BC129C00000000000408F400000004013754FC0000000803BEF29C00C000000130000003A0200003C00000006000000020000000000000000408F400000004013754FC0000000803BEF29C00000000000408F40000000C0FFEF4CC000000020DCAB13C00C00000013000000420200003C0000
310
0006000000020000000000000000408F40000000C0FFEF4CC000000020DCAB13C00000000000408F40000000C0FE3A4DC0000000202C6412C00C000000130000004A0200003C00000006000000020000000000000000408F400000008080ED4FC0000000803BC129C00000000000408F40000000C0FE3A4DC0000000202C64
310
12C00C00000013000000520200003C00000006000000020000000000000000408F40000000C0FE3A4DC0000000202C6412C00000000000408F40000000C0AB804DC000000020E0DD10C00C000000130000005A0200003C00000006000000020000000000000000408F400000004013754FC0000000803BEF29C00000000000
310
408F40000000C0E4F54EC0000000008F022AC00C00000013000000620200003C00000006000000020000000000000000408F40000000C0E4F54EC0000000008F022AC00000000000408F40000000C0234F4CC000000020266915C00C000000130000006A0200003C00000006000000020000000000000000408F40000000C0
310
234F4CC000000020266915C00000000000408F400000000042A14CC000000020B6AD14C00C00000013000000720200003C00000006000000020000000000000000408F400000004013754FC0000000803BEF29C00000000000408F400000000042A14CC000000020B6AD14C00C000000130000007A0200003C000000060000
310
00020000000000000000408F400000000042A14CC000000020B6AD14C00000000000408F40000000C0FFEF4CC000000020DCAB13C00C00000013000000820200003C00000006000000020000000000000000408F40000000C0E4F54EC0000000008F022AC00000000000408F40000000006A924EC00000008000002AC00C00
310
0000130000008A0200003C00000006000000020000000000000000408F400000008003A64BC000000020010016C00000000000408F40000000006A924EC00000008000002AC00C00000013000000920200003C00000006000000020000000000000000408F400000008003A64BC000000020010016C00000000000408F4000
310
00000085FB4BC00000002097D915C00C000000130000009A0200003C00000006000000020000000000000000408F40000000C0E4F54EC0000000008F022AC00000000000408F400000000085FB4BC00000002097D915C00C00000013000000A20200003C00000006000000020000000000000000408F400000000085FB4BC0
310
0000002097D915C00000000000408F40000000C0234F4CC000000020266915C00C00000013000000AA0200003C00000006000000020000000000000000408F40000000006A924EC00000008000002AC00000000000408F4000000000024046C000000020000016C00C00000013000000B20200003C00000006000000020000
310
000000000000408F400000008003A64BC000000020010016C00000000000408F4000000000024046C000000020000016C00C00000013000000BA0200003C00000006000000020000000000000000408F4000000000024044C0000000400000F0BF0000000000408F40000000C0664444C00000008038B1E7BF0C0000001300
310
0000C20200003C00000006000000020000000000000000408F40000000C0664444C00000008038B1E7BF0000000000408F40000000809DBB45C00000000039B1E7BF0C00000013000000CA0200003C00000006000000020000000000000000408F40000000809DBB45C00000000039B1E7BF0000000000408F400000000002
310
C045C0000000800000F0BF0C00000013000000D20200003C00000006000000020000000000000000408F4000000000024044C0000000400000F0BF0000000000408F400000000002C045C0000000800000F0BF0C00000013000000DA0200003C00000006000000020000000000000000408F40000000C0664444C000000080
310
38B1E7BF0000000000408F4000000080335144C00000000001FCDFBF0C00000013000000E20200003C00000006000000020000000000000000408F4000000080335144C00000000001FCDFBF0000000000408F4000000080D0AE45C00000000002FCDFBF0C00000013000000EA0200003C0000000600000002000000000000
310
0000408F4000000080D0AE45C00000000002FCDFBF0000000000408F40000000809DBB45C00000000039B1E7BF0C00000013000000F20200003C00000006000000020000000000000000408F4000000080335144C00000000001FCDFBF0000000000408F40000000C0846544C00000000061C1D2BF0C00000013000000FA02
310
00003C00000006000000020000000000000000408F40000000C0846544C00000000061C1D2BF0000000000408F40000000407F9A45C00000000062C1D2BF0C00000013000000020300003C00000006000000020000000000000000408F40000000407F9A45C00000000062C1D2BF0000000000408F4000000080D0AE45C000
310
00000002FCDFBF0C000000130000000A0300003C00000006000000020000000000000000408F40000000C0846544C00000000061C1D2BF0000000000408F4000000000FA7F44C0000000008231C1BF0C00000013000000120300003C00000006000000020000000000000000408F4000000000FA7F44C0000000008231C1BF
310
0000000000408F40000000400A8045C0000000008431C1BF0C000000130000001A0300003C00000006000000020000000000000000408F40000000400A8045C0000000008431C1BF0000000000408F40000000407F9A45C00000000062C1D2BF0C00000013000000220300003C00000006000000020000000000000000408F
310
4000000000FA7F44C0000000008231C1BF0000000000408F4000000000C79E44C0000000009092A1BF0C000000130000002A0300003C00000006000000020000000000000000408F4000000000C79E44C0000000009092A1BF0000000000408F40000000403D6145C0000000009092A1BF0C00000013000000320300003C00
310
000006000000020000000000000000408F40000000403D6145C0000000009092A1BF0000000000408F40000000400A8045C0000000008431C1BF0C000000130000003A0300003C00000006000000020000000000000000408F4000000000C79E44C0000000009092A1BF0000000000408F400000000002C044C00000000000
310
00A0BE0C00000013000000420300003C00000006000000020000000000000000408F400000000002C044C0000000000000A0BE0000000000408F4000000040024045C0000000000000A0BE0C000000130000004A0300003C00000006000000020000000000000000408F4000000040024045C0000000000000A0BE00000000
310
00408F40000000403D6145C0000000009092A1BF0C00000013000000520300003C00000006000000020000000000000000408F4000000000024044C000000020000012C00000000000408F4000000000024044C0000000400000F0BF0C000000130000005A0300003C00000006000000020000000000000000408F40000000
310
0002C045C000000020000012C00000000000408F400000000002C045C0000000800000F0BF0C00000013000000620300003C00000006000000020000000000000000408F4000000000024044C000000020000012C00000000000408F400000000002C045C000000020000012C00C000000130000006A0300003C0000000600
310
0000020000000000000000408F40000000609D3B44C000000020D80913C00000000000408F4000000000024044C000000020000012C00C00000013000000720300003C00000006000000020000000000000000408F40000000A066C445C000000020D80913C00000000000408F400000000002C045C000000020000012C00C
310
000000130000007A0300003C00000006000000020000000000000000408F40000000609D3B44C000000020D80913C00000000000408F40000000A066C445C000000020D80913C00C00000013000000820300003C00000006000000020000000000000000408F4000000080D02E44C000000020400014C00000000000408F40
310
000000609D3B44C000000020D80913C00C000000130000008A0300003C00000006000000020000000000000000408F400000008033D145C000000020400014C00000000000408F40000000A066C445C000000020D80913C00C00000013000000920300003C00000006000000020000000000000000408F4000000080D02E44
310
C000000020400014C00000000000408F400000008033D145C000000020400014C00C000000130000009A0300003C00000006000000020000000000000000408F40000000407F1A44C000000020EAD314C00000000000408F4000000080D02E44C000000020400014C00C00000013000000A20300003C000000060000000200
310
00000000000000408F40000000C084E545C000000020EAD314C00000000000408F400000008033D145C000000020400014C00C00000013000000AA0300003C00000006000000020000000000000000408F40000000407F1A44C000000020EAD314C00000000000408F40000000C084E545C000000020EAD314C00C00000013
310
000000B20300003C00000006000000020000000000000000408F40000000000A0044C000000020747615C00000000000408F40000000407F1A44C000000020EAD314C00C00000013000000BA0300003C00000006000000020000000000000000408F4000000000FAFF45C000000020747615C00000000000408F40000000C0
310
84E545C000000020EAD314C00C00000013000000C20300003C00000006000000020000000000000000408F40000000000A0044C000000020747615C00000000000408F4000000000FAFF45C000000020747615C00C00000013000000CA0300003C00000006000000020000000000000000408F40000000403DE143C0000000
310
20DBDC15C00000000000408F40000000000A0044C000000020747615C00C00000013000000D20300003C00000006000000020000000000000000408F4000000000FAFF45C000000020747615C00000000000408F40000000E0C61E46C000000020DBDC15C00C00000013000000DA0300003C00000006000000020000000000
310
000000408F40000000403DE143C000000020DBDC15C00000000000408F40000000E0C61E46C000000020DBDC15C00C00000013000000E20300003C00000006000000020000000000000000408F40000000006A924EC00000008000002AC00000000000408F4000000000E09BC9BF0000002000002AC00C00000013000000EA
310
0300003C00000006000000020000000000000000408F400000008008002AC000000020000016C00000000000408F4000000000E09BC9BF0000002000002AC00C00000013000000F20300003C00000006000000020000000000000000408F400000008008002AC000000020000016C00000000000408F400000000002C043C0
310
00000000000016C00C00000013000000FA0300003C00000006000000020000000000000000408F400000000002C043C000000000000016C00000000000408F40000000006A924EC00000008000002AC00C00000013000000020400003C00000006000000020000000000000000408F400000000002C043C000000000000016
310
C00000000000408F4000000000024046C000000020000016C00C000000130000000A0400003C00000006000000020000000000000000408F400000000002C043C000000000000016C00000000000408F40000000403DE143C000000020DBDC15C00C00000013000000120400003C0000000600000002000000000000000040
310
8F40000000E0C61E46C000000020DBDC15C00000000000408F4000000000024046C000000020000016C00C000000130000001A0400003C00000006000000020000000000000000408F4000000000000011BF000000000000A0BE0000000000408F4000000000000012BF000000A0999929C00C00000013000000220400003C
310
00000006000000020000000000000000408F4000000000000011BF000000000000A0BE0000000000408F400000000094AB0DC0000000000000A0BE0C000000130000002A0400003C00000006000000020000000000000000408F4000000000000012BF000000A0999929C00000000000408F400000000094AB0DC000000000
310
0000A0BE0C00000013000000320400003C00000006000000020000000000000000408F4000000000DF3010C00000000048FFB0BF0000000000408F400000000094AB0DC0000000000000A0BE0C000000130000003A0400003C00000006000000020000000000000000408F4000000000000012BF000000A0999929C0000000
310
0000408F4000000000DF3010C00000000048FFB0BF0C00000013000000420400003C00000006000000020000000000000000408F400000000000829BBF00000020B6CC29C00000000000408F4000000000000012BF000000A0999929C00C000000130000004A0400003C00000006000000020000000000000000408F400000
310
0000DF3010C00000000048FFB0BF0000000000408F400000000025B711C000000000C237D4BF0C00000013000000520400003C00000006000000020000000000000000408F400000000000829BBF00000020B6CC29C00000000000408F400000000025B711C000000000C237D4BF0C000000130000005A0400003C00000006
310
000000020000000000000000408F40000000004FD012C0000000009198E7BF0000000000408F400000000025B711C000000000C237D4BF0C00000013000000620400003C00000006000000020000000000000000408F400000000000829BBF00000020B6CC29C00000000000408F40000000004FD012C0000000009198E7BF
310
0C000000130000006A0400003C00000006000000020000000000000000408F400000000080A9B9BF0000002048F229C00000000000408F400000000000829BBF00000020B6CC29C00C00000013000000720400003C00000006000000020000000000000000408F40000000000D7914C000000080503FF3BF0000000000408F
310
40000000004FD012C0000000009198E7BF0C000000130000007A0400003C00000006000000020000000000000000408F400000000080A9B9BF0000002048F229C00000000000408F40000000000D7914C000000080503FF3BF0C00000013000000820400003C00000006000000020000000000000000408F400000000080A9
310
B9BF0000002048F229C00000000000408F4000000000E09BC9BF0000002000002AC00C000000130000008A0400003C00000006000000020000000000000000408F40000000000D7914C000000080503FF3BF0000000000408F4000000000DDBF16C000000080D455F7BF0C00000013000000920400003C0000000600000002
310
0000000000000000408F4000000000DDBF16C000000080D455F7BF0000000000408F4000000000E09BC9BF0000002000002AC00C000000130000009A0400003C00000006000000020000000000000000408F40000000C0E8FF28C000000020747615C00000000000408F4000000000E09BC9BF0000002000002AC00C000000
310
13000000A20400003C00000006000000020000000000000000408F40000000001C7B29C000000020DBDC15C00000000000408F40000000C0E8FF28C000000020747615C00C00000013000000AA0400003C00000006000000020000000000000000408F40000000001C7B29C000000020DBDC15C00000000000408F40000000
310
00E09BC9BF0000002000002AC00C00000013000000B20400003C00000006000000020000000000000000408F40000000001C7B29C000000020DBDC15C00000000000408F400000008008002AC000000020000016C00C00000013000000BA0400003C00000006000000020000000000000000408F40000000C0CE4428C00000
310
0020400014C00000000000408F4000000000E09BC9BF0000002000002AC00C00000013000000C20400003C00000006000000020000000000000000408F4000000080139628C000000020EAD314C00000000000408F40000000C0CE4428C000000020400014C00C00000013000000CA0400003C000000060000000200000000
310
00000000408F4000000080139628C000000020EAD314C00000000000408F4000000000E09BC9BF0000002000002AC00C00000013000000D20400003C00000006000000020000000000000000408F40000000C0E8FF28C000000020747615C00000000000408F4000000080139628C000000020EAD314C00C00000013000000
310
DA0400003C00000006000000020000000000000000408F4000000000080028C000000020000012C00000000000408F4000000000E09BC9BF0000002000002AC00C00000013000000E20400003C00000006000000020000000000000000408F40000000809B1128C000000020D80913C00000000000408F4000000000080028
310
C000000020000012C00C00000013000000EA0400003C00000006000000020000000000000000408F40000000809B1128C000000020D80913C00000000000408F4000000000E09BC9BF0000002000002AC00C00000013000000F20400003C00000006000000020000000000000000408F40000000C0CE4428C0000000204000
310
14C00000000000408F40000000809B1128C000000020D80913C00C00000013000000FA0400003C00000006000000020000000000000000408F4000000000DDBF16C000000080D455F7BF0000000000408F4000000000434019C000000080D455F7BF0C00000013000000020500003C00000006000000020000000000000000
310
408F4000000000434019C000000080D455F7BF0000000000408F4000000000080028C000000020000012C00C000000130000000A0500003C00000006000000020000000000000000408F4000000000434019C000000080D455F7BF0000000000408F400000000013871BC000000040503FF3BF0C0000001300000012050000
310
3C00000006000000020000000000000000408F400000000013871BC000000040503FF3BF0000000000408F4000000080080028C0000000800000F0BF0C000000130000001A0500003C00000006000000020000000000000000408F4000000000080028C000000020000012C00000000000408F4000000080080028C0000000
310
800000F0BF0C00000013000000220500003C00000006000000020000000000000000408F400000000041CF1FC00000000048FFB0BF0000000000408F4000000080F48426C0000000009092A1BF0C000000130000002A0500003C00000006000000020000000000000000408F4000000080F48426C0000000009092A1BF0000
310
000000408F4000000080270027C0000000008431C1BF0C00000013000000320500003C00000006000000020000000000000000408F400000000041CF1FC00000000048FFB0BF0000000000408F4000000080270027C0000000008431C1BF0C000000130000003A0500003C00000006000000020000000000000000408F4000
310
00000041CF1FC00000000048FFB0BF0000000000408F40000000802B9520C000000000000000000C00000013000000420500003C00000006000000020000000000000000408F4000000080070026C0000000000000A0BE0000000000408F40000000802B9520C000000000000000000C000000130000004A0500003C000000
310
06000000020000000000000000408F4000000080F48426C0000000009092A1BF0000000000408F4000000080070026C0000000000000A0BE0C00000013000000520500003C00000006000000020000000000000000408F4000000000FB481EC000000000C137D4BF0000000000408F400000000041CF1FC00000000048FFB0
310
BF0C000000130000005A0500003C00000006000000020000000000000000408F4000000080270027C0000000008431C1BF0000000000408F4000000080FC6927C00000000062C1D2BF0C00000013000000620500003C00000006000000020000000000000000408F4000000000FB481EC000000000C137D4BF000000000040
310
8F4000000080FC6927C00000000062C1D2BF0C000000130000006A0500003C00000006000000020000000000000000408F4000000080FC6927C00000000062C1D2BF0000000000408F400000008042BB27C00000000002FCDFBF0C00000013000000720500003C00000006000000020000000000000000408F4000000000FB
310
481EC000000000C137D4BF0000000000408F400000008042BB27C00000000002FCDFBF0C000000130000007A0500003C00000006000000020000000000000000408F4000000000D12F1DC0000000809098E7BF0000000000408F4000000000FB481EC000000000C137D4BF0C00000013000000820500003C00000006000000
310
020000000000000000408F400000008042BB27C00000000002FCDFBF0000000000408F400000000076EE27C00000000039B1E7BF0C000000130000008A0500003C00000006000000020000000000000000408F4000000000D12F1DC0000000809098E7BF0000000000408F400000000076EE27C00000000039B1E7BF0C0000
310
0013000000920500003C00000006000000020000000000000000408F400000000013871BC000000040503FF3BF0000000000408F4000000000D12F1DC0000000809098E7BF0C000000130000009A0500003C00000006000000020000000000000000408F400000000076EE27C00000000039B1E7BF0000000000408F400000
310
0080080028C0000000800000F0BF0C00000013000000A20500003C00000006000000020000000000000000408F400000000000829BBF00000020B6CC29C00000002000408FC000000000006E9BBF00000020BFCC29C00C00000013000000AA0500003C00000006000000020000000000002000408FC000000000006E9BBF00
310
000020BFCC29C00000002000408FC0000000000000E03E00000020A39929C00C00000013000000B20500003C00000006000000020000000000000000408F4000000000000012BF000000A0999929C00000002000408FC0000000000000E03E00000020A39929C00C00000013000000BA0500003C0000000600000002000000
310
0000000000408F400000000080A9B9BF0000002048F229C00000002000408FC00000000080A4B9BF0000002051F229C00C00000013000000C20500003C00000006000000020000000000002000408FC000000000006E9BBF00000020BFCC29C00000002000408FC00000000080A4B9BF0000002051F229C00C000000130000
310
00CA0500003C00000006000000020000000000000000408F4000000000E09BC9BF0000002000002AC00000002000408FC0000000006099C9BF0000002009002AC00C00000013000000D20500003C00000006000000020000000000002000408FC0000000006099C9BF0000002009002AC00000002000408FC00000000080A4
310
B9BF0000002051F229C00C00000013000000DA0500003C00000006000000020000000000000000408F40000000006A924EC00000008000002AC00000002000408FC00000004067924EC00000008009002AC00C00000013000000E20500003C00000006000000020000000000002000408FC00000004067924EC00000008009
310
002AC00000002000408FC0000000006099C9BF0000002009002AC00C00000013000000EA0500003C00000006000000020000000000000000408F40000000C0E4F54EC0000000008F022AC00000002000408FC000000000E2F54EC00000000098022AC00C00000013000000F20500003C000000060000000200000000000020
310
00408FC000000000E2F54EC00000000098022AC00000002000408FC00000004067924EC00000008009002AC00C00000013000000FA0500003C00000006000000020000000000000000408F400000004013754FC0000000803BEF29C00000002000408FC00000008010754FC00000008044EF29C00C00000013000000020600
310
003C00000006000000020000000000002000408FC00000008010754FC00000008044EF29C00000002000408FC000000000E2F54EC00000000098022AC00C000000130000000A0600003C00000006000000020000000000000000408F400000008080ED4FC0000000803BC129C00000002000408FC0000000C07DED4FC00000
310
000045C129C00C00000013000000120600003C00000006000000020000000000002000408FC00000008010754FC00000008044EF29C00000002000408FC0000000C07DED4FC00000000045C129C00C000000130000001A0600003C00000006000000020000000000000000408F40000000809F2F50C000000000587829C000
310
00002000408FC0000000209E2F50C000000000617829C00C00000013000000220600003C00000006000000020000000000002000408FC0000000209E2F50C000000000617829C00000002000408FC0000000C07DED4FC00000000045C129C00C000000130000002A0600003C00000006000000020000000000000000408F40
310
00000000F56550C000000000710F29C00000002000408FC0000000A0F36550C0000000007A0F29C00C00000013000000320600003C00000006000000020000000000002000408FC0000000A0F36550C0000000007A0F29C00000002000408FC0000000209E2F50C000000000617829C00C000000130000003A0600003C0000
310
0006000000020000000000000000408F4000000000B19950C000000080488628C00000002000408FC0000000A0AF9950C000000000528628C00C00000013000000420600003C00000006000000020000000000002000408FC0000000A0AF9950C000000000528628C00000002000408FC0000000A0F36550C0000000007A0F
310
29C00C000000130000004A0600003C00000006000000020000000000000000408F40000000C03BCC50C00000000083D927C00000002000408FC0000000603ACC50C0000000808CD927C00C00000013000000520600003C00000006000000020000000000002000408FC0000000A0AF9950C000000000528628C00000002000
310
408FC0000000603ACC50C0000000808CD927C00C000000130000005A0600003C00000006000000020000000000000000408F40000000601BFE50C000000080DC0827C00000002000408FC0000000E019FE50C000000000E60827C00C00000013000000620600003C00000006000000020000000000002000408FC0000000E0
310
19FE50C000000000E60827C00000002000408FC0000000603ACC50C0000000808CD927C00C000000130000006A0600003C00000006000000020000000000000000408F40000000E08B2F51C000000000EB0E26C00000002000408FC0000000808A2F51C000000000F40E26C00C00000013000000720600003C000000060000
310
00020000000000002000408FC0000000E019FE50C000000000E60827C00000002000408FC0000000808A2F51C000000000F40E26C00C000000130000007A0600003C00000006000000020000000000000000408F4000000040396151C000000000CFE624C00000002000408FC0000000C0376151C000000080D8E624C00C00
310
000013000000820600003C00000006000000020000000000002000408FC0000000C0376151C000000080D8E624C00000002000408FC0000000808A2F51C000000000F40E26C00C000000130000008A0600003C00000006000000020000000000000000408F40000000207D9251C000000080E19023C00000002000408FC000
310
0000C07B9251C000000080EA9023C00C00000013000000920600003C00000006000000020000000000002000408FC0000000C07B9251C000000080EA9023C00000002000408FC0000000C0376151C000000080D8E624C00C000000130000009A0600003C00000006000000020000000000000000408F400000004009C351C0
310
00000080000722C00000002000408FC0000000A007C351C0000000000A0722C00C00000013000000A20600003C00000006000000020000000000002000408FC0000000C07B9251C000000080EA9023C00000002000408FC0000000A007C351C0000000000A0722C00C00000013000000AA0600003C00000006000000020000
310
000000000000408F400000008038F251C0000000C0C54F20C00000002000408FC00000000037F251C000000040CF4F20C00C00000013000000B20600003C00000006000000020000000000002000408FC00000000037F251C000000040CF4F20C00000002000408FC0000000A007C351C0000000000A0722C00C0000001300
310
0000BA0600003C00000006000000020000000000000000408F4000000000601D52C00000000066FC1CC00000002000408FC0000000605E1D52C00000000078FC1CC00C00000013000000C20600003C00000006000000020000000000002000408FC0000000605E1D52C00000000078FC1CC00000002000408FC00000000037
310
F251C000000040CF4F20C00C00000013000000CA0600003C00000006000000020000000000000000408F4000000000904452C000000000192519C00000002000408FC0000000608E4452C0000000002B2519C00C00000013000000D20600003C00000006000000020000000000002000408FC0000000605E1D52C000000000
310
78FC1CC00000002000408FC0000000608E4452C0000000002B2519C00C00000013000000DA0600003C00000006000000020000000000000000408F40000000001F6652C000000020BA5615C00000002000408FC0000000601D6652C000000020CC5615C00C00000013000000E20600003C0000000600000002000000000000
310
2000408FC0000000601D6652C000000020CC5615C00000002000408FC0000000608E4452C0000000002B2519C00C00000013000000EA0600003C00000006000000020000000000000000408F4000000000BB8152C0000000207D9811C00000002000408FC000000060B98152C0000000208F9811C00C00000013000000F206
310
00003C00000006000000020000000000002000408FC000000060B98152C0000000208F9811C00000002000408FC0000000601D6652C000000020CC5615C00C00000013000000FA0600003C00000006000000020000000000000000408F4000000060059852C000000040E0E80BC00000002000408FC0000000C0039852C000
310
00004004E90BC00C00000013000000020700003C00000006000000020000000000002000408FC0000000C0039852C00000004004E90BC00000002000408FC000000060B98152C0000000208F9811C00C000000130000000A0700003C00000006000000020000000000000000408F40000000200AA952C0000000406AE304C0
310
0000002000408FC00000008008A952C0000000408EE304C00C00000013000000120700003C00000006000000020000000000002000408FC00000008008A952C0000000408EE304C00000002000408FC0000000C0039852C00000004004E90BC00C000000130000001A0700003C00000006000000020000000000000000408F
310
40000000A02BB552C0000000801444FCBF0000002000408FC0000000002AB552C0000000805C44FCBF0C00000013000000220700003C00000006000000020000000000002000408FC00000008008A952C0000000408EE304C00000002000408FC0000000002AB552C0000000805C44FCBF0C000000130000002A0700003C00
310
000006000000020000000000000000408F400000008024BE52C0000000000164E8BF0000002000408FC00000000023BE52C0000000009164E8BF0C00000013000000320700003C00000006000000020000000000002000408FC00000000023BE52C0000000009164E8BF0000002000408FC0000000002AB552C0000000805C
310
44FCBF0C000000130000003A0700003C00000006000000020000000000000000408F400000002001C052C0000000000000D2BE0000002000408FC000000080FFBF52C000000000002013BF0C00000013000000420700003C00000006000000020000000000002000408FC000000080FFBF52C000000000002013BF00000020
310
00408FC00000000023BE52C0000000009164E8BF0C000000130000004A0700003C00000006000000020000000000000000408F40000000A0A5A251C0000000000000D2BE0000002000408FC000000040A4A251C000000000002013BF0C00000013000000520700003C00000006000000020000000000002000408FC0000000
310
80FFBF52C000000000002013BF0000002000408FC000000040A4A251C000000000002013BF0C000000130000005A0700003C00000006000000020000000000000000408F4000000040F48C51C00000000088FFB0BF0000002000408FC0000000A0F28C51C0000000004804B1BF0C00000013000000620700003C0000000600
310
0000020000000000002000408FC000000040A4A251C000000000002013BF0000002000408FC0000000A0F28C51C0000000004804B1BF0C000000130000006A0700003C00000006000000020000000000000000408F40000000C08F7451C000000000D237D4BF0000002000408FC0000000408E7451C000000000F238D4BF0C
310
00000013000000720700003C00000006000000020000000000002000408FC0000000A0F28C51C0000000004804B1BF0000002000408FC0000000408E7451C000000000F238D4BF0C000000130000007A0700003C00000006000000020000000000000000408F4000000020FD6251C0000000009998E7BF0000002000408FC0
310
000000A0FB6251C0000000003199E7BF0C00000013000000820700003C00000006000000020000000000002000408FC0000000408E7451C000000000F238D4BF0000002000408FC0000000A0FB6251C0000000003199E7BF0C000000130000008A0700003C00000006000000020000000000000000408F4000000060714851
310
C0000000C0543FF3BF0000002000408FC0000000E06F4851C0000000C09C3FF3BF0C00000013000000920700003C00000006000000020000000000002000408FC0000000E06F4851C0000000C09C3FF3BF0000002000408FC0000000A0FB6251C0000000003199E7BF0C000000130000009A0700003C000000060000000200
310
00000000000000408F4000000060042451C0000000C0DC55F7BF0000002000408FC0000000E0022451C0000000C02456F7BF0C00000013000000A20700003C00000006000000020000000000002000408FC0000000E06F4851C0000000C09C3FF3BF0000002000408FC0000000E0022451C0000000C02456F7BF0C00000013
310
000000AA0700003C00000006000000020000000000000000408F40000000E0FDFB50C000000080D855F7BF0000002000408FC000000060FCFB50C0000000802456F7BF0C00000013000000B20700003C00000006000000020000000000002000408FC0000000E0022451C0000000C02456F7BF0000002000408FC000000060
310
FCFB50C0000000802456F7BF0C00000013000000BA0700003C00000006000000020000000000000000408F40000000C090D750C000000080543FF3BF0000002000408FC0000000608FD750C0000000809C3FF3BF0C00000013000000C20700003C00000006000000020000000000002000408FC0000000608FD750C0000000
310
809C3FF3BF0000002000408FC000000060FCFB50C0000000802456F7BF0C00000013000000CA0700003C00000006000000020000000000000000408F400000000005BD50C0000000009998E7BF0000002000408FC0000000A003BD50C0000000003199E7BF0C00000013000000D20700003C00000006000000020000000000
310
002000408FC0000000608FD750C0000000809C3FF3BF0000002000408FC0000000A003BD50C0000000003199E7BF0C00000013000000DA0700003C00000006000000020000000000000000408F400000006072AB50C000000000D237D4BF0000002000408FC00000000071AB50C000000000F238D4BF0C00000013000000E2
310
0700003C00000006000000020000000000002000408FC0000000A003BD50C0000000003199E7BF0000002000408FC00000000071AB50C000000000F238D4BF0C00000013000000EA0700003C00000006000000020000000000000000408F40000000000E9350C00000000088FFB0BF0000002000408FC0000000A00C9350C0
310
000000004804B1BF0C00000013000000F20700003C00000006000000020000000000002000408FC0000000A00C9350C0000000004804B1BF0000002000408FC00000000071AB50C000000000F238D4BF0C00000013000000FA0700003C00000006000000020000000000000000408F40000000805C7D50C0000000000000D2
310
BE0000002000408FC0000000205B7D50C000000000002013BF0C00000013000000020800003C00000006000000020000000000002000408FC0000000205B7D50C000000000002013BF0000002000408FC0000000A00C9350C0000000004804B1BF0C000000130000000A0800003C0000000600000002000000000000000040
310
8F4000000080A2194FC0000000000000D2BE0000002000408FC0000000C09F194FC000000000002013BF0C00000013000000120800003C00000006000000020000000000002000408FC0000000205B7D50C000000000002013BF0000002000408FC0000000C09F194FC000000000002013BF0C000000130000001A0800003C
310
00000006000000020000000000000000408F40000000C08EFA4EC00000000020B09EBF0000002000408FC0000000008CFA4EC00000000020C29EBF0C00000013000000220800003C00000006000000020000000000002000408FC0000000008CFA4EC00000000020C29EBF0000002000408FC0000000C09F194FC000000000
310
002013BF0C000000130000002A0800003C00000006000000020000000000000000408F400000000087DD4EC0000000004809BEBF0000002000408FC00000004084DD4EC000000000C80DBEBF0C00000013000000320800003C00000006000000020000000000002000408FC0000000008CFA4EC00000000020C29EBF000000
310
2000408FC00000004084DD4EC000000000C80DBEBF0C000000130000003A0800003C00000006000000020000000000000000408F400000000006C44EC0000000002270D0BF0000002000408FC00000004003C44EC0000000004271D0BF0C00000013000000420800003C00000006000000020000000000002000408FC00000
310
004003C44EC0000000004271D0BF0000002000408FC00000004084DD4EC000000000C80DBEBF0C000000130000004A0800003C00000006000000020000000000000000408F400000004096AF4EC000000000522ADCBF0000002000408FC00000008093AF4EC000000000722BDCBF0C00000013000000520800003C00000006
310
000000020000000000002000408FC00000008093AF4EC000000000722BDCBF0000002000408FC00000004003C44EC0000000004271D0BF0C000000130000005A0800003C00000006000000020000000000000000408F40000000C05AA14EC000000080300EE5BF0000002000408FC0000000C057A14EC000000080C80EE5BF
310
0C00000013000000620800003C00000006000000020000000000002000408FC00000008093AF4EC000000000722BDCBF0000002000408FC0000000C057A14EC000000080C80EE5BF0C000000130000006A0800003C00000006000000020000000000000000408F4000000080B2774EC00000008080D5F8BF0000002000408F
310
C0000000C0AF774EC000000080CCD5F8BF0C00000013000000720800003C00000006000000020000000000002000408FC0000000C057A14EC000000080C80EE5BF0000002000408FC0000000C0AF774EC000000080CCD5F8BF0C000000130000007A0800003C00000006000000020000000000000000408F40000000C0F055
310
4EC000000040125601C00000002000408FC000000000EE554EC000000040365601C00C00000013000000820800003C00000006000000020000000000002000408FC0000000C0AF774EC000000080CCD5F8BF0000002000408FC000000000EE554EC000000040365601C00C000000130000008A0800003C0000000600000002
310
0000000000000000408F4000000000222C4EC00000004064F205C00000002000408FC0000000401F2C4EC00000004088F205C00C00000013000000920800003C00000006000000020000000000002000408FC0000000401F2C4EC00000004088F205C00000002000408FC000000000EE554EC000000040365601C00C000000
310
130000009A0800003C00000006000000020000000000000000408F40000000C007FA4DC000000040D2440AC00000002000408FC00000000005FA4DC000000040F8440AC00C00000013000000A20800003C00000006000000020000000000002000408FC00000000005FA4DC000000040F8440AC00000002000408FC0000000
310
401F2C4EC00000004088F205C00C00000013000000AA0800003C00000006000000020000000000000000408F40000000C0CFC04DC00000006052340EC00000002000408FC000000000CDC04DC00000006076340EC00C00000013000000B20800003C00000006000000020000000000002000408FC00000000005FA4DC00000
310
0040F8440AC00000002000408FC000000000CDC04DC00000006076340EC00C00000013000000BA0800003C00000006000000020000000000000000408F40000000C0AB804DC000000020E0DD10C00000002000408FC000000000A9804DC000000020F2DD10C00C00000013000000C20800003C000000060000000200000000
310
00002000408FC000000000A9804DC000000020F2DD10C00000002000408FC000000000CDC04DC00000006076340EC00C00000013000000CA0800003C00000006000000020000000000000000408F40000000C0FE3A4DC0000000202C6412C00000002000408FC000000000FC3A4DC0000000203F6412C00C00000013000000
310
D20800003C00000006000000020000000000002000408FC000000000FC3A4DC0000000203F6412C00000002000408FC000000000A9804DC000000020F2DD10C00C00000013000000DA0800003C00000006000000020000000000000000408F40000000C0FFEF4CC000000020DCAB13C00000002000408FC000000000FDEF4C
310
C000000020EEAB13C00C00000013000000E20800003C00000006000000020000000000002000408FC000000000FC3A4DC0000000203F6412C00000002000408FC000000000FDEF4CC000000020EEAB13C00C00000013000000EA0800003C00000006000000020000000000000000408F400000000042A14CC000000020B6AD
310
14C00000002000408FC0000000403FA14CC000000020C8AD14C00C00000013000000F20800003C00000006000000020000000000002000408FC000000000FDEF4CC000000020EEAB13C00000002000408FC0000000403FA14CC000000020C8AD14C00C00000013000000FA0800003C00000006000000020000000000000000
310
408F40000000C0234F4CC000000020266915C00000002000408FC000000000214F4CC000000020386915C00C00000013000000020900003C00000006000000020000000000002000408FC000000000214F4CC000000020386915C00000002000408FC0000000403FA14CC000000020C8AD14C00C000000130000000A090000
310
3C00000006000000020000000000000000408F400000000085FB4BC00000002097D915C00000002000408FC00000004082FB4BC000000020A9D915C00C00000013000000120900003C00000006000000020000000000002000408FC00000004082FB4BC000000020A9D915C00000002000408FC000000000214F4CC0000000
310
20386915C00C000000130000001A0900003C00000006000000020000000000000000408F400000008003A64BC000000020010016C00000002000408FC0000000C000A64BC000000020130016C00C00000013000000220900003C00000006000000020000000000002000408FC0000000C000A64BC000000020130016C00000
310
002000408FC00000004082FB4BC000000020A9D915C00C000000130000002A0900003C00000006000000020000000000000000408F4000000000024046C000000020000016C00000002000408FC000000040FF3F46C000000020120016C00C00000013000000320900003C00000006000000020000000000002000408FC000
310
0000C000A64BC000000020130016C00000002000408FC000000040FF3F46C000000020120016C00C000000130000003A0900003C00000006000000020000000000000000408F40000000E0C61E46C000000020DBDC15C00000002000408FC000000020C41E46C000000020EDDC15C00C00000013000000420900003C000000
310
06000000020000000000002000408FC000000040FF3F46C000000020120016C00000002000408FC000000020C41E46C000000020EDDC15C00C000000130000004A0900003C00000006000000020000000000000000408F4000000000FAFF45C000000020747615C00000002000408FC000000040F7FF45C000000020877615
310
C00C00000013000000520900003C00000006000000020000000000002000408FC000000040F7FF45C000000020877615C00000002000408FC000000020C41E46C000000020EDDC15C00C000000130000005A0900003C00000006000000020000000000000000408F40000000C084E545C000000020EAD314C0000000200040
310
8FC00000000082E545C000000020FCD314C00C00000013000000620900003C00000006000000020000000000002000408FC000000040F7FF45C000000020877615C00000002000408FC00000000082E545C000000020FCD314C00C000000130000006A0900003C00000006000000020000000000000000408F400000008033
310
D145C000000020400014C00000002000408FC0000000C030D145C000000020530014C00C00000013000000720900003C00000006000000020000000000002000408FC0000000C030D145C000000020530014C00000002000408FC00000000082E545C000000020FCD314C00C000000130000007A0900003C00000006000000
310
020000000000000000408F40000000A066C445C000000020D80913C00000002000408FC0000000E063C445C000000020EB0913C00C00000013000000820900003C00000006000000020000000000002000408FC0000000E063C445C000000020EB0913C00000002000408FC0000000C030D145C000000020530014C00C0000
310
00130000008A0900003C00000006000000020000000000000000408F400000000002C045C000000020000012C00000002000408FC000000040FFBF45C000000020120012C00C00000013000000920900003C00000006000000020000000000002000408FC000000040FFBF45C000000020120012C00000002000408FC00000
310
00E063C445C000000020EB0913C00C000000130000009A0900003C00000006000000020000000000000000408F400000000002C045C0000000800000F0BF0000002000408FC000000040FFBF45C0000000804800F0BF0C00000013000000A20900003C00000006000000020000000000002000408FC000000040FFBF45C000
310
000020120012C00000002000408FC000000040FFBF45C0000000804800F0BF0C00000013000000AA0900003C00000006000000020000000000000000408F40000000809DBB45C00000000039B1E7BF0000002000408FC0000000A09ABB45C000000000D1B1E7BF0C00000013000000B20900003C0000000600000002000000
310
0000002000408FC0000000A09ABB45C000000000D1B1E7BF0000002000408FC000000040FFBF45C0000000804800F0BF0C00000013000000BA0900003C00000006000000020000000000000000408F4000000080D0AE45C00000000002FCDFBF0000002000408FC0000000C0CDAE45C00000000022FDDFBF0C000000130000
310
00C20900003C00000006000000020000000000002000408FC0000000A09ABB45C000000000D1B1E7BF0000002000408FC0000000C0CDAE45C00000000022FDDFBF0C00000013000000CA0900003C00000006000000020000000000000000408F40000000407F9A45C00000000062C1D2BF0000002000408FC0000000807C9A
310
45C00000000082C2D2BF0C00000013000000D20900003C00000006000000020000000000002000408FC0000000C0CDAE45C00000000022FDDFBF0000002000408FC0000000807C9A45C00000000082C2D2BF0C00000013000000DA0900003C00000006000000020000000000000000408F40000000400A8045C00000000084
310
31C1BF0000002000408FC000000040078045C000000000C433C1BF0C00000013000000E20900003C00000006000000020000000000002000408FC000000040078045C000000000C433C1BF0000002000408FC0000000807C9A45C00000000082C2D2BF0C00000013000000EA0900003C000000060000000200000000000000
310
00408F40000000403D6145C0000000009092A1BF0000002000408FC0000000603A6145C000000000909BA1BF0C00000013000000F20900003C00000006000000020000000000002000408FC000000040078045C000000000C433C1BF0000002000408FC0000000603A6145C000000000909BA1BF0C00000013000000FA0900
310
003C00000006000000020000000000000000408F4000000040024045C0000000000000A0BE0000002000408FC000000040FF3F45C000000000002012BF0C00000013000000020A00003C00000006000000020000000000002000408FC000000040FF3F45C000000000002012BF0000002000408FC0000000603A6145C00000
310
0000909BA1BF0C000000130000000A0A00003C00000006000000020000000000000000408F400000000002C044C0000000000000A0BE0000002000408FC000000040FFBF44C000000000002012BF0C00000013000000120A00003C00000006000000020000000000002000408FC000000040FF3F45C000000000002012BF00
310
00002000408FC000000040FFBF44C000000000002012BF0C000000130000001A0A00003C00000006000000020000000000000000408F4000000000C79E44C0000000009092A1BF0000002000408FC000000000C49E44C000000000909BA1BF0C00000013000000220A00003C00000006000000020000000000002000408FC0
310
00000000C49E44C000000000909BA1BF0000002000408FC000000040FFBF44C000000000002012BF0C000000130000002A0A00003C00000006000000020000000000000000408F4000000000FA7F44C0000000008231C1BF0000002000408FC000000040F77F44C000000000C233C1BF0C00000013000000320A00003C0000
310
0006000000020000000000002000408FC000000040F77F44C000000000C233C1BF0000002000408FC000000000C49E44C000000000909BA1BF0C000000130000003A0A00003C00000006000000020000000000000000408F40000000C0846544C00000000061C1D2BF0000002000408FC000000000826544C00000000081C2
310
D2BF0C00000013000000420A00003C00000006000000020000000000002000408FC000000000826544C00000000081C2D2BF0000002000408FC000000040F77F44C000000000C233C1BF0C000000130000004A0A00003C00000006000000020000000000000000408F4000000080335144C00000000001FCDFBF0000002000
310
408FC0000000C0305144C00000000021FDDFBF0C00000013000000520A00003C00000006000000020000000000002000408FC000000000826544C00000000081C2D2BF0000002000408FC0000000C0305144C00000000021FDDFBF0C000000130000005A0A00003C00000006000000020000000000000000408F40000000C0
310
664444C00000008038B1E7BF0000002000408FC0000000C0634444C000000080D0B1E7BF0C00000013000000620A00003C00000006000000020000000000002000408FC0000000C0634444C000000080D0B1E7BF0000002000408FC0000000C0305144C00000000021FDDFBF0C000000130000006A0A00003C000000060000
310
00020000000000000000408F4000000000024044C0000000400000F0BF0000002000408FC000000040FF3F44C0000000404800F0BF0C00000013000000720A00003C00000006000000020000000000002000408FC000000040FF3F44C0000000404800F0BF0000002000408FC0000000C0634444C000000080D0B1E7BF0C00
310
0000130000007A0A00003C00000006000000020000000000000000408F4000000000024044C000000020000012C00000002000408FC000000040FF3F44C000000020120012C00C00000013000000820A00003C00000006000000020000000000002000408FC000000040FF3F44C0000000404800F0BF0000002000408FC000
310
000040FF3F44C000000020120012C00C000000130000008A0A00003C00000006000000020000000000000000408F40000000609D3B44C000000020D80913C00000002000408FC0000000809A3B44C000000020EB0913C00C00000013000000920A00003C00000006000000020000000000002000408FC000000040FF3F44C0
310
00000020120012C00000002000408FC0000000809A3B44C000000020EB0913C00C000000130000009A0A00003C00000006000000020000000000000000408F4000000080D02E44C000000020400014C00000002000408FC0000000C0CD2E44C000000020530014C00C00000013000000A20A00003C00000006000000020000
310
000000002000408FC0000000809A3B44C000000020EB0913C00000002000408FC0000000C0CD2E44C000000020530014C00C00000013000000AA0A00003C00000006000000020000000000000000408F40000000407F1A44C000000020EAD314C00000002000408FC0000000807C1A44C000000020FCD314C00C0000001300
310
0000B20A00003C00000006000000020000000000002000408FC0000000807C1A44C000000020FCD314C00000002000408FC0000000C0CD2E44C000000020530014C00C00000013000000BA0A00003C00000006000000020000000000000000408F40000000000A0044C000000020747615C00000002000408FC00000004007
310
0044C000000020877615C00C00000013000000C20A00003C00000006000000020000000000002000408FC0000000807C1A44C000000020FCD314C00000002000408FC000000040070044C000000020877615C00C00000013000000CA0A00003C00000006000000020000000000000000408F40000000403DE143C000000020
310
DBDC15C00000002000408FC0000000403AE143C000000020EDDC15C00C00000013000000D20A00003C00000006000000020000000000002000408FC000000040070044C000000020877615C00000002000408FC0000000403AE143C000000020EDDC15C00C00000013000000DA0A00003C0000000600000002000000000000
310
0000408F400000000002C043C000000000000016C00000002000408FC000000040FFBF43C000000000120016C00C00000013000000E20A00003C00000006000000020000000000002000408FC000000040FFBF43C000000000120016C00000002000408FC0000000403AE143C000000020EDDC15C00C00000013000000EA0A
310
00003C00000006000000020000000000000000408F400000008008002AC000000020000016C00000002000408FC000000080FDFF29C000000020120016C00C00000013000000F20A00003C00000006000000020000000000002000408FC000000080FDFF29C000000020120016C00000002000408FC000000040FFBF43C000
310
000000120016C00C00000013000000FA0A00003C00000006000000020000000000000000408F40000000001C7B29C000000020DBDC15C00000002000408FC000000000117B29C000000020EDDC15C00C00000013000000020B00003C00000006000000020000000000002000408FC000000080FDFF29C000000020120016C0
310
0000002000408FC000000000117B29C000000020EDDC15C00C000000130000000A0B00003C00000006000000020000000000000000408F40000000C0E8FF28C000000020747615C00000002000408FC000000080DDFF28C000000020877615C00C00000013000000120B00003C00000006000000020000000000002000408F
310
C000000080DDFF28C000000020877615C00000002000408FC000000000117B29C000000020EDDC15C00C000000130000001A0B00003C00000006000000020000000000000000408F4000000080139628C000000020EAD314C00000002000408FC000000040089628C000000020FCD314C00C00000013000000220B00003C00
310
000006000000020000000000002000408FC000000080DDFF28C000000020877615C00000002000408FC000000040089628C000000020FCD314C00C000000130000002A0B00003C00000006000000020000000000000000408F40000000C0CE4428C000000020400014C00000002000408FC000000080C34428C00000002053
310
0014C00C00000013000000320B00003C00000006000000020000000000002000408FC000000040089628C000000020FCD314C00000002000408FC000000080C34428C000000020530014C00C000000130000003A0B00003C00000006000000020000000000000000408F40000000809B1128C000000020D80913C000000020
310
00408FC0000000808F1128C000000020EB0913C00C00000013000000420B00003C00000006000000020000000000002000408FC0000000808F1128C000000020EB0913C00000002000408FC000000080C34428C000000020530014C00C000000130000004A0B00003C00000006000000020000000000000000408F40000000
310
00080028C000000020000012C00000002000408FC000000000FEFF27C000000020120012C00C00000013000000520B00003C00000006000000020000000000002000408FC000000000FEFF27C000000020120012C00000002000408FC0000000808F1128C000000020EB0913C00C000000130000005A0B00003C0000000600
310
0000020000000000000000408F4000000080080028C0000000800000F0BF0000002000408FC000000000FEFF27C0000000804800F0BF0C00000013000000620B00003C00000006000000020000000000002000408FC000000000FEFF27C000000020120012C00000002000408FC000000000FEFF27C0000000804800F0BF0C
310
000000130000006A0B00003C00000006000000020000000000000000408F400000000076EE27C00000000039B1E7BF0000002000408FC0000000006BEE27C000000000D1B1E7BF0C00000013000000720B00003C00000006000000020000000000002000408FC000000000FEFF27C0000000804800F0BF0000002000408FC0
310
000000006BEE27C000000000D1B1E7BF0C000000130000007A0B00003C00000006000000020000000000000000408F400000008042BB27C00000000002FCDFBF0000002000408FC00000008037BB27C00000000022FDDFBF0C00000013000000820B00003C00000006000000020000000000002000408FC00000008037BB27
310
C00000000022FDDFBF0000002000408FC0000000006BEE27C000000000D1B1E7BF0C000000130000008A0B00003C00000006000000020000000000000000408F4000000080FC6927C00000000062C1D2BF0000002000408FC000000080F36927C00000000082C2D2BF0C00000013000000920B00003C000000060000000200
310
00000000002000408FC000000080F36927C00000000082C2D2BF0000002000408FC00000008037BB27C00000000022FDDFBF0C000000130000009A0B00003C00000006000000020000000000000000408F4000000080270027C0000000008431C1BF0000002000408FC0000000801E0027C000000000C433C1BF0C00000013
310
000000A20B00003C00000006000000020000000000002000408FC0000000801E0027C000000000C433C1BF0000002000408FC000000080F36927C00000000082C2D2BF0C00000013000000AA0B00003C00000006000000020000000000000000408F4000000080F48426C0000000009092A1BF0000002000408FC000000080
310
EA8426C000000000909BA1BF0C00000013000000B20B00003C00000006000000020000000000002000408FC000000080EA8426C000000000909BA1BF0000002000408FC0000000801E0027C000000000C433C1BF0C00000013000000BA0B00003C00000006000000020000000000000000408F4000000080070026C0000000
310
000000A0BE0000002000408FC000000080FEFF25C000000000002012BF0C00000013000000C20B00003C00000006000000020000000000002000408FC000000080EA8426C000000000909BA1BF0000002000408FC000000080FEFF25C000000000002012BF0C00000013000000CA0B00003C00000006000000020000000000
310
000000408F40000000802B9520C000000000000000000000002000408FC000000080219520C000000000000012BF0C00000013000000D20B00003C00000006000000020000000000002000408FC000000080219520C000000000000012BF0000002000408FC000000080FEFF25C000000000002012BF0C00000013000000DA
310
0B00003C00000006000000020000000000000000408F400000000041CF1FC00000000048FFB0BF0000002000408FC0000000002BCF1FC0000000000804B1BF0C00000013000000E20B00003C00000006000000020000000000002000408FC0000000002BCF1FC0000000000804B1BF0000002000408FC000000080219520C0
310
00000000000012BF0C00000013000000EA0B00003C00000006000000020000000000000000408F4000000000FB481EC000000000C137D4BF0000002000408FC000000000E7481EC000000000E138D4BF0C00000013000000F20B00003C00000006000000020000000000002000408FC0000000002BCF1FC0000000000804B1
310
BF0000002000408FC000000000E7481EC000000000E138D4BF0C00000013000000FA0B00003C00000006000000020000000000000000408F4000000000D12F1DC0000000809098E7BF0000002000408FC000000000BD2F1DC0000000802899E7BF0C00000013000000020C00003C0000000600000002000000000000200040
310
8FC000000000E7481EC000000000E138D4BF0000002000408FC000000000BD2F1DC0000000802899E7BF0C000000130000000A0C00003C00000006000000020000000000000000408F400000000013871BC000000040503FF3BF0000002000408FC000000000FD861BC000000040983FF3BF0C00000013000000120C00003C
310
00000006000000020000000000002000408FC000000000BD2F1DC0000000802899E7BF0000002000408FC000000000FD861BC000000040983FF3BF0C000000130000001A0C00003C00000006000000020000000000000000408F4000000000434019C000000080D455F7BF0000002000408FC0000000002F4019C000000080
310
2056F7BF0C00000013000000220C00003C00000006000000020000000000002000408FC0000000002F4019C0000000802056F7BF0000002000408FC000000000FD861BC000000040983FF3BF0C000000130000002A0C00003C00000006000000020000000000000000408F4000000000DDBF16C000000080D455F7BF000000
310
2000408FC000000000C9BF16C0000000802056F7BF0C00000013000000320C00003C00000006000000020000000000002000408FC0000000002F4019C0000000802056F7BF0000002000408FC000000000C9BF16C0000000802056F7BF0C000000130000003A0C00003C00000006000000020000000000000000408F400000
310
00000D7914C000000080503FF3BF0000002000408FC000000000F97814C000000080983FF3BF0C00000013000000420C00003C00000006000000020000000000002000408FC000000000F97814C000000080983FF3BF0000002000408FC000000000C9BF16C0000000802056F7BF0C000000130000004A0C00003C00000006
310
000000020000000000000000408F40000000004FD012C0000000009198E7BF0000002000408FC00000000039D012C0000000002999E7BF0C00000013000000520C00003C00000006000000020000000000002000408FC000000000F97814C000000080983FF3BF0000002000408FC00000000039D012C0000000002999E7BF
310
0C000000130000005A0C00003C00000006000000020000000000000000408F400000000025B711C000000000C237D4BF0000002000408FC00000000011B711C000000000E238D4BF0C00000013000000620C00003C00000006000000020000000000002000408FC00000000011B711C000000000E238D4BF0000002000408F
310
C00000000039D012C0000000002999E7BF0C000000130000006A0C00003C00000006000000020000000000000000408F4000000000DF3010C00000000048FFB0BF0000002000408FC000000000CB3010C0000000000804B1BF0C00000013000000720C00003C00000006000000020000000000002000408FC000000000CB30
310
10C0000000000804B1BF0000002000408FC00000000011B711C000000000E238D4BF0C000000130000007A0C00003C00000006000000020000000000000000408F400000000094AB0DC0000000000000A0BE0000002000408FC00000000066AB0DC000000000002012BF0C00000013000000820C00003C0000000600000002
310
0000000000002000408FC00000000066AB0DC000000000002012BF0000002000408FC000000000CB3010C0000000000804B1BF0C000000130000008A0C00003C00000006000000020000000000000000408F4000000000000011BF000000000000A0BE0000002000408FC0000000000000F83E00000000002012BF0C000000
310
13000000920C00003C00000006000000020000000000002000408FC0000000000000F83E00000000002012BF0000002000408FC00000000066AB0DC000000000002012BF0C000000130000009A0C00003C00000006000000020000000000002000408FC0000000000000F83E00000000002012BF0000002000408FC0000000
310
000000E03E00000020A39929C00C00000013000000A20C00003C00000006000000020000000000002000408FC00000000023BE52C0000000009164E8BF0000002000408FC000000040A4A251C000000000002013BF0C00000013000000AA0C00003C00000006000000020000000000002000408FC0000000002AB552C00000
310
00805C44FCBF0000002000408FC0000000A0F28C51C0000000004804B1BF0C00000013000000B20C00003C00000006000000020000000000002000408FC00000008008A952C0000000408EE304C00000002000408FC0000000A0F28C51C0000000004804B1BF0C00000013000000BA0C00003C000000060000000200000000
310
00002000408FC0000000C0039852C00000004004E90BC00000002000408FC0000000408E7451C000000000F238D4BF0C00000013000000C20C00003C00000006000000020000000000002000408FC0000000408E7451C000000000F238D4BF0000002000408FC000000060B98152C0000000208F9811C00C00000013000000
310
CA0C00003C00000006000000020000000000002000408FC0000000601D6652C000000020CC5615C00000002000408FC0000000A0FB6251C0000000003199E7BF0C00000013000000D20C00003C00000006000000020000000000002000408FC0000000A0FB6251C0000000003199E7BF0000002000408FC0000000608E4452
310
C0000000002B2519C00C00000013000000DA0C00003C00000006000000020000000000002000408FC0000000605E1D52C00000000078FC1CC00000002000408FC0000000E06F4851C0000000C09C3FF3BF0C00000013000000E20C00003C00000006000000020000000000002000408FC0000000E06F4851C0000000C09C3F
310
F3BF0000002000408FC00000000037F251C000000040CF4F20C00C00000013000000EA0C00003C00000006000000020000000000002000408FC0000000E0022451C0000000C02456F7BF0000002000408FC0000000A007C351C0000000000A0722C00C00000013000000F20C00003C00000006000000020000000000002000
310
408FC0000000E0022451C0000000C02456F7BF0000002000408FC0000000C07B9251C000000080EA9023C00C00000013000000FA0C00003C00000006000000020000000000002000408FC0000000C0376151C000000080D8E624C00000002000408FC000000060FCFB50C0000000802456F7BF0C00000013000000020D0000
310
3C00000006000000020000000000002000408FC000000060FCFB50C0000000802456F7BF0000002000408FC0000000808A2F51C000000000F40E26C00C000000130000000A0D00003C00000006000000020000000000002000408FC0000000E019FE50C000000000E60827C00000002000408FC0000000608FD750C0000000
310
809C3FF3BF0C00000013000000120D00003C00000006000000020000000000002000408FC0000000608FD750C0000000809C3FF3BF0000002000408FC0000000603ACC50C0000000808CD927C00C000000130000001A0D00003C00000006000000020000000000002000408FC0000000A003BD50C0000000003199E7BF0000
310
002000408FC0000000C057A14EC000000080C80EE5BF0C00000013000000220D00003C00000006000000020000000000002000408FC0000000603ACC50C0000000808CD927C00000002000408FC0000000C057A14EC000000080C80EE5BF0C000000130000002A0D00003C00000006000000020000000000002000408FC000
310
0000008CFA4EC00000000020C29EBF0000002000408FC0000000A00C9350C0000000004804B1BF0C00000013000000320D00003C00000006000000020000000000002000408FC00000004003C44EC0000000004271D0BF0000002000408FC00000000071AB50C000000000F238D4BF0C000000130000003A0D00003C000000
310
06000000020000000000002000408FC00000004084DD4EC000000000C80DBEBF0000002000408FC00000000071AB50C000000000F238D4BF0C00000013000000420D00003C00000006000000020000000000002000408FC0000000A003BD50C0000000003199E7BF0000002000408FC00000008093AF4EC000000000722BDC
310
BF0C000000130000004A0D00003C00000006000000020000000000002000408FC0000000A0AF9950C000000000528628C00000002000408FC0000000C0AF774EC000000080CCD5F8BF0C00000013000000520D00003C00000006000000020000000000002000408FC0000000A0F36550C0000000007A0F29C0000000200040
310
8FC000000000EE554EC000000040365601C00C000000130000005A0D00003C00000006000000020000000000002000408FC0000000401F2C4EC00000004088F205C00000002000408FC0000000A0F36550C0000000007A0F29C00C00000013000000620D00003C00000006000000020000000000002000408FC00000000005
310
FA4DC000000040F8440AC00000002000408FC0000000209E2F50C000000000617829C00C000000130000006A0D00003C00000006000000020000000000002000408FC0000000209E2F50C000000000617829C00000002000408FC000000000CDC04DC00000006076340EC00C00000013000000720D00003C00000006000000
310
020000000000002000408FC0000000C07DED4FC00000000045C129C00000002000408FC000000000A9804DC000000020F2DD10C00C000000130000007A0D00003C00000006000000020000000000002000408FC000000000FC3A4DC0000000203F6412C00000002000408FC0000000C07DED4FC00000000045C129C00C0000
310
0013000000820D00003C00000006000000020000000000002000408FC00000008010754FC00000008044EF29C00000002000408FC000000000FDEF4CC000000020EEAB13C00C000000130000008A0D00003C00000006000000020000000000002000408FC00000008010754FC00000008044EF29C00000002000408FC00000
310
00403FA14CC000000020C8AD14C00C00000013000000920D00003C00000006000000020000000000002000408FC000000000E2F54EC00000000098022AC00000002000408FC000000000214F4CC000000020386915C00C000000130000009A0D00003C00000006000000020000000000002000408FC00000004082FB4BC000
310
000020A9D915C00000002000408FC000000000E2F54EC00000000098022AC00C00000013000000A20D00003C00000006000000020000000000002000408FC0000000C000A64BC000000020130016C00000002000408FC00000004067924EC00000008009002AC00C00000013000000AA0D00003C0000000600000002000000
310
0000002000408FC00000004067924EC00000008009002AC00000002000408FC000000040FF3F46C000000020120016C00C00000013000000B20D00003C00000006000000020000000000002000408FC000000040FF3F44C0000000404800F0BF0000002000408FC000000040FFBF45C0000000804800F0BF0C000000130000
310
00BA0D00003C00000006000000020000000000002000408FC0000000A09ABB45C000000000D1B1E7BF0000002000408FC0000000C0634444C000000080D0B1E7BF0C00000013000000C20D00003C00000006000000020000000000002000408FC0000000C0CDAE45C00000000022FDDFBF0000002000408FC0000000C03051
310
44C00000000021FDDFBF0C00000013000000CA0D00003C00000006000000020000000000002000408FC000000000826544C00000000081C2D2BF0000002000408FC0000000807C9A45C00000000082C2D2BF0C00000013000000D20D00003C00000006000000020000000000002000408FC000000040F77F44C000000000C2
310
33C1BF0000002000408FC000000040078045C000000000C433C1BF0C00000013000000DA0D00003C00000006000000020000000000002000408FC000000000C49E44C000000000909BA1BF0000002000408FC0000000603A6145C000000000909BA1BF0C00000013000000E20D00003C000000060000000200000000000020
310
00408FC000000040FF3F44C000000020120012C00000002000408FC000000040FFBF45C000000020120012C00C00000013000000EA0D00003C00000006000000020000000000002000408FC0000000809A3B44C000000020EB0913C00000002000408FC0000000E063C445C000000020EB0913C00C00000013000000F20D00
310
003C00000006000000020000000000002000408FC0000000C0CD2E44C000000020530014C00000002000408FC0000000C030D145C000000020530014C00C00000013000000FA0D00003C00000006000000020000000000002000408FC0000000807C1A44C000000020FCD314C00000002000408FC00000000082E545C00000
310
0020FCD314C00C00000013000000020E00003C00000006000000020000000000002000408FC000000040070044C000000020877615C00000002000408FC000000040F7FF45C000000020877615C00C000000130000000A0E00003C00000006000000020000000000002000408FC0000000403AE143C000000020EDDC15C000
310
00002000408FC000000020C41E46C000000020EDDC15C00C00000013000000120E00003C00000006000000020000000000002000408FC000000040FFBF43C000000000120016C00000002000408FC00000004067924EC00000008009002AC00C000000130000001A0E00003C00000006000000020000000000002000408FC0
310
00000080FDFF29C000000020120016C00000002000408FC0000000006099C9BF0000002009002AC00C00000013000000220E00003C00000006000000020000000000002000408FC000000040FFBF43C000000000120016C00000002000408FC000000040FF3F46C000000020120016C00C000000130000002A0E00003C0000
310
0006000000020000000000002000408FC0000000000000E03E00000020A39929C00000002000408FC00000000066AB0DC000000000002012BF0C00000013000000320E00003C00000006000000020000000000002000408FC0000000000000E03E00000020A39929C00000002000408FC000000000CB3010C0000000000804
310
B1BF0C000000130000003A0E00003C00000006000000020000000000002000408FC000000000006E9BBF00000020BFCC29C00000002000408FC00000000011B711C000000000E238D4BF0C00000013000000420E00003C00000006000000020000000000002000408FC000000000006E9BBF00000020BFCC29C00000002000
310
408FC00000000039D012C0000000002999E7BF0C000000130000004A0E00003C00000006000000020000000000002000408FC000000000F97814C000000080983FF3BF0000002000408FC00000000080A4B9BF0000002051F229C00C00000013000000520E00003C00000006000000020000000000002000408FC000000000
310
6099C9BF0000002009002AC00000002000408FC000000000C9BF16C0000000802056F7BF0C000000130000005A0E00003C00000006000000020000000000002000408FC0000000006099C9BF0000002009002AC00000002000408FC000000000117B29C000000020EDDC15C00C00000013000000620E00003C000000060000
310
00020000000000002000408FC000000080DDFF28C000000020877615C00000002000408FC0000000006099C9BF0000002009002AC00C000000130000006A0E00003C00000006000000020000000000002000408FC000000040089628C000000020FCD314C00000002000408FC0000000006099C9BF0000002009002AC00C00
310
000013000000720E00003C00000006000000020000000000002000408FC0000000006099C9BF0000002009002AC00000002000408FC000000080C34428C000000020530014C00C000000130000007A0E00003C00000006000000020000000000002000408FC0000000808F1128C000000020EB0913C00000002000408FC000
310
0000006099C9BF0000002009002AC00C00000013000000820E00003C00000006000000020000000000002000408FC000000000FEFF27C000000020120012C00000002000408FC0000000006099C9BF0000002009002AC00C000000130000008A0E00003C00000006000000020000000000002000408FC000000000FEFF27C0
310
00000020120012C00000002000408FC0000000002F4019C0000000802056F7BF0C00000013000000920E00003C00000006000000020000000000002000408FC000000000FEFF27C0000000804800F0BF0000002000408FC000000000FD861BC000000040983FF3BF0C000000130000009A0E00003C00000006000000020000
310
000000002000408FC0000000002BCF1FC0000000000804B1BF0000002000408FC0000000801E0027C000000000C433C1BF0C00000013000000A20E00003C00000006000000020000000000002000408FC0000000002BCF1FC0000000000804B1BF0000002000408FC000000080EA8426C000000000909BA1BF0C0000001300
310
0000AA0E00003C00000006000000020000000000002000408FC000000000E7481EC000000000E138D4BF0000002000408FC000000080F36927C00000000082C2D2BF0C00000013000000B20E00003C00000006000000020000000000002000408FC000000000E7481EC000000000E138D4BF0000002000408FC00000008037
310
BB27C00000000022FDDFBF0C00000013000000BA0E00003C00000006000000020000000000002000408FC000000000BD2F1DC0000000802899E7BF0000002000408FC0000000006BEE27C000000000D1B1E7BF
100
AcDbSubDMesh
 71
     2
 72
     0
 91
        0
 92
      224
 10
1000.0
 20
-70.54135894775391
 30
-0.0000042915344238
 10
1000.0
 20
-75.00006866455078
 30
-0.0000042915344238
 10
1000.0
 20
-74.83078765869141
 30
-1.766621112823486
 10
1000.0
 20
-74.64124298095703
 30
-2.611042499542236
 10
1000.0
 20
-74.37532806396484
 30
-3.488708972930908
 10
1000.0
 20
-74.02703857421875
 30
-4.398914813995361
 10
1000.0
 20
-73.59564208984375
 30
-5.334694385528564
 10
1000.0
 20
-73.0712890625
 30
-6.28622817993164
 10
1000.0
 20
-72.458984375
 30
-7.246482849121093
 10
1000.0
 20
-71.78469848632812
 30
-8.155805587768554
 10
1000.0
 20
-71.04743957519531
 30
-9.013675689697265
 10
1000.0
 20
-70.20240783691406
 30
-0.066399097442627
 10
1000.0
 20
-70.28888702392578
 30
-9.782970428466796
 10
1000.0
 20
-69.82127380371093
 30
-0.3159070014953613
 10
1000.0
 20
-69.51911926269531
 30
-10.45079803466797
 10
1000.0
 20
-69.54669952392578
 30
-0.7373776435852051
 10
1000.0
 20
-69.13191986083984
 30
-1.202961683273315
 10
1000.0
 20
-68.56276702880859
 30
-1.458462476730346
 10
1000.0
 20
-68.74291229248047
 30
-11.02913665771484
 10
1000.0
 20
-67.97042083740234
 30
-11.51730728149414
 10
1000.0
 20
-67.93737030029297
 30
-1.458458423614501
 10
1000.0
 20
-67.36820983886719
 30
-1.202961444854736
 10
1000.0
 20
-66.95343017578125
 30
-0.7373776435852051
 10
1000.0
 20
-67.19114685058594
 30
-11.92482757568359
 10
1000.0
 20
-66.6788558959961
 30
-0.3159070014953613
 10
1000.0
 20
-66.2977294921875
 30
-0.066399097442627
 10
1000.0
 20
-66.40142822265625
 30
-12.26227188110351
 10
1000.0
 20
-62.20027160644531
 30
-0.0000042915344238
 10
1000.0
 20
-65.59307861328125
 30
-12.53015899658203
 10
1000.0
 20
-64.74411010742187
 30
-12.73504638671875
 10
1000.0
 20
-63.85548400878906
 30
-12.87740707397461
 10
1000.0
 20
-62.9146499633789
 30
-12.96725082397461
 10
1000.0
 20
-61.73068237304687
 30
-0.1173291206359863
 10
1000.0
 20
-61.92104339599609
 30
-13.00499725341797
 10
1000.0
 20
-61.95748138427735
 30
-0.0299687385559082
 10
1000.0
 20
-61.26058197021484
 30
-0.6579821109771729
 10
1000.0
 20
-61.37177276611328
 30
-0.4400830268859864
 10
1000.0
 20
-61.53143310546875
 30
-0.2568440437316894
 10
1000.0
 20
-12.74044799804687
 30
-5.46567964553833
 10
1000.0
 20
-13.00006484985351
 30
-5.500000476837158
 10
1000.0
 20
-39.50006103515625
 30
-5.5
 10
1000.0
 20
-39.75968170166016
 30
-5.46567964553833
 10
1000.0
 20
-40.00030517578125
 30
-5.36567735671997
 10
1000.0
 20
-40.2070083618164
 30
-5.206947803497314
 10
1000.0
 20
-40.36573791503906
 30
-5.000244617462158
 10
1000.0
 20
-40.46574020385742
 30
-4.759613513946533
 10
1000.0
 20
-40.50006103515625
 30
-4.500000476837158
 10
1000.0
 20
-43.99981689453125
 30
-5.36567735671997
 10
1000.0
 20
-44.2404441833496
 30
-5.46567964553833
 10
1000.0
 20
-55.29698181152344
 30
-5.500004291534423
 10
1000.0
 20
-55.96499633789062
 30
-5.462490558624267
 10
1000.0
 20
-56.61827850341797
 30
-5.352684497833251
 10
1000.0
 20
-57.25982666015625
 30
-5.169640064239501
 10
1000.0
 20
-57.87499237060547
 30
-4.917831897735595
 10
1000.0
 20
-58.46089935302734
 30
-4.597824573516845
 10
1000.0
 20
-59.00524139404296
 30
-4.216675281524658
 10
1000.0
 20
-59.50634002685546
 30
-3.775547742843627
 10
1000.0
 20
-59.95336151123047
 30
-3.283604145050048
 10
1000.0
 20
-60.34478759765625
 30
-2.743355274200439
 10
1000.0
 20
-60.67140960693359
 30
-2.167026996612548
 10
1000.0
 20
-60.93513488769531
 30
-1.552124500274658
 10
1000.0
 20
-0.0000648498535156
 30
-0.0000004768371582
 10
1000.0
 20
-0.1002426147460937
 30
-12.97320652008056
 10
1000.0
 20
-5.118213653564453
 30
-1.20295763015747
 10
1000.0
 20
-12.49982261657715
 30
-5.36567735671997
 10
1000.0
 20
-0.0268630981445313
 30
-12.899827003479
 10
1000.0
 20
-0.0000686645507813
 30
-12.80000019073486
 10
1000.0
 20
-4.703426361083984
 30
-0.7373738288879395
 10
1000.0
 20
-4.047725677490234
 30
-0.0663952827453613
 10
1000.0
 20
-4.428852081298828
 30
-0.3159031867980957
 10
1000.0
 20
-5.687366485595703
 30
-1.458454608917236
 10
1000.0
 20
-6.312755584716796
 30
-1.458454608917236
 10
1000.0
 20
-12.29311752319336
 30
-5.206947803497314
 10
1000.0
 20
-6.881908416748046
 30
-1.202957391738891
 10
1000.0
 20
-7.296695709228515
 30
-0.7373735904693604
 10
1000.0
 20
-7.571269989013671
 30
-0.3159029483795166
 10
1000.0
 20
-7.952396392822265
 30
-0.0663952827453613
 10
1000.0
 20
-12.13438987731933
 30
-5.000244617462158
 10
1000.0
 20
-12.03438949584961
 30
-4.759613513946533
 10
1000.0
 20
-11.25967788696289
 30
-0.0343213081359863
 10
1000.0
 20
-12.00006103515625
 30
-4.500000476837158
 10
1000.0
 20
-11.50030136108398
 30
-0.1343235969543457
 10
1000.0
 20
-11.70700454711914
 30
-0.2930531501770019
 10
1000.0
 20
-11.86574172973632
 30
-0.4997563362121582
 10
1000.0
 20
-11.96574401855468
 30
-0.7403836250305176
 10
1000.0
 20
-12.00006484985351
 30
-1.000000476837158
 10
1000.0
 20
-43.79311370849609
 30
-5.206947803497314
 10
1000.0
 20
-40.50006103515625
 30
-1.000000238418579
 10
1000.0
 20
-43.63438415527343
 30
-5.000244617462158
 10
1000.0
 20
-40.53438568115234
 30
-0.7403833866119385
 10
1000.0
 20
-40.63438415527343
 30
-0.4997560977935791
 10
1000.0
 20
-40.79311370849609
 30
-0.2930529117584228
 10
1000.0
 20
-40.99981689453125
 30
-0.1343233585357666
 10
1000.0
 20
-41.24044799804687
 30
-0.0343213081359863
 10
1000.0
 20
-41.50006103515624
 30
-0.0000004768371582
 10
1000.0
 20
-43.53438186645507
 30
-4.759613513946533
 10
1000.0
 20
-42.50006866455078
 30
-0.0000004768371582
 10
1000.0
 20
-42.75968170166016
 30
-0.0343213081359863
 10
1000.0
 20
-43.50006103515625
 30
-4.500000476837158
 10
1000.0
 20
-43.00031280517578
 30
-0.1343235969543457
 10
1000.0
 20
-43.2070083618164
 30
-0.2930531501770019
 10
1000.0
 20
-43.36573791503906
 30
-0.4997563362121582
 10
1000.0
 20
-43.46574401855469
 30
-0.7403836250305176
 10
1000.0
 20
-43.50006103515625
 30
-1.000000476837158
 10
1000.0
 20
-74.97097778320313
 30
-0.7622075080871582
 10
1000.0
 20
-65.95877075195312
 30
-0.0000042915344238
 10
1000.0
 20
-61.14385986328125
 30
-13.00000381469726
 10
1000.0
 20
-0.2000694274902344
 30
-13.00000095367431
 10
1000.0
 20
-44.50006103515625
 30
-5.500000476837158
 10
1000.0
 20
-3.708778381347656
 30
-0.0000004768371582
 10
1000.0
 20
-11.00005722045898
 30
-0.0000004768371582
 10
1000.0
 20
-8.291347503662109
 30
0.0
 10
-1000.000061035156
 20
-74.99996948242188
 30
-0.0000729560852051
 10
-1000.000061035156
 20
-74.64114379882812
 30
-2.611111164093017
 10
-1000.000061035156
 20
-72.4588851928711
 30
-7.246551513671875
 10
-1000.000061035156
 20
-69.13182830810547
 30
-1.203030347824096
 10
-1000.000061035156
 20
-71.78460693359375
 30
-8.155878067016601
 10
-1000.000061035156
 20
-68.56267547607422
 30
-1.458531141281127
 10
-1000.000061035156
 20
-70.28880310058593
 30
-9.783039093017578
 10
-1000.000061035156
 20
-67.97032928466797
 30
-11.51737976074219
 10
-1000.000061035156
 20
-67.36812591552734
 30
-1.203030109405517
 10
-1000.000061035156
 20
-66.9533462524414
 30
-0.737450122833252
 10
-1000.000061035156
 20
-65.95868682861328
 30
-0.0000729560852051
 10
-1000.000061035156
 20
-61.37168884277343
 30
-0.4401516914367676
 10
-1000.000061035156
 20
-66.40134429931641
 30
-12.26234436035156
 10
-1000.000061035156
 20
-59.95327758789063
 30
-3.283676624298095
 10
-1000.000061035156
 20
-60.34470367431641
 30
-2.74342393875122
 10
-1000.000061035156
 20
-62.91456604003906
 30
-12.96731948852539
 10
-1000.000061035156
 20
-58.4608154296875
 30
-4.597897052764892
 10
-1000.000061035156
 20
-55.29689788818359
 30
-5.500072956085205
 10
-1000.000061035156
 20
-55.96491241455078
 30
-5.462559223175048
 10
-1000.000061035156
 20
-40.4999771118164
 30
-1.00006890296936
 10
-1000.000061035156
 20
-43.46565628051758
 30
-0.7404561042785645
 10
-1000.000061035156
 20
-43.36565399169922
 30
-0.4998250007629395
 10
-1000.000061035156
 20
-40.79302978515625
 30
-0.2931215763092041
 10
-1000.000061035156
 20
-40.99973297119141
 30
-0.1343920230865478
 10
-1000.000061035156
 20
-43.0002212524414
 30
-0.1343922615051269
 10
-1000.000061035156
 20
-41.24035644531249
 30
-0.0343899726867676
 10
-1000.000061035156
 20
-42.49997711181641
 30
-0.0000691413879395
 10
-1000.000061035156
 20
-40.4999771118164
 30
-4.500069141387939
 10
-1000.000061035156
 20
-43.4999771118164
 30
-4.500069141387939
 10
-1000.000061035156
 20
-40.46565246582031
 30
-4.75968599319458
 10
-1000.000061035156
 20
-40.20692443847656
 30
-5.207016468048095
 10
-1000.000061035156
 20
-40.0002212524414
 30
-5.365749835968017
 10
-1000.000061035156
 20
-43.9997329711914
 30
-5.365749835968017
 10
-1000.000061035156
 20
-12.99998092651367
 30
-5.500069141387939
 10
-1000.000061035156
 20
-39.49997711181641
 30
-5.500068664550781
 10
-1000.000061035156
 20
0.0000228881835938
 30
-0.0000691413879395
 10
-1000.000061035156
 20
-0.0267868041992188
 30
-12.89989566802978
 10
-1000.000061035156
 20
-5.11813735961914
 30
-1.203026294708251
 10
-1000.000061035156
 20
-12.49973678588867
 30
-5.365749835968017
 10
-1000.000061035156
 20
-12.29303169250488
 30
-5.207016468048095
 10
-1000.000061035156
 20
-11.99998474121094
 30
-4.500069141387939
 10
-1000.000061035156
 20
-12.03429794311523
 30
-4.75968599319458
 10
-1000.000061035156
 20
-6.312679290771484
 30
-1.458527088165283
 10
-1000.000061035156
 20
-11.99998474121094
 30
-1.000069141387939
 10
-1000.000061035156
 20
-7.952312469482421
 30
-0.0664677619934082
 10
-1000.000061035156
 20
-11.25960159301758
 30
-0.0343899726867676
 10
-1000.000061035156
 20
-11.5002326965332
 30
-0.1343922615051269
 10
-1000.000061035156
 20
-8.291271209716796
 30
-0.0000686645507813
 10
-1000.000061035156
 20
-7.571193695068359
 30
-0.3159716129302978
 10
-1000.000061035156
 20
-11.70693588256836
 30
-0.2931218147277832
 10
-1000.000061035156
 20
-11.86565780639648
 30
-0.4998250007629395
 10
-1000.000061035156
 20
-7.296619415283203
 30
-0.7374460697174073
 10
-1000.000061035156
 20
-74.97088623046875
 30
-0.7622761726379395
 10
-1000.000061035156
 20
-70.54127502441406
 30
-0.0000729560852051
 10
-1000.000061035156
 20
-74.8306884765625
 30
-1.766689777374267
 10
-1000.000061035156
 20
-70.20230865478516
 30
-0.0664715766906738
 10
-1000.000061035156
 20
-74.37522888183593
 30
-3.488777637481689
 10
-1000.000061035156
 20
-69.82118225097656
 30
-0.3159756660461426
 10
-1000.000061035156
 20
-74.02693939208984
 30
-4.398983478546142
 10
-1000.000061035156
 20
-73.59554290771484
 30
-5.334763050079345
 10
-1000.000061035156
 20
-69.5466079711914
 30
-0.737450122833252
 10
-1000.000061035156
 20
-73.07118988037109
 30
-6.286296844482421
 10
-1000.000061035156
 20
-71.04734039306641
 30
-9.013748168945312
 10
-1000.000061035156
 20
-69.51902770996094
 30
-10.45087051391601
 10
-1000.000061035156
 20
-67.93727874755859
 30
-1.458530902862548
 10
-1000.000061035156
 20
-68.74282836914062
 30
-11.02920532226562
 10
-1000.000061035156
 20
-67.19106292724609
 30
-11.92490005493164
 10
-1000.000061035156
 20
-61.26049041748046
 30
-0.6580545902252198
 10
-1000.000061035156
 20
-61.9573974609375
 30
-0.0300374031066895
 10
-1000.000061035156
 20
-62.20018768310547
 30
-0.0000729560852051
 10
-1000.000061035156
 20
-66.29764556884765
 30
-0.0664715766906738
 10
-1000.000061035156
 20
-61.53134918212891
 30
-0.2569127082824707
 10
-1000.000061035156
 20
-61.73059844970703
 30
-0.1173977851867676
 10
-1000.000061035156
 20
-66.67877197265625
 30
-0.3159756660461426
 10
-1000.000061035156
 20
-60.93505096435547
 30
-1.552196979522705
 10
-1000.000061035156
 20
-65.5929946899414
 30
-12.53022766113281
 10
-1000.000061035156
 20
-60.67132568359375
 30
-2.16709566116333
 10
-1000.000061035156
 20
-64.74402618408203
 30
-12.73511505126953
 10
-1000.000061035156
 20
-63.85540008544921
 30
-12.87747955322265
 10
-1000.000061035156
 20
-59.00515747070312
 30
-4.216743946075439
 10
-1000.000061035156
 20
-59.50625610351562
 30
-3.775616407394409
 10
-1000.000061035156
 20
-57.87490844726562
 30
-4.917900562286376
 10
-1000.000061035156
 20
-61.92095947265625
 30
-13.00506591796875
 10
-1000.000061035156
 20
-56.61819458007812
 30
-5.352753162384033
 10
-1000.000061035156
 20
-57.2597427368164
 30
-5.169708728790283
 10
-1000.000061035156
 20
-61.14377593994141
 30
-13.00007247924805
 10
-1000.000061035156
 20
-44.4999771118164
 30
-5.500069141387939
 10
-1000.000061035156
 20
-40.53429412841796
 30
-0.7404558658599854
 10
-1000.000061035156
 20
-43.4999771118164
 30
-1.000069141387939
 10
-1000.000061035156
 20
-40.63430023193359
 30
-0.4998247623443604
 10
-1000.000061035156
 20
-43.20692443847656
 30
-0.2931218147277832
 10
-1000.000061035156
 20
-42.75959396362305
 30
-0.0343899726867676
 10
-1000.000061035156
 20
-41.4999771118164
 30
-0.0000691413879395
 10
-1000.000061035156
 20
-43.53429794311523
 30
-4.75968599319458
 10
-1000.000061035156
 20
-40.36565399169922
 30
-5.000317096710205
 10
-1000.000061035156
 20
-43.63430023193359
 30
-5.000317096710205
 10
-1000.000061035156
 20
-43.79302978515625
 30
-5.207016468048095
 10
-1000.000061035156
 20
-39.75959014892578
 30
-5.465748310089111
 10
-1000.000061035156
 20
-44.24036026000976
 30
-5.465748310089111
 10
-1000.000061035156
 20
-0.1999931335449219
 30
-13.0000696182251
 10
-1000.000061035156
 20
0.0000076293945313
 30
-12.80007266998291
 10
-1000.000061035156
 20
-3.708690643310546
 30
-0.0000691413879395
 10
-1000.000061035156
 20
-4.047649383544921
 30
-0.0664677619934082
 10
-1000.000061035156
 20
-4.428775787353515
 30
-0.3159718513488769
 10
-1000.000061035156
 20
-4.70334243774414
 30
-0.7374463081359864
 10
-1000.000061035156
 20
-0.1001663208007812
 30
-12.97327518463134
 10
-1000.000061035156
 20
-5.68729019165039
 30
-1.458527088165283
 10
-1000.000061035156
 20
-12.74036407470703
 30
-5.465748310089111
 10
-1000.000061035156
 20
-12.13430404663086
 30
-5.000317096710205
 10
-1000.000061035156
 20
-6.881824493408203
 30
-1.203026056289672
 10
-1000.000061035156
 20
-10.9999885559082
 30
-0.0000691413879395
 10
-1000.000061035156
 20
-11.96566009521484
 30
-0.7404561042785645
 93
     1194
 90
        3
 90
      104
 90
        0
 90
        1
 90
        3
 90
        2
 90
        3
 90
       11
 90
        4
 90
      104
 90
        2
 90
       11
 90
        0
 90
        4
 90
        3
 90
        4
 90
       13
 90
       11
 90
        3
 90
        4
 90
        5
 90
       13
 90
        4
 90
        5
 90
        6
 90
       15
 90
       13
 90
        3
 90
        6
 90
        7
 90
       15
 90
        4
 90
        7
 90
        8
 90
       16
 90
       15
 90
        3
 90
        8
 90
        9
 90
       16
 90
        4
 90
        9
 90
       10
 90
       17
 90
       16
 90
        3
 90
       10
 90
       12
 90
       17
 90
        4
 90
       12
 90
       14
 90
       20
 90
       17
 90
        3
 90
       14
 90
       18
 90
       20
 90
        4
 90
       18
 90
       19
 90
       21
 90
       20
 90
        3
 90
       19
 90
       23
 90
       21
 90
        4
 90
       23
 90
       35
 90
       22
 90
       21
 90
        4
 90
       34
 90
       27
 90
      105
 90
       25
 90
        3
 90
       37
 90
       32
 90
       24
 90
        4
 90
       32
 90
       34
 90
       25
 90
       24
 90
        3
 90
       35
 90
       36
 90
       22
 90
        4
 90
       36
 90
       37
 90
       24
 90
       22
 90
        4
 90
       23
 90
       26
 90
       60
 90
       35
 90
        4
 90
       26
 90
       28
 90
       59
 90
       60
 90
        4
 90
       28
 90
       29
 90
       57
 90
       58
 90
        3
 90
       28
 90
       58
 90
       59
 90
        4
 90
       29
 90
       30
 90
       55
 90
       56
 90
        3
 90
       29
 90
       56
 90
       57
 90
        4
 90
       30
 90
       31
 90
       53
 90
       54
 90
        3
 90
       30
 90
       54
 90
       55
 90
        4
 90
       31
 90
       33
 90
       51
 90
       52
 90
        3
 90
       31
 90
       52
 90
       53
 90
        4
 90
       33
 90
      106
 90
       49
 90
       50
 90
        3
 90
       33
 90
       50
 90
       51
 90
        3
 90
      106
 90
      108
 90
       49
 90
        4
 90
       87
 90
       89
 90
      102
 90
      103
 90
        4
 90
       89
 90
       90
 90
      101
 90
      102
 90
        4
 90
       90
 90
       91
 90
      100
 90
      101
 90
        4
 90
       91
 90
       92
 90
       99
 90
      100
 90
        4
 90
       92
 90
       93
 90
       97
 90
       99
 90
        4
 90
       93
 90
       94
 90
       96
 90
       97
 90
        4
 90
       46
 90
       87
 90
      103
 90
       98
 90
        4
 90
       45
 90
       46
 90
       98
 90
       95
 90
        4
 90
       44
 90
       45
 90
       95
 90
       88
 90
        4
 90
       43
 90
       44
 90
       88
 90
       86
 90
        4
 90
       42
 90
       43
 90
       86
 90
       47
 90
        4
 90
       41
 90
       42
 90
       47
 90
       48
 90
        4
 90
      106
 90
      107
 90
       39
 90
       40
 90
        3
 90
      106
 90
       40
 90
      108
 90
        4
 90
       40
 90
       41
 90
       48
 90
      108
 90
        3
 90
       66
 90
       61
 90
      109
 90
        3
 90
       66
 90
      109
 90
       68
 90
        4
 90
       65
 90
       66
 90
       68
 90
       69
 90
        3
 90
       65
 90
       69
 90
       67
 90
        4
 90
       62
 90
       65
 90
       67
 90
       63
 90
        4
 90
      107
 90
       62
 90
       63
 90
       70
 90
        3
 90
      107
 90
       64
 90
       38
 90
        3
 90
      107
 90
       38
 90
       39
 90
        3
 90
      107
 90
       77
 90
       72
 90
        3
 90
      107
 90
       72
 90
       64
 90
        3
 90
      107
 90
       80
 90
       78
 90
        3
 90
      107
 90
       78
 90
       77
 90
        4
 90
      107
 90
       70
 90
       71
 90
       80
 90
        4
 90
       71
 90
       73
 90
       85
 90
       80
 90
        3
 90
       76
 90
       79
 90
       81
 90
        4
 90
       76
 90
      111
 90
      110
 90
       79
 90
        4
 90
       75
 90
       76
 90
       81
 90
       82
 90
        3
 90
       75
 90
       82
 90
       83
 90
        4
 90
       74
 90
       75
 90
       83
 90
       84
 90
        4
 90
       73
 90
       74
 90
       84
 90
       85
 90
        4
 90
       66
 90
       65
 90
      148
 90
      212
 90
        4
 90
       65
 90
       62
 90
      217
 90
      148
 90
        4
 90
       62
 90
      107
 90
      211
 90
      217
 90
        4
 90
      107
 90
      106
 90
      197
 90
      211
 90
        4
 90
      106
 90
       33
 90
      194
 90
      197
 90
        4
 90
       33
 90
       31
 90
      127
 90
      194
 90
        4
 90
       31
 90
       30
 90
      190
 90
      127
 90
        4
 90
       30
 90
       29
 90
      189
 90
      190
 90
        4
 90
       29
 90
       28
 90
      187
 90
      189
 90
        4
 90
       28
 90
       26
 90
      124
 90
      187
 90
        4
 90
       26
 90
       23
 90
      178
 90
      124
 90
        4
 90
       23
 90
       19
 90
      119
 90
      178
 90
        4
 90
       19
 90
       18
 90
      177
 90
      119
 90
        4
 90
       18
 90
       14
 90
      175
 90
      177
 90
        4
 90
       14
 90
       12
 90
      118
 90
      175
 90
        4
 90
       12
 90
       10
 90
      174
 90
      118
 90
        4
 90
       10
 90
        9
 90
      116
 90
      174
 90
        4
 90
        9
 90
        8
 90
      114
 90
      116
 90
        4
 90
        8
 90
        7
 90
      173
 90
      114
 90
        4
 90
        7
 90
        6
 90
      171
 90
      173
 90
        4
 90
        6
 90
        5
 90
      170
 90
      171
 90
        4
 90
        5
 90
        4
 90
      168
 90
      170
 90
        4
 90
        4
 90
        3
 90
      113
 90
      168
 90
        4
 90
        3
 90
        2
 90
      166
 90
      113
 90
        4
 90
        2
 90
      104
 90
      164
 90
      166
 90
        4
 90
      104
 90
        1
 90
      112
 90
      164
 90
        4
 90
        1
 90
        0
 90
      165
 90
      112
 90
        4
 90
        0
 90
       11
 90
      167
 90
      165
 90
        4
 90
       11
 90
       13
 90
      169
 90
      167
 90
        4
 90
       13
 90
       15
 90
      172
 90
      169
 90
        4
 90
       15
 90
       16
 90
      115
 90
      172
 90
        4
 90
       16
 90
       17
 90
      117
 90
      115
 90
        4
 90
       17
 90
       20
 90
      176
 90
      117
 90
        4
 90
       20
 90
       21
 90
      120
 90
      176
 90
        4
 90
       21
 90
       22
 90
      121
 90
      120
 90
        4
 90
       22
 90
       24
 90
      185
 90
      121
 90
        4
 90
       24
 90
       25
 90
      182
 90
      185
 90
        4
 90
       25
 90
      105
 90
      122
 90
      182
 90
        4
 90
      105
 90
       27
 90
      181
 90
      122
 90
        4
 90
       27
 90
       34
 90
      180
 90
      181
 90
        4
 90
       34
 90
       32
 90
      184
 90
      180
 90
        4
 90
       32
 90
       37
 90
      183
 90
      184
 90
        4
 90
       37
 90
       36
 90
      123
 90
      183
 90
        4
 90
       36
 90
       35
 90
      179
 90
      123
 90
        4
 90
       35
 90
       60
 90
      186
 90
      179
 90
        4
 90
       60
 90
       59
 90
      188
 90
      186
 90
        4
 90
       59
 90
       58
 90
      126
 90
      188
 90
        4
 90
       58
 90
       57
 90
      125
 90
      126
 90
        4
 90
       57
 90
       56
 90
      192
 90
      125
 90
        4
 90
       56
 90
       55
 90
      191
 90
      192
 90
        4
 90
       55
 90
       54
 90
      128
 90
      191
 90
        4
 90
       54
 90
       53
 90
      193
 90
      128
 90
        4
 90
       53
 90
       52
 90
      196
 90
      193
 90
        4
 90
       52
 90
       51
 90
      195
 90
      196
 90
        4
 90
       51
 90
       50
 90
      130
 90
      195
 90
        4
 90
       50
 90
       49
 90
      129
 90
      130
 90
        4
 90
       49
 90
      108
 90
      198
 90
      129
 90
        4
 90
      108
 90
       48
 90
      210
 90
      198
 90
        4
 90
       48
 90
       47
 90
      144
 90
      210
 90
        4
 90
       47
 90
       86
 90
      208
 90
      144
 90
        4
 90
       86
 90
       88
 90
      207
 90
      208
 90
        4
 90
       88
 90
       95
 90
      205
 90
      207
 90
        4
 90
       95
 90
       98
 90
      140
 90
      205
 90
        4
 90
       98
 90
      103
 90
      200
 90
      140
 90
        4
 90
      103
 90
      102
 90
      132
 90
      200
 90
        4
 90
      102
 90
      101
 90
      133
 90
      132
 90
        4
 90
      101
 90
      100
 90
      202
 90
      133
 90
        4
 90
      100
 90
       99
 90
      136
 90
      202
 90
        4
 90
       99
 90
       97
 90
      203
 90
      136
 90
        4
 90
       97
 90
       96
 90
      138
 90
      203
 90
        4
 90
       96
 90
       94
 90
      204
 90
      138
 90
        4
 90
       94
 90
       93
 90
      137
 90
      204
 90
        4
 90
       93
 90
       92
 90
      135
 90
      137
 90
        4
 90
       92
 90
       91
 90
      134
 90
      135
 90
        4
 90
       91
 90
       90
 90
      201
 90
      134
 90
        4
 90
       90
 90
       89
 90
      199
 90
      201
 90
        4
 90
       89
 90
       87
 90
      131
 90
      199
 90
        4
 90
       87
 90
       46
 90
      139
 90
      131
 90
        4
 90
       46
 90
       45
 90
      141
 90
      139
 90
        4
 90
       45
 90
       44
 90
      206
 90
      141
 90
        4
 90
       44
 90
       43
 90
      142
 90
      206
 90
        4
 90
       43
 90
       42
 90
      143
 90
      142
 90
        4
 90
       42
 90
       41
 90
      209
 90
      143
 90
        4
 90
       41
 90
       40
 90
      146
 90
      209
 90
        4
 90
       40
 90
       39
 90
      145
 90
      146
 90
        4
 90
       39
 90
       38
 90
      219
 90
      145
 90
        4
 90
       38
 90
       64
 90
      150
 90
      219
 90
        4
 90
       64
 90
       72
 90
      151
 90
      150
 90
        4
 90
       72
 90
       77
 90
      220
 90
      151
 90
        4
 90
       77
 90
       78
 90
      153
 90
      220
 90
        4
 90
       78
 90
       80
 90
      152
 90
      153
 90
        4
 90
       80
 90
       85
 90
      155
 90
      152
 90
        4
 90
       85
 90
       84
 90
      223
 90
      155
 90
        4
 90
       84
 90
       83
 90
      162
 90
      223
 90
        4
 90
       83
 90
       82
 90
      161
 90
      162
 90
        4
 90
       82
 90
       81
 90
      158
 90
      161
 90
        4
 90
       81
 90
       79
 90
      157
 90
      158
 90
        4
 90
       79
 90
      110
 90
      222
 90
      157
 90
        4
 90
      110
 90
      111
 90
      159
 90
      222
 90
        4
 90
      111
 90
       76
 90
      156
 90
      159
 90
        4
 90
       76
 90
       75
 90
      160
 90
      156
 90
        4
 90
       75
 90
       74
 90
      163
 90
      160
 90
        4
 90
       74
 90
       73
 90
      221
 90
      163
 90
        4
 90
       73
 90
       71
 90
      154
 90
      221
 90
        4
 90
       71
 90
       70
 90
      218
 90
      154
 90
        4
 90
       70
 90
       63
 90
      149
 90
      218
 90
        4
 90
       63
 90
       67
 90
      216
 90
      149
 90
        4
 90
       67
 90
       69
 90
      215
 90
      216
 90
        4
 90
       69
 90
       68
 90
      214
 90
      215
 90
        4
 90
       68
 90
      109
 90
      213
 90
      214
 90
        4
 90
      109
 90
       61
 90
      147
 90
      213
 90
        4
 90
       61
 90
       66
 90
      212
 90
      147
 90
        3
 90
      164
 90
      112
 90
      165
 90
        3
 90
      166
 90
      167
 90
      113
 90
        4
 90
      164
 90
      165
 90
      167
 90
      166
 90
        4
 90
      113
 90
      167
 90
      169
 90
      168
 90
        3
 90
      168
 90
      169
 90
      170
 90
        4
 90
      170
 90
      169
 90
      172
 90
      171
 90
        3
 90
      171
 90
      172
 90
      173
 90
        4
 90
      173
 90
      172
 90
      115
 90
      114
 90
        3
 90
      114
 90
      115
 90
      116
 90
        4
 90
      116
 90
      115
 90
      117
 90
      174
 90
        3
 90
      174
 90
      117
 90
      118
 90
        4
 90
      118
 90
      117
 90
      176
 90
      175
 90
        3
 90
      175
 90
      176
 90
      177
 90
        4
 90
      177
 90
      176
 90
      120
 90
      119
 90
        3
 90
      119
 90
      120
 90
      178
 90
        4
 90
      178
 90
      120
 90
      121
 90
      179
 90
        4
 90
      180
 90
      182
 90
      122
 90
      181
 90
        3
 90
      183
 90
      185
 90
      184
 90
        4
 90
      184
 90
      185
 90
      182
 90
      180
 90
        3
 90
      179
 90
      121
 90
      123
 90
        4
 90
      123
 90
      121
 90
      185
 90
      183
 90
        4
 90
      178
 90
      179
 90
      186
 90
      124
 90
        4
 90
      124
 90
      186
 90
      188
 90
      187
 90
        4
 90
      187
 90
      126
 90
      125
 90
      189
 90
        3
 90
      187
 90
      188
 90
      126
 90
        4
 90
      189
 90
      192
 90
      191
 90
      190
 90
        3
 90
      189
 90
      125
 90
      192
 90
        4
 90
      190
 90
      128
 90
      193
 90
      127
 90
        3
 90
      190
 90
      191
 90
      128
 90
        4
 90
      127
 90
      196
 90
      195
 90
      194
 90
        3
 90
      127
 90
      193
 90
      196
 90
        4
 90
      194
 90
      130
 90
      129
 90
      197
 90
        3
 90
      194
 90
      195
 90
      130
 90
        3
 90
      197
 90
      129
 90
      198
 90
        4
 90
      131
 90
      200
 90
      132
 90
      199
 90
        4
 90
      199
 90
      132
 90
      133
 90
      201
 90
        4
 90
      201
 90
      133
 90
      202
 90
      134
 90
        4
 90
      134
 90
      202
 90
      136
 90
      135
 90
        4
 90
      135
 90
      136
 90
      203
 90
      137
 90
        4
 90
      137
 90
      203
 90
      138
 90
      204
 90
        4
 90
      139
 90
      140
 90
      200
 90
      131
 90
        4
 90
      141
 90
      205
 90
      140
 90
      139
 90
        4
 90
      206
 90
      207
 90
      205
 90
      141
 90
        4
 90
      142
 90
      208
 90
      207
 90
      206
 90
        4
 90
      143
 90
      144
 90
      208
 90
      142
 90
        4
 90
      209
 90
      210
 90
      144
 90
      143
 90
        4
 90
      197
 90
      146
 90
      145
 90
      211
 90
        3
 90
      197
 90
      198
 90
      146
 90
        4
 90
      146
 90
      198
 90
      210
 90
      209
 90
        3
 90
      212
 90
      213
 90
      147
 90
        3
 90
      212
 90
      214
 90
      213
 90
        4
 90
      148
 90
      215
 90
      214
 90
      212
 90
        3
 90
      148
 90
      216
 90
      215
 90
        4
 90
      217
 90
      149
 90
      216
 90
      148
 90
        4
 90
      211
 90
      218
 90
      149
 90
      217
 90
        3
 90
      211
 90
      219
 90
      150
 90
        3
 90
      211
 90
      145
 90
      219
 90
        3
 90
      211
 90
      151
 90
      220
 90
        3
 90
      211
 90
      150
 90
      151
 90
        3
 90
      211
 90
      153
 90
      152
 90
        3
 90
      211
 90
      220
 90
      153
 90
        4
 90
      211
 90
      152
 90
      154
 90
      218
 90
        4
 90
      154
 90
      152
 90
      155
 90
      221
 90
        3
 90
      156
 90
      158
 90
      157
 90
        4
 90
      156
 90
      157
 90
      222
 90
      159
 90
        4
 90
      160
 90
      161
 90
      158
 90
      156
 90
        3
 90
      160
 90
      162
 90
      161
 90
        4
 90
      163
 90
      223
 90
      162
 90
      160
 90
        4
 90
      221
 90
      155
 90
      223
 90
      163
 94
      472
 90
        0
 90
      104
 90
        0
 90
        1
 90
        1
 90
      104
 90
        2
 90
        3
 90
        3
 90
       11
 90
        2
 90
       11
 90
        2
 90
      104
 90
        0
 90
       11
 90
        3
 90
        4
 90
        4
 90
       13
 90
       11
 90
       13
 90
        4
 90
        5
 90
        5
 90
       13
 90
        5
 90
        6
 90
        6
 90
       15
 90
       13
 90
       15
 90
        6
 90
        7
 90
        7
 90
       15
 90
        7
 90
        8
 90
        8
 90
       16
 90
       15
 90
       16
 90
        8
 90
        9
 90
        9
 90
       16
 90
        9
 90
       10
 90
       10
 90
       17
 90
       16
 90
       17
 90
       10
 90
       12
 90
       12
 90
       17
 90
       12
 90
       14
 90
       14
 90
       20
 90
       17
 90
       20
 90
       14
 90
       18
 90
       18
 90
       20
 90
       18
 90
       19
 90
       19
 90
       21
 90
       20
 90
       21
 90
       19
 90
       23
 90
       21
 90
       23
 90
       23
 90
       35
 90
       22
 90
       35
 90
       21
 90
       22
 90
       27
 90
       34
 90
       27
 90
      105
 90
       25
 90
      105
 90
       25
 90
       34
 90
       32
 90
       37
 90
       24
 90
       32
 90
       24
 90
       37
 90
       32
 90
       34
 90
       24
 90
       25
 90
       35
 90
       36
 90
       22
 90
       36
 90
       36
 90
       37
 90
       22
 90
       24
 90
       23
 90
       26
 90
       26
 90
       60
 90
       35
 90
       60
 90
       26
 90
       28
 90
       28
 90
       59
 90
       59
 90
       60
 90
       28
 90
       29
 90
       29
 90
       57
 90
       57
 90
       58
 90
       28
 90
       58
 90
       58
 90
       59
 90
       29
 90
       30
 90
       30
 90
       55
 90
       55
 90
       56
 90
       29
 90
       56
 90
       56
 90
       57
 90
       30
 90
       31
 90
       31
 90
       53
 90
       53
 90
       54
 90
       30
 90
       54
 90
       54
 90
       55
 90
       31
 90
       33
 90
       33
 90
       51
 90
       51
 90
       52
 90
       31
 90
       52
 90
       52
 90
       53
 90
       33
 90
      106
 90
       49
 90
      106
 90
       49
 90
       50
 90
       33
 90
       50
 90
       50
 90
       51
 90
      106
 90
      108
 90
       49
 90
      108
 90
       87
 90
       89
 90
       89
 90
      102
 90
      102
 90
      103
 90
       87
 90
      103
 90
       89
 90
       90
 90
       90
 90
      101
 90
      101
 90
      102
 90
       90
 90
       91
 90
       91
 90
      100
 90
      100
 90
      101
 90
       91
 90
       92
 90
       92
 90
       99
 90
       99
 90
      100
 90
       92
 90
       93
 90
       93
 90
       97
 90
       97
 90
       99
 90
       93
 90
       94
 90
       94
 90
       96
 90
       96
 90
       97
 90
       46
 90
       87
 90
       98
 90
      103
 90
       46
 90
       98
 90
       45
 90
       46
 90
       95
 90
       98
 90
       45
 90
       95
 90
       44
 90
       45
 90
       88
 90
       95
 90
       44
 90
       88
 90
       43
 90
       44
 90
       86
 90
       88
 90
       43
 90
       86
 90
       42
 90
       43
 90
       47
 90
       86
 90
       42
 90
       47
 90
       41
 90
       42
 90
       47
 90
       48
 90
       41
 90
       48
 90
      106
 90
      107
 90
       39
 90
      107
 90
       39
 90
       40
 90
       40
 90
      106
 90
       40
 90
      108
 90
       40
 90
       41
 90
       48
 90
      108
 90
       61
 90
       66
 90
       61
 90
      109
 90
       66
 90
      109
 90
       68
 90
      109
 90
       66
 90
       68
 90
       65
 90
       66
 90
       68
 90
       69
 90
       65
 90
       69
 90
       67
 90
       69
 90
       65
 90
       67
 90
       62
 90
       65
 90
       63
 90
       67
 90
       62
 90
       63
 90
       62
 90
      107
 90
       63
 90
       70
 90
       70
 90
      107
 90
       64
 90
      107
 90
       38
 90
       64
 90
       38
 90
      107
 90
       38
 90
       39
 90
       77
 90
      107
 90
       72
 90
       77
 90
       72
 90
      107
 90
       64
 90
       72
 90
       80
 90
      107
 90
       78
 90
       80
 90
       78
 90
      107
 90
       77
 90
       78
 90
       70
 90
       71
 90
       71
 90
       80
 90
       71
 90
       73
 90
       73
 90
       85
 90
       80
 90
       85
 90
       76
 90
       79
 90
       79
 90
       81
 90
       76
 90
       81
 90
       76
 90
      111
 90
      110
 90
      111
 90
       79
 90
      110
 90
       75
 90
       76
 90
       81
 90
       82
 90
       75
 90
       82
 90
       82
 90
       83
 90
       75
 90
       83
 90
       74
 90
       75
 90
       83
 90
       84
 90
       74
 90
       84
 90
       73
 90
       74
 90
       84
 90
       85
 90
       65
 90
      148
 90
      148
 90
      212
 90
       66
 90
      212
 90
       62
 90
      217
 90
      148
 90
      217
 90
      107
 90
      211
 90
      211
 90
      217
 90
      106
 90
      197
 90
      197
 90
      211
 90
       33
 90
      194
 90
      194
 90
      197
 90
       31
 90
      127
 90
      127
 90
      194
 90
       30
 90
      190
 90
      127
 90
      190
 90
       29
 90
      189
 90
      189
 90
      190
 90
       28
 90
      187
 90
      187
 90
      189
 90
       26
 90
      124
 90
      124
 90
      187
 90
       23
 90
      178
 90
      124
 90
      178
 90
       19
 90
      119
 90
      119
 90
      178
 90
       18
 90
      177
 90
      119
 90
      177
 90
       14
 90
      175
 90
      175
 90
      177
 90
       12
 90
      118
 90
      118
 90
      175
 90
       10
 90
      174
 90
      118
 90
      174
 90
        9
 90
      116
 90
      116
 90
      174
 90
        8
 90
      114
 90
      114
 90
      116
 90
        7
 90
      173
 90
      114
 90
      173
 90
        6
 90
      171
 90
      171
 90
      173
 90
        5
 90
      170
 90
      170
 90
      171
 90
        4
 90
      168
 90
      168
 90
      170
 90
        3
 90
      113
 90
      113
 90
      168
 90
        2
 90
      166
 90
      113
 90
      166
 90
      104
 90
      164
 90
      164
 90
      166
 90
        1
 90
      112
 90
      112
 90
      164
 90
        0
 90
      165
 90
      112
 90
      165
 90
       11
 90
      167
 90
      165
 90
      167
 90
       13
 90
      169
 90
      167
 90
      169
 90
       15
 90
      172
 90
      169
 90
      172
 90
       16
 90
      115
 90
      115
 90
      172
 90
       17
 90
      117
 90
      115
 90
      117
 90
       20
 90
      176
 90
      117
 90
      176
 90
       21
 90
      120
 90
      120
 90
      176
 90
       22
 90
      121
 90
      120
 90
      121
 90
       24
 90
      185
 90
      121
 90
      185
 90
       25
 90
      182
 90
      182
 90
      185
 90
      105
 90
      122
 90
      122
 90
      182
 90
       27
 90
      181
 90
      122
 90
      181
 90
       34
 90
      180
 90
      180
 90
      181
 90
       32
 90
      184
 90
      180
 90
      184
 90
       37
 90
      183
 90
      183
 90
      184
 90
       36
 90
      123
 90
      123
 90
      183
 90
       35
 90
      179
 90
      123
 90
      179
 90
       60
 90
      186
 90
      179
 90
      186
 90
       59
 90
      188
 90
      186
 90
      188
 90
       58
 90
      126
 90
      126
 90
      188
 90
       57
 90
      125
 90
      125
 90
      126
 90
       56
 90
      192
 90
      125
 90
      192
 90
       55
 90
      191
 90
      191
 90
      192
 90
       54
 90
      128
 90
      128
 90
      191
 90
       53
 90
      193
 90
      128
 90
      193
 90
       52
 90
      196
 90
      193
 90
      196
 90
       51
 90
      195
 90
      195
 90
      196
 90
       50
 90
      130
 90
      130
 90
      195
 90
       49
 90
      129
 90
      129
 90
      130
 90
      108
 90
      198
 90
      129
 90
      198
 90
       48
 90
      210
 90
      198
 90
      210
 90
       47
 90
      144
 90
      144
 90
      210
 90
       86
 90
      208
 90
      144
 90
      208
 90
       88
 90
      207
 90
      207
 90
      208
 90
       95
 90
      205
 90
      205
 90
      207
 90
       98
 90
      140
 90
      140
 90
      205
 90
      103
 90
      200
 90
      140
 90
      200
 90
      102
 90
      132
 90
      132
 90
      200
 90
      101
 90
      133
 90
      132
 90
      133
 90
      100
 90
      202
 90
      133
 90
      202
 90
       99
 90
      136
 90
      136
 90
      202
 90
       97
 90
      203
 90
      136
 90
      203
 90
       96
 90
      138
 90
      138
 90
      203
 90
       94
 90
      204
 90
      138
 90
      204
 90
       93
 90
      137
 90
      137
 90
      204
 90
       92
 90
      135
 90
      135
 90
      137
 90
       91
 90
      134
 90
      134
 90
      135
 90
       90
 90
      201
 90
      134
 90
      201
 90
       89
 90
      199
 90
      199
 90
      201
 90
       87
 90
      131
 90
      131
 90
      199
 90
       46
 90
      139
 90
      131
 90
      139
 90
       45
 90
      141
 90
      139
 90
      141
 90
       44
 90
      206
 90
      141
 90
      206
 90
       43
 90
      142
 90
      142
 90
      206
 90
       42
 90
      143
 90
      142
 90
      143
 90
       41
 90
      209
 90
      143
 90
      209
 90
       40
 90
      146
 90
      146
 90
      209
 90
       39
 90
      145
 90
      145
 90
      146
 90
       38
 90
      219
 90
      145
 90
      219
 90
       64
 90
      150
 90
      150
 90
      219
 90
       72
 90
      151
 90
      150
 90
      151
 90
       77
 90
      220
 90
      151
 90
      220
 90
       78
 90
      153
 90
      153
 90
      220
 90
       80
 90
      152
 90
      152
 90
      153
 90
       85
 90
      155
 90
      152
 90
      155
 90
       84
 90
      223
 90
      155
 90
      223
 90
       83
 90
      162
 90
      162
 90
      223
 90
       82
 90
      161
 90
      161
 90
      162
 90
       81
 90
      158
 90
      158
 90
      161
 90
       79
 90
      157
 90
      157
 90
      158
 90
      110
 90
      222
 90
      157
 90
      222
 90
      111
 90
      159
 90
      159
 90
      222
 90
       76
 90
      156
 90
      156
 90
      159
 90
       75
 90
      160
 90
      156
 90
      160
 90
       74
 90
      163
 90
      160
 90
      163
 90
       73
 90
      221
 90
      163
 90
      221
 90
       71
 90
      154
 90
      154
 90
      221
 90
       70
 90
      218
 90
      154
 90
      218
 90
       63
 90
      149
 90
      149
 90
      218
 90
       67
 90
      216
 90
      149
 90
      216
 90
       69
 90
      215
 90
      215
 90
      216
 90
       68
 90
      214
 90
      214
 90
      215
 90
      109
 90
      213
 90
      213
 90
      214
 90
       61
 90
      147
 90
      147
 90
      213
 90
      147
 90
      212
 90
      164
 90
      165
 90
      166
 90
      167
 90
      113
 90
      167
 90
      168
 90
      169
 90
      169
 90
      170
 90
      171
 90
      172
 90
      172
 90
      173
 90
      114
 90
      115
 90
      115
 90
      116
 90
      117
 90
      174
 90
      117
 90
      118
 90
      175
 90
      176
 90
      176
 90
      177
 90
      119
 90
      120
 90
      120
 90
      178
 90
      121
 90
      179
 90
      178
 90
      179
 90
      180
 90
      182
 90
      183
 90
      185
 90
      184
 90
      185
 90
      121
 90
      123
 90
      124
 90
      186
 90
      187
 90
      188
 90
      126
 90
      187
 90
      125
 90
      189
 90
      189
 90
      192
 90
      190
 90
      191
 90
      128
 90
      190
 90
      127
 90
      193
 90
      127
 90
      196
 90
      194
 90
      195
 90
      130
 90
      194
 90
      129
 90
      197
 90
      197
 90
      198
 90
      131
 90
      200
 90
      132
 90
      199
 90
      133
 90
      201
 90
      134
 90
      202
 90
      135
 90
      136
 90
      137
 90
      203
 90
      139
 90
      140
 90
      141
 90
      205
 90
      206
 90
      207
 90
      142
 90
      208
 90
      143
 90
      144
 90
      209
 90
      210
 90
      146
 90
      197
 90
      145
 90
      211
 90
      146
 90
      198
 90
      212
 90
      213
 90
      212
 90
      214
 90
      148
 90
      215
 90
      148
 90
      216
 90
      149
 90
      217
 90
      211
 90
      218
 90
      211
 90
      219
 90
      150
 90
      211
 90
      151
 90
      211
 90
      211
 90
      220
 90
      153
 90
      211
 90
      152
 90
      211
 90
      152
 90
      154
 90
      155
 90
      221
 90
      156
 90
      158
 90
      156
 90
      157
 90
      160
 90
      161
 90
      160
 90
      162
 90
      163
 90
      223
 95
      472
140
0.0
140
0.0
140
0.0
140
0.0
140
0.0
140
0.0
140
0.0
140
0.0
140
0.0
140
0.0
140
0.0
140
0.0
140
0.0
140
0.0
140
0.0
140
0.0
140
0.0
140
0.0
140
0.0
140
0.0
140
0.0
140
0.0
140
0.0
140
0.0
140
0.0
140
0.0
140
0.0
140
0.0
140
0.0
140
0.0
140
0.0
140
0.0
140
0.0
140
0.0
140
0.0
140
0.0
140
0.0
140
0.0
140
0.0
140
0.0
140
0.0
140
0.0
140
0.0
140
0.0
140
0.0
140
0.0
140
0.0
140
0.0
140
0.0
140
0.0
140
0.0
140
0.0
140
0.0
140
0.0
140
0.0
140
0.0
140
0.0
140
0.0
140
0.0
140
0.0
140
0.0
140
0.0
140
0.0
140
0.0
140
0.0
140
0.0
140
0.0
140
0.0
140
0.0
140
0.0
140
0.0
140
0.0
140
0.0
140
0.0
140
0.0
140
0.0
140
0.0
140
0.0
140
0.0
140
0.0
140
0.0
140
0.0
140
0.0
140
0.0
140
0.0
140
0.0
140
0.0
140
0.0
140
0.0
140
0.0
140
0.0
140
0.0
140
0.0
140
0.0
140
0.0
140
0.0
140
0.0
140
0.0
140
0.0
140
0.0
140
0.0
140
0.0
140
0.0
140
0.0
140
0.0
140
0.0
140
0.0
140
0.0
140
0.0
140
0.0
140
0.0
140
0.0
140
0.0
140
0.0
140
0.0
140
0.0
140
0.0
140
0.0
140
0.0
140
0.0
140
0.0
140
0.0
140
0.0
140
0.0
140
0.0
140
0.0
140
0.0
140
0.0
140
0.0
140
0.0
140
0.0
140
0.0
140
0.0
140
0.0
140
0.0
140
0.0
140
0.0
140
0.0
140
0.0
140
0.0
140
0.0
140
0.0
140
0.0
140
0.0
140
0.0
140
0.0
140
0.0
140
0.0
140
0.0
140
0.0
140
0.0
140
0.0
140
0.0
140
0.0
140
0.0
140
0.0
140
0.0
140
0.0
140
0.0
140
0.0
140
0.0
140
0.0
140
0.0
140
0.0
140
0.0
140
0.0
140
0.0
140
0.0
140
0.0
140
0.0
140
0.0
140
0.0
140
0.0
140
0.0
140
0.0
140
0.0
140
0.0
140
0.0
140
0.0
140
0.0
140
0.0
140
0.0
140
0.0
140
0.0
140
0.0
140
0.0
140
0.0
140
0.0
140
0.0
140
0.0
140
0.0
140
0.0
140
0.0
140
0.0
140
0.0
140
0.0
140
0.0
140
0.0
140
0.0
140
0.0
140
0.0
140
0.0
140
0.0
140
0.0
140
0.0
140
0.0
140
0.0
140
0.0
140
0.0
140
0.0
140
0.0
140
0.0
140
0.0
140
0.0
140
0.0
140
0.0
140
0.0
140
0.0
140
0.0
140
0.0
140
0.0
140
0.0
140
0.0
140
0.0
140
0.0
140
0.0
140
0.0
140
0.0
140
0.0
140
0.0
140
0.0
140
0.0
140
0.0
140
0.0
140
0.0
140
0.0
140
0.0
140
0.0
140
0.0
140
0.0
140
0.0
140
0.0
140
0.0
140
0.0
140
0.0
140
0.0
140
0.0
140
0.0
140
0.0
140
0.0
140
0.0
140
0.0
140
0.0
140
0.0
140
0.0
140
0.0
140
0.0
140
0.0
140
0.0
140
0.0
140
0.0
140
0.0
140
0.0
140
0.0
140
0.0
140
0.0
140
0.0
140
0.0
140
0.0
140
0.0
140
0.0
140
0.0
140
0.0
140
0.0
140
0.0
140
0.0
140
0.0
140
0.0
140
0.0
140
0.0
140
0.0
140
0.0
140
0.0
140
0.0
140
0.0
140
0.0
140
0.0
140
0.0
140
0.0
140
0.0
140
0.0
140
0.0
140
0.0
140
0.0
140
0.0
140
0.0
140
0.0
140
0.0
140
0.0
140
0.0
140
0.0
140
0.0
140
0.0
140
0.0
140
0.0
140
0.0
140
0.0
140
0.0
140
0.0
140
0.0
140
0.0
140
0.0
140
0.0
140
0.0
140
0.0
140
0.0
140
0.0
140
0.0
140
0.0
140
0.0
140
0.0
140
0.0
140
0.0
140
0.0
140
0.0
140
0.0
140
0.0
140
0.0
140
0.0
140
0.0
140
0.0
140
0.0
140
0.0
140
0.0
140
0.0
140
0.0
140
0.0
140
0.0
140
0.0
140
0.0
140
0.0
140
0.0
140
0.0
140
0.0
140
0.0
140
0.0
140
0.0
140
0.0
140
0.0
140
0.0
140
0.0
140
0.0
140
0.0
140
0.0
140
0.0
140
0.0
140
0.0
140
0.0
140
0.0
140
0.0
140
0.0
140
0.0
140
0.0
140
0.0
140
0.0
140
0.0
140
0.0
140
0.0
140
0.0
140
0.0
140
0.0
140
0.0
140
0.0
140
0.0
140
0.0
140
0.0
140
0.0
140
0.0
140
0.0
140
0.0
140
0.0
140
0.0
140
0.0
140
0.0
140
0.0
140
0.0
140
0.0
140
0.0
140
0.0
140
0.0
140
0.0
140
0.0
140
0.0
140
0.0
140
0.0
140
0.0
140
0.0
140
0.0
140
0.0
140
0.0
140
0.0
140
0.0
140
0.0
140
0.0
140
0.0
140
0.0
140
0.0
140
0.0
140
0.0
140
0.0
140
0.0
140
0.0
140
0.0
140
0.0
140
0.0
140
0.0
140
0.0
140
0.0
140
0.0
140
0.0
140
0.0
140
0.0
140
0.0
140
0.0
140
0.0
140
0.0
140
0.0
140
0.0
140
0.0
140
0.0
140
0.0
140
0.0
140
0.0
140
0.0
140
0.0
140
0.0
140
0.0
140
0.0
140
0.0
140
0.0
140
0.0
140
0.0
140
0.0
140
0.0
140
0.0
140
0.0
140
0.0
140
0.0
140
0.0
140
0.0
140
0.0
140
0.0
140
0.0
140
0.0
140
0.0
140
0.0
140
0.0
140
0.0
140
0.0
140
0.0
140
0.0
140
0.0
140
0.0
140
0.0
140
0.0
140
0.0
140
0.0
140
0.0
140
0.0
140
0.0
140
0.0
140
0.0
 90
        0
  0
POLYLINE
  5
FA
330
1F
100
AcDbEntity
  8
OracDecor_cornice_mouldings
 62
    76
420
  4032262
100
AcDb3dPolyline
 66
     1
 10
0.0
 20
0.0
 30
0.0
 70
     9
  0
VERTEX
  5
FB
330
FA
100
AcDbEntity
  8
OracDecor_cornice_mouldings
 62
    76
420
  4032262
100
AcDbVertex
100
AcDb3dPolylineVertex
 10
0.0000038632379074
 20
70.54127502441406
 30
-0.000001079374556
 70
    32
  0
VERTEX
  5
FC
330
FA
100
AcDbEntity
  8
OracDecor_cornice_mouldings
 62
    76
420
  4032262
100
AcDbVertex
100
AcDb3dPolylineVertex
 10
0.0000045896540541
 20
74.99998474121094
 30
0.000002735322596
 70
    32
  0
VERTEX
  5
FD
330
FA
100
AcDbEntity
  8
OracDecor_cornice_mouldings
 62
    76
420
  4032262
100
AcDbVertex
100
AcDb3dPolylineVertex
 10
0.0000046182312872
 20
74.97089385986328
 30
-0.7622004747390747
 70
    32
  0
VERTEX
  5
FE
330
FA
100
AcDbEntity
  8
OracDecor_cornice_mouldings
 62
    76
420
  4032262
100
AcDbVertex
100
AcDb3dPolylineVertex
 10
0.000004639296094
 20
74.83070373535156
 30
-1.766614079475402
 70
    32
  0
VERTEX
  5
FF
330
FA
100
AcDbEntity
  8
OracDecor_cornice_mouldings
 62
    76
420
  4032262
100
AcDbVertex
100
AcDb3dPolylineVertex
 10
0.0000046453269533
 20
74.64115905761719
 30
-2.611039400100708
 70
    32
  0
VERTEX
  5
100
330
FA
100
AcDbEntity
  8
OracDecor_cornice_mouldings
 62
    76
420
  4032262
100
AcDbVertex
100
AcDb3dPolylineVertex
 10
0.0000046403674787
 20
74.375244140625
 30
-3.488702058792114
 70
    32
  0
VERTEX
  5
101
330
FA
100
AcDbEntity
  8
OracDecor_cornice_mouldings
 62
    76
420
  4032262
100
AcDbVertex
100
AcDb3dPolylineVertex
 10
0.0000046234090405
 20
74.02694702148437
 30
-4.398907661437988
 70
    32
  0
VERTEX
  5
102
330
FA
100
AcDbEntity
  8
OracDecor_cornice_mouldings
 62
    76
420
  4032262
100
AcDbVertex
100
AcDb3dPolylineVertex
 10
0.0000045940305426
 20
73.59555053710938
 30
-5.334691047668457
 70
    32
  0
VERTEX
  5
103
330
FA
100
AcDbEntity
  8
OracDecor_cornice_mouldings
 62
    76
420
  4032262
100
AcDbVertex
100
AcDb3dPolylineVertex
 10
0.000004550194717
 20
73.07119750976562
 30
-6.286221504211425
 70
    32
  0
VERTEX
  5
104
330
FA
100
AcDbEntity
  8
OracDecor_cornice_mouldings
 62
    76
420
  4032262
100
AcDbVertex
100
AcDb3dPolylineVertex
 10
0.0000044924108806
 20
72.45889282226563
 30
-7.246476173400878
 70
    32
  0
VERTEX
  5
105
330
FA
100
AcDbEntity
  8
OracDecor_cornice_mouldings
 62
    76
420
  4032262
100
AcDbVertex
100
AcDb3dPolylineVertex
 10
0.00000442230521
 20
71.78461456298828
 30
-8.155797004699707
 70
    32
  0
VERTEX
  5
106
330
FA
100
AcDbEntity
  8
OracDecor_cornice_mouldings
 62
    76
420
  4032262
100
AcDbVertex
100
AcDb3dPolylineVertex
 10
0.0000043396885303
 20
71.04734802246094
 30
-9.013672828674316
 70
    32
  0
VERTEX
  5
107
330
FA
100
AcDbEntity
  8
OracDecor_cornice_mouldings
 62
    76
420
  4032262
100
AcDbVertex
100
AcDb3dPolylineVertex
 10
0.000008064429494
 20
70.28880310058593
 30
-9.782963752746582
 70
    32
  0
VERTEX
  5
108
330
FA
100
AcDbEntity
  8
OracDecor_cornice_mouldings
 62
    76
420
  4032262
100
AcDbVertex
100
AcDb3dPolylineVertex
 10
0.0000079682104115
 20
69.51903533935547
 30
-10.45079517364502
 70
    32
  0
VERTEX
  5
109
330
FA
100
AcDbEntity
  8
OracDecor_cornice_mouldings
 62
    76
420
  4032262
100
AcDbVertex
100
AcDb3dPolylineVertex
 10
0.0000078670300354
 20
68.74282836914062
 30
-11.02913379669189
 70
    32
  0
VERTEX
  5
10A
330
FA
100
AcDbEntity
  8
OracDecor_cornice_mouldings
 62
    76
420
  4032262
100
AcDbVertex
100
AcDb3dPolylineVertex
 10
0.0000077625136328
 20
67.9703369140625
 30
-11.51730442047119
 70
    32
  0
VERTEX
  5
10B
330
FA
100
AcDbEntity
  8
OracDecor_cornice_mouldings
 62
    76
420
  4032262
100
AcDbVertex
100
AcDb3dPolylineVertex
 10
0.0000076533688116
 20
67.19107055664062
 30
-11.92482471466064
 70
    32
  0
VERTEX
  5
10C
330
FA
100
AcDbEntity
  8
OracDecor_cornice_mouldings
 62
    76
420
  4032262
100
AcDbVertex
100
AcDb3dPolylineVertex
 10
0.0000075394573287
 20
66.40135192871094
 30
-12.26226902008056
 70
    32
  0
VERTEX
  5
10D
330
FA
100
AcDbEntity
  8
OracDecor_cornice_mouldings
 62
    76
420
  4032262
100
AcDbVertex
100
AcDb3dPolylineVertex
 10
0.0000074194704212
 20
65.59300231933594
 30
-12.53015232086182
 70
    32
  0
VERTEX
  5
10E
330
FA
100
AcDbEntity
  8
OracDecor_cornice_mouldings
 62
    76
420
  4032262
100
AcDbVertex
100
AcDb3dPolylineVertex
 10
0.0000034754139051
 20
64.74403381347656
 30
-12.73504161834717
 70
    32
  0
VERTEX
  5
10F
330
FA
100
AcDbEntity
  8
OracDecor_cornice_mouldings
 62
    76
420
  4032262
100
AcDbVertex
100
AcDb3dPolylineVertex
 10
0.0000033368596632
 20
63.85539627075195
 30
-12.87740421295166
 70
    32
  0
VERTEX
  5
110
330
FA
100
AcDbEntity
  8
OracDecor_cornice_mouldings
 62
    76
420
  4032262
100
AcDbVertex
100
AcDb3dPolylineVertex
 10
0.0000031875060813
 20
62.91456985473633
 30
-12.96724605560303
 70
    32
  0
VERTEX
  5
111
330
FA
100
AcDbEntity
  8
OracDecor_cornice_mouldings
 62
    76
420
  4032262
100
AcDbVertex
100
AcDb3dPolylineVertex
 10
0.0000030272776712
 20
61.92096328735352
 30
-13.00499248504638
 70
    32
  0
VERTEX
  5
112
330
FA
100
AcDbEntity
  8
OracDecor_cornice_mouldings
 62
    76
420
  4032262
100
AcDbVertex
100
AcDb3dPolylineVertex
 10
0.0000029004386306
 20
61.14377593994141
 30
-12.99999904632568
 70
    32
  0
VERTEX
  5
113
330
FA
100
AcDbEntity
  8
OracDecor_cornice_mouldings
 62
    76
420
  4032262
100
AcDbVertex
100
AcDb3dPolylineVertex
 10
-0.0000032138675579
 20
0.1999838650226593
 30
-13.00000476837158
 70
    32
  0
VERTEX
  5
114
330
FA
100
AcDbEntity
  8
OracDecor_cornice_mouldings
 62
    76
420
  4032262
100
AcDbVertex
100
AcDb3dPolylineVertex
 10
-0.0000032313025713
 20
0.1001570522785187
 30
-12.97321033477783
 70
    32
  0
VERTEX
  5
115
330
FA
100
AcDbEntity
  8
OracDecor_cornice_mouldings
 62
    76
420
  4032262
100
AcDbVertex
100
AcDb3dPolylineVertex
 10
-0.0000032464652122
 20
0.0267775319516659
 30
-12.89982891082763
 70
    32
  0
VERTEX
  5
116
330
FA
100
AcDbEntity
  8
OracDecor_cornice_mouldings
 62
    76
420
  4032262
100
AcDbVertex
100
AcDb3dPolylineVertex
 10
-0.0000032551940876
 20
-0.0000169011655089
 30
-12.80000400543213
 70
    32
  0
VERTEX
  5
117
330
FA
100
AcDbEntity
  8
OracDecor_cornice_mouldings
 62
    76
420
  4032262
100
AcDbVertex
100
AcDb3dPolylineVertex
 10
-0.0000000000025396
 20
-0.0000169011655089
 30
-0.0000048940714805
 70
    32
  0
VERTEX
  5
118
330
FA
100
AcDbEntity
  8
OracDecor_cornice_mouldings
 62
    76
420
  4032262
100
AcDbVertex
100
AcDb3dPolylineVertex
 10
0.0000006042236009
 20
3.708696603775024
 30
-0.0000048940714805
 70
    32
  0
VERTEX
  5
119
330
FA
100
AcDbEntity
  8
OracDecor_cornice_mouldings
 62
    76
420
  4032262
100
AcDbVertex
100
AcDb3dPolylineVertex
 10
0.000000662348782
 20
4.047651767730712
 30
-0.0664035156369209
 70
    32
  0
VERTEX
  5
11A
330
FA
100
AcDbEntity
  8
OracDecor_cornice_mouldings
 62
    76
420
  4032262
100
AcDbVertex
100
AcDb3dPolylineVertex
 10
0.000000735347669
 20
4.428774356842041
 30
-0.3159075975418091
 70
    32
  0
VERTEX
  5
11B
330
FA
100
AcDbEntity
  8
OracDecor_cornice_mouldings
 62
    76
420
  4032262
100
AcDbVertex
100
AcDb3dPolylineVertex
 10
0.0000007985041179
 20
4.703344821929931
 30
-0.7373820543289185
 70
    32
  0
VERTEX
  5
11C
330
FA
100
AcDbEntity
  8
OracDecor_cornice_mouldings
 62
    76
420
  4032262
100
AcDbVertex
100
AcDb3dPolylineVertex
 10
0.000000886433952
 20
5.118139743804931
 30
-1.202962040901184
 70
    32
  0
VERTEX
  5
11D
330
FA
100
AcDbEntity
  8
OracDecor_cornice_mouldings
 62
    76
420
  4032262
100
AcDbVertex
100
AcDb3dPolylineVertex
 10
0.0000009903284308
 20
5.687288761138916
 30
-1.458462834358215
 70
    32
  0
VERTEX
  5
11E
330
FA
100
AcDbEntity
  8
OracDecor_cornice_mouldings
 62
    76
420
  4032262
100
AcDbVertex
100
AcDb3dPolylineVertex
 10
0.0000010922173033
 20
6.312677860260009
 30
-1.458462834358215
 70
    32
  0
VERTEX
  5
11F
330
FA
100
AcDbEntity
  8
OracDecor_cornice_mouldings
 62
    76
420
  4032262
100
AcDbVertex
100
AcDb3dPolylineVertex
 10
0.0000011737751038
 20
6.881826877593994
 30
-1.202962040901184
 70
    32
  0
VERTEX
  5
120
330
FA
100
AcDbEntity
  8
OracDecor_cornice_mouldings
 62
    76
420
  4032262
100
AcDbVertex
100
AcDb3dPolylineVertex
 10
0.0000012210026625
 20
7.296621799468994
 30
-0.7373820543289185
 70
    32
  0
VERTEX
  5
121
330
FA
100
AcDbEntity
  8
OracDecor_cornice_mouldings
 62
    76
420
  4032262
100
AcDbVertex
100
AcDb3dPolylineVertex
 10
0.0000012473125253
 20
7.571192264556884
 30
-0.3159075975418091
 70
    32
  0
VERTEX
  5
122
330
FA
100
AcDbEntity
  8
OracDecor_cornice_mouldings
 62
    76
420
  4032262
100
AcDbVertex
100
AcDb3dPolylineVertex
 10
0.0000012984991145
 20
7.952314853668212
 30
-0.0664035156369209
 70
    32
  0
VERTEX
  5
123
330
FA
100
AcDbEntity
  8
OracDecor_cornice_mouldings
 62
    76
420
  4032262
100
AcDbVertex
100
AcDb3dPolylineVertex
 10
0.0000013508195025
 20
8.291269302368164
 30
-0.0000048940714805
 70
    32
  0
VERTEX
  5
124
330
FA
100
AcDbEntity
  8
OracDecor_cornice_mouldings
 62
    76
420
  4032262
100
AcDbVertex
100
AcDb3dPolylineVertex
 10
0.0000017921249764
 20
10.9999828338623
 30
-0.0000048940714805
 70
    32
  0
VERTEX
  5
125
330
FA
100
AcDbEntity
  8
OracDecor_cornice_mouldings
 62
    76
420
  4032262
100
AcDbVertex
100
AcDb3dPolylineVertex
 10
0.0000018359221485
 20
11.25959968566894
 30
-0.0343257263302803
 70
    32
  0
VERTEX
  5
126
330
FA
100
AcDbEntity
  8
OracDecor_cornice_mouldings
 62
    76
420
  4032262
100
AcDbVertex
100
AcDb3dPolylineVertex
 10
0.0000018794966081
 20
11.5002269744873
 30
-0.1343280076980591
 70
    32
  0
VERTEX
  5
127
330
FA
100
AcDbEntity
  8
OracDecor_cornice_mouldings
 62
    76
420
  4032262
100
AcDbVertex
100
AcDb3dPolylineVertex
 10
0.0000019201111172
 20
11.70693016052246
 30
-0.2930575609207153
 70
    32
  0
VERTEX
  5
128
330
FA
100
AcDbEntity
  8
OracDecor_cornice_mouldings
 62
    76
420
  4032262
100
AcDbVertex
100
AcDb3dPolylineVertex
 10
0.0000019550066099
 20
11.86565971374512
 30
-0.4997607469558716
 70
    32
  0
VERTEX
  5
129
330
FA
100
AcDbEntity
  8
OracDecor_cornice_mouldings
 62
    76
420
  4032262
100
AcDbVertex
100
AcDb3dPolylineVertex
 10
0.0000019818173769
 20
11.96566200256347
 30
-0.740388035774231
 70
    32
  0
VERTEX
  5
12A
330
FA
100
AcDbEntity
  8
OracDecor_cornice_mouldings
 62
    76
420
  4032262
100
AcDbVertex
100
AcDb3dPolylineVertex
 10
0.0000019987571704
 20
11.9999828338623
 30
-1.000004887580871
 70
    32
  0
VERTEX
  5
12B
330
FA
100
AcDbEntity
  8
OracDecor_cornice_mouldings
 62
    76
420
  4032262
100
AcDbVertex
100
AcDb3dPolylineVertex
 10
0.0000021517469122
 20
11.9999828338623
 30
-4.500004768371582
 70
    32
  0
VERTEX
  5
12C
330
FA
100
AcDbEntity
  8
OracDecor_cornice_mouldings
 62
    76
420
  4032262
100
AcDbVertex
100
AcDb3dPolylineVertex
 10
0.0000021686864784
 20
12.03430366516113
 30
-4.759617805480957
 70
    32
  0
VERTEX
  5
12D
330
FA
100
AcDbEntity
  8
OracDecor_cornice_mouldings
 62
    76
420
  4032262
100
AcDbVertex
100
AcDb3dPolylineVertex
 10
0.0000021954972453
 20
12.13430595397949
 30
-5.000248908996582
 70
    32
  0
VERTEX
  5
12E
330
FA
100
AcDbEntity
  8
OracDecor_cornice_mouldings
 62
    76
420
  4032262
100
AcDbVertex
100
AcDb3dPolylineVertex
 10
0.0000022303929654
 20
12.29303550720215
 30
-5.206952095031738
 70
    32
  0
VERTEX
  5
12F
330
FA
100
AcDbEntity
  8
OracDecor_cornice_mouldings
 62
    76
420
  4032262
100
AcDbVertex
100
AcDb3dPolylineVertex
 10
0.0000022710073608
 20
12.4997386932373
 30
-5.365681648254394
 70
    32
  0
VERTEX
  5
130
330
FA
100
AcDbEntity
  8
OracDecor_cornice_mouldings
 62
    76
420
  4032262
100
AcDbVertex
100
AcDb3dPolylineVertex
 10
0.0000023145817067
 20
12.74036598205566
 30
-5.465683937072753
 70
    32
  0
VERTEX
  5
131
330
FA
100
AcDbEntity
  8
OracDecor_cornice_mouldings
 62
    76
420
  4032262
100
AcDbVertex
100
AcDb3dPolylineVertex
 10
0.0000023583788789
 20
12.9999828338623
 30
-5.500004768371582
 70
    32
  0
VERTEX
  5
132
330
FA
100
AcDbEntity
  8
OracDecor_cornice_mouldings
 62
    76
420
  4032262
100
AcDbVertex
100
AcDb3dPolylineVertex
 10
0.0000028610793379
 20
39.49998092651367
 30
-5.500000953674316
 70
    32
  0
VERTEX
  5
133
330
FA
100
AcDbEntity
  8
OracDecor_cornice_mouldings
 62
    76
420
  4032262
100
AcDbVertex
100
AcDb3dPolylineVertex
 10
0.000002901876087
 20
39.75959777832031
 30
-5.465680122375488
 70
    32
  0
VERTEX
  5
134
330
FA
100
AcDbEntity
  8
OracDecor_cornice_mouldings
 62
    76
420
  4032262
100
AcDbVertex
100
AcDb3dPolylineVertex
 10
0.0000029367083698
 20
40.00022506713867
 30
-5.365681648254394
 70
    32
  0
VERTEX
  5
135
330
FA
100
AcDbEntity
  8
OracDecor_cornice_mouldings
 62
    76
420
  4032262
100
AcDbVertex
100
AcDb3dPolylineVertex
 10
0.0000029634456951
 20
40.20692825317382
 30
-5.206948280334472
 70
    32
  0
VERTEX
  5
136
330
FA
100
AcDbEntity
  8
OracDecor_cornice_mouldings
 62
    76
420
  4032262
100
AcDbVertex
100
AcDb3dPolylineVertex
 10
0.000002980271347
 20
40.36565780639648
 30
-5.000248908996582
 70
    32
  0
VERTEX
  5
137
330
FA
100
AcDbEntity
  8
OracDecor_cornice_mouldings
 62
    76
420
  4032262
100
AcDbVertex
100
AcDb3dPolylineVertex
 10
0.0000029860452742
 20
40.46566009521484
 30
-4.759617805480957
 70
    32
  0
VERTEX
  5
138
330
FA
100
AcDbEntity
  8
OracDecor_cornice_mouldings
 62
    76
420
  4032262
100
AcDbVertex
100
AcDb3dPolylineVertex
 10
0.0000029802886274
 20
40.49998092651367
 30
-4.500000953674316
 70
    32
  0
VERTEX
  5
139
330
FA
100
AcDbEntity
  8
OracDecor_cornice_mouldings
 62
    76
420
  4032262
100
AcDbVertex
100
AcDb3dPolylineVertex
 10
0.0000028272984309
 20
40.49998092651367
 30
-1.000001072883605
 70
    32
  0
VERTEX
  5
13A
330
FA
100
AcDbEntity
  8
OracDecor_cornice_mouldings
 62
    76
420
  4032262
100
AcDbVertex
100
AcDb3dPolylineVertex
 10
0.000002821542239
 20
40.5343017578125
 30
-0.740388035774231
 70
    32
  0
VERTEX
  5
13B
330
FA
100
AcDbEntity
  8
OracDecor_cornice_mouldings
 62
    76
420
  4032262
100
AcDbVertex
100
AcDb3dPolylineVertex
 10
0.0000028273166208
 20
40.63430404663086
 30
-0.499756932258606
 70
    32
  0
VERTEX
  5
13C
330
FA
100
AcDbEntity
  8
OracDecor_cornice_mouldings
 62
    76
420
  4032262
100
AcDbVertex
100
AcDb3dPolylineVertex
 10
0.0000028441413633
 20
40.79303359985352
 30
-0.2930537462234497
 70
    32
  0
VERTEX
  5
13D
330
FA
100
AcDbEntity
  8
OracDecor_cornice_mouldings
 62
    76
420
  4032262
100
AcDbVertex
100
AcDb3dPolylineVertex
 10
0.000002870879598
 20
40.99973678588867
 30
-0.1343241930007935
 70
    32
  0
VERTEX
  5
13E
330
FA
100
AcDbEntity
  8
OracDecor_cornice_mouldings
 62
    76
420
  4032262
100
AcDbVertex
100
AcDb3dPolylineVertex
 10
0.0000029057114261
 20
41.24036407470703
 30
-0.0343219116330147
 70
    32
  0
VERTEX
  5
13F
330
FA
100
AcDbEntity
  8
OracDecor_cornice_mouldings
 62
    76
420
  4032262
100
AcDbVertex
100
AcDb3dPolylineVertex
 10
0.0000029465081752
 20
41.49998092651367
 30
-0.0000010793743286
 70
    32
  0
VERTEX
  5
140
330
FA
100
AcDbEntity
  8
OracDecor_cornice_mouldings
 62
    76
420
  4032262
100
AcDbVertex
100
AcDb3dPolylineVertex
 10
0.0000031094286896
 20
42.49998092651367
 30
-0.0000010793743286
 70
    32
  0
VERTEX
  5
141
330
FA
100
AcDbEntity
  8
OracDecor_cornice_mouldings
 62
    76
420
  4032262
100
AcDbVertex
100
AcDb3dPolylineVertex
 10
0.0000031532258618
 20
42.75959777832031
 30
-0.0343219116330147
 70
    32
  0
VERTEX
  5
142
330
FA
100
AcDbEntity
  8
OracDecor_cornice_mouldings
 62
    76
420
  4032262
100
AcDbVertex
100
AcDb3dPolylineVertex
 10
0.0000031968006624
 20
43.00022506713867
 30
-0.1343241930007935
 70
    32
  0
VERTEX
  5
143
330
FA
100
AcDbEntity
  8
OracDecor_cornice_mouldings
 62
    76
420
  4032262
100
AcDbVertex
100
AcDb3dPolylineVertex
 10
0.0000032374150578
 20
43.20692825317382
 30
-0.2930537462234497
 70
    32
  0
VERTEX
  5
144
330
FA
100
AcDbEntity
  8
OracDecor_cornice_mouldings
 62
    76
420
  4032262
100
AcDbVertex
100
AcDb3dPolylineVertex
 10
0.0000032723105505
 20
43.36565780639648
 30
-0.499756932258606
 70
    32
  0
VERTEX
  5
145
330
FA
100
AcDbEntity
  8
OracDecor_cornice_mouldings
 62
    76
420
  4032262
100
AcDbVertex
100
AcDb3dPolylineVertex
 10
0.0000032991210901
 20
43.46566009521484
 30
-0.740388035774231
 70
    32
  0
VERTEX
  5
146
330
FA
100
AcDbEntity
  8
OracDecor_cornice_mouldings
 62
    76
420
  4032262
100
AcDbVertex
100
AcDb3dPolylineVertex
 10
0.0000033160604289
 20
43.49998092651367
 30
-1.000001072883605
 70
    32
  0
VERTEX
  5
147
330
FA
100
AcDbEntity
  8
OracDecor_cornice_mouldings
 62
    76
420
  4032262
100
AcDbVertex
100
AcDb3dPolylineVertex
 10
0.0000034690506254
 20
43.49998092651367
 30
-4.500000953674316
 70
    32
  0
VERTEX
  5
148
330
FA
100
AcDbEntity
  8
OracDecor_cornice_mouldings
 62
    76
420
  4032262
100
AcDbVertex
100
AcDb3dPolylineVertex
 10
0.000003485990419
 20
43.5343017578125
 30
-4.759617805480957
 70
    32
  0
VERTEX
  5
149
330
FA
100
AcDbEntity
  8
OracDecor_cornice_mouldings
 62
    76
420
  4032262
100
AcDbVertex
100
AcDb3dPolylineVertex
 10
0.0000035128009586
 20
43.63430404663086
 30
-5.000245094299316
 70
    32
  0
VERTEX
  5
14A
330
FA
100
AcDbEntity
  8
OracDecor_cornice_mouldings
 62
    76
420
  4032262
100
AcDbVertex
100
AcDb3dPolylineVertex
 10
0.0000073623937169
 20
43.79303359985351
 30
-5.206948280334472
 70
    32
  0
VERTEX
  5
14B
330
FA
100
AcDbEntity
  8
OracDecor_cornice_mouldings
 62
    76
420
  4032262
100
AcDbVertex
100
AcDb3dPolylineVertex
 10
0.0000074030085671
 20
43.99973678588867
 30
-5.365677833557128
 70
    32
  0
VERTEX
  5
14C
330
FA
100
AcDbEntity
  8
OracDecor_cornice_mouldings
 62
    76
420
  4032262
100
AcDbVertex
100
AcDb3dPolylineVertex
 10
0.000007446582913
 20
44.24036407470703
 30
-5.465680122375488
 70
    32
  0
VERTEX
  5
14D
330
FA
100
AcDbEntity
  8
OracDecor_cornice_mouldings
 62
    76
420
  4032262
100
AcDbVertex
100
AcDb3dPolylineVertex
 10
0.0000074903800851
 20
44.49998092651367
 30
-5.500000953674316
 70
    32
  0
VERTEX
  5
14E
330
FA
100
AcDbEntity
  8
OracDecor_cornice_mouldings
 62
    76
420
  4032262
100
AcDbVertex
100
AcDb3dPolylineVertex
 10
0.0000054347246987
 20
55.29689788818359
 30
-5.500000953674316
 70
    32
  0
VERTEX
  5
14F
330
FA
100
AcDbEntity
  8
OracDecor_cornice_mouldings
 62
    76
420
  4032262
100
AcDbVertex
100
AcDb3dPolylineVertex
 10
0.0000055419186538
 20
55.96491622924805
 30
-5.46248722076416
 70
    32
  0
VERTEX
  5
150
330
FA
100
AcDbEntity
  8
OracDecor_cornice_mouldings
 62
    76
420
  4032262
100
AcDbVertex
100
AcDb3dPolylineVertex
 10
0.0000056435510487
 20
56.61819839477539
 30
-5.352681159973144
 70
    32
  0
VERTEX
  5
151
330
FA
100
AcDbEntity
  8
OracDecor_cornice_mouldings
 62
    76
420
  4032262
100
AcDbVertex
100
AcDb3dPolylineVertex
 10
0.0000057400720834
 20
57.25974655151367
 30
-5.169636726379394
 70
    32
  0
VERTEX
  5
152
330
FA
100
AcDbEntity
  8
OracDecor_cornice_mouldings
 62
    76
420
  4032262
100
AcDbVertex
100
AcDb3dPolylineVertex
 10
0.0000020145898816
 20
57.87490844726562
 30
-4.917824745178222
 70
    32
  0
VERTEX
  5
153
330
FA
100
AcDbEntity
  8
OracDecor_cornice_mouldings
 62
    76
420
  4032262
100
AcDbVertex
100
AcDb3dPolylineVertex
 10
0.0000020960596885
 20
58.46081924438476
 30
-4.597821235656738
 70
    32
  0
VERTEX
  5
154
330
FA
100
AcDbEntity
  8
OracDecor_cornice_mouldings
 62
    76
420
  4032262
100
AcDbVertex
100
AcDb3dPolylineVertex
 10
0.0000021680834834
 20
59.00516128540039
 30
-4.21667194366455
 70
    32
  0
VERTEX
  5
155
330
FA
100
AcDbEntity
  8
OracDecor_cornice_mouldings
 62
    76
420
  4032262
100
AcDbVertex
100
AcDb3dPolylineVertex
 10
0.0000022304402592
 20
59.50625991821289
 30
-3.77554440498352
 70
    32
  0
VERTEX
  5
156
330
FA
100
AcDbEntity
  8
OracDecor_cornice_mouldings
 62
    76
420
  4032262
100
AcDbVertex
100
AcDb3dPolylineVertex
 10
0.0000022817657737
 20
59.95328140258789
 30
-3.28360104560852
 70
    32
  0
VERTEX
  5
157
330
FA
100
AcDbEntity
  8
OracDecor_cornice_mouldings
 62
    76
420
  4032262
100
AcDbVertex
100
AcDb3dPolylineVertex
 10
0.0000023219226932
 20
60.34470748901367
 30
-2.743352174758911
 70
    32
  0
VERTEX
  5
158
330
FA
100
AcDbEntity
  8
OracDecor_cornice_mouldings
 62
    76
420
  4032262
100
AcDbVertex
100
AcDb3dPolylineVertex
 10
0.000002349944225
 20
60.67132949829101
 30
-2.167020082473754
 70
    32
  0
VERTEX
  5
159
330
FA
100
AcDbEntity
  8
OracDecor_cornice_mouldings
 62
    76
420
  4032262
100
AcDbVertex
100
AcDb3dPolylineVertex
 10
0.0000023660322768
 20
60.93505477905273
 30
-1.55212128162384
 70
    32
  0
VERTEX
  5
15A
330
FA
100
AcDbEntity
  8
OracDecor_cornice_mouldings
 62
    76
420
  4032262
100
AcDbVertex
100
AcDb3dPolylineVertex
 10
0.0000023799684641
 20
61.26049423217773
 30
-0.6579791307449341
 70
    32
  0
VERTEX
  5
15B
330
FA
100
AcDbEntity
  8
OracDecor_cornice_mouldings
 62
    76
420
  4032262
100
AcDbVertex
100
AcDb3dPolylineVertex
 10
0.0000023885604605
 20
61.3716926574707
 30
-0.4400798082351685
 70
    32
  0
VERTEX
  5
15C
330
FA
100
AcDbEntity
  8
OracDecor_cornice_mouldings
 62
    76
420
  4032262
100
AcDbVertex
100
AcDb3dPolylineVertex
 10
0.0000024065620892
 20
61.53135299682617
 30
-0.2568408250808716
 70
    32
  0
VERTEX
  5
15D
330
FA
100
AcDbEntity
  8
OracDecor_cornice_mouldings
 62
    76
420
  4032262
100
AcDbVertex
100
AcDb3dPolylineVertex
 10
0.0000024329265216
 20
61.7306022644043
 30
-0.117325909435749
 70
    32
  0
VERTEX
  5
15E
330
FA
100
AcDbEntity
  8
OracDecor_cornice_mouldings
 62
    76
420
  4032262
100
AcDbVertex
100
AcDb3dPolylineVertex
 10
0.0000024660566851
 20
61.9573974609375
 30
-0.0299655254930258
 70
    32
  0
VERTEX
  5
15F
330
FA
100
AcDbEntity
  8
OracDecor_cornice_mouldings
 62
    76
420
  4032262
100
AcDbVertex
100
AcDb3dPolylineVertex
 10
0.0000025043027563
 20
62.20018768310547
 30
-0.000001079374556
 70
    32
  0
VERTEX
  5
160
330
FA
100
AcDbEntity
  8
OracDecor_cornice_mouldings
 62
    76
420
  4032262
100
AcDbVertex
100
AcDb3dPolylineVertex
 10
0.0000031166409826
 20
65.95869445800781
 30
-0.000001079374556
 70
    32
  0
VERTEX
  5
161
330
FA
100
AcDbEntity
  8
OracDecor_cornice_mouldings
 62
    76
420
  4032262
100
AcDbVertex
100
AcDb3dPolylineVertex
 10
0.000003174766789
 20
66.29765319824219
 30
-0.0663958862423897
 70
    32
  0
VERTEX
  5
162
330
FA
100
AcDbEntity
  8
OracDecor_cornice_mouldings
 62
    76
420
  4032262
100
AcDbVertex
100
AcDb3dPolylineVertex
 10
0.0000032477664718
 20
66.67877960205078
 30
-0.3158999681472778
 70
    32
  0
VERTEX
  5
163
330
FA
100
AcDbEntity
  8
OracDecor_cornice_mouldings
 62
    76
420
  4032262
100
AcDbVertex
100
AcDb3dPolylineVertex
 10
0.0000033109236028
 20
66.95335388183593
 30
-0.7373744249343872
 70
    32
  0
VERTEX
  5
164
330
FA
100
AcDbEntity
  8
OracDecor_cornice_mouldings
 62
    76
420
  4032262
100
AcDbVertex
100
AcDb3dPolylineVertex
 10
0.0000033988508221
 20
67.36813354492188
 30
-1.202958226203918
 70
    32
  0
VERTEX
  5
165
330
FA
100
AcDbEntity
  8
OracDecor_cornice_mouldings
 62
    76
420
  4032262
100
AcDbVertex
100
AcDb3dPolylineVertex
 10
0.0000035027460399
 20
67.93728637695313
 30
-1.458455204963684
 70
    32
  0
VERTEX
  5
166
330
FA
100
AcDbEntity
  8
OracDecor_cornice_mouldings
 62
    76
420
  4032262
100
AcDbVertex
100
AcDb3dPolylineVertex
 10
0.0000036046358218
 20
68.56268310546875
 30
-1.458455204963684
 70
    32
  0
VERTEX
  5
167
330
FA
100
AcDbEntity
  8
OracDecor_cornice_mouldings
 62
    76
420
  4032262
100
AcDbVertex
100
AcDb3dPolylineVertex
 10
0.0000036861947592
 20
69.1318359375
 30
-1.202958226203918
 70
    32
  0
VERTEX
  5
168
330
FA
100
AcDbEntity
  8
OracDecor_cornice_mouldings
 62
    76
420
  4032262
100
AcDbVertex
100
AcDb3dPolylineVertex
 10
0.0000037334193621
 20
69.54661560058593
 30
-0.7373744249343872
 70
    32
  0
VERTEX
  5
169
330
FA
100
AcDbEntity
  8
OracDecor_cornice_mouldings
 62
    76
420
  4032262
100
AcDbVertex
100
AcDb3dPolylineVertex
 10
0.0000037597301343
 20
69.82118988037109
 30
-0.3158999681472778
 70
    32
  0
VERTEX
  5
16A
330
FA
100
AcDbEntity
  8
OracDecor_cornice_mouldings
 62
    76
420
  4032262
100
AcDbVertex
100
AcDb3dPolylineVertex
 10
0.0000038109174056
 20
70.20231628417969
 30
-0.0663958862423897
 70
    32
  0
SEQEND
  5
16B
330
FA
100
AcDbEntity
  8
OracDecor_cornice_mouldings
 62
    76
420
  4032262
  0
ENDSEC
  0
SECTION
  2
OBJECTS
  0
DICTIONARY
  5
C
330
0
100
AcDbDictionary
281
     1
  3
ACAD_COLOR
350
DC
  3
ACAD_DETAILVIEWSTYLE
350
F5
  3
ACAD_GROUP
350
D
  3
ACAD_LAYOUT
350
1A
  3
ACAD_MATERIAL
350
AA
  3
ACAD_MLEADERSTYLE
350
F1
  3
ACAD_MLINESTYLE
350
17
  3
ACAD_PLOTSETTINGS
350
19
  3
ACAD_PLOTSTYLENAME
350
E
  3
ACAD_SCALELIST
350
DF
  3
ACAD_SECTIONVIEWSTYLE
350
F3
  3
ACAD_TABLESTYLE
350
DD
  3
ACAD_VISUALSTYLE
350
C3
  3
ACDB_RECOMPOSE_DATA
350
178
  3
AcDbVariableDictionary
350
16C
  0
DICTIONARY
  5
DC
102
{ACAD_REACTORS
330
C
102
}
330
C
100
AcDbDictionary
281
     1
  0
DICTIONARY
  5
F5
102
{ACAD_REACTORS
330
C
102
}
330
C
100
AcDbDictionary
281
     1
  3
Imperial24
350
F6
  0
DICTIONARY
  5
D
102
{ACAD_REACTORS
330
C
102
}
330
C
100
AcDbDictionary
281
     1
  0
DICTIONARY
  5
1A
102
{ACAD_REACTORS
330
C
102
}
330
C
100
AcDbDictionary
281
     1
  3
Layout1
350
1E
  3
Layout2
350
26
  3
Model
350
22
  0
DICTIONARY
  5
AA
102
{ACAD_REACTORS
330
C
102
}
330
C
100
AcDbDictionary
281
     1
  3
ByBlock
350
B3
  3
ByLayer
350
AB
  3
Global
350
BB
  0
DICTIONARY
  5
F1
102
{ACAD_REACTORS
330
C
102
}
330
C
100
AcDbDictionary
281
     1
  3
Standard
350
F2
  0
DICTIONARY
  5
17
102
{ACAD_REACTORS
330
C
102
}
330
C
100
AcDbDictionary
281
     1
  3
Standard
350
18
  0
DICTIONARY
  5
19
102
{ACAD_REACTORS
330
C
102
}
330
C
100
AcDbDictionary
281
     1
  0
ACDBDICTIONARYWDFLT
  5
E
102
{ACAD_REACTORS
330
C
102
}
330
C
100
AcDbDictionary
281
     1
  3
ByLayer
350
2D
  3
Normal
350
F
100
AcDbDictionaryWithDefault
340
F
  0
DICTIONARY
  5
DF
102
{ACAD_REACTORS
330
C
102
}
330
C
100
AcDbDictionary
281
     1
  3
A0
350
E0
  3
A1
350
E1
  3
A2
350
E2
  3
A3
350
E3
  3
A4
350
E4
  3
A5
350
E5
  3
A6
350
E6
  3
A7
350
E7
  3
A8
350
E8
  3
A9
350
E9
  3
B0
350
EA
  3
B1
350
EB
  3
B2
350
EC
  3
B3
350
ED
  3
B4
350
EE
  3
B5
350
EF
  3
B6
350
F0
  0
DICTIONARY
  5
F3
102
{ACAD_REACTORS
330
C
102
}
330
C
100
AcDbDictionary
281
     1
  3
Imperial24
350
F4
  0
DICTIONARY
  5
DD
102
{ACAD_REACTORS
330
C
102
}
330
C
100
AcDbDictionary
281
     1
  3
Standard
350
DE
  0
DICTIONARY
  5
C3
102
{ACAD_REACTORS
330
C
102
}
330
C
100
AcDbDictionary
281
     1
  3
2dWireframe
350
C9
  3
Basic
350
C8
  3
Brighten
350
CF
  3
ColorChange
350
D3
  3
Conceptual
350
CC
  3
Dim
350
CE
  3
EdgeColorOff
350
DB
  3
Facepattern
350
D2
  3
Flat
350
C4
  3
FlatWithEdges
350
C5
  3
Gouraud
350
C6
  3
GouraudWithEdges
350
C7
  3
Hidden
350
CB
  3
JitterOff
350
D9
  3
Linepattern
350
D1
  3
OverhangOff
350
DA
  3
Realistic
350
CD
  3
Shaded
350
D8
  3
Shaded with edges
350
D7
  3
Shades of Gray
350
D4
  3
Sketchy
350
D5
  3
Thicken
350
D0
  3
Wireframe
350
CA
  3
X-Ray
350
D6
  0
XRECORD
  5
178
102
{ACAD_REACTORS
330
C
102
}
330
C
100
AcDbXrecord
280
     1
 90
        1
330
DE
  0
DICTIONARY
  5
16C
102
{ACAD_REACTORS
330
C
102
}
330
C
100
AcDbDictionary
281
     1
  3
CANNOSCALE
350
172
  3
CMLEADERSTYLE
350
16E
  3
CTABLESTYLE
350
16D
  3
CVIEWDETAILSTYLE
350
16F
  3
CVIEWSECTIONSTYLE
350
170
  3
LAYEREVAL
350
174
  3
LAYERNOTIFY
350
175
  3
LIGHTINGUNITS
350
173
  3
MSLTSCALE
350
171
  0
ACDBDETAILVIEWSTYLE
  5
F6
102
{ACAD_XDICTIONARY
360
1AD
102
}
102
{ACAD_REACTORS
330
F5
102
}
330
F5
100
AcDbModelDocViewStyle
 70
     0
  3
Imperial24
290
     0
100
AcDbDetailViewStyle
 70
     0
 71
     0
 90
        3
 71
     1
340
11
 62
   256
 40
0.24
340
0
 62
   256
 40
0.24
300

 40
0.36
280
     3
 71
     2
340
16
 90
       25
 62
   256
 71
     3
340
11
 62
   256
 40
0.24
 90
        1
 40
0.75
 90
        1
300
%<\AcVar ViewType \f "%tc1">% %<\AcVar ViewDetailId>%\PSCALE %<\AcVar ViewScale \f "%sn">%
 71
     4
340
16
 90
       25
 62
   256
340
16
 90
       25
 62
   256
280
     0
  0
LAYOUT
  5
1E
102
{ACAD_REACTORS
330
1A
102
}
330
1A
100
AcDbPlotSettings
  1

  2
\\KTXNTBDC\CASF2PN1
  4

  6

 40
0.0
 41
0.0
 42
0.0
 43
0.0
 44
0.0
 45
0.0
 46
0.0
 47
0.0
 48
0.0
 49
0.0
140
0.0
141
0.0
142
1.0
143
1.0
 70
   688
 72
     0
 73
     0
 74
     5
  7

 75
    16
147
1.0
 76
     0
 77
     2
 78
   300
148
0.0
149
0.0
100
AcDbLayout
  1
Layout1
 70
     1
 71
     1
 10
0.0
 20
0.0
 11
12.0
 21
9.0
 12
0.0
 22
0.0
 32
0.0
 14
1.000000000000000E+20
 24
1.000000000000000E+20
 34
1.000000000000000E+20
 15
-1.000000000000000E+20
 25
-1.000000000000000E+20
 35
-1.000000000000000E+20
146
0.0
 13
0.0
 23
0.0
 33
0.0
 16
1.0
 26
0.0
 36
0.0
 17
0.0
 27
1.0
 37
0.0
 76
     0
330
1B
  0
LAYOUT
  5
26
102
{ACAD_REACTORS
330
1A
102
}
330
1A
100
AcDbPlotSettings
  1

  2
\\KTXNTBDC\CASF2PN1
  4

  6

 40
0.0
 41
0.0
 42
0.0
 43
0.0
 44
0.0
 45
0.0
 46
0.0
 47
0.0
 48
0.0
 49
0.0
140
0.0
141
0.0
142
1.0
143
1.0
 70
   688
 72
     0
 73
     0
 74
     5
  7

 75
    16
147
1.0
 76
     0
 77
     2
 78
   300
148
0.0
149
0.0
100
AcDbLayout
  1
Layout2
 70
     1
 71
     2
 10
0.0
 20
0.0
 11
12.0
 21
9.0
 12
0.0
 22
0.0
 32
0.0
 14
0.0
 24
0.0
 34
0.0
 15
0.0
 25
0.0
 35
0.0
146
0.0
 13
0.0
 23
0.0
 33
0.0
 16
1.0
 26
0.0
 36
0.0
 17
0.0
 27
1.0
 37
0.0
 76
     0
330
23
  0
LAYOUT
  5
22
102
{ACAD_REACTORS
330
1A
102
}
330
1A
100
AcDbPlotSettings
  1

  2
\\KTXNTBDC\CASF2PN1
  4

  6

 40
0.0
 41
0.0
 42
0.0
 43
0.0
 44
0.0
 45
0.0
 46
0.0
 47
0.0
 48
0.0
 49
0.0
140
0.0
141
0.0
142
1.0
143
1.0
 70
  1712
 72
     0
 73
     0
 74
     0
  7

 75
     0
147
1.0
 76
     0
 77
     2
 78
   300
148
0.0
149
0.0
100
AcDbLayout
  1
Model
 70
     1
 71
     0
 10
0.0
 20
0.0
 11
12.0
 21
9.0
 12
0.0
 22
0.0
 32
0.0
 14
0.0
 24
0.0
 34
0.0
 15
0.0
 25
0.0
 35
0.0
146
0.0
 13
0.0
 23
0.0
 33
0.0
 16
1.0
 26
0.0
 36
0.0
 17
0.0
 27
1.0
 37
0.0
 76
     0
330
1F
  0
MATERIAL
  5
B3
102
{ACAD_XDICTIONARY
360
B4
102
}
102
{ACAD_REACTORS
330
AA
102
}
330
AA
100
AcDbMaterial
  1
ByBlock
 72
     0
 43
0.0208333333333333
 43
0.0
 43
0.0
 43
0.0
 43
0.0
 43
0.0208333333333333
 43
0.0
 43
0.0
 43
0.0
 43
0.0
 43
1.0
 43
0.0
 43
0.0
 43
0.0
 43
0.0
 43
1.0
 77
     0
 47
0.0208333333333333
 47
0.0
 47
0.0
 47
0.0
 47
0.0
 47
0.0208333333333333
 47
0.0
 47
0.0
 47
0.0
 47
0.0
 47
1.0
 47
0.0
 47
0.0
 47
0.0
 47
0.0
 47
1.0
171
     0
 49
0.0208333333333333
 49
0.0
 49
0.0
 49
0.0
 49
0.0
 49
0.0208333333333333
 49
0.0
 49
0.0
 49
0.0
 49
0.0
 49
1.0
 49
0.0
 49
0.0
 49
0.0
 49
0.0
 49
1.0
175
     0
142
0.0208333333333333
142
0.0
142
0.0
142
0.0
142
0.0
142
0.0208333333333333
142
0.0
142
0.0
142
0.0
142
0.0
142
1.0
142
0.0
142
0.0
142
0.0
142
0.0
142
1.0
179
     0
144
0.0208333333333333
144
0.0
144
0.0
144
0.0
144
0.0
144
0.0208333333333333
144
0.0
144
0.0
144
0.0
144
0.0
144
1.0
144
0.0
144
0.0
144
0.0
144
0.0
144
1.0
147
0.0208333333333333
147
0.0
147
0.0
147
0.0
147
0.0
147
0.0208333333333333
147
0.0
147
0.0
147
0.0
147
0.0
147
1.0
147
0.0
147
0.0
147
0.0
147
0.0
147
1.0
  0
MATERIAL
  5
AB
102
{ACAD_XDICTIONARY
360
AC
102
}
102
{ACAD_REACTORS
330
AA
102
}
330
AA
100
AcDbMaterial
  1
ByLayer
 72
     0
 43
0.0208333333333333
 43
0.0
 43
0.0
 43
0.0
 43
0.0
 43
0.0208333333333333
 43
0.0
 43
0.0
 43
0.0
 43
0.0
 43
1.0
 43
0.0
 43
0.0
 43
0.0
 43
0.0
 43
1.0
 77
     0
 47
0.0208333333333333
 47
0.0
 47
0.0
 47
0.0
 47
0.0
 47
0.0208333333333333
 47
0.0
 47
0.0
 47
0.0
 47
0.0
 47
1.0
 47
0.0
 47
0.0
 47
0.0
 47
0.0
 47
1.0
171
     0
 49
0.0208333333333333
 49
0.0
 49
0.0
 49
0.0
 49
0.0
 49
0.0208333333333333
 49
0.0
 49
0.0
 49
0.0
 49
0.0
 49
1.0
 49
0.0
 49
0.0
 49
0.0
 49
0.0
 49
1.0
175
     0
142
0.0208333333333333
142
0.0
142
0.0
142
0.0
142
0.0
142
0.0208333333333333
142
0.0
142
0.0
142
0.0
142
0.0
142
1.0
142
0.0
142
0.0
142
0.0
142
0.0
142
1.0
179
     0
144
0.0208333333333333
144
0.0
144
0.0
144
0.0
144
0.0
144
0.0208333333333333
144
0.0
144
0.0
144
0.0
144
0.0
144
1.0
144
0.0
144
0.0
144
0.0
144
0.0
144
1.0
147
0.0208333333333333
147
0.0
147
0.0
147
0.0
147
0.0
147
0.0208333333333333
147
0.0
147
0.0
147
0.0
147
0.0
147
1.0
147
0.0
147
0.0
147
0.0
147
0.0
147
1.0
  0
MATERIAL
  5
BB
102
{ACAD_XDICTIONARY
360
BC
102
}
102
{ACAD_REACTORS
330
AA
102
}
330
AA
100
AcDbMaterial
  1
Global
 72
     0
 43
0.0208333333333333
 43
0.0
 43
0.0
 43
0.0
 43
0.0
 43
0.0208333333333333
 43
0.0
 43
0.0
 43
0.0
 43
0.0
 43
1.0
 43
0.0
 43
0.0
 43
0.0
 43
0.0
 43
1.0
 77
     0
 47
0.0208333333333333
 47
0.0
 47
0.0
 47
0.0
 47
0.0
 47
0.0208333333333333
 47
0.0
 47
0.0
 47
0.0
 47
0.0
 47
1.0
 47
0.0
 47
0.0
 47
0.0
 47
0.0
 47
1.0
171
     0
 49
0.0208333333333333
 49
0.0
 49
0.0
 49
0.0
 49
0.0
 49
0.0208333333333333
 49
0.0
 49
0.0
 49
0.0
 49
0.0
 49
1.0
 49
0.0
 49
0.0
 49
0.0
 49
0.0
 49
1.0
175
     0
142
0.0208333333333333
142
0.0
142
0.0
142
0.0
142
0.0
142
0.0208333333333333
142
0.0
142
0.0
142
0.0
142
0.0
142
1.0
142
0.0
142
0.0
142
0.0
142
0.0
142
1.0
179
     0
144
0.0208333333333333
144
0.0
144
0.0
144
0.0
144
0.0
144
0.0208333333333333
144
0.0
144
0.0
144
0.0
144
0.0
144
1.0
144
0.0
144
0.0
144
0.0
144
0.0
144
1.0
147
0.0208333333333333
147
0.0
147
0.0
147
0.0
147
0.0
147
0.0208333333333333
147
0.0
147
0.0
147
0.0
147
0.0
147
1.0
147
0.0
147
0.0
147
0.0
147
0.0
147
1.0
  0
MLEADERSTYLE
  5
F2
102
{ACAD_XDICTIONARY
360
1A9
102
}
102
{ACAD_REACTORS
330
F1
102
}
330
F1
100
AcDbMLeaderStyle
179
     2
170
     2
171
     1
172
     0
 90
        2
 40
0.0
 41
0.0
173
     1
 91
-1056964608
340
14
 92
       -2
290
     1
 42
0.09
291
     1
 43
0.36
  3
Standard
 44
0.18
300

342
11
174
     1
178
     6
175
     1
176
     0
 93
-1056964608
 45
0.18
292
     0
297
     0
 46
0.18
 94
-1056964608
 47
1.0
 49
1.0
140
1.0
293
     1
141
0.0
294
     1
177
     0
142
1.0
295
     0
296
     0
143
0.125
271
     0
272
     9
273
     9
  0
MLINESTYLE
  5
18
102
{ACAD_REACTORS
330
17
102
}
330
17
100
AcDbMlineStyle
  2
STANDARD
 70
     0
  3

 62
   256
 51
90.0
 52
90.0
 71
     2
 49
0.5
 62
   256
  6
BYLAYER
 49
-0.5
 62
   256
  6
BYLAYER
  0
ACDBPLACEHOLDER
  5
2D
102
{ACAD_REACTORS
330
E
102
}
330
E
  0
ACDBPLACEHOLDER
  5
F
102
{ACAD_REACTORS
330
E
102
}
330
E
  0
SCALE
  5
E0
102
{ACAD_REACTORS
330
DF
102
}
330
DF
100
AcDbScale
 70
     0
300
1:1
140
1.0
141
1.0
290
     1
  0
SCALE
  5
E1
102
{ACAD_REACTORS
330
DF
102
}
330
DF
100
AcDbScale
 70
     0
300
1/128" = 1'-0"
140
0.0078125
141
12.0
290
     0
  0
SCALE
  5
E2
102
{ACAD_REACTORS
330
DF
102
}
330
DF
100
AcDbScale
 70
     0
300
1/64" = 1'-0"
140
0.015625
141
12.0
290
     0
  0
SCALE
  5
E3
102
{ACAD_REACTORS
330
DF
102
}
330
DF
100
AcDbScale
 70
     0
300
1/32" = 1'-0"
140
0.03125
141
12.0
290
     0
  0
SCALE
  5
E4
102
{ACAD_REACTORS
330
DF
102
}
330
DF
100
AcDbScale
 70
     0
300
1/16" = 1'-0"
140
0.0625
141
12.0
290
     0
  0
SCALE
  5
E5
102
{ACAD_REACTORS
330
DF
102
}
330
DF
100
AcDbScale
 70
     0
300
3/32" = 1'-0"
140
0.09375
141
12.0
290
     0
  0
SCALE
  5
E6
102
{ACAD_REACTORS
330
DF
102
}
330
DF
100
AcDbScale
 70
     0
300
1/8" = 1'-0"
140
0.125
141
12.0
290
     0
  0
SCALE
  5
E7
102
{ACAD_REACTORS
330
DF
102
}
330
DF
100
AcDbScale
 70
     0
300
3/16" = 1'-0"
140
0.1875
141
12.0
290
     0
  0
SCALE
  5
E8
102
{ACAD_REACTORS
330
DF
102
}
330
DF
100
AcDbScale
 70
     0
300
1/4" = 1'-0"
140
0.25
141
12.0
290
     0
  0
SCALE
  5
E9
102
{ACAD_REACTORS
330
DF
102
}
330
DF
100
AcDbScale
 70
     0
300
3/8" = 1'-0"
140
0.375
141
12.0
290
     0
  0
SCALE
  5
EA
102
{ACAD_REACTORS
330
DF
102
}
330
DF
100
AcDbScale
 70
     0
300
1/2" = 1'-0"
140
0.5
141
12.0
290
     0
  0
SCALE
  5
EB
102
{ACAD_REACTORS
330
DF
102
}
330
DF
100
AcDbScale
 70
     0
300
3/4" = 1'-0"
140
0.75
141
12.0
290
     0
  0
SCALE
  5
EC
102
{ACAD_REACTORS
330
DF
102
}
330
DF
100
AcDbScale
 70
     0
300
1" = 1'-0"
140
1.0
141
12.0
290
     0
  0
SCALE
  5
ED
102
{ACAD_REACTORS
330
DF
102
}
330
DF
100
AcDbScale
 70
     0
300
1-1/2" = 1'-0"
140
1.5
141
12.0
290
     0
  0
SCALE
  5
EE
102
{ACAD_REACTORS
330
DF
102
}
330
DF
100
AcDbScale
 70
     0
300
3" = 1'-0"
140
3.0
141
12.0
290
     0
  0
SCALE
  5
EF
102
{ACAD_REACTORS
330
DF
102
}
330
DF
100
AcDbScale
 70
     0
300
6" = 1'-0"
140
6.0
141
12.0
290
     0
  0
SCALE
  5
F0
102
{ACAD_REACTORS
330
DF
102
}
330
DF
100
AcDbScale
 70
     0
300
1'-0" = 1'-0"
140
12.0
141
12.0
290
     0
  0
ACDBSECTIONVIEWSTYLE
  5
F4
102
{ACAD_XDICTIONARY
360
1AB
102
}
102
{ACAD_REACTORS
330
F3
102
}
330
F3
100
AcDbModelDocViewStyle
 70
     0
  3
Imperial24
290
     0
100
AcDbSectionViewStyle
 70
     0
 71
     0
 90
       78
 71
     1
340
11
 62
   256
 40
0.24
340
0
340
0
 62
   256
 40
0.24
300
I, O, Q, S, X, Z
 40
0.48
 90
        3
 40
0.18
 90
        1
 71
     2
340
16
 90
       25
 62
   256
340
16
 90
       50
 62
   256
 40
0.24
 40
0.0
 40
0.24
 71
     3
340
11
 62
   256
 40
0.24
 90
        1
 40
0.75
 90
        1
300
%<\AcVar ViewType \f "%tc1">% %<\AcVar ViewSectionStartId>%-%<\AcVar ViewSectionEndId>%\PSCALE %<\AcVar ViewScale \f "%sn">%
 71
     4
 62
   256
 62
   257
300
ANSI31
 40
1.0
 90
        0
290
     0
290
     0
 90
        6
 40
0.0
 40
1.570796326794896
 40
0.2617993877991494
 40
1.308996938995747
 40
-0.2617993877991494
 40
1.832595714594046
  0
TABLESTYLE
  5
DE
102
{ACAD_XDICTIONARY
360
176
102
}
102
{ACAD_REACTORS
330
DD
102
}
330
DD
100
AcDbTableStyle
280
     0
  3
Standard
 70
     0
 71
     0
 40
0.06
 41
0.06
280
     0
281
     0
  7
Standard
140
0.18
170
     2
 62
     0
 63
     7
283
     0
 90
      512
 91
        0
  1

274
    -2
284
     1
 64
     0
275
    -2
285
     1
 65
     0
276
    -2
286
     1
 66
     0
277
    -2
287
     1
 67
     0
278
    -2
288
     1
 68
     0
279
    -2
289
     1
 69
     0
  7
Standard
140
0.25
170
     5
 62
     0
 63
     7
283
     0
 90
      512
 91
        0
  1

274
    -2
284
     1
 64
     0
275
    -2
285
     1
 65
     0
276
    -2
286
     1
 66
     0
277
    -2
287
     1
 67
     0
278
    -2
288
     1
 68
     0
279
    -2
289
     1
 69
     0
  7
Standard
140
0.18
170
     5
 62
     0
 63
     7
283
     0
 90
      512
 91
        0
  1

274
    -2
284
     1
 64
     0
275
    -2
285
     1
 65
     0
276
    -2
286
     1
 66
     0
277
    -2
287
     1
 67
     0
278
    -2
288
     1
 68
     0
279
    -2
289
     1
 69
     0
  0
VISUALSTYLE
  5
C9
102
{ACAD_XDICTIONARY
360
183
102
}
102
{ACAD_REACTORS
330
C3
102
}
330
C3
100
AcDbVisualStyle
  2
2dWireframe
 70
     4
177
     2
291
     0
 71
     0
176
     1
 72
     2
176
     1
 73
     0
176
     1
 90
        0
176
     1
 40
0.6
176
     1
 41
30.0
176
     1
 63
     7
421
 16777215
176
     1
 74
     1
176
     1
 91
        4
176
     1
 64
     7
176
     1
 65
   257
176
     1
 75
     1
176
     1
175
     1
176
     1
 42
1.0
176
     1
 92
        0
176
     1
 66
   257
176
     1
 43
1.0
176
     1
 76
     1
176
     1
 77
     6
176
     1
 78
     2
176
     1
 67
     7
176
     1
 79
     5
176
     1
170
     0
176
     1
171
     0
176
     1
290
     0
176
     1
 93
        1
176
     1
 44
0.0
176
     1
173
     0
176
     1
1001
ACAD
1000
AcDbSavedByObjectVersion
1070
     0
  0
VISUALSTYLE
  5
C8
102
{ACAD_XDICTIONARY
360
181
102
}
102
{ACAD_REACTORS
330
C3
102
}
330
C3
100
AcDbVisualStyle
  2
Basic
 70
     7
177
     2
291
     1
 71
     1
176
     1
 72
     0
176
     1
 73
     1
176
     1
 90
        0
176
     1
 40
0.6
176
     1
 41
30.0
176
     1
 63
     7
421
 16777215
176
     1
 74
     0
176
     1
 91
        4
176
     1
 64
     7
176
     1
 65
   257
176
     1
 75
     1
176
     1
175
     1
176
     1
 42
1.0
176
     1
 92
        8
176
     1
 66
     7
176
     1
 43
1.0
176
     1
 76
     1
176
     1
 77
     6
176
     1
 78
     2
176
     1
 67
     7
176
     1
 79
     5
176
     1
170
     0
176
     1
171
     0
176
     1
290
     0
176
     1
 93
        1
176
     1
 44
0.0
176
     1
173
     0
176
     1
1001
ACAD
1000
AcDbSavedByObjectVersion
1070
     0
  0
VISUALSTYLE
  5
CF
102
{ACAD_XDICTIONARY
360
18F
102
}
102
{ACAD_REACTORS
330
C3
102
}
330
C3
100
AcDbVisualStyle
  2
Brighten
 70
    12
177
     2
291
     1
 71
     2
176
     1
 72
     2
176
     1
 73
     0
176
     1
 90
        0
176
     1
 40
0.6
176
     1
 41
30.0
176
     1
 63
     7
421
 16777215
176
     1
 74
     1
176
     1
 91
        4
176
     1
 64
     7
176
     1
 65
   257
176
     1
 75
     1
176
     1
175
     1
176
     1
 42
1.0
176
     1
 92
        8
176
     1
 66
     7
176
     1
 43
1.0
176
     1
 76
     1
176
     1
 77
     6
176
     1
 78
     2
176
     1
 67
     7
176
     1
 79
     5
176
     1
170
     0
176
     1
171
     0
176
     1
290
     0
176
     1
 93
        1
176
     1
 44
50.0
176
     1
173
     0
176
     1
1001
ACAD
1000
AcDbSavedByObjectVersion
1070
     0
  0
VISUALSTYLE
  5
D3
102
{ACAD_XDICTIONARY
360
197
102
}
102
{ACAD_REACTORS
330
C3
102
}
330
C3
100
AcDbVisualStyle
  2
ColorChange
 70
    16
177
     2
291
     1
 71
     2
176
     1
 72
     2
176
     1
 73
     3
176
     1
 90
        0
176
     1
 40
0.6
176
     1
 41
30.0
176
     1
 63
     8
421
  8421504
176
     1
 74
     1
176
     1
 91
        4
176
     1
 64
     7
176
     1
 65
   257
176
     1
 75
     1
176
     1
175
     1
176
     1
 42
1.0
176
     1
 92
        8
176
     1
 66
     8
424
  8421504
176
     1
 43
1.0
176
     1
 76
     1
176
     1
 77
     6
176
     1
 78
     2
176
     1
 67
     7
176
     1
 79
     5
176
     1
170
     0
176
     1
171
     0
176
     1
290
     0
176
     1
 93
        1
176
     1
 44
0.0
176
     1
173
     0
176
     1
1001
ACAD
1000
AcDbSavedByObjectVersion
1070
     0
  0
VISUALSTYLE
  5
CC
102
{ACAD_XDICTIONARY
360
189
102
}
102
{ACAD_REACTORS
330
C3
102
}
330
C3
100
AcDbVisualStyle
  2
Conceptual
 70
     9
177
     2
291
     0
 71
     3
176
     1
 72
     2
176
     1
 73
     0
176
     1
 90
        0
176
     1
 40
0.6
176
     1
 41
30.0
176
     1
 63
     7
421
 16777215
176
     1
 74
     2
176
     1
 91
        2
176
     1
 64
     7
176
     1
 65
   257
176
     1
 75
     1
176
     1
175
     1
176
     1
 42
179.0
176
     1
 92
        8
176
     1
 66
     7
176
     1
 43
1.0
176
     1
 76
     1
176
     1
 77
     6
176
     1
 78
     2
176
     1
 67
     7
176
     1
 79
     3
176
     1
170
     0
176
     1
171
     0
176
     1
290
     0
176
     1
 93
        1
176
     1
 44
0.0
176
     1
173
     0
176
     1
1001
ACAD
1000
AcDbSavedByObjectVersion
1070
     0
  0
VISUALSTYLE
  5
CE
102
{ACAD_XDICTIONARY
360
18D
102
}
102
{ACAD_REACTORS
330
C3
102
}
330
C3
100
AcDbVisualStyle
  2
Dim
 70
    11
177
     2
291
     1
 71
     2
176
     1
 72
     2
176
     1
 73
     0
176
     1
 90
        0
176
     1
 40
0.6
176
     1
 41
30.0
176
     1
 63
     7
421
 16777215
176
     1
 74
     1
176
     1
 91
        4
176
     1
 64
     7
176
     1
 65
   257
176
     1
 75
     1
176
     1
175
     1
176
     1
 42
1.0
176
     1
 92
        8
176
     1
 66
     7
176
     1
 43
1.0
176
     1
 76
     1
176
     1
 77
     6
176
     1
 78
     2
176
     1
 67
     7
176
     1
 79
     5
176
     1
170
     0
176
     1
171
     0
176
     1
290
     0
176
     1
 93
        1
176
     1
 44
-50.0
176
     1
173
     0
176
     1
1001
ACAD
1000
AcDbSavedByObjectVersion
1070
     0
  0
VISUALSTYLE
  5
DB
102
{ACAD_XDICTIONARY
360
1A7
102
}
102
{ACAD_REACTORS
330
C3
102
}
330
C3
100
AcDbVisualStyle
  2
EdgeColorOff
 70
    22
177
     2
291
     1
 71
     2
176
     0
 72
     2
176
     0
 73
     0
176
     0
 90
        0
176
     0
 40
0.6
176
     0
 41
30.0
176
     0
 63
     7
421
 16777215
176
     0
 74
     1
176
     0
 91
        4
176
     0
 64
     7
176
     0
 65
   257
176
     0
 75
     1
176
     0
175
     1
176
     0
 42
1.0
176
     0
 92
        8
176
     2
 66
     7
176
     0
 43
1.0
176
     0
 76
     1
176
     0
 77
     6
176
     0
 78
     2
176
     0
 67
     7
176
     0
 79
     5
176
     0
170
     0
176
     0
171
     0
176
     0
290
     0
176
     0
 93
        1
176
     0
 44
0.0
176
     0
173
     0
176
     0
1001
ACAD
1000
AcDbSavedByObjectVersion
1070
     0
  0
VISUALSTYLE
  5
D2
102
{ACAD_XDICTIONARY
360
195
102
}
102
{ACAD_REACTORS
330
C3
102
}
330
C3
100
AcDbVisualStyle
  2
Facepattern
 70
    15
177
     2
291
     1
 71
     2
176
     1
 72
     2
176
     1
 73
     0
176
     1
 90
        0
176
     1
 40
0.6
176
     1
 41
30.0
176
     1
 63
     7
421
 16777215
176
     1
 74
     1
176
     1
 91
        4
176
     1
 64
     7
176
     1
 65
   257
176
     1
 75
     1
176
     1
175
     1
176
     1
 42
1.0
176
     1
 92
        8
176
     1
 66
     7
176
     1
 43
1.0
176
     1
 76
     1
176
     1
 77
     6
176
     1
 78
     2
176
     1
 67
     7
176
     1
 79
     5
176
     1
170
     0
176
     1
171
     0
176
     1
290
     0
176
     1
 93
        1
176
     1
 44
0.0
176
     1
173
     0
176
     1
1001
ACAD
1000
AcDbSavedByObjectVersion
1070
     0
  0
VISUALSTYLE
  5
C4
102
{ACAD_XDICTIONARY
360
179
102
}
102
{ACAD_REACTORS
330
C3
102
}
330
C3
100
AcDbVisualStyle
  2
Flat
 70
     0
177
     2
291
     1
 71
     2
176
     1
 72
     1
176
     1
 73
     1
176
     1
 90
        2
176
     1
 40
0.6
176
     1
 41
30.0
176
     1
 63
     7
421
 16777215
176
     1
 74
     0
176
     1
 91
        0
176
     1
 64
     7
176
     1
 65
   257
176
     1
 75
     1
176
     1
175
     1
176
     1
 42
1.0
176
     1
 92
        8
176
     1
 66
     7
176
     1
 43
1.0
176
     1
 76
     1
176
     1
 77
     6
176
     1
 78
     2
176
     1
 67
     7
176
     1
 79
     5
176
     1
170
     0
176
     1
171
     0
176
     1
290
     0
176
     1
 93
       13
176
     1
 44
0.0
176
     1
173
     0
176
     1
1001
ACAD
1000
AcDbSavedByObjectVersion
1070
     0
  0
VISUALSTYLE
  5
C5
102
{ACAD_XDICTIONARY
360
17B
102
}
102
{ACAD_REACTORS
330
C3
102
}
330
C3
100
AcDbVisualStyle
  2
FlatWithEdges
 70
     1
177
     2
291
     1
 71
     2
176
     1
 72
     1
176
     1
 73
     1
176
     1
 90
        2
176
     1
 40
0.6
176
     1
 41
30.0
176
     1
 63
     7
421
 16777215
176
     1
 74
     1
176
     1
 91
        0
176
     1
 64
     7
176
     1
 65
   257
176
     1
 75
     1
176
     1
175
     1
176
     1
 42
1.0
176
     1
 92
        0
176
     1
 66
   257
176
     1
 43
1.0
176
     1
 76
     1
176
     1
 77
     6
176
     1
 78
     2
176
     1
 67
     7
176
     1
 79
     5
176
     1
170
     0
176
     1
171
     0
176
     1
290
     0
176
     1
 93
       13
176
     1
 44
0.0
176
     1
173
     0
176
     1
1001
ACAD
1000
AcDbSavedByObjectVersion
1070
     0
  0
VISUALSTYLE
  5
C6
102
{ACAD_XDICTIONARY
360
17D
102
}
102
{ACAD_REACTORS
330
C3
102
}
330
C3
100
AcDbVisualStyle
  2
Gouraud
 70
     2
177
     2
291
     1
 71
     2
176
     1
 72
     2
176
     1
 73
     1
176
     1
 90
        2
176
     1
 40
0.6
176
     1
 41
30.0
176
     1
 63
     7
421
 16777215
176
     1
 74
     0
176
     1
 91
        0
176
     1
 64
     7
176
     1
 65
   257
176
     1
 75
     1
176
     1
175
     1
176
     1
 42
1.0
176
     1
 92
        0
176
     1
 66
     7
176
     1
 43
1.0
176
     1
 76
     1
176
     1
 77
     6
176
     1
 78
     2
176
     1
 67
     7
176
     1
 79
     5
176
     1
170
     0
176
     1
171
     0
176
     1
290
     0
176
     1
 93
       13
176
     1
 44
0.0
176
     1
173
     0
176
     1
1001
ACAD
1000
AcDbSavedByObjectVersion
1070
     0
  0
VISUALSTYLE
  5
C7
102
{ACAD_XDICTIONARY
360
17F
102
}
102
{ACAD_REACTORS
330
C3
102
}
330
C3
100
AcDbVisualStyle
  2
GouraudWithEdges
 70
     3
177
     2
291
     1
 71
     2
176
     1
 72
     2
176
     1
 73
     1
176
     1
 90
        2
176
     1
 40
0.6
176
     1
 41
30.0
176
     1
 63
     7
421
 16777215
176
     1
 74
     1
176
     1
 91
        0
176
     1
 64
     7
176
     1
 65
   257
176
     1
 75
     1
176
     1
175
     1
176
     1
 42
1.0
176
     1
 92
        0
176
     1
 66
   257
176
     1
 43
1.0
176
     1
 76
     1
176
     1
 77
     6
176
     1
 78
     2
176
     1
 67
     7
176
     1
 79
     5
176
     1
170
     0
176
     1
171
     0
176
     1
290
     0
176
     1
 93
       13
176
     1
 44
0.0
176
     1
173
     0
176
     1
1001
ACAD
1000
AcDbSavedByObjectVersion
1070
     0
  0
VISUALSTYLE
  5
CB
102
{ACAD_XDICTIONARY
360
187
102
}
102
{ACAD_REACTORS
330
C3
102
}
330
C3
100
AcDbVisualStyle
  2
Hidden
 70
     6
177
     2
291
     0
 71
     1
176
     1
 72
     2
176
     1
 73
     2
176
     1
 90
        0
176
     1
 40
0.6
176
     1
 41
30.0
176
     1
 63
     7
421
 16777215
176
     1
 74
     2
176
     1
 91
        2
176
     1
 64
     7
176
     1
 65
   257
176
     1
 75
     2
176
     1
175
     1
176
     1
 42
40.0
176
     1
 92
        0
176
     1
 66
   257
176
     1
 43
1.0
176
     1
 76
     1
176
     1
 77
     6
176
     1
 78
     2
176
     1
 67
     7
176
     1
 79
     3
176
     1
170
     0
176
     1
171
     0
176
     1
290
     0
176
     1
 93
        1
176
     1
 44
0.0
176
     1
173
     0
176
     1
1001
ACAD
1000
AcDbSavedByObjectVersion
1070
     0
  0
VISUALSTYLE
  5
D9
102
{ACAD_XDICTIONARY
360
1A3
102
}
102
{ACAD_REACTORS
330
C3
102
}
330
C3
100
AcDbVisualStyle
  2
JitterOff
 70
    20
177
     2
291
     1
 71
     2
176
     0
 72
     2
176
     0
 73
     0
176
     0
 90
        0
176
     0
 40
0.6
176
     0
 41
30.0
176
     0
 63
     7
421
 16777215
176
     0
 74
     1
176
     0
 91
        4
176
     0
 64
     7
176
     0
 65
   257
176
     0
 75
     1
176
     0
175
     1
176
     0
 42
1.0
176
     0
 92
       10
176
     2
 66
     7
176
     0
 43
1.0
176
     0
 76
     1
176
     0
 77
     6
176
     0
 78
     2
176
     0
 67
     7
176
     0
 79
     5
176
     0
170
     0
176
     0
171
     0
176
     0
290
     0
176
     0
 93
        1
176
     0
 44
0.0
176
     0
173
     0
176
     0
1001
ACAD
1000
AcDbSavedByObjectVersion
1070
     0
  0
VISUALSTYLE
  5
D1
102
{ACAD_XDICTIONARY
360
193
102
}
102
{ACAD_REACTORS
330
C3
102
}
330
C3
100
AcDbVisualStyle
  2
Linepattern
 70
    14
177
     2
291
     1
 71
     2
176
     1
 72
     2
176
     1
 73
     0
176
     1
 90
        0
176
     1
 40
0.6
176
     1
 41
30.0
176
     1
 63
     7
421
 16777215
176
     1
 74
     1
176
     1
 91
        4
176
     1
 64
     7
176
     1
 65
   257
176
     1
 75
     7
176
     1
175
     7
176
     1
 42
1.0
176
     1
 92
        8
176
     1
 66
     7
176
     1
 43
1.0
176
     1
 76
     1
176
     1
 77
     6
176
     1
 78
     2
176
     1
 67
     7
176
     1
 79
     5
176
     1
170
     0
176
     1
171
     0
176
     1
290
     0
176
     1
 93
        1
176
     1
 44
0.0
176
     1
173
     0
176
     1
1001
ACAD
1000
AcDbSavedByObjectVersion
1070
     0
  0
VISUALSTYLE
  5
DA
102
{ACAD_XDICTIONARY
360
1A5
102
}
102
{ACAD_REACTORS
330
C3
102
}
330
C3
100
AcDbVisualStyle
  2
OverhangOff
 70
    21
177
     2
291
     1
 71
     2
176
     0
 72
     2
176
     0
 73
     0
176
     0
 90
        0
176
     0
 40
0.6
176
     0
 41
30.0
176
     0
 63
     7
421
 16777215
176
     0
 74
     1
176
     0
 91
        4
176
     0
 64
     7
176
     0
 65
   257
176
     0
 75
     1
176
     0
175
     1
176
     0
 42
1.0
176
     0
 92
        9
176
     2
 66
     7
176
     0
 43
1.0
176
     0
 76
     1
176
     0
 77
     6
176
     0
 78
     2
176
     0
 67
     7
176
     0
 79
     5
176
     0
170
     0
176
     0
171
     0
176
     0
290
     0
176
     0
 93
        1
176
     0
 44
0.0
176
     0
173
     0
176
     0
1001
ACAD
1000
AcDbSavedByObjectVersion
1070
     0
  0
VISUALSTYLE
  5
CD
102
{ACAD_XDICTIONARY
360
18B
102
}
102
{ACAD_REACTORS
330
C3
102
}
330
C3
100
AcDbVisualStyle
  2
Realistic
 70
     8
177
     2
291
     0
 71
     2
176
     1
 72
     3
176
     1
 73
     0
176
     1
 90
        2
176
     1
 40
0.6
176
     1
 41
30.0
176
     1
 63
     7
421
 16777215
176
     1
 74
     0
176
     1
 91
        0
176
     1
 64
     7
176
     1
 65
   257
176
     1
 75
     1
176
     1
175
     1
176
     1
 42
1.0
176
     1
 92
        8
176
     1
 66
   257
176
     1
 43
1.0
176
     1
 76
     1
176
     1
 77
     6
176
     1
 78
     2
176
     1
 67
     7
176
     1
 79
     3
176
     1
170
     0
176
     1
171
     0
176
     1
290
     0
176
     1
 93
       13
176
     1
 44
0.0
176
     1
173
     0
176
     1
1001
ACAD
1000
AcDbSavedByObjectVersion
1070
     0
  0
VISUALSTYLE
  5
D8
102
{ACAD_XDICTIONARY
360
1A1
102
}
102
{ACAD_REACTORS
330
C3
102
}
330
C3
100
AcDbVisualStyle
  2
Shaded
 70
    27
177
     2
291
     0
 71
     2
176
     1
 72
     2
176
     1
 73
     1
176
     1
 90
        2
176
     1
 40
0.6
176
     1
 41
30.0
176
     1
 63
     7
421
 16777215
176
     1
 74
     0
176
     1
 91
        4
176
     1
 64
     7
176
     1
 65
   257
176
     1
 75
     1
176
     1
175
     1
176
     1
 42
1.0
176
     1
 92
        8
176
     1
 66
   257
176
     1
 43
1.0
176
     1
 76
     1
176
     1
 77
     6
176
     1
 78
     2
176
     1
 67
     8
425
  7895160
176
     1
 79
     3
176
     1
170
     0
176
     1
171
     0
176
     1
290
     0
176
     1
 93
        5
176
     1
 44
0.0
176
     1
173
     0
176
     1
1001
ACAD
1000
AcDbSavedByObjectVersion
1070
     0
  0
VISUALSTYLE
  5
D7
102
{ACAD_XDICTIONARY
360
19F
102
}
102
{ACAD_REACTORS
330
C3
102
}
330
C3
100
AcDbVisualStyle
  2
Shaded with edges
 70
    26
177
     2
291
     0
 71
     2
176
     1
 72
     2
176
     1
 73
     1
176
     1
 90
        2
176
     1
 40
0.6
176
     1
 41
30.0
176
     1
 63
     7
421
 16777215
176
     1
 74
     1
176
     1
 91
       10
176
     1
 64
     7
176
     1
 65
   257
176
     1
 75
     2
176
     1
175
     1
176
     1
 42
1.0
176
     1
 92
        8
176
     1
 66
   257
176
     1
 43
1.0
176
     1
 76
     1
176
     1
 77
     6
176
     1
 78
     2
176
     1
 67
     7
176
     1
 79
     3
176
     1
170
     0
176
     1
171
     0
176
     1
290
     0
176
     1
 93
        5
176
     1
 44
0.0
176
     1
173
     0
176
     1
1001
ACAD
1000
AcDbSavedByObjectVersion
1070
     0
  0
VISUALSTYLE
  5
D4
102
{ACAD_XDICTIONARY
360
199
102
}
102
{ACAD_REACTORS
330
C3
102
}
330
C3
100
AcDbVisualStyle
  2
Shades of Gray
 70
    23
177
     2
291
     0
 71
     2
176
     1
 72
     2
176
     1
 73
     3
176
     1
 90
        0
176
     1
 40
0.6
176
     1
 41
30.0
176
     1
 63
     7
421
 16777215
176
     1
 74
     2
176
     1
 91
        2
176
     1
 64
     7
176
     1
 65
     7
176
     1
 75
     1
176
     1
175
     1
176
     1
 42
40.0
176
     1
 92
        8
176
     1
 66
     7
176
     1
 43
1.0
176
     1
 76
     1
176
     1
 77
     6
176
     1
 78
     2
176
     1
 67
     7
176
     1
 79
     3
176
     1
170
     0
176
     1
171
     0
176
     1
290
     0
176
     1
 93
        1
176
     1
 44
0.0
176
     1
173
     0
176
     1
1001
ACAD
1000
AcDbSavedByObjectVersion
1070
     0
  0
VISUALSTYLE
  5
D5
102
{ACAD_XDICTIONARY
360
19B
102
}
102
{ACAD_REACTORS
330
C3
102
}
330
C3
100
AcDbVisualStyle
  2
Sketchy
 70
    24
177
     2
291
     0
 71
     1
176
     1
 72
     2
176
     1
 73
     2
176
     1
 90
        0
176
     1
 40
0.6
176
     1
 41
30.0
176
     1
 63
     7
421
 16777215
176
     1
 74
     2
176
     1
 91
        2
176
     1
 64
     7
176
     1
 65
     7
176
     1
 75
     1
176
     1
175
     1
176
     1
 42
40.0
176
     1
 92
       11
176
     1
 66
     7
176
     1
 43
1.0
176
     1
 76
     1
176
     1
 77
     6
176
     1
 78
     2
176
     1
 67
     7
176
     1
 79
     6
176
     1
170
     0
176
     1
171
     0
176
     1
290
     0
176
     1
 93
        1
176
     1
 44
0.0
176
     1
173
     0
176
     1
1001
ACAD
1000
AcDbSavedByObjectVersion
1070
     0
  0
VISUALSTYLE
  5
D0
102
{ACAD_XDICTIONARY
360
191
102
}
102
{ACAD_REACTORS
330
C3
102
}
330
C3
100
AcDbVisualStyle
  2
Thicken
 70
    13
177
     2
291
     1
 71
     2
176
     1
 72
     2
176
     1
 73
     0
176
     1
 90
        0
176
     1
 40
0.6
176
     1
 41
30.0
176
     1
 63
     7
421
 16777215
176
     1
 74
     1
176
     1
 91
        4
176
     1
 64
     7
176
     1
 65
   257
176
     1
 75
     1
176
     1
175
     1
176
     1
 42
1.0
176
     1
 92
       12
176
     1
 66
     7
176
     1
 43
1.0
176
     1
 76
     1
176
     1
 77
     6
176
     1
 78
     2
176
     1
 67
     7
176
     1
 79
     5
176
     1
170
     0
176
     1
171
     0
176
     1
290
     0
176
     1
 93
        1
176
     1
 44
0.0
176
     1
173
     0
176
     1
1001
ACAD
1000
AcDbSavedByObjectVersion
1070
     0
  0
VISUALSTYLE
  5
CA
102
{ACAD_XDICTIONARY
360
185
102
}
102
{ACAD_REACTORS
330
C3
102
}
330
C3
100
AcDbVisualStyle
  2
Wireframe
 70
     5
177
     2
291
     0
 71
     0
176
     1
 72
     2
176
     1
 73
     0
176
     1
 90
        0
176
     1
 40
0.6
176
     1
 41
30.0
176
     1
 63
     7
421
 16777215
176
     1
 74
     1
176
     1
 91
        4
176
     1
 64
     7
176
     1
 65
   257
176
     1
 75
     1
176
     1
175
     1
176
     1
 42
1.0
176
     1
 92
        0
176
     1
 66
   257
176
     1
 43
1.0
176
     1
 76
     1
176
     1
 77
     6
176
     1
 78
     2
176
     1
 67
     7
176
     1
 79
     3
176
     1
170
     0
176
     1
171
     0
176
     1
290
     0
176
     1
 93
        1
176
     1
 44
0.0
176
     1
173
     0
176
     1
1001
ACAD
1000
AcDbSavedByObjectVersion
1070
     0
  0
VISUALSTYLE
  5
D6
102
{ACAD_XDICTIONARY
360
19D
102
}
102
{ACAD_REACTORS
330
C3
102
}
330
C3
100
AcDbVisualStyle
  2
X-Ray
 70
    25
177
     2
291
     0
 71
     2
176
     1
 72
     2
176
     1
 73
     1
176
     1
 90
        1
176
     1
 40
0.5
176
     1
 41
30.0
176
     1
 63
     7
421
 16777215
176
     1
 74
     1
176
     1
 91
        0
176
     1
 64
     7
176
     1
 65
   257
176
     1
 75
     1
176
     1
175
     1
176
     1
 42
1.0
176
     1
 92
        8
176
     1
 66
     7
176
     1
 43
1.0
176
     1
 76
     1
176
     1
 77
     6
176
     1
 78
     2
176
     1
 67
     7
176
     1
 79
     3
176
     1
170
     0
176
     1
171
     0
176
     1
290
     0
176
     1
 93
       13
176
     1
 44
0.0
176
     1
173
     0
176
     1
1001
ACAD
1000
AcDbSavedByObjectVersion
1070
     0
  0
DICTIONARYVAR
  5
172
102
{ACAD_REACTORS
330
16C
102
}
330
16C
100
DictionaryVariables
280
     0
  1
1:1
  0
DICTIONARYVAR
  5
16E
102
{ACAD_REACTORS
330
16C
102
}
330
16C
100
DictionaryVariables
280
     0
  1
STANDARD
  0
DICTIONARYVAR
  5
16D
102
{ACAD_REACTORS
330
16C
102
}
330
16C
100
DictionaryVariables
280
     0
  1
STANDARD
  0
DICTIONARYVAR
  5
16F
102
{ACAD_REACTORS
330
16C
102
}
330
16C
100
DictionaryVariables
280
     0
  1
Imperial24
  0
DICTIONARYVAR
  5
170
102
{ACAD_REACTORS
330
16C
102
}
330
16C
100
DictionaryVariables
280
     0
  1
Imperial24
  0
DICTIONARYVAR
  5
174
102
{ACAD_REACTORS
330
16C
102
}
330
16C
100
DictionaryVariables
280
     0
  1
1
  0
DICTIONARYVAR
  5
175
102
{ACAD_REACTORS
330
16C
102
}
330
16C
100
DictionaryVariables
280
     0
  1
15
  0
DICTIONARYVAR
  5
173
102
{ACAD_REACTORS
330
16C
102
}
330
16C
100
DictionaryVariables
280
     0
  1
0
  0
DICTIONARYVAR
  5
171
102
{ACAD_REACTORS
330
16C
102
}
330
16C
100
DictionaryVariables
280
     0
  1
0
  0
DICTIONARY
  5
1AD
330
F6
100
AcDbDictionary
280
     1
281
     1
  3
ACAD_XREC_ROUNDTRIP
360
1AE
  0
DICTIONARY
  5
B4
330
B3
100
AcDbDictionary
280
     1
281
     1
  3
BUMPTILE
360
B6
  3
DIFFUSETILE
360
B5
  3
OPACITYTILE
360
B9
  3
REFLECTIONTILE
360
B8
  3
REFRACTIONTILE
360
BA
  3
SPECULARTILE
360
B7
  0
DICTIONARY
  5
AC
330
AB
100
AcDbDictionary
280
     1
281
     1
  3
BUMPTILE
360
AE
  3
DIFFUSETILE
360
AD
  3
OPACITYTILE
360
B1
  3
REFLECTIONTILE
360
B0
  3
REFRACTIONTILE
360
B2
  3
SPECULARTILE
360
AF
  0
DICTIONARY
  5
BC
330
BB
100
AcDbDictionary
280
     1
281
     1
  3
BUMPTILE
360
BE
  3
DIFFUSETILE
360
BD
  3
OPACITYTILE
360
C1
  3
REFLECTIONTILE
360
C0
  3
REFRACTIONTILE
360
C2
  3
SPECULARTILE
360
BF
  0
DICTIONARY
  5
1A9
330
F2
100
AcDbDictionary
280
     1
281
     1
  3
ACAD_XREC_ROUNDTRIP
360
1AA
  0
DICTIONARY
  5
1AB
330
F4
100
AcDbDictionary
280
     1
281
     1
  3
ACAD_XREC_ROUNDTRIP
360
1AC
  0
DICTIONARY
  5
176
330
DE
100
AcDbDictionary
280
     1
281
     1
  3
ACAD_ROUNDTRIP_2008_TABLESTYLE_CELLSTYLEMAP
360
177
  0
DICTIONARY
  5
183
330
C9
100
AcDbDictionary
280
     1
281
     1
  3
ACAD_XREC_ROUNDTRIP
360
184
  0
DICTIONARY
  5
181
330
C8
100
AcDbDictionary
280
     1
281
     1
  3
ACAD_XREC_ROUNDTRIP
360
182
  0
DICTIONARY
  5
18F
330
CF
100
AcDbDictionary
280
     1
281
     1
  3
ACAD_XREC_ROUNDTRIP
360
190
  0
DICTIONARY
  5
197
330
D3
100
AcDbDictionary
280
     1
281
     1
  3
ACAD_XREC_ROUNDTRIP
360
198
  0
DICTIONARY
  5
189
330
CC
100
AcDbDictionary
280
     1
281
     1
  3
ACAD_XREC_ROUNDTRIP
360
18A
  0
DICTIONARY
  5
18D
330
CE
100
AcDbDictionary
280
     1
281
     1
  3
ACAD_XREC_ROUNDTRIP
360
18E
  0
DICTIONARY
  5
1A7
330
DB
100
AcDbDictionary
280
     1
281
     1
  3
ACAD_XREC_ROUNDTRIP
360
1A8
  0
DICTIONARY
  5
195
330
D2
100
AcDbDictionary
280
     1
281
     1
  3
ACAD_XREC_ROUNDTRIP
360
196
  0
DICTIONARY
  5
179
330
C4
100
AcDbDictionary
280
     1
281
     1
  3
ACAD_XREC_ROUNDTRIP
360
17A
  0
DICTIONARY
  5
17B
330
C5
100
AcDbDictionary
280
     1
281
     1
  3
ACAD_XREC_ROUNDTRIP
360
17C
  0
DICTIONARY
  5
17D
330
C6
100
AcDbDictionary
280
     1
281
     1
  3
ACAD_XREC_ROUNDTRIP
360
17E
  0
DICTIONARY
  5
17F
330
C7
100
AcDbDictionary
280
     1
281
     1
  3
ACAD_XREC_ROUNDTRIP
360
180
  0
DICTIONARY
  5
187
330
CB
100
AcDbDictionary
280
     1
281
     1
  3
ACAD_XREC_ROUNDTRIP
360
188
  0
DICTIONARY
  5
1A3
330
D9
100
AcDbDictionary
280
     1
281
     1
  3
ACAD_XREC_ROUNDTRIP
360
1A4
  0
DICTIONARY
  5
193
330
D1
100
AcDbDictionary
280
     1
281
     1
  3
ACAD_XREC_ROUNDTRIP
360
194
  0
DICTIONARY
  5
1A5
330
DA
100
AcDbDictionary
280
     1
281
     1
  3
ACAD_XREC_ROUNDTRIP
360
1A6
  0
DICTIONARY
  5
18B
330
CD
100
AcDbDictionary
280
     1
281
     1
  3
ACAD_XREC_ROUNDTRIP
360
18C
  0
DICTIONARY
  5
1A1
330
D8
100
AcDbDictionary
280
     1
281
     1
  3
ACAD_XREC_ROUNDTRIP
360
1A2
  0
DICTIONARY
  5
19F
330
D7
100
AcDbDictionary
280
     1
281
     1
  3
ACAD_XREC_ROUNDTRIP
360
1A0
  0
DICTIONARY
  5
199
330
D4
100
AcDbDictionary
280
     1
281
     1
  3
ACAD_XREC_ROUNDTRIP
360
19A
  0
DICTIONARY
  5
19B
330
D5
100
AcDbDictionary
280
     1
281
     1
  3
ACAD_XREC_ROUNDTRIP
360
19C
  0
DICTIONARY
  5
191
330
D0
100
AcDbDictionary
280
     1
281
     1
  3
ACAD_XREC_ROUNDTRIP
360
192
  0
DICTIONARY
  5
185
330
CA
100
AcDbDictionary
280
     1
281
     1
  3
ACAD_XREC_ROUNDTRIP
360
186
  0
DICTIONARY
  5
19D
330
D6
100
AcDbDictionary
280
     1
281
     1
  3
ACAD_XREC_ROUNDTRIP
360
19E
  0
XRECORD
  5
1AE
102
{ACAD_REACTORS
330
1AD
102
}
330
1AD
100
AcDbXrecord
280
     1
102
DISPLAYNAME
  1
Imperial24
102
FLAGS
 90
        0
  0
XRECORD
  5
B6
102
{ACAD_REACTORS
330
B4
102
}
330
B4
100
AcDbXrecord
280
     1
270
     1
271
     1
  0
XRECORD
  5
B5
102
{ACAD_REACTORS
330
B4
102
}
330
B4
100
AcDbXrecord
280
     1
270
     1
271
     1
  0
XRECORD
  5
B9
102
{ACAD_REACTORS
330
B4
102
}
330
B4
100
AcDbXrecord
280
     1
270
     1
271
     1
  0
XRECORD
  5
B8
102
{ACAD_REACTORS
330
B4
102
}
330
B4
100
AcDbXrecord
280
     1
270
     1
271
     1
  0
XRECORD
  5
BA
102
{ACAD_REACTORS
330
B4
102
}
330
B4
100
AcDbXrecord
280
     1
270
     1
271
     1
  0
XRECORD
  5
B7
102
{ACAD_REACTORS
330
B4
102
}
330
B4
100
AcDbXrecord
280
     1
270
     1
271
     1
  0
XRECORD
  5
AE
102
{ACAD_REACTORS
330
AC
102
}
330
AC
100
AcDbXrecord
280
     1
270
     1
271
     1
  0
XRECORD
  5
AD
102
{ACAD_REACTORS
330
AC
102
}
330
AC
100
AcDbXrecord
280
     1
270
     1
271
     1
  0
XRECORD
  5
B1
102
{ACAD_REACTORS
330
AC
102
}
330
AC
100
AcDbXrecord
280
     1
270
     1
271
     1
  0
XRECORD
  5
B0
102
{ACAD_REACTORS
330
AC
102
}
330
AC
100
AcDbXrecord
280
     1
270
     1
271
     1
  0
XRECORD
  5
B2
102
{ACAD_REACTORS
330
AC
102
}
330
AC
100
AcDbXrecord
280
     1
270
     1
271
     1
  0
XRECORD
  5
AF
102
{ACAD_REACTORS
330
AC
102
}
330
AC
100
AcDbXrecord
280
     1
270
     1
271
     1
  0
XRECORD
  5
BE
102
{ACAD_REACTORS
330
BC
102
}
330
BC
100
AcDbXrecord
280
     1
270
     1
271
     1
  0
XRECORD
  5
BD
102
{ACAD_REACTORS
330
BC
102
}
330
BC
100
AcDbXrecord
280
     1
270
     1
271
     1
  0
XRECORD
  5
C1
102
{ACAD_REACTORS
330
BC
102
}
330
BC
100
AcDbXrecord
280
     1
270
     1
271
     1
  0
XRECORD
  5
C0
102
{ACAD_REACTORS
330
BC
102
}
330
BC
100
AcDbXrecord
280
     1
270
     1
271
     1
  0
XRECORD
  5
C2
102
{ACAD_REACTORS
330
BC
102
}
330
BC
100
AcDbXrecord
280
     1
270
     1
271
     1
  0
XRECORD
  5
BF
102
{ACAD_REACTORS
330
BC
102
}
330
BC
100
AcDbXrecord
280
     1
270
     1
271
     1
  0
XRECORD
  5
1AA
102
{ACAD_REACTORS
330
1A9
102
}
330
1A9
100
AcDbXrecord
280
     1
102
ACAD_ROUNDTRIP_2012_MLEADER_STYLE
298
     1
  0
XRECORD
  5
1AC
102
{ACAD_REACTORS
330
1AB
102
}
330
1AB
100
AcDbXrecord
280
     1
102
DISPLAYNAME
  1
Imperial24
102
FLAGS
 90
        0
  0
CELLSTYLEMAP
  5
177
102
{ACAD_REACTORS
330
176
102
}
330
176
100
AcDbCellStyleMap
 90
        3
300
CELLSTYLE
  1
TABLEFORMAT_BEGIN
 90
        5
170
     1
 91
        0
 92
    32768
 62
   257
 93
        1
300
CONTENTFORMAT
  1
CONTENTFORMAT_BEGIN
 90
        0
 91
        0
 92
      512
 93
        0
300

 40
0.0
140
1.0
 94
        5
 62
     0
340
11
144
0.25
309
CONTENTFORMAT_END
171
     0
 94
        0
309
TABLEFORMAT_END
  1
CELLSTYLE_BEGIN
 90
        1
 91
        1
300
_TITLE
309
CELLSTYLE_END
300
CELLSTYLE
  1
TABLEFORMAT_BEGIN
 90
        5
170
     1
 91
        0
 92
        0
 62
   257
 93
        1
300
CONTENTFORMAT
  1
CONTENTFORMAT_BEGIN
 90
        0
 91
        0
 92
      512
 93
        0
300

 40
0.0
140
1.0
 94
        5
 62
     0
340
11
144
0.18
309
CONTENTFORMAT_END
171
     0
 94
        0
309
TABLEFORMAT_END
  1
CELLSTYLE_BEGIN
 90
        2
 91
        1
300
_HEADER
309
CELLSTYLE_END
300
CELLSTYLE
  1
TABLEFORMAT_BEGIN
 90
        5
170
     1
 91
        0
 92
        0
 62
   257
 93
        1
300
CONTENTFORMAT
  1
CONTENTFORMAT_BEGIN
 90
        0
 91
        0
 92
      512
 93
        0
300

 40
0.0
140
1.0
 94
        2
 62
     0
340
11
144
0.18
309
CONTENTFORMAT_END
171
     0
 94
        0
309
TABLEFORMAT_END
  1
CELLSTYLE_BEGIN
 90
        3
 91
        2
300
_DATA
309
CELLSTYLE_END
  0
XRECORD
  5
184
102
{ACAD_REACTORS
330
183
102
}
330
183
100
AcDbXrecord
280
     1
102
RTVSPost2010Prop28
280
     1
102
RTVSPost2010PropOp28
 70
     1
102
RTVSPost2010Prop29
280
     1
102
RTVSPost2010PropOp29
 70
     1
102
RTVSPost2010Prop30
280
     0
102
RTVSPost2010PropOp30
 70
     1
102
RTVSPost2010Prop31
280
     0
102
RTVSPost2010PropOp31
 70
     1
102
RTVSPost2010Prop32
280
     0
102
RTVSPost2010PropOp32
 70
     1
102
RTVSPost2010Prop33
280
     0
102
RTVSPost2010PropOp33
 70
     1
102
RTVSPost2010Prop34
280
     0
102
RTVSPost2010PropOp34
 70
     1
102
RTVSPost2010Prop35
280
     0
102
RTVSPost2010PropOp35
 70
     1
102
RTVSPost2010Prop36
280
     0
102
RTVSPost2010PropOp36
 70
     1
102
RTVSPost2010Prop37
 90
       50
102
RTVSPost2010PropOp37
 70
     1
102
RTVSPost2010Prop38
140
0.0
102
RTVSPost2010PropOp38
 70
     1
102
RTVSPost2010Prop39
140
1.0
102
RTVSPost2010PropOp39
 70
     1
102
RTVSPost2010Prop40
 90
        0
102
RTVSPost2010PropOp40
 70
     1
102
RTVSPost2010Prop41ColorIndex
 90
       18
102
RTVSPost2010Prop41ColorRGB
 90
        0
102
RTVSPost2010PropOp41
 70
     1
102
RTVSPost2010Prop42
 90
       50
102
RTVSPost2010PropOp42
 70
     1
102
RTVSPost2010Prop43
 90
        3
102
RTVSPost2010PropOp43
 70
     1
102
RTVSPost2010Prop44ColorIndex
 90
        5
102
RTVSPost2010Prop44ColorRGB
 90
      255
102
RTVSPost2010PropOp44
 70
     1
102
RTVSPost2010Prop45
280
     0
102
RTVSPost2010PropOp45
 70
     1
102
RTVSPost2010Prop46
 90
       50
102
RTVSPost2010PropOp46
 70
     1
102
RTVSPost2010Prop47
 90
       50
102
RTVSPost2010PropOp47
 70
     1
102
RTVSPost2010Prop48
 90
       50
102
RTVSPost2010PropOp48
 70
     1
102
RTVSPost2010Prop49
280
     0
102
RTVSPost2010PropOp49
 70
     1
102
RTVSPost2010Prop50
 90
       50
102
RTVSPost2010PropOp50
 70
     1
102
RTVSPost2010Prop51ColorIndex
 90
      256
102
RTVSPost2010Prop51ColorRGB
 90
-16777216
102
RTVSPost2010PropOp51
 70
     0
102
RTVSPost2010Prop52
140
1.0
102
RTVSPost2010PropOp52
 70
     0
102
RTVSPost2010Prop53
 90
        2
102
RTVSPost2010PropOp53
 70
     1
102
RTVSPost2010Prop54
  1
strokes_ogs.tif
102
RTVSPost2010PropOp54
 70
     1
102
RTVSPost2010Prop55
280
     0
102
RTVSPost2010PropOp55
 70
     1
102
RTVSPost2010Prop56
140
1.0
102
RTVSPost2010PropOp56
 70
     1
102
RTVSPost2010Prop57
140
1.0
102
RTVSPost2010PropOp57
 70
     1
  0
XRECORD
  5
182
102
{ACAD_REACTORS
330
181
102
}
330
181
100
AcDbXrecord
280
     1
102
RTVSPost2010Prop28
280
     0
102
RTVSPost2010PropOp28
 70
     1
102
RTVSPost2010Prop29
280
     1
102
RTVSPost2010PropOp29
 70
     1
102
RTVSPost2010Prop30
280
     1
102
RTVSPost2010PropOp30
 70
     1
102
RTVSPost2010Prop31
280
     0
102
RTVSPost2010PropOp31
 70
     1
102
RTVSPost2010Prop32
280
     0
102
RTVSPost2010PropOp32
 70
     1
102
RTVSPost2010Prop33
280
     0
102
RTVSPost2010PropOp33
 70
     1
102
RTVSPost2010Prop34
280
     0
102
RTVSPost2010PropOp34
 70
     1
102
RTVSPost2010Prop35
280
     0
102
RTVSPost2010PropOp35
 70
     1
102
RTVSPost2010Prop36
280
     0
102
RTVSPost2010PropOp36
 70
     1
102
RTVSPost2010Prop37
 90
       50
102
RTVSPost2010PropOp37
 70
     1
102
RTVSPost2010Prop38
140
0.0
102
RTVSPost2010PropOp38
 70
     1
102
RTVSPost2010Prop39
140
1.0
102
RTVSPost2010PropOp39
 70
     1
102
RTVSPost2010Prop40
 90
        0
102
RTVSPost2010PropOp40
 70
     1
102
RTVSPost2010Prop41ColorIndex
 90
       18
102
RTVSPost2010Prop41ColorRGB
 90
        0
102
RTVSPost2010PropOp41
 70
     1
102
RTVSPost2010Prop42
 90
       50
102
RTVSPost2010PropOp42
 70
     1
102
RTVSPost2010Prop43
 90
        3
102
RTVSPost2010PropOp43
 70
     1
102
RTVSPost2010Prop44ColorIndex
 90
        5
102
RTVSPost2010Prop44ColorRGB
 90
      255
102
RTVSPost2010PropOp44
 70
     1
102
RTVSPost2010Prop45
280
     0
102
RTVSPost2010PropOp45
 70
     1
102
RTVSPost2010Prop46
 90
       50
102
RTVSPost2010PropOp46
 70
     1
102
RTVSPost2010Prop47
 90
       50
102
RTVSPost2010PropOp47
 70
     1
102
RTVSPost2010Prop48
 90
       50
102
RTVSPost2010PropOp48
 70
     1
102
RTVSPost2010Prop49
280
     0
102
RTVSPost2010PropOp49
 70
     1
102
RTVSPost2010Prop50
 90
       50
102
RTVSPost2010PropOp50
 70
     1
102
RTVSPost2010Prop51ColorIndex
 90
      256
102
RTVSPost2010Prop51ColorRGB
 90
-16777216
102
RTVSPost2010PropOp51
 70
     0
102
RTVSPost2010Prop52
140
1.0
102
RTVSPost2010PropOp52
 70
     0
102
RTVSPost2010Prop53
 90
        2
102
RTVSPost2010PropOp53
 70
     1
102
RTVSPost2010Prop54
  1
strokes_ogs.tif
102
RTVSPost2010PropOp54
 70
     1
102
RTVSPost2010Prop55
280
     0
102
RTVSPost2010PropOp55
 70
     1
102
RTVSPost2010Prop56
140
1.0
102
RTVSPost2010PropOp56
 70
     1
102
RTVSPost2010Prop57
140
1.0
102
RTVSPost2010PropOp57
 70
     1
  0
XRECORD
  5
190
102
{ACAD_REACTORS
330
18F
102
}
330
18F
100
AcDbXrecord
280
     1
102
RTVSPost2010Prop28
280
     0
102
RTVSPost2010PropOp28
 70
     1
102
RTVSPost2010Prop29
280
     1
102
RTVSPost2010PropOp29
 70
     1
102
RTVSPost2010Prop30
280
     1
102
RTVSPost2010PropOp30
 70
     1
102
RTVSPost2010Prop31
280
     0
102
RTVSPost2010PropOp31
 70
     1
102
RTVSPost2010Prop32
280
     0
102
RTVSPost2010PropOp32
 70
     1
102
RTVSPost2010Prop33
280
     0
102
RTVSPost2010PropOp33
 70
     1
102
RTVSPost2010Prop34
280
     0
102
RTVSPost2010PropOp34
 70
     1
102
RTVSPost2010Prop35
280
     0
102
RTVSPost2010PropOp35
 70
     1
102
RTVSPost2010Prop36
280
     0
102
RTVSPost2010PropOp36
 70
     1
102
RTVSPost2010Prop37
 90
       50
102
RTVSPost2010PropOp37
 70
     1
102
RTVSPost2010Prop38
140
0.0
102
RTVSPost2010PropOp38
 70
     1
102
RTVSPost2010Prop39
140
1.0
102
RTVSPost2010PropOp39
 70
     1
102
RTVSPost2010Prop40
 90
        0
102
RTVSPost2010PropOp40
 70
     1
102
RTVSPost2010Prop41ColorIndex
 90
       18
102
RTVSPost2010Prop41ColorRGB
 90
        0
102
RTVSPost2010PropOp41
 70
     1
102
RTVSPost2010Prop42
 90
       50
102
RTVSPost2010PropOp42
 70
     1
102
RTVSPost2010Prop43
 90
        3
102
RTVSPost2010PropOp43
 70
     1
102
RTVSPost2010Prop44ColorIndex
 90
        5
102
RTVSPost2010Prop44ColorRGB
 90
      255
102
RTVSPost2010PropOp44
 70
     1
102
RTVSPost2010Prop45
280
     0
102
RTVSPost2010PropOp45
 70
     1
102
RTVSPost2010Prop46
 90
       50
102
RTVSPost2010PropOp46
 70
     1
102
RTVSPost2010Prop47
 90
       50
102
RTVSPost2010PropOp47
 70
     1
102
RTVSPost2010Prop48
 90
       50
102
RTVSPost2010PropOp48
 70
     1
102
RTVSPost2010Prop49
280
     0
102
RTVSPost2010PropOp49
 70
     1
102
RTVSPost2010Prop50
 90
       50
102
RTVSPost2010PropOp50
 70
     1
102
RTVSPost2010Prop51ColorIndex
 90
      256
102
RTVSPost2010Prop51ColorRGB
 90
-16777216
102
RTVSPost2010PropOp51
 70
     0
102
RTVSPost2010Prop52
140
1.0
102
RTVSPost2010PropOp52
 70
     0
102
RTVSPost2010Prop53
 90
        2
102
RTVSPost2010PropOp53
 70
     1
102
RTVSPost2010Prop54
  1
strokes_ogs.tif
102
RTVSPost2010PropOp54
 70
     1
102
RTVSPost2010Prop55
280
     0
102
RTVSPost2010PropOp55
 70
     1
102
RTVSPost2010Prop56
140
1.0
102
RTVSPost2010PropOp56
 70
     1
102
RTVSPost2010Prop57
140
1.0
102
RTVSPost2010PropOp57
 70
     1
  0
XRECORD
  5
198
102
{ACAD_REACTORS
330
197
102
}
330
197
100
AcDbXrecord
280
     1
102
RTVSPost2010Prop28
280
     0
102
RTVSPost2010PropOp28
 70
     1
102
RTVSPost2010Prop29
280
     1
102
RTVSPost2010PropOp29
 70
     1
102
RTVSPost2010Prop30
280
     1
102
RTVSPost2010PropOp30
 70
     1
102
RTVSPost2010Prop31
280
     0
102
RTVSPost2010PropOp31
 70
     1
102
RTVSPost2010Prop32
280
     0
102
RTVSPost2010PropOp32
 70
     1
102
RTVSPost2010Prop33
280
     0
102
RTVSPost2010PropOp33
 70
     1
102
RTVSPost2010Prop34
280
     0
102
RTVSPost2010PropOp34
 70
     1
102
RTVSPost2010Prop35
280
     0
102
RTVSPost2010PropOp35
 70
     1
102
RTVSPost2010Prop36
280
     0
102
RTVSPost2010PropOp36
 70
     1
102
RTVSPost2010Prop37
 90
       50
102
RTVSPost2010PropOp37
 70
     1
102
RTVSPost2010Prop38
140
0.0
102
RTVSPost2010PropOp38
 70
     1
102
RTVSPost2010Prop39
140
1.0
102
RTVSPost2010PropOp39
 70
     1
102
RTVSPost2010Prop40
 90
        0
102
RTVSPost2010PropOp40
 70
     1
102
RTVSPost2010Prop41ColorIndex
 90
       18
102
RTVSPost2010Prop41ColorRGB
 90
        0
102
RTVSPost2010PropOp41
 70
     1
102
RTVSPost2010Prop42
 90
       50
102
RTVSPost2010PropOp42
 70
     1
102
RTVSPost2010Prop43
 90
        3
102
RTVSPost2010PropOp43
 70
     1
102
RTVSPost2010Prop44ColorIndex
 90
        5
102
RTVSPost2010Prop44ColorRGB
 90
      255
102
RTVSPost2010PropOp44
 70
     1
102
RTVSPost2010Prop45
280
     0
102
RTVSPost2010PropOp45
 70
     1
102
RTVSPost2010Prop46
 90
       50
102
RTVSPost2010PropOp46
 70
     1
102
RTVSPost2010Prop47
 90
       50
102
RTVSPost2010PropOp47
 70
     1
102
RTVSPost2010Prop48
 90
       50
102
RTVSPost2010PropOp48
 70
     1
102
RTVSPost2010Prop49
280
     0
102
RTVSPost2010PropOp49
 70
     1
102
RTVSPost2010Prop50
 90
       50
102
RTVSPost2010PropOp50
 70
     1
102
RTVSPost2010Prop51ColorIndex
 90
      256
102
RTVSPost2010Prop51ColorRGB
 90
-16777216
102
RTVSPost2010PropOp51
 70
     0
102
RTVSPost2010Prop52
140
1.0
102
RTVSPost2010PropOp52
 70
     0
102
RTVSPost2010Prop53
 90
        2
102
RTVSPost2010PropOp53
 70
     1
102
RTVSPost2010Prop54
  1
strokes_ogs.tif
102
RTVSPost2010PropOp54
 70
     1
102
RTVSPost2010Prop55
280
     0
102
RTVSPost2010PropOp55
 70
     1
102
RTVSPost2010Prop56
140
1.0
102
RTVSPost2010PropOp56
 70
     1
102
RTVSPost2010Prop57
140
1.0
102
RTVSPost2010PropOp57
 70
     1
  0
XRECORD
  5
18A
102
{ACAD_REACTORS
330
189
102
}
330
189
100
AcDbXrecord
280
     1
102
RTVSPost2010Prop28
280
     0
102
RTVSPost2010PropOp28
 70
     1
102
RTVSPost2010Prop29
280
     1
102
RTVSPost2010PropOp29
 70
     1
102
RTVSPost2010Prop30
280
     1
102
RTVSPost2010PropOp30
 70
     1
102
RTVSPost2010Prop31
280
     0
102
RTVSPost2010PropOp31
 70
     1
102
RTVSPost2010Prop32
280
     0
102
RTVSPost2010PropOp32
 70
     1
102
RTVSPost2010Prop33
280
     0
102
RTVSPost2010PropOp33
 70
     1
102
RTVSPost2010Prop34
280
     0
102
RTVSPost2010PropOp34
 70
     1
102
RTVSPost2010Prop35
280
     0
102
RTVSPost2010PropOp35
 70
     1
102
RTVSPost2010Prop36
280
     0
102
RTVSPost2010PropOp36
 70
     1
102
RTVSPost2010Prop37
 90
       50
102
RTVSPost2010PropOp37
 70
     1
102
RTVSPost2010Prop38
140
0.0
102
RTVSPost2010PropOp38
 70
     1
102
RTVSPost2010Prop39
140
1.0
102
RTVSPost2010PropOp39
 70
     1
102
RTVSPost2010Prop40
 90
        0
102
RTVSPost2010PropOp40
 70
     1
102
RTVSPost2010Prop41ColorIndex
 90
       18
102
RTVSPost2010Prop41ColorRGB
 90
        0
102
RTVSPost2010PropOp41
 70
     1
102
RTVSPost2010Prop42
 90
       50
102
RTVSPost2010PropOp42
 70
     1
102
RTVSPost2010Prop43
 90
        3
102
RTVSPost2010PropOp43
 70
     1
102
RTVSPost2010Prop44ColorIndex
 90
        5
102
RTVSPost2010Prop44ColorRGB
 90
      255
102
RTVSPost2010PropOp44
 70
     1
102
RTVSPost2010Prop45
280
     0
102
RTVSPost2010PropOp45
 70
     1
102
RTVSPost2010Prop46
 90
       50
102
RTVSPost2010PropOp46
 70
     1
102
RTVSPost2010Prop47
 90
       50
102
RTVSPost2010PropOp47
 70
     1
102
RTVSPost2010Prop48
 90
       50
102
RTVSPost2010PropOp48
 70
     1
102
RTVSPost2010Prop49
280
     0
102
RTVSPost2010PropOp49
 70
     1
102
RTVSPost2010Prop50
 90
       50
102
RTVSPost2010PropOp50
 70
     1
102
RTVSPost2010Prop51ColorIndex
 90
      256
102
RTVSPost2010Prop51ColorRGB
 90
-16777216
102
RTVSPost2010PropOp51
 70
     0
102
RTVSPost2010Prop52
140
1.0
102
RTVSPost2010PropOp52
 70
     0
102
RTVSPost2010Prop53
 90
        2
102
RTVSPost2010PropOp53
 70
     1
102
RTVSPost2010Prop54
  1
strokes_ogs.tif
102
RTVSPost2010PropOp54
 70
     1
102
RTVSPost2010Prop55
280
     0
102
RTVSPost2010PropOp55
 70
     1
102
RTVSPost2010Prop56
140
1.0
102
RTVSPost2010PropOp56
 70
     1
102
RTVSPost2010Prop57
140
1.0
102
RTVSPost2010PropOp57
 70
     1
  0
XRECORD
  5
18E
102
{ACAD_REACTORS
330
18D
102
}
330
18D
100
AcDbXrecord
280
     1
102
RTVSPost2010Prop28
280
     0
102
RTVSPost2010PropOp28
 70
     1
102
RTVSPost2010Prop29
280
     1
102
RTVSPost2010PropOp29
 70
     1
102
RTVSPost2010Prop30
280
     1
102
RTVSPost2010PropOp30
 70
     1
102
RTVSPost2010Prop31
280
     0
102
RTVSPost2010PropOp31
 70
     1
102
RTVSPost2010Prop32
280
     0
102
RTVSPost2010PropOp32
 70
     1
102
RTVSPost2010Prop33
280
     0
102
RTVSPost2010PropOp33
 70
     1
102
RTVSPost2010Prop34
280
     0
102
RTVSPost2010PropOp34
 70
     1
102
RTVSPost2010Prop35
280
     0
102
RTVSPost2010PropOp35
 70
     1
102
RTVSPost2010Prop36
280
     0
102
RTVSPost2010PropOp36
 70
     1
102
RTVSPost2010Prop37
 90
       50
102
RTVSPost2010PropOp37
 70
     1
102
RTVSPost2010Prop38
140
0.0
102
RTVSPost2010PropOp38
 70
     1
102
RTVSPost2010Prop39
140
1.0
102
RTVSPost2010PropOp39
 70
     1
102
RTVSPost2010Prop40
 90
        0
102
RTVSPost2010PropOp40
 70
     1
102
RTVSPost2010Prop41ColorIndex
 90
       18
102
RTVSPost2010Prop41ColorRGB
 90
        0
102
RTVSPost2010PropOp41
 70
     1
102
RTVSPost2010Prop42
 90
       50
102
RTVSPost2010PropOp42
 70
     1
102
RTVSPost2010Prop43
 90
        3
102
RTVSPost2010PropOp43
 70
     1
102
RTVSPost2010Prop44ColorIndex
 90
        5
102
RTVSPost2010Prop44ColorRGB
 90
      255
102
RTVSPost2010PropOp44
 70
     1
102
RTVSPost2010Prop45
280
     0
102
RTVSPost2010PropOp45
 70
     1
102
RTVSPost2010Prop46
 90
       50
102
RTVSPost2010PropOp46
 70
     1
102
RTVSPost2010Prop47
 90
       50
102
RTVSPost2010PropOp47
 70
     1
102
RTVSPost2010Prop48
 90
       50
102
RTVSPost2010PropOp48
 70
     1
102
RTVSPost2010Prop49
280
     0
102
RTVSPost2010PropOp49
 70
     1
102
RTVSPost2010Prop50
 90
       50
102
RTVSPost2010PropOp50
 70
     1
102
RTVSPost2010Prop51ColorIndex
 90
      256
102
RTVSPost2010Prop51ColorRGB
 90
-16777216
102
RTVSPost2010PropOp51
 70
     0
102
RTVSPost2010Prop52
140
1.0
102
RTVSPost2010PropOp52
 70
     0
102
RTVSPost2010Prop53
 90
        2
102
RTVSPost2010PropOp53
 70
     1
102
RTVSPost2010Prop54
  1
strokes_ogs.tif
102
RTVSPost2010PropOp54
 70
     1
102
RTVSPost2010Prop55
280
     0
102
RTVSPost2010PropOp55
 70
     1
102
RTVSPost2010Prop56
140
1.0
102
RTVSPost2010PropOp56
 70
     1
102
RTVSPost2010Prop57
140
1.0
102
RTVSPost2010PropOp57
 70
     1
  0
XRECORD
  5
1A8
102
{ACAD_REACTORS
330
1A7
102
}
330
1A7
100
AcDbXrecord
280
     1
102
RTVSPost2010Prop28
280
     0
102
RTVSPost2010PropOp28
 70
     0
102
RTVSPost2010Prop29
280
     1
102
RTVSPost2010PropOp29
 70
     0
102
RTVSPost2010Prop30
280
     1
102
RTVSPost2010PropOp30
 70
     0
102
RTVSPost2010Prop31
280
     0
102
RTVSPost2010PropOp31
 70
     0
102
RTVSPost2010Prop32
280
     0
102
RTVSPost2010PropOp32
 70
     0
102
RTVSPost2010Prop33
280
     0
102
RTVSPost2010PropOp33
 70
     0
102
RTVSPost2010Prop34
280
     0
102
RTVSPost2010PropOp34
 70
     0
102
RTVSPost2010Prop35
280
     0
102
RTVSPost2010PropOp35
 70
     0
102
RTVSPost2010Prop36
280
     0
102
RTVSPost2010PropOp36
 70
     0
102
RTVSPost2010Prop37
 90
       50
102
RTVSPost2010PropOp37
 70
     0
102
RTVSPost2010Prop38
140
0.0
102
RTVSPost2010PropOp38
 70
     0
102
RTVSPost2010Prop39
140
1.0
102
RTVSPost2010PropOp39
 70
     0
102
RTVSPost2010Prop40
 90
        0
102
RTVSPost2010PropOp40
 70
     0
102
RTVSPost2010Prop41ColorIndex
 90
       18
102
RTVSPost2010Prop41ColorRGB
 90
        0
102
RTVSPost2010PropOp41
 70
     0
102
RTVSPost2010Prop42
 90
       50
102
RTVSPost2010PropOp42
 70
     0
102
RTVSPost2010Prop43
 90
        3
102
RTVSPost2010PropOp43
 70
     0
102
RTVSPost2010Prop44ColorIndex
 90
        5
102
RTVSPost2010Prop44ColorRGB
 90
      255
102
RTVSPost2010PropOp44
 70
     0
102
RTVSPost2010Prop45
280
     0
102
RTVSPost2010PropOp45
 70
     0
102
RTVSPost2010Prop46
 90
       50
102
RTVSPost2010PropOp46
 70
     0
102
RTVSPost2010Prop47
 90
       50
102
RTVSPost2010PropOp47
 70
     0
102
RTVSPost2010Prop48
 90
       50
102
RTVSPost2010PropOp48
 70
     0
102
RTVSPost2010Prop49
280
     0
102
RTVSPost2010PropOp49
 70
     0
102
RTVSPost2010Prop50
 90
       50
102
RTVSPost2010PropOp50
 70
     0
102
RTVSPost2010Prop51ColorIndex
 90
      256
102
RTVSPost2010Prop51ColorRGB
 90
-16777216
102
RTVSPost2010PropOp51
 70
     0
102
RTVSPost2010Prop52
140
1.0
102
RTVSPost2010PropOp52
 70
     0
102
RTVSPost2010Prop53
 90
        2
102
RTVSPost2010PropOp53
 70
     0
102
RTVSPost2010Prop54
  1
strokes_ogs.tif
102
RTVSPost2010PropOp54
 70
     0
102
RTVSPost2010Prop55
280
     0
102
RTVSPost2010PropOp55
 70
     0
102
RTVSPost2010Prop56
140
1.0
102
RTVSPost2010PropOp56
 70
     0
102
RTVSPost2010Prop57
140
1.0
102
RTVSPost2010PropOp57
 70
     0
  0
XRECORD
  5
196
102
{ACAD_REACTORS
330
195
102
}
330
195
100
AcDbXrecord
280
     1
102
RTVSPost2010Prop28
280
     0
102
RTVSPost2010PropOp28
 70
     1
102
RTVSPost2010Prop29
280
     1
102
RTVSPost2010PropOp29
 70
     1
102
RTVSPost2010Prop30
280
     1
102
RTVSPost2010PropOp30
 70
     1
102
RTVSPost2010Prop31
280
     0
102
RTVSPost2010PropOp31
 70
     1
102
RTVSPost2010Prop32
280
     0
102
RTVSPost2010PropOp32
 70
     1
102
RTVSPost2010Prop33
280
     0
102
RTVSPost2010PropOp33
 70
     1
102
RTVSPost2010Prop34
280
     0
102
RTVSPost2010PropOp34
 70
     1
102
RTVSPost2010Prop35
280
     0
102
RTVSPost2010PropOp35
 70
     1
102
RTVSPost2010Prop36
280
     0
102
RTVSPost2010PropOp36
 70
     1
102
RTVSPost2010Prop37
 90
       50
102
RTVSPost2010PropOp37
 70
     1
102
RTVSPost2010Prop38
140
0.0
102
RTVSPost2010PropOp38
 70
     1
102
RTVSPost2010Prop39
140
1.0
102
RTVSPost2010PropOp39
 70
     1
102
RTVSPost2010Prop40
 90
        0
102
RTVSPost2010PropOp40
 70
     1
102
RTVSPost2010Prop41ColorIndex
 90
       18
102
RTVSPost2010Prop41ColorRGB
 90
        0
102
RTVSPost2010PropOp41
 70
     1
102
RTVSPost2010Prop42
 90
       50
102
RTVSPost2010PropOp42
 70
     1
102
RTVSPost2010Prop43
 90
        3
102
RTVSPost2010PropOp43
 70
     1
102
RTVSPost2010Prop44ColorIndex
 90
        5
102
RTVSPost2010Prop44ColorRGB
 90
      255
102
RTVSPost2010PropOp44
 70
     1
102
RTVSPost2010Prop45
280
     0
102
RTVSPost2010PropOp45
 70
     1
102
RTVSPost2010Prop46
 90
       50
102
RTVSPost2010PropOp46
 70
     1
102
RTVSPost2010Prop47
 90
       50
102
RTVSPost2010PropOp47
 70
     1
102
RTVSPost2010Prop48
 90
       50
102
RTVSPost2010PropOp48
 70
     1
102
RTVSPost2010Prop49
280
     0
102
RTVSPost2010PropOp49
 70
     1
102
RTVSPost2010Prop50
 90
       50
102
RTVSPost2010PropOp50
 70
     1
102
RTVSPost2010Prop51ColorIndex
 90
      256
102
RTVSPost2010Prop51ColorRGB
 90
-16777216
102
RTVSPost2010PropOp51
 70
     0
102
RTVSPost2010Prop52
140
1.0
102
RTVSPost2010PropOp52
 70
     0
102
RTVSPost2010Prop53
 90
        2
102
RTVSPost2010PropOp53
 70
     1
102
RTVSPost2010Prop54
  1
strokes_ogs.tif
102
RTVSPost2010PropOp54
 70
     1
102
RTVSPost2010Prop55
280
     0
102
RTVSPost2010PropOp55
 70
     1
102
RTVSPost2010Prop56
140
1.0
102
RTVSPost2010PropOp56
 70
     1
102
RTVSPost2010Prop57
140
1.0
102
RTVSPost2010PropOp57
 70
     1
  0
XRECORD
  5
17A
102
{ACAD_REACTORS
330
179
102
}
330
179
100
AcDbXrecord
280
     1
102
RTVSPost2010Prop28
280
     0
102
RTVSPost2010PropOp28
 70
     1
102
RTVSPost2010Prop29
280
     1
102
RTVSPost2010PropOp29
 70
     1
102
RTVSPost2010Prop30
280
     1
102
RTVSPost2010PropOp30
 70
     1
102
RTVSPost2010Prop31
280
     0
102
RTVSPost2010PropOp31
 70
     1
102
RTVSPost2010Prop32
280
     0
102
RTVSPost2010PropOp32
 70
     1
102
RTVSPost2010Prop33
280
     0
102
RTVSPost2010PropOp33
 70
     1
102
RTVSPost2010Prop34
280
     0
102
RTVSPost2010PropOp34
 70
     1
102
RTVSPost2010Prop35
280
     0
102
RTVSPost2010PropOp35
 70
     1
102
RTVSPost2010Prop36
280
     0
102
RTVSPost2010PropOp36
 70
     1
102
RTVSPost2010Prop37
 90
       50
102
RTVSPost2010PropOp37
 70
     1
102
RTVSPost2010Prop38
140
0.0
102
RTVSPost2010PropOp38
 70
     1
102
RTVSPost2010Prop39
140
1.0
102
RTVSPost2010PropOp39
 70
     1
102
RTVSPost2010Prop40
 90
        0
102
RTVSPost2010PropOp40
 70
     1
102
RTVSPost2010Prop41ColorIndex
 90
       18
102
RTVSPost2010Prop41ColorRGB
 90
        0
102
RTVSPost2010PropOp41
 70
     1
102
RTVSPost2010Prop42
 90
       50
102
RTVSPost2010PropOp42
 70
     1
102
RTVSPost2010Prop43
 90
        3
102
RTVSPost2010PropOp43
 70
     1
102
RTVSPost2010Prop44ColorIndex
 90
        5
102
RTVSPost2010Prop44ColorRGB
 90
      255
102
RTVSPost2010PropOp44
 70
     1
102
RTVSPost2010Prop45
280
     0
102
RTVSPost2010PropOp45
 70
     1
102
RTVSPost2010Prop46
 90
       50
102
RTVSPost2010PropOp46
 70
     1
102
RTVSPost2010Prop47
 90
       50
102
RTVSPost2010PropOp47
 70
     1
102
RTVSPost2010Prop48
 90
       50
102
RTVSPost2010PropOp48
 70
     1
102
RTVSPost2010Prop49
280
     0
102
RTVSPost2010PropOp49
 70
     1
102
RTVSPost2010Prop50
 90
       50
102
RTVSPost2010PropOp50
 70
     1
102
RTVSPost2010Prop51ColorIndex
 90
      256
102
RTVSPost2010Prop51ColorRGB
 90
-16777216
102
RTVSPost2010PropOp51
 70
     0
102
RTVSPost2010Prop52
140
1.0
102
RTVSPost2010PropOp52
 70
     0
102
RTVSPost2010Prop53
 90
        2
102
RTVSPost2010PropOp53
 70
     1
102
RTVSPost2010Prop54
  1
strokes_ogs.tif
102
RTVSPost2010PropOp54
 70
     1
102
RTVSPost2010Prop55
280
     0
102
RTVSPost2010PropOp55
 70
     1
102
RTVSPost2010Prop56
140
1.0
102
RTVSPost2010PropOp56
 70
     1
102
RTVSPost2010Prop57
140
1.0
102
RTVSPost2010PropOp57
 70
     1
  0
XRECORD
  5
17C
102
{ACAD_REACTORS
330
17B
102
}
330
17B
100
AcDbXrecord
280
     1
102
RTVSPost2010Prop28
280
     0
102
RTVSPost2010PropOp28
 70
     1
102
RTVSPost2010Prop29
280
     1
102
RTVSPost2010PropOp29
 70
     1
102
RTVSPost2010Prop30
280
     1
102
RTVSPost2010PropOp30
 70
     1
102
RTVSPost2010Prop31
280
     0
102
RTVSPost2010PropOp31
 70
     1
102
RTVSPost2010Prop32
280
     0
102
RTVSPost2010PropOp32
 70
     1
102
RTVSPost2010Prop33
280
     0
102
RTVSPost2010PropOp33
 70
     1
102
RTVSPost2010Prop34
280
     0
102
RTVSPost2010PropOp34
 70
     1
102
RTVSPost2010Prop35
280
     0
102
RTVSPost2010PropOp35
 70
     1
102
RTVSPost2010Prop36
280
     0
102
RTVSPost2010PropOp36
 70
     1
102
RTVSPost2010Prop37
 90
       50
102
RTVSPost2010PropOp37
 70
     1
102
RTVSPost2010Prop38
140
0.0
102
RTVSPost2010PropOp38
 70
     1
102
RTVSPost2010Prop39
140
1.0
102
RTVSPost2010PropOp39
 70
     1
102
RTVSPost2010Prop40
 90
        0
102
RTVSPost2010PropOp40
 70
     1
102
RTVSPost2010Prop41ColorIndex
 90
       18
102
RTVSPost2010Prop41ColorRGB
 90
        0
102
RTVSPost2010PropOp41
 70
     1
102
RTVSPost2010Prop42
 90
       50
102
RTVSPost2010PropOp42
 70
     1
102
RTVSPost2010Prop43
 90
        3
102
RTVSPost2010PropOp43
 70
     1
102
RTVSPost2010Prop44ColorIndex
 90
        5
102
RTVSPost2010Prop44ColorRGB
 90
      255
102
RTVSPost2010PropOp44
 70
     1
102
RTVSPost2010Prop45
280
     0
102
RTVSPost2010PropOp45
 70
     1
102
RTVSPost2010Prop46
 90
       50
102
RTVSPost2010PropOp46
 70
     1
102
RTVSPost2010Prop47
 90
       50
102
RTVSPost2010PropOp47
 70
     1
102
RTVSPost2010Prop48
 90
       50
102
RTVSPost2010PropOp48
 70
     1
102
RTVSPost2010Prop49
280
     0
102
RTVSPost2010PropOp49
 70
     1
102
RTVSPost2010Prop50
 90
       50
102
RTVSPost2010PropOp50
 70
     1
102
RTVSPost2010Prop51ColorIndex
 90
      256
102
RTVSPost2010Prop51ColorRGB
 90
-16777216
102
RTVSPost2010PropOp51
 70
     0
102
RTVSPost2010Prop52
140
1.0
102
RTVSPost2010PropOp52
 70
     0
102
RTVSPost2010Prop53
 90
        2
102
RTVSPost2010PropOp53
 70
     1
102
RTVSPost2010Prop54
  1
strokes_ogs.tif
102
RTVSPost2010PropOp54
 70
     1
102
RTVSPost2010Prop55
280
     0
102
RTVSPost2010PropOp55
 70
     1
102
RTVSPost2010Prop56
140
1.0
102
RTVSPost2010PropOp56
 70
     1
102
RTVSPost2010Prop57
140
1.0
102
RTVSPost2010PropOp57
 70
     1
  0
XRECORD
  5
17E
102
{ACAD_REACTORS
330
17D
102
}
330
17D
100
AcDbXrecord
280
     1
102
RTVSPost2010Prop28
280
     0
102
RTVSPost2010PropOp28
 70
     1
102
RTVSPost2010Prop29
280
     1
102
RTVSPost2010PropOp29
 70
     1
102
RTVSPost2010Prop30
280
     1
102
RTVSPost2010PropOp30
 70
     1
102
RTVSPost2010Prop31
280
     0
102
RTVSPost2010PropOp31
 70
     1
102
RTVSPost2010Prop32
280
     0
102
RTVSPost2010PropOp32
 70
     1
102
RTVSPost2010Prop33
280
     0
102
RTVSPost2010PropOp33
 70
     1
102
RTVSPost2010Prop34
280
     0
102
RTVSPost2010PropOp34
 70
     1
102
RTVSPost2010Prop35
280
     0
102
RTVSPost2010PropOp35
 70
     1
102
RTVSPost2010Prop36
280
     0
102
RTVSPost2010PropOp36
 70
     1
102
RTVSPost2010Prop37
 90
       50
102
RTVSPost2010PropOp37
 70
     1
102
RTVSPost2010Prop38
140
0.0
102
RTVSPost2010PropOp38
 70
     1
102
RTVSPost2010Prop39
140
1.0
102
RTVSPost2010PropOp39
 70
     1
102
RTVSPost2010Prop40
 90
        0
102
RTVSPost2010PropOp40
 70
     1
102
RTVSPost2010Prop41ColorIndex
 90
       18
102
RTVSPost2010Prop41ColorRGB
 90
        0
102
RTVSPost2010PropOp41
 70
     1
102
RTVSPost2010Prop42
 90
       50
102
RTVSPost2010PropOp42
 70
     1
102
RTVSPost2010Prop43
 90
        3
102
RTVSPost2010PropOp43
 70
     1
102
RTVSPost2010Prop44ColorIndex
 90
        5
102
RTVSPost2010Prop44ColorRGB
 90
      255
102
RTVSPost2010PropOp44
 70
     1
102
RTVSPost2010Prop45
280
     0
102
RTVSPost2010PropOp45
 70
     1
102
RTVSPost2010Prop46
 90
       50
102
RTVSPost2010PropOp46
 70
     1
102
RTVSPost2010Prop47
 90
       50
102
RTVSPost2010PropOp47
 70
     1
102
RTVSPost2010Prop48
 90
       50
102
RTVSPost2010PropOp48
 70
     1
102
RTVSPost2010Prop49
280
     0
102
RTVSPost2010PropOp49
 70
     1
102
RTVSPost2010Prop50
 90
       50
102
RTVSPost2010PropOp50
 70
     1
102
RTVSPost2010Prop51ColorIndex
 90
      256
102
RTVSPost2010Prop51ColorRGB
 90
-16777216
102
RTVSPost2010PropOp51
 70
     0
102
RTVSPost2010Prop52
140
1.0
102
RTVSPost2010PropOp52
 70
     0
102
RTVSPost2010Prop53
 90
        2
102
RTVSPost2010PropOp53
 70
     1
102
RTVSPost2010Prop54
  1
strokes_ogs.tif
102
RTVSPost2010PropOp54
 70
     1
102
RTVSPost2010Prop55
280
     0
102
RTVSPost2010PropOp55
 70
     1
102
RTVSPost2010Prop56
140
1.0
102
RTVSPost2010PropOp56
 70
     1
102
RTVSPost2010Prop57
140
1.0
102
RTVSPost2010PropOp57
 70
     1
  0
XRECORD
  5
180
102
{ACAD_REACTORS
330
17F
102
}
330
17F
100
AcDbXrecord
280
     1
102
RTVSPost2010Prop28
280
     0
102
RTVSPost2010PropOp28
 70
     1
102
RTVSPost2010Prop29
280
     1
102
RTVSPost2010PropOp29
 70
     1
102
RTVSPost2010Prop30
280
     1
102
RTVSPost2010PropOp30
 70
     1
102
RTVSPost2010Prop31
280
     0
102
RTVSPost2010PropOp31
 70
     1
102
RTVSPost2010Prop32
280
     0
102
RTVSPost2010PropOp32
 70
     1
102
RTVSPost2010Prop33
280
     0
102
RTVSPost2010PropOp33
 70
     1
102
RTVSPost2010Prop34
280
     0
102
RTVSPost2010PropOp34
 70
     1
102
RTVSPost2010Prop35
280
     0
102
RTVSPost2010PropOp35
 70
     1
102
RTVSPost2010Prop36
280
     0
102
RTVSPost2010PropOp36
 70
     1
102
RTVSPost2010Prop37
 90
       50
102
RTVSPost2010PropOp37
 70
     1
102
RTVSPost2010Prop38
140
0.0
102
RTVSPost2010PropOp38
 70
     1
102
RTVSPost2010Prop39
140
1.0
102
RTVSPost2010PropOp39
 70
     1
102
RTVSPost2010Prop40
 90
        0
102
RTVSPost2010PropOp40
 70
     1
102
RTVSPost2010Prop41ColorIndex
 90
       18
102
RTVSPost2010Prop41ColorRGB
 90
        0
102
RTVSPost2010PropOp41
 70
     1
102
RTVSPost2010Prop42
 90
       50
102
RTVSPost2010PropOp42
 70
     1
102
RTVSPost2010Prop43
 90
        3
102
RTVSPost2010PropOp43
 70
     1
102
RTVSPost2010Prop44ColorIndex
 90
        5
102
RTVSPost2010Prop44ColorRGB
 90
      255
102
RTVSPost2010PropOp44
 70
     1
102
RTVSPost2010Prop45
280
     0
102
RTVSPost2010PropOp45
 70
     1
102
RTVSPost2010Prop46
 90
       50
102
RTVSPost2010PropOp46
 70
     1
102
RTVSPost2010Prop47
 90
       50
102
RTVSPost2010PropOp47
 70
     1
102
RTVSPost2010Prop48
 90
       50
102
RTVSPost2010PropOp48
 70
     1
102
RTVSPost2010Prop49
280
     0
102
RTVSPost2010PropOp49
 70
     1
102
RTVSPost2010Prop50
 90
       50
102
RTVSPost2010PropOp50
 70
     1
102
RTVSPost2010Prop51ColorIndex
 90
      256
102
RTVSPost2010Prop51ColorRGB
 90
-16777216
102
RTVSPost2010PropOp51
 70
     0
102
RTVSPost2010Prop52
140
1.0
102
RTVSPost2010PropOp52
 70
     0
102
RTVSPost2010Prop53
 90
        2
102
RTVSPost2010PropOp53
 70
     1
102
RTVSPost2010Prop54
  1
strokes_ogs.tif
102
RTVSPost2010PropOp54
 70
     1
102
RTVSPost2010Prop55
280
     0
102
RTVSPost2010PropOp55
 70
     1
102
RTVSPost2010Prop56
140
1.0
102
RTVSPost2010PropOp56
 70
     1
102
RTVSPost2010Prop57
140
1.0
102
RTVSPost2010PropOp57
 70
     1
  0
XRECORD
  5
188
102
{ACAD_REACTORS
330
187
102
}
330
187
100
AcDbXrecord
280
     1
102
RTVSPost2010Prop28
280
     0
102
RTVSPost2010PropOp28
 70
     1
102
RTVSPost2010Prop29
280
     1
102
RTVSPost2010PropOp29
 70
     1
102
RTVSPost2010Prop30
280
     1
102
RTVSPost2010PropOp30
 70
     1
102
RTVSPost2010Prop31
280
     0
102
RTVSPost2010PropOp31
 70
     1
102
RTVSPost2010Prop32
280
     0
102
RTVSPost2010PropOp32
 70
     1
102
RTVSPost2010Prop33
280
     0
102
RTVSPost2010PropOp33
 70
     1
102
RTVSPost2010Prop34
280
     0
102
RTVSPost2010PropOp34
 70
     1
102
RTVSPost2010Prop35
280
     0
102
RTVSPost2010PropOp35
 70
     1
102
RTVSPost2010Prop36
280
     0
102
RTVSPost2010PropOp36
 70
     1
102
RTVSPost2010Prop37
 90
       50
102
RTVSPost2010PropOp37
 70
     1
102
RTVSPost2010Prop38
140
0.0
102
RTVSPost2010PropOp38
 70
     1
102
RTVSPost2010Prop39
140
1.0
102
RTVSPost2010PropOp39
 70
     1
102
RTVSPost2010Prop40
 90
        0
102
RTVSPost2010PropOp40
 70
     1
102
RTVSPost2010Prop41ColorIndex
 90
       18
102
RTVSPost2010Prop41ColorRGB
 90
        0
102
RTVSPost2010PropOp41
 70
     1
102
RTVSPost2010Prop42
 90
       50
102
RTVSPost2010PropOp42
 70
     1
102
RTVSPost2010Prop43
 90
        3
102
RTVSPost2010PropOp43
 70
     1
102
RTVSPost2010Prop44ColorIndex
 90
        5
102
RTVSPost2010Prop44ColorRGB
 90
      255
102
RTVSPost2010PropOp44
 70
     1
102
RTVSPost2010Prop45
280
     0
102
RTVSPost2010PropOp45
 70
     1
102
RTVSPost2010Prop46
 90
       50
102
RTVSPost2010PropOp46
 70
     1
102
RTVSPost2010Prop47
 90
       50
102
RTVSPost2010PropOp47
 70
     1
102
RTVSPost2010Prop48
 90
       50
102
RTVSPost2010PropOp48
 70
     1
102
RTVSPost2010Prop49
280
     0
102
RTVSPost2010PropOp49
 70
     1
102
RTVSPost2010Prop50
 90
       50
102
RTVSPost2010PropOp50
 70
     1
102
RTVSPost2010Prop51ColorIndex
 90
      256
102
RTVSPost2010Prop51ColorRGB
 90
-16777216
102
RTVSPost2010PropOp51
 70
     0
102
RTVSPost2010Prop52
140
1.0
102
RTVSPost2010PropOp52
 70
     0
102
RTVSPost2010Prop53
 90
        2
102
RTVSPost2010PropOp53
 70
     1
102
RTVSPost2010Prop54
  1
strokes_ogs.tif
102
RTVSPost2010PropOp54
 70
     1
102
RTVSPost2010Prop55
280
     0
102
RTVSPost2010PropOp55
 70
     1
102
RTVSPost2010Prop56
140
1.0
102
RTVSPost2010PropOp56
 70
     1
102
RTVSPost2010Prop57
140
1.0
102
RTVSPost2010PropOp57
 70
     1
  0
XRECORD
  5
1A4
102
{ACAD_REACTORS
330
1A3
102
}
330
1A3
100
AcDbXrecord
280
     1
102
RTVSPost2010Prop28
280
     0
102
RTVSPost2010PropOp28
 70
     0
102
RTVSPost2010Prop29
280
     1
102
RTVSPost2010PropOp29
 70
     0
102
RTVSPost2010Prop30
280
     1
102
RTVSPost2010PropOp30
 70
     0
102
RTVSPost2010Prop31
280
     0
102
RTVSPost2010PropOp31
 70
     0
102
RTVSPost2010Prop32
280
     0
102
RTVSPost2010PropOp32
 70
     0
102
RTVSPost2010Prop33
280
     0
102
RTVSPost2010PropOp33
 70
     0
102
RTVSPost2010Prop34
280
     0
102
RTVSPost2010PropOp34
 70
     0
102
RTVSPost2010Prop35
280
     0
102
RTVSPost2010PropOp35
 70
     0
102
RTVSPost2010Prop36
280
     0
102
RTVSPost2010PropOp36
 70
     0
102
RTVSPost2010Prop37
 90
       50
102
RTVSPost2010PropOp37
 70
     0
102
RTVSPost2010Prop38
140
0.0
102
RTVSPost2010PropOp38
 70
     0
102
RTVSPost2010Prop39
140
1.0
102
RTVSPost2010PropOp39
 70
     0
102
RTVSPost2010Prop40
 90
        0
102
RTVSPost2010PropOp40
 70
     0
102
RTVSPost2010Prop41ColorIndex
 90
       18
102
RTVSPost2010Prop41ColorRGB
 90
        0
102
RTVSPost2010PropOp41
 70
     0
102
RTVSPost2010Prop42
 90
       50
102
RTVSPost2010PropOp42
 70
     0
102
RTVSPost2010Prop43
 90
        3
102
RTVSPost2010PropOp43
 70
     0
102
RTVSPost2010Prop44ColorIndex
 90
        5
102
RTVSPost2010Prop44ColorRGB
 90
      255
102
RTVSPost2010PropOp44
 70
     0
102
RTVSPost2010Prop45
280
     0
102
RTVSPost2010PropOp45
 70
     0
102
RTVSPost2010Prop46
 90
       50
102
RTVSPost2010PropOp46
 70
     0
102
RTVSPost2010Prop47
 90
       50
102
RTVSPost2010PropOp47
 70
     0
102
RTVSPost2010Prop48
 90
       50
102
RTVSPost2010PropOp48
 70
     0
102
RTVSPost2010Prop49
280
     0
102
RTVSPost2010PropOp49
 70
     0
102
RTVSPost2010Prop50
 90
       50
102
RTVSPost2010PropOp50
 70
     0
102
RTVSPost2010Prop51ColorIndex
 90
      256
102
RTVSPost2010Prop51ColorRGB
 90
-16777216
102
RTVSPost2010PropOp51
 70
     0
102
RTVSPost2010Prop52
140
1.0
102
RTVSPost2010PropOp52
 70
     0
102
RTVSPost2010Prop53
 90
        2
102
RTVSPost2010PropOp53
 70
     0
102
RTVSPost2010Prop54
  1
strokes_ogs.tif
102
RTVSPost2010PropOp54
 70
     0
102
RTVSPost2010Prop55
280
     0
102
RTVSPost2010PropOp55
 70
     0
102
RTVSPost2010Prop56
140
1.0
102
RTVSPost2010PropOp56
 70
     0
102
RTVSPost2010Prop57
140
1.0
102
RTVSPost2010PropOp57
 70
     0
  0
XRECORD
  5
194
102
{ACAD_REACTORS
330
193
102
}
330
193
100
AcDbXrecord
280
     1
102
RTVSPost2010Prop28
280
     0
102
RTVSPost2010PropOp28
 70
     1
102
RTVSPost2010Prop29
280
     1
102
RTVSPost2010PropOp29
 70
     1
102
RTVSPost2010Prop30
280
     1
102
RTVSPost2010PropOp30
 70
     1
102
RTVSPost2010Prop31
280
     0
102
RTVSPost2010PropOp31
 70
     1
102
RTVSPost2010Prop32
280
     0
102
RTVSPost2010PropOp32
 70
     1
102
RTVSPost2010Prop33
280
     0
102
RTVSPost2010PropOp33
 70
     1
102
RTVSPost2010Prop34
280
     0
102
RTVSPost2010PropOp34
 70
     1
102
RTVSPost2010Prop35
280
     0
102
RTVSPost2010PropOp35
 70
     1
102
RTVSPost2010Prop36
280
     0
102
RTVSPost2010PropOp36
 70
     1
102
RTVSPost2010Prop37
 90
       50
102
RTVSPost2010PropOp37
 70
     1
102
RTVSPost2010Prop38
140
0.0
102
RTVSPost2010PropOp38
 70
     1
102
RTVSPost2010Prop39
140
1.0
102
RTVSPost2010PropOp39
 70
     1
102
RTVSPost2010Prop40
 90
        0
102
RTVSPost2010PropOp40
 70
     1
102
RTVSPost2010Prop41ColorIndex
 90
       18
102
RTVSPost2010Prop41ColorRGB
 90
        0
102
RTVSPost2010PropOp41
 70
     1
102
RTVSPost2010Prop42
 90
       50
102
RTVSPost2010PropOp42
 70
     1
102
RTVSPost2010Prop43
 90
        3
102
RTVSPost2010PropOp43
 70
     1
102
RTVSPost2010Prop44ColorIndex
 90
        5
102
RTVSPost2010Prop44ColorRGB
 90
      255
102
RTVSPost2010PropOp44
 70
     1
102
RTVSPost2010Prop45
280
     0
102
RTVSPost2010PropOp45
 70
     1
102
RTVSPost2010Prop46
 90
       50
102
RTVSPost2010PropOp46
 70
     1
102
RTVSPost2010Prop47
 90
       50
102
RTVSPost2010PropOp47
 70
     1
102
RTVSPost2010Prop48
 90
       50
102
RTVSPost2010PropOp48
 70
     1
102
RTVSPost2010Prop49
280
     0
102
RTVSPost2010PropOp49
 70
     1
102
RTVSPost2010Prop50
 90
       50
102
RTVSPost2010PropOp50
 70
     1
102
RTVSPost2010Prop51ColorIndex
 90
      256
102
RTVSPost2010Prop51ColorRGB
 90
-16777216
102
RTVSPost2010PropOp51
 70
     0
102
RTVSPost2010Prop52
140
1.0
102
RTVSPost2010PropOp52
 70
     0
102
RTVSPost2010Prop53
 90
        2
102
RTVSPost2010PropOp53
 70
     1
102
RTVSPost2010Prop54
  1
strokes_ogs.tif
102
RTVSPost2010PropOp54
 70
     1
102
RTVSPost2010Prop55
280
     0
102
RTVSPost2010PropOp55
 70
     1
102
RTVSPost2010Prop56
140
1.0
102
RTVSPost2010PropOp56
 70
     1
102
RTVSPost2010Prop57
140
1.0
102
RTVSPost2010PropOp57
 70
     1
  0
XRECORD
  5
1A6
102
{ACAD_REACTORS
330
1A5
102
}
330
1A5
100
AcDbXrecord
280
     1
102
RTVSPost2010Prop28
280
     0
102
RTVSPost2010PropOp28
 70
     0
102
RTVSPost2010Prop29
280
     1
102
RTVSPost2010PropOp29
 70
     0
102
RTVSPost2010Prop30
280
     1
102
RTVSPost2010PropOp30
 70
     0
102
RTVSPost2010Prop31
280
     0
102
RTVSPost2010PropOp31
 70
     0
102
RTVSPost2010Prop32
280
     0
102
RTVSPost2010PropOp32
 70
     0
102
RTVSPost2010Prop33
280
     0
102
RTVSPost2010PropOp33
 70
     0
102
RTVSPost2010Prop34
280
     0
102
RTVSPost2010PropOp34
 70
     0
102
RTVSPost2010Prop35
280
     0
102
RTVSPost2010PropOp35
 70
     0
102
RTVSPost2010Prop36
280
     0
102
RTVSPost2010PropOp36
 70
     0
102
RTVSPost2010Prop37
 90
       50
102
RTVSPost2010PropOp37
 70
     0
102
RTVSPost2010Prop38
140
0.0
102
RTVSPost2010PropOp38
 70
     0
102
RTVSPost2010Prop39
140
1.0
102
RTVSPost2010PropOp39
 70
     0
102
RTVSPost2010Prop40
 90
        0
102
RTVSPost2010PropOp40
 70
     0
102
RTVSPost2010Prop41ColorIndex
 90
       18
102
RTVSPost2010Prop41ColorRGB
 90
        0
102
RTVSPost2010PropOp41
 70
     0
102
RTVSPost2010Prop42
 90
       50
102
RTVSPost2010PropOp42
 70
     0
102
RTVSPost2010Prop43
 90
        3
102
RTVSPost2010PropOp43
 70
     0
102
RTVSPost2010Prop44ColorIndex
 90
        5
102
RTVSPost2010Prop44ColorRGB
 90
      255
102
RTVSPost2010PropOp44
 70
     0
102
RTVSPost2010Prop45
280
     0
102
RTVSPost2010PropOp45
 70
     0
102
RTVSPost2010Prop46
 90
       50
102
RTVSPost2010PropOp46
 70
     0
102
RTVSPost2010Prop47
 90
       50
102
RTVSPost2010PropOp47
 70
     0
102
RTVSPost2010Prop48
 90
       50
102
RTVSPost2010PropOp48
 70
     0
102
RTVSPost2010Prop49
280
     0
102
RTVSPost2010PropOp49
 70
     0
102
RTVSPost2010Prop50
 90
       50
102
RTVSPost2010PropOp50
 70
     0
102
RTVSPost2010Prop51ColorIndex
 90
      256
102
RTVSPost2010Prop51ColorRGB
 90
-16777216
102
RTVSPost2010PropOp51
 70
     0
102
RTVSPost2010Prop52
140
1.0
102
RTVSPost2010PropOp52
 70
     0
102
RTVSPost2010Prop53
 90
        2
102
RTVSPost2010PropOp53
 70
     0
102
RTVSPost2010Prop54
  1
strokes_ogs.tif
102
RTVSPost2010PropOp54
 70
     0
102
RTVSPost2010Prop55
280
     0
102
RTVSPost2010PropOp55
 70
     0
102
RTVSPost2010Prop56
140
1.0
102
RTVSPost2010PropOp56
 70
     0
102
RTVSPost2010Prop57
140
1.0
102
RTVSPost2010PropOp57
 70
     0
  0
XRECORD
  5
18C
102
{ACAD_REACTORS
330
18B
102
}
330
18B
100
AcDbXrecord
280
     1
102
RTVSPost2010Prop28
280
     0
102
RTVSPost2010PropOp28
 70
     1
102
RTVSPost2010Prop29
280
     1
102
RTVSPost2010PropOp29
 70
     1
102
RTVSPost2010Prop30
280
     1
102
RTVSPost2010PropOp30
 70
     1
102
RTVSPost2010Prop31
280
     0
102
RTVSPost2010PropOp31
 70
     1
102
RTVSPost2010Prop32
280
     0
102
RTVSPost2010PropOp32
 70
     1
102
RTVSPost2010Prop33
280
     0
102
RTVSPost2010PropOp33
 70
     1
102
RTVSPost2010Prop34
280
     0
102
RTVSPost2010PropOp34
 70
     1
102
RTVSPost2010Prop35
280
     0
102
RTVSPost2010PropOp35
 70
     1
102
RTVSPost2010Prop36
280
     0
102
RTVSPost2010PropOp36
 70
     1
102
RTVSPost2010Prop37
 90
       50
102
RTVSPost2010PropOp37
 70
     1
102
RTVSPost2010Prop38
140
0.0
102
RTVSPost2010PropOp38
 70
     1
102
RTVSPost2010Prop39
140
1.0
102
RTVSPost2010PropOp39
 70
     1
102
RTVSPost2010Prop40
 90
        0
102
RTVSPost2010PropOp40
 70
     1
102
RTVSPost2010Prop41ColorIndex
 90
       18
102
RTVSPost2010Prop41ColorRGB
 90
        0
102
RTVSPost2010PropOp41
 70
     1
102
RTVSPost2010Prop42
 90
       50
102
RTVSPost2010PropOp42
 70
     1
102
RTVSPost2010Prop43
 90
        3
102
RTVSPost2010PropOp43
 70
     1
102
RTVSPost2010Prop44ColorIndex
 90
        5
102
RTVSPost2010Prop44ColorRGB
 90
      255
102
RTVSPost2010PropOp44
 70
     1
102
RTVSPost2010Prop45
280
     0
102
RTVSPost2010PropOp45
 70
     1
102
RTVSPost2010Prop46
 90
       50
102
RTVSPost2010PropOp46
 70
     1
102
RTVSPost2010Prop47
 90
       50
102
RTVSPost2010PropOp47
 70
     1
102
RTVSPost2010Prop48
 90
       50
102
RTVSPost2010PropOp48
 70
     1
102
RTVSPost2010Prop49
280
     0
102
RTVSPost2010PropOp49
 70
     1
102
RTVSPost2010Prop50
 90
       50
102
RTVSPost2010PropOp50
 70
     1
102
RTVSPost2010Prop51ColorIndex
 90
      256
102
RTVSPost2010Prop51ColorRGB
 90
-16777216
102
RTVSPost2010PropOp51
 70
     0
102
RTVSPost2010Prop52
140
1.0
102
RTVSPost2010PropOp52
 70
     0
102
RTVSPost2010Prop53
 90
        2
102
RTVSPost2010PropOp53
 70
     1
102
RTVSPost2010Prop54
  1
strokes_ogs.tif
102
RTVSPost2010PropOp54
 70
     1
102
RTVSPost2010Prop55
280
     0
102
RTVSPost2010PropOp55
 70
     1
102
RTVSPost2010Prop56
140
1.0
102
RTVSPost2010PropOp56
 70
     1
102
RTVSPost2010Prop57
140
1.0
102
RTVSPost2010PropOp57
 70
     1
  0
XRECORD
  5
1A2
102
{ACAD_REACTORS
330
1A1
102
}
330
1A1
100
AcDbXrecord
280
     1
102
RTVSPost2010Prop28
280
     0
102
RTVSPost2010PropOp28
 70
     1
102
RTVSPost2010Prop29
280
     1
102
RTVSPost2010PropOp29
 70
     1
102
RTVSPost2010Prop30
280
     1
102
RTVSPost2010PropOp30
 70
     1
102
RTVSPost2010Prop31
280
     0
102
RTVSPost2010PropOp31
 70
     1
102
RTVSPost2010Prop32
280
     0
102
RTVSPost2010PropOp32
 70
     1
102
RTVSPost2010Prop33
280
     0
102
RTVSPost2010PropOp33
 70
     1
102
RTVSPost2010Prop34
280
     0
102
RTVSPost2010PropOp34
 70
     1
102
RTVSPost2010Prop35
280
     0
102
RTVSPost2010PropOp35
 70
     1
102
RTVSPost2010Prop36
280
     0
102
RTVSPost2010PropOp36
 70
     1
102
RTVSPost2010Prop37
 90
       50
102
RTVSPost2010PropOp37
 70
     1
102
RTVSPost2010Prop38
140
0.0
102
RTVSPost2010PropOp38
 70
     1
102
RTVSPost2010Prop39
140
1.0
102
RTVSPost2010PropOp39
 70
     1
102
RTVSPost2010Prop40
 90
        0
102
RTVSPost2010PropOp40
 70
     1
102
RTVSPost2010Prop41ColorIndex
 90
       18
102
RTVSPost2010Prop41ColorRGB
 90
        0
102
RTVSPost2010PropOp41
 70
     1
102
RTVSPost2010Prop42
 90
       50
102
RTVSPost2010PropOp42
 70
     1
102
RTVSPost2010Prop43
 90
        3
102
RTVSPost2010PropOp43
 70
     1
102
RTVSPost2010Prop44ColorIndex
 90
        5
102
RTVSPost2010Prop44ColorRGB
 90
      255
102
RTVSPost2010PropOp44
 70
     1
102
RTVSPost2010Prop45
280
     0
102
RTVSPost2010PropOp45
 70
     1
102
RTVSPost2010Prop46
 90
       50
102
RTVSPost2010PropOp46
 70
     1
102
RTVSPost2010Prop47
 90
       50
102
RTVSPost2010PropOp47
 70
     1
102
RTVSPost2010Prop48
 90
       50
102
RTVSPost2010PropOp48
 70
     1
102
RTVSPost2010Prop49
280
     0
102
RTVSPost2010PropOp49
 70
     1
102
RTVSPost2010Prop50
 90
       50
102
RTVSPost2010PropOp50
 70
     1
102
RTVSPost2010Prop51ColorIndex
 90
      256
102
RTVSPost2010Prop51ColorRGB
 90
-16777216
102
RTVSPost2010PropOp51
 70
     0
102
RTVSPost2010Prop52
140
1.0
102
RTVSPost2010PropOp52
 70
     0
102
RTVSPost2010Prop53
 90
        2
102
RTVSPost2010PropOp53
 70
     1
102
RTVSPost2010Prop54
  1
strokes_ogs.tif
102
RTVSPost2010PropOp54
 70
     1
102
RTVSPost2010Prop55
280
     0
102
RTVSPost2010PropOp55
 70
     1
102
RTVSPost2010Prop56
140
1.0
102
RTVSPost2010PropOp56
 70
     1
102
RTVSPost2010Prop57
140
1.0
102
RTVSPost2010PropOp57
 70
     1
  0
XRECORD
  5
1A0
102
{ACAD_REACTORS
330
19F
102
}
330
19F
100
AcDbXrecord
280
     1
102
RTVSPost2010Prop28
280
     0
102
RTVSPost2010PropOp28
 70
     1
102
RTVSPost2010Prop29
280
     1
102
RTVSPost2010PropOp29
 70
     1
102
RTVSPost2010Prop30
280
     1
102
RTVSPost2010PropOp30
 70
     1
102
RTVSPost2010Prop31
280
     0
102
RTVSPost2010PropOp31
 70
     1
102
RTVSPost2010Prop32
280
     0
102
RTVSPost2010PropOp32
 70
     1
102
RTVSPost2010Prop33
280
     0
102
RTVSPost2010PropOp33
 70
     1
102
RTVSPost2010Prop34
280
     0
102
RTVSPost2010PropOp34
 70
     1
102
RTVSPost2010Prop35
280
     0
102
RTVSPost2010PropOp35
 70
     1
102
RTVSPost2010Prop36
280
     0
102
RTVSPost2010PropOp36
 70
     1
102
RTVSPost2010Prop37
 90
       50
102
RTVSPost2010PropOp37
 70
     1
102
RTVSPost2010Prop38
140
0.0
102
RTVSPost2010PropOp38
 70
     1
102
RTVSPost2010Prop39
140
1.0
102
RTVSPost2010PropOp39
 70
     1
102
RTVSPost2010Prop40
 90
        0
102
RTVSPost2010PropOp40
 70
     1
102
RTVSPost2010Prop41ColorIndex
 90
       18
102
RTVSPost2010Prop41ColorRGB
 90
        0
102
RTVSPost2010PropOp41
 70
     1
102
RTVSPost2010Prop42
 90
       50
102
RTVSPost2010PropOp42
 70
     1
102
RTVSPost2010Prop43
 90
        3
102
RTVSPost2010PropOp43
 70
     1
102
RTVSPost2010Prop44ColorIndex
 90
        5
102
RTVSPost2010Prop44ColorRGB
 90
      255
102
RTVSPost2010PropOp44
 70
     1
102
RTVSPost2010Prop45
280
     0
102
RTVSPost2010PropOp45
 70
     1
102
RTVSPost2010Prop46
 90
       50
102
RTVSPost2010PropOp46
 70
     1
102
RTVSPost2010Prop47
 90
       50
102
RTVSPost2010PropOp47
 70
     1
102
RTVSPost2010Prop48
 90
       50
102
RTVSPost2010PropOp48
 70
     1
102
RTVSPost2010Prop49
280
     0
102
RTVSPost2010PropOp49
 70
     1
102
RTVSPost2010Prop50
 90
       50
102
RTVSPost2010PropOp50
 70
     1
102
RTVSPost2010Prop51ColorIndex
 90
      256
102
RTVSPost2010Prop51ColorRGB
 90
-16777216
102
RTVSPost2010PropOp51
 70
     0
102
RTVSPost2010Prop52
140
1.0
102
RTVSPost2010PropOp52
 70
     0
102
RTVSPost2010Prop53
 90
        2
102
RTVSPost2010PropOp53
 70
     1
102
RTVSPost2010Prop54
  1
strokes_ogs.tif
102
RTVSPost2010PropOp54
 70
     1
102
RTVSPost2010Prop55
280
     0
102
RTVSPost2010PropOp55
 70
     1
102
RTVSPost2010Prop56
140
1.0
102
RTVSPost2010PropOp56
 70
     1
102
RTVSPost2010Prop57
140
1.0
102
RTVSPost2010PropOp57
 70
     1
  0
XRECORD
  5
19A
102
{ACAD_REACTORS
330
199
102
}
330
199
100
AcDbXrecord
280
     1
102
RTVSPost2010Prop28
280
     0
102
RTVSPost2010PropOp28
 70
     1
102
RTVSPost2010Prop29
280
     1
102
RTVSPost2010PropOp29
 70
     1
102
RTVSPost2010Prop30
280
     1
102
RTVSPost2010PropOp30
 70
     1
102
RTVSPost2010Prop31
280
     0
102
RTVSPost2010PropOp31
 70
     1
102
RTVSPost2010Prop32
280
     0
102
RTVSPost2010PropOp32
 70
     1
102
RTVSPost2010Prop33
280
     0
102
RTVSPost2010PropOp33
 70
     1
102
RTVSPost2010Prop34
280
     0
102
RTVSPost2010PropOp34
 70
     1
102
RTVSPost2010Prop35
280
     0
102
RTVSPost2010PropOp35
 70
     1
102
RTVSPost2010Prop36
280
     0
102
RTVSPost2010PropOp36
 70
     1
102
RTVSPost2010Prop37
 90
       50
102
RTVSPost2010PropOp37
 70
     1
102
RTVSPost2010Prop38
140
0.0
102
RTVSPost2010PropOp38
 70
     1
102
RTVSPost2010Prop39
140
1.0
102
RTVSPost2010PropOp39
 70
     1
102
RTVSPost2010Prop40
 90
        0
102
RTVSPost2010PropOp40
 70
     1
102
RTVSPost2010Prop41ColorIndex
 90
       18
102
RTVSPost2010Prop41ColorRGB
 90
        0
102
RTVSPost2010PropOp41
 70
     1
102
RTVSPost2010Prop42
 90
       50
102
RTVSPost2010PropOp42
 70
     1
102
RTVSPost2010Prop43
 90
        3
102
RTVSPost2010PropOp43
 70
     1
102
RTVSPost2010Prop44ColorIndex
 90
        5
102
RTVSPost2010Prop44ColorRGB
 90
      255
102
RTVSPost2010PropOp44
 70
     1
102
RTVSPost2010Prop45
280
     0
102
RTVSPost2010PropOp45
 70
     1
102
RTVSPost2010Prop46
 90
       50
102
RTVSPost2010PropOp46
 70
     1
102
RTVSPost2010Prop47
 90
       50
102
RTVSPost2010PropOp47
 70
     1
102
RTVSPost2010Prop48
 90
       50
102
RTVSPost2010PropOp48
 70
     1
102
RTVSPost2010Prop49
280
     0
102
RTVSPost2010PropOp49
 70
     1
102
RTVSPost2010Prop50
 90
       50
102
RTVSPost2010PropOp50
 70
     1
102
RTVSPost2010Prop51ColorIndex
 90
      256
102
RTVSPost2010Prop51ColorRGB
 90
-16777216
102
RTVSPost2010PropOp51
 70
     0
102
RTVSPost2010Prop52
140
1.0
102
RTVSPost2010PropOp52
 70
     0
102
RTVSPost2010Prop53
 90
        2
102
RTVSPost2010PropOp53
 70
     1
102
RTVSPost2010Prop54
  1
strokes_ogs.tif
102
RTVSPost2010PropOp54
 70
     1
102
RTVSPost2010Prop55
280
     0
102
RTVSPost2010PropOp55
 70
     1
102
RTVSPost2010Prop56
140
1.0
102
RTVSPost2010PropOp56
 70
     1
102
RTVSPost2010Prop57
140
1.0
102
RTVSPost2010PropOp57
 70
     1
  0
XRECORD
  5
19C
102
{ACAD_REACTORS
330
19B
102
}
330
19B
100
AcDbXrecord
280
     1
102
RTVSPost2010Prop28
280
     0
102
RTVSPost2010PropOp28
 70
     1
102
RTVSPost2010Prop29
280
     1
102
RTVSPost2010PropOp29
 70
     1
102
RTVSPost2010Prop30
280
     1
102
RTVSPost2010PropOp30
 70
     1
102
RTVSPost2010Prop31
280
     0
102
RTVSPost2010PropOp31
 70
     1
102
RTVSPost2010Prop32
280
     0
102
RTVSPost2010PropOp32
 70
     1
102
RTVSPost2010Prop33
280
     0
102
RTVSPost2010PropOp33
 70
     1
102
RTVSPost2010Prop34
280
     0
102
RTVSPost2010PropOp34
 70
     1
102
RTVSPost2010Prop35
280
     0
102
RTVSPost2010PropOp35
 70
     1
102
RTVSPost2010Prop36
280
     0
102
RTVSPost2010PropOp36
 70
     1
102
RTVSPost2010Prop37
 90
       50
102
RTVSPost2010PropOp37
 70
     1
102
RTVSPost2010Prop38
140
0.0
102
RTVSPost2010PropOp38
 70
     1
102
RTVSPost2010Prop39
140
1.0
102
RTVSPost2010PropOp39
 70
     1
102
RTVSPost2010Prop40
 90
        0
102
RTVSPost2010PropOp40
 70
     1
102
RTVSPost2010Prop41ColorIndex
 90
       18
102
RTVSPost2010Prop41ColorRGB
 90
        0
102
RTVSPost2010PropOp41
 70
     1
102
RTVSPost2010Prop42
 90
       50
102
RTVSPost2010PropOp42
 70
     1
102
RTVSPost2010Prop43
 90
        3
102
RTVSPost2010PropOp43
 70
     1
102
RTVSPost2010Prop44ColorIndex
 90
        5
102
RTVSPost2010Prop44ColorRGB
 90
      255
102
RTVSPost2010PropOp44
 70
     1
102
RTVSPost2010Prop45
280
     0
102
RTVSPost2010PropOp45
 70
     1
102
RTVSPost2010Prop46
 90
       50
102
RTVSPost2010PropOp46
 70
     1
102
RTVSPost2010Prop47
 90
       50
102
RTVSPost2010PropOp47
 70
     1
102
RTVSPost2010Prop48
 90
       50
102
RTVSPost2010PropOp48
 70
     1
102
RTVSPost2010Prop49
280
     0
102
RTVSPost2010PropOp49
 70
     1
102
RTVSPost2010Prop50
 90
       50
102
RTVSPost2010PropOp50
 70
     1
102
RTVSPost2010Prop51ColorIndex
 90
      256
102
RTVSPost2010Prop51ColorRGB
 90
-16777216
102
RTVSPost2010PropOp51
 70
     0
102
RTVSPost2010Prop52
140
1.0
102
RTVSPost2010PropOp52
 70
     0
102
RTVSPost2010Prop53
 90
        2
102
RTVSPost2010PropOp53
 70
     1
102
RTVSPost2010Prop54
  1
strokes_ogs.tif
102
RTVSPost2010PropOp54
 70
     1
102
RTVSPost2010Prop55
280
     0
102
RTVSPost2010PropOp55
 70
     1
102
RTVSPost2010Prop56
140
1.0
102
RTVSPost2010PropOp56
 70
     1
102
RTVSPost2010Prop57
140
1.0
102
RTVSPost2010PropOp57
 70
     1
  0
XRECORD
  5
192
102
{ACAD_REACTORS
330
191
102
}
330
191
100
AcDbXrecord
280
     1
102
RTVSPost2010Prop28
280
     0
102
RTVSPost2010PropOp28
 70
     1
102
RTVSPost2010Prop29
280
     1
102
RTVSPost2010PropOp29
 70
     1
102
RTVSPost2010Prop30
280
     1
102
RTVSPost2010PropOp30
 70
     1
102
RTVSPost2010Prop31
280
     0
102
RTVSPost2010PropOp31
 70
     1
102
RTVSPost2010Prop32
280
     0
102
RTVSPost2010PropOp32
 70
     1
102
RTVSPost2010Prop33
280
     0
102
RTVSPost2010PropOp33
 70
     1
102
RTVSPost2010Prop34
280
     0
102
RTVSPost2010PropOp34
 70
     1
102
RTVSPost2010Prop35
280
     0
102
RTVSPost2010PropOp35
 70
     1
102
RTVSPost2010Prop36
280
     0
102
RTVSPost2010PropOp36
 70
     1
102
RTVSPost2010Prop37
 90
       50
102
RTVSPost2010PropOp37
 70
     1
102
RTVSPost2010Prop38
140
0.0
102
RTVSPost2010PropOp38
 70
     1
102
RTVSPost2010Prop39
140
1.0
102
RTVSPost2010PropOp39
 70
     1
102
RTVSPost2010Prop40
 90
        0
102
RTVSPost2010PropOp40
 70
     1
102
RTVSPost2010Prop41ColorIndex
 90
       18
102
RTVSPost2010Prop41ColorRGB
 90
        0
102
RTVSPost2010PropOp41
 70
     1
102
RTVSPost2010Prop42
 90
       50
102
RTVSPost2010PropOp42
 70
     1
102
RTVSPost2010Prop43
 90
        3
102
RTVSPost2010PropOp43
 70
     1
102
RTVSPost2010Prop44ColorIndex
 90
        5
102
RTVSPost2010Prop44ColorRGB
 90
      255
102
RTVSPost2010PropOp44
 70
     1
102
RTVSPost2010Prop45
280
     0
102
RTVSPost2010PropOp45
 70
     1
102
RTVSPost2010Prop46
 90
       50
102
RTVSPost2010PropOp46
 70
     1
102
RTVSPost2010Prop47
 90
       50
102
RTVSPost2010PropOp47
 70
     1
102
RTVSPost2010Prop48
 90
       50
102
RTVSPost2010PropOp48
 70
     1
102
RTVSPost2010Prop49
280
     0
102
RTVSPost2010PropOp49
 70
     1
102
RTVSPost2010Prop50
 90
       50
102
RTVSPost2010PropOp50
 70
     1
102
RTVSPost2010Prop51ColorIndex
 90
      256
102
RTVSPost2010Prop51ColorRGB
 90
-16777216
102
RTVSPost2010PropOp51
 70
     0
102
RTVSPost2010Prop52
140
1.0
102
RTVSPost2010PropOp52
 70
     0
102
RTVSPost2010Prop53
 90
        2
102
RTVSPost2010PropOp53
 70
     1
102
RTVSPost2010Prop54
  1
strokes_ogs.tif
102
RTVSPost2010PropOp54
 70
     1
102
RTVSPost2010Prop55
280
     0
102
RTVSPost2010PropOp55
 70
     1
102
RTVSPost2010Prop56
140
1.0
102
RTVSPost2010PropOp56
 70
     1
102
RTVSPost2010Prop57
140
1.0
102
RTVSPost2010PropOp57
 70
     1
  0
XRECORD
  5
186
102
{ACAD_REACTORS
330
185
102
}
330
185
100
AcDbXrecord
280
     1
102
RTVSPost2010Prop28
280
     0
102
RTVSPost2010PropOp28
 70
     1
102
RTVSPost2010Prop29
280
     1
102
RTVSPost2010PropOp29
 70
     1
102
RTVSPost2010Prop30
280
     1
102
RTVSPost2010PropOp30
 70
     1
102
RTVSPost2010Prop31
280
     0
102
RTVSPost2010PropOp31
 70
     1
102
RTVSPost2010Prop32
280
     0
102
RTVSPost2010PropOp32
 70
     1
102
RTVSPost2010Prop33
280
     0
102
RTVSPost2010PropOp33
 70
     1
102
RTVSPost2010Prop34
280
     0
102
RTVSPost2010PropOp34
 70
     1
102
RTVSPost2010Prop35
280
     0
102
RTVSPost2010PropOp35
 70
     1
102
RTVSPost2010Prop36
280
     0
102
RTVSPost2010PropOp36
 70
     1
102
RTVSPost2010Prop37
 90
       50
102
RTVSPost2010PropOp37
 70
     1
102
RTVSPost2010Prop38
140
0.0
102
RTVSPost2010PropOp38
 70
     1
102
RTVSPost2010Prop39
140
1.0
102
RTVSPost2010PropOp39
 70
     1
102
RTVSPost2010Prop40
 90
        0
102
RTVSPost2010PropOp40
 70
     1
102
RTVSPost2010Prop41ColorIndex
 90
       18
102
RTVSPost2010Prop41ColorRGB
 90
        0
102
RTVSPost2010PropOp41
 70
     1
102
RTVSPost2010Prop42
 90
       50
102
RTVSPost2010PropOp42
 70
     1
102
RTVSPost2010Prop43
 90
        3
102
RTVSPost2010PropOp43
 70
     1
102
RTVSPost2010Prop44ColorIndex
 90
        5
102
RTVSPost2010Prop44ColorRGB
 90
      255
102
RTVSPost2010PropOp44
 70
     1
102
RTVSPost2010Prop45
280
     0
102
RTVSPost2010PropOp45
 70
     1
102
RTVSPost2010Prop46
 90
       50
102
RTVSPost2010PropOp46
 70
     1
102
RTVSPost2010Prop47
 90
       50
102
RTVSPost2010PropOp47
 70
     1
102
RTVSPost2010Prop48
 90
       50
102
RTVSPost2010PropOp48
 70
     1
102
RTVSPost2010Prop49
280
     0
102
RTVSPost2010PropOp49
 70
     1
102
RTVSPost2010Prop50
 90
       50
102
RTVSPost2010PropOp50
 70
     1
102
RTVSPost2010Prop51ColorIndex
 90
      256
102
RTVSPost2010Prop51ColorRGB
 90
-16777216
102
RTVSPost2010PropOp51
 70
     0
102
RTVSPost2010Prop52
140
1.0
102
RTVSPost2010PropOp52
 70
     0
102
RTVSPost2010Prop53
 90
        2
102
RTVSPost2010PropOp53
 70
     1
102
RTVSPost2010Prop54
  1
strokes_ogs.tif
102
RTVSPost2010PropOp54
 70
     1
102
RTVSPost2010Prop55
280
     0
102
RTVSPost2010PropOp55
 70
     1
102
RTVSPost2010Prop56
140
1.0
102
RTVSPost2010PropOp56
 70
     1
102
RTVSPost2010Prop57
140
1.0
102
RTVSPost2010PropOp57
 70
     1
  0
XRECORD
  5
19E
102
{ACAD_REACTORS
330
19D
102
}
330
19D
100
AcDbXrecord
280
     1
102
RTVSPost2010Prop28
280
     0
102
RTVSPost2010PropOp28
 70
     1
102
RTVSPost2010Prop29
280
     1
102
RTVSPost2010PropOp29
 70
     1
102
RTVSPost2010Prop30
280
     1
102
RTVSPost2010PropOp30
 70
     1
102
RTVSPost2010Prop31
280
     0
102
RTVSPost2010PropOp31
 70
     1
102
RTVSPost2010Prop32
280
     0
102
RTVSPost2010PropOp32
 70
     1
102
RTVSPost2010Prop33
280
     0
102
RTVSPost2010PropOp33
 70
     1
102
RTVSPost2010Prop34
280
     0
102
RTVSPost2010PropOp34
 70
     1
102
RTVSPost2010Prop35
280
     0
102
RTVSPost2010PropOp35
 70
     1
102
RTVSPost2010Prop36
280
     0
102
RTVSPost2010PropOp36
 70
     1
102
RTVSPost2010Prop37
 90
       50
102
RTVSPost2010PropOp37
 70
     1
102
RTVSPost2010Prop38
140
0.0
102
RTVSPost2010PropOp38
 70
     1
102
RTVSPost2010Prop39
140
1.0
102
RTVSPost2010PropOp39
 70
     1
102
RTVSPost2010Prop40
 90
        0
102
RTVSPost2010PropOp40
 70
     1
102
RTVSPost2010Prop41ColorIndex
 90
       18
102
RTVSPost2010Prop41ColorRGB
 90
        0
102
RTVSPost2010PropOp41
 70
     1
102
RTVSPost2010Prop42
 90
       50
102
RTVSPost2010PropOp42
 70
     1
102
RTVSPost2010Prop43
 90
        3
102
RTVSPost2010PropOp43
 70
     1
102
RTVSPost2010Prop44ColorIndex
 90
        5
102
RTVSPost2010Prop44ColorRGB
 90
      255
102
RTVSPost2010PropOp44
 70
     1
102
RTVSPost2010Prop45
280
     0
102
RTVSPost2010PropOp45
 70
     1
102
RTVSPost2010Prop46
 90
       50
102
RTVSPost2010PropOp46
 70
     1
102
RTVSPost2010Prop47
 90
       50
102
RTVSPost2010PropOp47
 70
     1
102
RTVSPost2010Prop48
 90
       50
102
RTVSPost2010PropOp48
 70
     1
102
RTVSPost2010Prop49
280
     0
102
RTVSPost2010PropOp49
 70
     1
102
RTVSPost2010Prop50
 90
       50
102
RTVSPost2010PropOp50
 70
     1
102
RTVSPost2010Prop51ColorIndex
 90
      256
102
RTVSPost2010Prop51ColorRGB
 90
-16777216
102
RTVSPost2010PropOp51
 70
     0
102
RTVSPost2010Prop52
140
1.0
102
RTVSPost2010PropOp52
 70
     0
102
RTVSPost2010Prop53
 90
        2
102
RTVSPost2010PropOp53
 70
     1
102
RTVSPost2010Prop54
  1
strokes_ogs.tif
102
RTVSPost2010PropOp54
 70
     1
102
RTVSPost2010Prop55
280
     0
102
RTVSPost2010PropOp55
 70
     1
102
RTVSPost2010Prop56
140
1.0
102
RTVSPost2010PropOp56
 70
     1
102
RTVSPost2010Prop57
140
1.0
102
RTVSPost2010PropOp57
 70
     1
  0
ENDSEC
  0
EOF
