  0
SECTION
  2
HEADER
  9
$ACADVER
  1
AC1024
  9
$ACADMAINTVER
 70
   205
  9
$DWGCODEPAGE
  3
ANSI_1251
  9
$INSBASE
 10
0.0
 20
0.0
 30
0.0
  9
$EXTMIN
 10
1.000000000000000E+20
 20
1.000000000000000E+20
 30
1.000000000000000E+20
  9
$EXTMAX
 10
-1.000000000000000E+20
 20
-1.000000000000000E+20
 30
-1.000000000000000E+20
  9
$LIMMIN
 10
0.0
 20
0.0
  9
$LIMMAX
 10
12.0
 20
9.0
  9
$ORTHOMODE
 70
     0
  9
$REGENMODE
 70
     1
  9
$FILLMODE
 70
     1
  9
$QTEXTMODE
 70
     0
  9
$MIRRTEXT
 70
     1
  9
$LTSCALE
 40
1.0
  9
$ATTMODE
 70
     1
  9
$TEXTSIZE
 40
0.2
  9
$TRACEWID
 40
0.05
  9
$TEXTSTYLE
  7
Standard
  9
$CLAYER
  8
OracDecor_cornice_mouldings
  9
$CELTYPE
  6
ByLayer
  9
$CECOLOR
 62
   256
  9
$CELTSCALE
 40
1.0
  9
$DISPSILH
 70
     0
  9
$DIMSCALE
 40
1.0
  9
$DIMASZ
 40
0.18
  9
$DIMEXO
 40
0.0625
  9
$DIMDLI
 40
0.38
  9
$DIMRND
 40
0.0
  9
$DIMDLE
 40
0.0
  9
$DIMEXE
 40
0.18
  9
$DIMTP
 40
0.0
  9
$DIMTM
 40
0.0
  9
$DIMTXT
 40
0.18
  9
$DIMCEN
 40
0.09
  9
$DIMTSZ
 40
0.0
  9
$DIMTOL
 70
     0
  9
$DIMLIM
 70
     0
  9
$DIMTIH
 70
     1
  9
$DIMTOH
 70
     1
  9
$DIMSE1
 70
     0
  9
$DIMSE2
 70
     0
  9
$DIMTAD
 70
     0
  9
$DIMZIN
 70
     0
  9
$DIMBLK
  1

  9
$DIMASO
 70
     1
  9
$DIMSHO
 70
     1
  9
$DIMPOST
  1

  9
$DIMAPOST
  1

  9
$DIMALT
 70
     0
  9
$DIMALTD
 70
     2
  9
$DIMALTF
 40
25.4
  9
$DIMLFAC
 40
1.0
  9
$DIMTOFL
 70
     0
  9
$DIMTVP
 40
0.0
  9
$DIMTIX
 70
     0
  9
$DIMSOXD
 70
     0
  9
$DIMSAH
 70
     0
  9
$DIMBLK1
  1

  9
$DIMBLK2
  1

  9
$DIMSTYLE
  2
Standard
  9
$DIMCLRD
 70
     0
  9
$DIMCLRE
 70
     0
  9
$DIMCLRT
 70
     0
  9
$DIMTFAC
 40
1.0
  9
$DIMGAP
 40
0.09
  9
$DIMJUST
 70
     0
  9
$DIMSD1
 70
     0
  9
$DIMSD2
 70
     0
  9
$DIMTOLJ
 70
     1
  9
$DIMTZIN
 70
     0
  9
$DIMALTZ
 70
     0
  9
$DIMALTTZ
 70
     0
  9
$DIMUPT
 70
     0
  9
$DIMDEC
 70
     4
  9
$DIMTDEC
 70
     4
  9
$DIMALTU
 70
     2
  9
$DIMALTTD
 70
     2
  9
$DIMTXSTY
  7
Standard
  9
$DIMAUNIT
 70
     0
  9
$DIMADEC
 70
     0
  9
$DIMALTRND
 40
0.0
  9
$DIMAZIN
 70
     0
  9
$DIMDSEP
 70
    46
  9
$DIMATFIT
 70
     3
  9
$DIMFRAC
 70
     0
  9
$DIMLDRBLK
  1

  9
$DIMLUNIT
 70
     2
  9
$DIMLWD
 70
    -2
  9
$DIMLWE
 70
    -2
  9
$DIMTMOVE
 70
     0
  9
$DIMFXL
 40
1.0
  9
$DIMFXLON
 70
     0
  9
$DIMJOGANG
 40
0.7853981633974483
  9
$DIMTFILL
 70
     0
  9
$DIMTFILLCLR
 70
     0
  9
$DIMARCSYM
 70
     0
  9
$DIMLTYPE
  6

  9
$DIMLTEX1
  6

  9
$DIMLTEX2
  6

  9
$DIMTXTDIRECTION
 70
     0
  9
$LUNITS
 70
     2
  9
$LUPREC
 70
     4
  9
$SKETCHINC
 40
0.1
  9
$FILLETRAD
 40
0.5
  9
$AUNITS
 70
     0
  9
$AUPREC
 70
     0
  9
$MENU
  1
.
  9
$ELEVATION
 40
0.0
  9
$PELEVATION
 40
0.0
  9
$THICKNESS
 40
0.0
  9
$LIMCHECK
 70
     0
  9
$CHAMFERA
 40
0.5
  9
$CHAMFERB
 40
0.5
  9
$CHAMFERC
 40
1.0
  9
$CHAMFERD
 40
0.0
  9
$SKPOLY
 70
     0
  9
$TDCREATE
 40
2451380.930432396
  9
$TDUCREATE
 40
2451380.805432396
  9
$TDUPDATE
 40
2451380.966180555
  9
$TDUUPDATE
 40
2451380.841180556
  9
$TDINDWG
 40
0.0075632523
  9
$TDUSRTIMER
 40
0.0075542130
  9
$USRTIMER
 70
     1
  9
$ANGBASE
 50
0.0
  9
$ANGDIR
 70
     0
  9
$PDMODE
 70
     0
  9
$PDSIZE
 40
0.0
  9
$PLINEWID
 40
0.0
  9
$SPLFRAME
 70
     0
  9
$SPLINETYPE
 70
     6
  9
$SPLINESEGS
 70
     8
  9
$HANDSEED
  5
18F
  9
$SURFTAB1
 70
     6
  9
$SURFTAB2
 70
     6
  9
$SURFTYPE
 70
     6
  9
$SURFU
 70
     6
  9
$SURFV
 70
     6
  9
$UCSBASE
  2

  9
$UCSNAME
  2

  9
$UCSORG
 10
0.0
 20
0.0
 30
0.0
  9
$UCSXDIR
 10
1.0
 20
0.0
 30
0.0
  9
$UCSYDIR
 10
0.0
 20
1.0
 30
0.0
  9
$UCSORTHOREF
  2

  9
$UCSORTHOVIEW
 70
     0
  9
$UCSORGTOP
 10
0.0
 20
0.0
 30
0.0
  9
$UCSORGBOTTOM
 10
0.0
 20
0.0
 30
0.0
  9
$UCSORGLEFT
 10
0.0
 20
0.0
 30
0.0
  9
$UCSORGRIGHT
 10
0.0
 20
0.0
 30
0.0
  9
$UCSORGFRONT
 10
0.0
 20
0.0
 30
0.0
  9
$UCSORGBACK
 10
0.0
 20
0.0
 30
0.0
  9
$PUCSBASE
  2

  9
$PUCSNAME
  2

  9
$PUCSORG
 10
0.0
 20
0.0
 30
0.0
  9
$PUCSXDIR
 10
1.0
 20
0.0
 30
0.0
  9
$PUCSYDIR
 10
0.0
 20
1.0
 30
0.0
  9
$PUCSORTHOREF
  2

  9
$PUCSORTHOVIEW
 70
     0
  9
$PUCSORGTOP
 10
0.0
 20
0.0
 30
0.0
  9
$PUCSORGBOTTOM
 10
0.0
 20
0.0
 30
0.0
  9
$PUCSORGLEFT
 10
0.0
 20
0.0
 30
0.0
  9
$PUCSORGRIGHT
 10
0.0
 20
0.0
 30
0.0
  9
$PUCSORGFRONT
 10
0.0
 20
0.0
 30
0.0
  9
$PUCSORGBACK
 10
0.0
 20
0.0
 30
0.0
  9
$USERI1
 70
     0
  9
$USERI2
 70
     0
  9
$USERI3
 70
     0
  9
$USERI4
 70
     0
  9
$USERI5
 70
     0
  9
$USERR1
 40
0.0
  9
$USERR2
 40
0.0
  9
$USERR3
 40
0.0
  9
$USERR4
 40
0.0
  9
$USERR5
 40
0.0
  9
$WORLDVIEW
 70
     1
  9
$SHADEDGE
 70
     3
  9
$SHADEDIF
 70
    70
  9
$TILEMODE
 70
     1
  9
$MAXACTVP
 70
    64
  9
$PINSBASE
 10
0.0
 20
0.0
 30
0.0
  9
$PLIMCHECK
 70
     0
  9
$PEXTMIN
 10
1.000000000000000E+20
 20
1.000000000000000E+20
 30
1.000000000000000E+20
  9
$PEXTMAX
 10
-1.000000000000000E+20
 20
-1.000000000000000E+20
 30
-1.000000000000000E+20
  9
$PLIMMIN
 10
0.0
 20
0.0
  9
$PLIMMAX
 10
12.0
 20
9.0
  9
$UNITMODE
 70
     0
  9
$VISRETAIN
 70
     1
  9
$PLINEGEN
 70
     0
  9
$PSLTSCALE
 70
     1
  9
$TREEDEPTH
 70
  3020
  9
$CMLSTYLE
  2
Standard
  9
$CMLJUST
 70
     0
  9
$CMLSCALE
 40
1.0
  9
$PROXYGRAPHICS
 70
     1
  9
$MEASUREMENT
 70
     1
  9
$CELWEIGHT
370
    -1
  9
$ENDCAPS
280
     0
  9
$JOINSTYLE
280
     0
  9
$LWDISPLAY
290
     0
  9
$INSUNITS
 70
     4
  9
$HYPERLINKBASE
  1

  9
$STYLESHEET
  1

  9
$XEDIT
290
     1
  9
$CEPSNTYPE
380
     0
  9
$PSTYLEMODE
290
     1
  9
$FINGERPRINTGUID
  2
{12F50282-3ED8-11D3-A8B7-0060B0F84BC6}
  9
$VERSIONGUID
  2
{12F50293-3ED8-11D3-A8B7-0060B0F84BC6}
  9
$EXTNAMES
290
     1
  9
$PSVPSCALE
 40
0.0
  9
$OLESTARTUP
290
     0
  9
$SORTENTS
280
   127
  9
$INDEXCTL
280
     0
  9
$HIDETEXT
280
     0
  9
$XCLIPFRAME
280
     2
  9
$HALOGAP
280
     0
  9
$OBSCOLOR
 70
   257
  9
$OBSLTYPE
280
     0
  9
$INTERSECTIONDISPLAY
280
     0
  9
$INTERSECTIONCOLOR
 70
   257
  9
$DIMASSOC
280
     1
  9
$PROJECTNAME
  1

  9
$CAMERADISPLAY
290
     0
  9
$LENSLENGTH
 40
50.0
  9
$CAMERAHEIGHT
 40
0.0
  9
$STEPSPERSEC
 40
2.0
  9
$STEPSIZE
 40
6.0
  9
$3DDWFPREC
 40
2.0
  9
$PSOLWIDTH
 40
0.25
  9
$PSOLHEIGHT
 40
4.0
  9
$LOFTANG1
 40
1.570796326794896
  9
$LOFTANG2
 40
1.570796326794896
  9
$LOFTMAG1
 40
0.0
  9
$LOFTMAG2
 40
0.0
  9
$LOFTPARAM
 70
     7
  9
$LOFTNORMALS
280
     1
  9
$LATITUDE
 40
37.795
  9
$LONGITUDE
 40
-122.394
  9
$NORTHDIRECTION
 40
0.0
  9
$TIMEZONE
 70
 -8000
  9
$LIGHTGLYPHDISPLAY
280
     1
  9
$TILEMODELIGHTSYNCH
280
     1
  9
$CMATERIAL
347
AB
  9
$SOLIDHIST
280
     0
  9
$SHOWHIST
280
     1
  9
$DWFFRAME
280
     2
  9
$DGNFRAME
280
     0
  9
$REALWORLDSCALE
290
     1
  9
$INTERFERECOLOR
 62
     1
  9
$INTERFEREOBJVS
345
CD
  9
$INTERFEREVPVS
346
CA
  9
$CSHADOW
280
     0
  9
$SHADOWPLANELOCATION
 40
0.0
  0
ENDSEC
  0
SECTION
  2
CLASSES
  0
CLASS
  1
ACDBDICTIONARYWDFLT
  2
AcDbDictionaryWithDefault
  3
ObjectDBX Classes
 90
        0
 91
        1
280
     0
281
     0
  0
CLASS
  1
ACDBPLACEHOLDER
  2
AcDbPlaceHolder
  3
ObjectDBX Classes
 90
        0
 91
        2
280
     0
281
     0
  0
CLASS
  1
LAYOUT
  2
AcDbLayout
  3
ObjectDBX Classes
 90
        0
 91
        3
280
     0
281
     0
  0
CLASS
  1
MATERIAL
  2
AcDbMaterial
  3
ObjectDBX Classes
 90
     1153
 91
        3
280
     0
281
     0
  0
CLASS
  1
VISUALSTYLE
  2
AcDbVisualStyle
  3
ObjectDBX Classes
 90
     4095
 91
       24
280
     0
281
     0
  0
CLASS
  1
TABLESTYLE
  2
AcDbTableStyle
  3
ObjectDBX Classes
 90
     4095
 91
        1
280
     0
281
     0
  0
CLASS
  1
SCALE
  2
AcDbScale
  3
ObjectDBX Classes
 90
     1153
 91
       17
280
     0
281
     0
  0
CLASS
  1
MLEADERSTYLE
  2
AcDbMLeaderStyle
  3
ACDB_MLEADERSTYLE_CLASS
 90
     4095
 91
        1
280
     0
281
     0
  0
CLASS
  1
ACDBSECTIONVIEWSTYLE
  2
AcDbSectionViewStyle
  3
ObjectDBX Classes
 90
     1025
 91
        1
280
     0
281
     0
  0
CLASS
  1
ACDBDETAILVIEWSTYLE
  2
AcDbDetailViewStyle
  3
ObjectDBX Classes
 90
     1025
 91
        1
280
     0
281
     0
  0
CLASS
  1
MESH
  2
AcDbSubDMesh
  3
ObjectDBX Classes
 90
        0
 91
        1
280
     0
281
     1
  0
CLASS
  1
DICTIONARYVAR
  2
AcDbDictionaryVar
  3
ObjectDBX Classes
 90
        0
 91
        9
280
     0
281
     0
  0
CLASS
  1
CELLSTYLEMAP
  2
AcDbCellStyleMap
  3
ObjectDBX Classes
 90
     1152
 91
        1
280
     0
281
     0
  0
ENDSEC
  0
SECTION
  2
TABLES
  0
TABLE
  2
VPORT
  5
8
330
0
100
AcDbSymbolTable
 70
     1
  0
VPORT
  5
A8
330
8
100
AcDbSymbolTableRecord
100
AcDbViewportTableRecord
  2
*Active
 70
     0
 10
0.0
 20
0.0
 11
1.0
 21
1.0
 12
0.0002103970764438
 22
-6.531902313232421
 13
0.0
 23
0.0
 14
0.5
 24
0.5
 15
0.5
 25
0.5
 16
-1.0
 26
-1.0
 36
1.0
 17
0.0
 27
0.0
 37
0.0
 40
1136.000445321997
 41
1.707655603097491
 42
50.0
 43
0.0
 44
0.0
 50
0.0
 51
0.0
 71
     0
 72
   100
 73
     1
 74
     3
 75
     0
 76
     0
 77
     0
 78
     0
281
     0
 65
     1
110
0.0
120
0.0
130
0.0
111
1.0
121
0.0
131
0.0
112
0.0
122
1.0
132
0.0
 79
     0
146
0.0
348
C9
 60
     3
 61
     5
292
     1
282
     1
141
0.0
142
0.0
 63
   250
421
  3355443
  0
ENDTAB
  0
TABLE
  2
LTYPE
  5
5
330
0
100
AcDbSymbolTable
 70
     1
  0
LTYPE
  5
14
330
5
100
AcDbSymbolTableRecord
100
AcDbLinetypeTableRecord
  2
ByBlock
 70
     0
  3

 72
    65
 73
     0
 40
0.0
  0
LTYPE
  5
15
330
5
100
AcDbSymbolTableRecord
100
AcDbLinetypeTableRecord
  2
ByLayer
 70
     0
  3

 72
    65
 73
     0
 40
0.0
  0
LTYPE
  5
16
330
5
100
AcDbSymbolTableRecord
100
AcDbLinetypeTableRecord
  2
Continuous
 70
     0
  3
Solid line
 72
    65
 73
     0
 40
0.0
  0
ENDTAB
  0
TABLE
  2
LAYER
  5
2
330
0
100
AcDbSymbolTable
 70
     3
  0
LAYER
  5
10
330
2
100
AcDbSymbolTableRecord
100
AcDbLayerTableRecord
  2
0
 70
     0
 62
     7
  6
Continuous
370
    -3
390
F
347
BB
  0
LAYER
  5
2B
330
2
100
AcDbSymbolTableRecord
100
AcDbLayerTableRecord
  2
ASHADE
 70
     4
 62
     7
  6
Continuous
370
    -3
390
2D
347
BB
  0
LAYER
  5
F8
330
2
100
AcDbSymbolTableRecord
100
AcDbLayerTableRecord
  2
OracDecor_cornice_mouldings
 70
     0
 62
    61
420
 14083494
  6
Continuous
370
    -3
390
F
347
BB
  0
ENDTAB
  0
TABLE
  2
STYLE
  5
3
330
0
100
AcDbSymbolTable
 70
     2
  0
STYLE
  5
11
330
3
100
AcDbSymbolTableRecord
100
AcDbTextStyleTableRecord
  2
Standard
 70
     0
 40
0.0
 41
1.0
 50
0.0
 71
     0
 42
0.2
  3
txt
  4

  0
STYLE
  5
2C
330
3
100
AcDbSymbolTableRecord
100
AcDbTextStyleTableRecord
  2
ASHADE
 70
     0
 40
0.2
 41
1.0
 50
0.0
 71
     0
 42
0.2
  3
simplex
  4

  0
ENDTAB
  0
TABLE
  2
VIEW
  5
6
330
0
100
AcDbSymbolTable
 70
     0
  0
ENDTAB
  0
TABLE
  2
UCS
  5
7
330
0
100
AcDbSymbolTable
 70
     0
  0
ENDTAB
  0
TABLE
  2
APPID
  5
9
330
0
100
AcDbSymbolTable
 70
     6
  0
APPID
  5
12
330
9
100
AcDbSymbolTableRecord
100
AcDbRegAppTableRecord
  2
ACAD
 70
     0
  0
APPID
  5
8F
330
9
100
AcDbSymbolTableRecord
100
AcDbRegAppTableRecord
  2
AVE_RENDER
 70
     0
  0
APPID
  5
90
330
9
100
AcDbSymbolTableRecord
100
AcDbRegAppTableRecord
  2
AVE_ENTITY_MATERIAL
 70
     0
  0
APPID
  5
9C
330
9
100
AcDbSymbolTableRecord
100
AcDbRegAppTableRecord
  2
AVE_FINISH
 70
     0
  0
APPID
  5
9D
330
9
100
AcDbSymbolTableRecord
100
AcDbRegAppTableRecord
  2
AVE_MATERIAL
 70
     0
  0
APPID
  5
9E
330
9
100
AcDbSymbolTableRecord
100
AcDbRegAppTableRecord
  2
AVE_GLOBAL
 70
     0
  0
ENDTAB
  0
TABLE
  2
DIMSTYLE
  5
A
330
0
100
AcDbSymbolTable
 70
     1
100
AcDbDimStyleTable
 71
     0
  0
DIMSTYLE
105
27
330
A
100
AcDbSymbolTableRecord
100
AcDbDimStyleTableRecord
  2
Standard
 70
     0
340
11
  0
ENDTAB
  0
TABLE
  2
BLOCK_RECORD
  5
1
330
0
100
AcDbSymbolTable
 70
     6
  0
BLOCK_RECORD
  5
1F
330
1
100
AcDbSymbolTableRecord
100
AcDbBlockTableRecord
  2
*Model_Space
340
22
 70
     0
280
     1
281
     0
  0
BLOCK_RECORD
  5
1B
330
1
100
AcDbSymbolTableRecord
100
AcDbBlockTableRecord
  2
*Paper_Space
340
1E
 70
     0
280
     1
281
     0
  0
BLOCK_RECORD
  5
23
330
1
100
AcDbSymbolTableRecord
100
AcDbBlockTableRecord
  2
*Paper_Space0
340
26
 70
     0
280
     1
281
     0
  0
BLOCK_RECORD
  5
2E
330
1
100
AcDbSymbolTableRecord
100
AcDbBlockTableRecord
  2
direct
340
0
 70
     0
280
     1
281
     0
  0
BLOCK_RECORD
  5
42
330
1
100
AcDbSymbolTableRecord
100
AcDbBlockTableRecord
  2
overhead
340
0
 70
     0
280
     1
281
     0
  0
BLOCK_RECORD
  5
5F
330
1
100
AcDbSymbolTableRecord
100
AcDbBlockTableRecord
  2
sh_spot
340
0
 70
     0
280
     1
281
     0
  0
BLOCK_RECORD
  5
91
330
1
100
AcDbSymbolTableRecord
100
AcDbBlockTableRecord
  2
AVE_RENDER
340
0
102
{BLKREFS
331
94
331
95
331
96
331
97
331
98
331
99
331
9A
331
9B
102
}
 70
     0
280
     1
281
     0
  0
BLOCK_RECORD
  5
9F
330
1
100
AcDbSymbolTableRecord
100
AcDbBlockTableRecord
  2
AVE_GLOBAL
340
0
102
{BLKREFS
331
A2
102
}
 70
     0
280
     1
281
     0
  0
ENDTAB
  0
ENDSEC
  0
SECTION
  2
BLOCKS
  0
BLOCK
  5
20
330
1F
100
AcDbEntity
  8
0
100
AcDbBlockBegin
  2
*Model_Space
 70
     0
 10
0.0
 20
0.0
 30
0.0
  3
*Model_Space
  1

  0
ENDBLK
  5
21
330
1F
100
AcDbEntity
  8
0
100
AcDbBlockEnd
  0
BLOCK
  5
1C
330
1B
100
AcDbEntity
 67
     1
  8
0
100
AcDbBlockBegin
  2
*Paper_Space
 70
     0
 10
0.0
 20
0.0
 30
0.0
  3
*Paper_Space
  1

  0
ENDBLK
  5
1D
330
1B
100
AcDbEntity
 67
     1
  8
0
100
AcDbBlockEnd
  0
BLOCK
  5
24
330
23
100
AcDbEntity
 67
     1
  8
0
100
AcDbBlockBegin
  2
*Paper_Space0
 70
     0
 10
0.0
 20
0.0
 30
0.0
  3
*Paper_Space0
  1

  0
ENDBLK
  5
25
330
23
100
AcDbEntity
 67
     1
  8
0
100
AcDbBlockEnd
  0
BLOCK
  5
40
330
2E
100
AcDbEntity
  8
0
100
AcDbBlockBegin
  2
direct
 70
     2
 10
0.0
 20
0.0
 30
0.0
  3
direct
  1

  0
ATTDEF
  5
2F
330
2E
100
AcDbEntity
  8
ASHADE
  6
Continuous
 62
     1
100
AcDbText
 10
0.0
 20
-0.1
 30
0.0
 40
0.2
  1

  7
ASHADE
 72
     1
 11
0.0
 21
-0.1
 31
0.0
100
AcDbAttributeDefinition
280
     0
  3
Light Name
  2
SNAME
 70
     0
280
     0
  0
ARC
  5
30
330
2E
100
AcDbEntity
  8
ASHADE
  6
Continuous
 62
     7
100
AcDbCircle
 10
0.0
 20
0.0
 30
0.0
 40
0.3
100
AcDbArc
 50
205.6792886194569
 51
334.3207113805431
  0
ARC
  5
31
330
2E
100
AcDbEntity
  8
ASHADE
  6
Continuous
 62
     7
100
AcDbCircle
 10
0.0
 20
0.0
 30
0.0
 40
0.3
100
AcDbArc
 50
25.67928861945685
 51
154.3207113805431
  0
LINE
  5
32
330
2E
100
AcDbEntity
  8
ASHADE
  6
Continuous
 62
     7
100
AcDbLine
 10
-0.21
 20
0.2142428528562855
 30
0.0
 11
-0.21
 21
0.5
 31
0.0
  0
LINE
  5
33
330
2E
100
AcDbEntity
  8
ASHADE
  6
Continuous
 62
     7
100
AcDbLine
 10
-0.11
 20
0.2791057147390572
 30
0.0
 11
-0.11
 21
0.5
 31
0.0
  0
LINE
  5
34
330
2E
100
AcDbEntity
  8
ASHADE
  6
Continuous
 62
     7
100
AcDbLine
 10
0.21
 20
0.2142428528562855
 30
0.0
 11
0.21
 21
0.5
 31
0.0
  0
ATTDEF
  5
35
330
2E
100
AcDbEntity
  8
ASHADE
  6
Continuous
 62
     7
100
AcDbText
 10
0.0
 20
0.25
 30
0.0
 40
0.01
  1

100
AcDbAttributeDefinition
280
     0
  3
Look-at Y
  2
LAY
 70
     1
280
     0
  0
ATTDEF
  5
36
330
2E
100
AcDbEntity
  8
ASHADE
  6
Continuous
 62
     7
100
AcDbText
 10
0.0
 20
0.22
 30
0.0
 40
0.01
  1
1
100
AcDbAttributeDefinition
280
     0
  3
Light Intensity
  2
INTENSITY
 70
     1
280
     0
  0
ATTDEF
  5
37
330
2E
100
AcDbEntity
  8
ASHADE
  6
Continuous
 62
     7
100
AcDbText
 10
0.0
 20
0.16
 30
0.0
 40
0.01
  1
-1
100
AcDbAttributeDefinition
280
     0
  3
*not used*
  2
BEAMD
 70
     1
280
     0
  0
ATTDEF
  5
38
330
2E
100
AcDbEntity
  8
ASHADE
  6
Continuous
 62
     7
100
AcDbText
 10
0.0
 20
0.175
 30
0.0
 40
0.01
  1
-1
100
AcDbAttributeDefinition
280
     0
  3
*not used*
  2
CONED
 70
     1
280
     0
  0
ATTDEF
  5
39
330
2E
100
AcDbEntity
  8
ASHADE
  6
Continuous
 62
     7
100
AcDbText
 10
0.0
 20
0.19
 30
0.0
 40
0.01
  1
0
100
AcDbAttributeDefinition
280
     0
  3
Depth Map Size
  2
CONEA
 70
     1
280
     0
  0
ATTDEF
  5
3A
330
2E
100
AcDbEntity
  8
ASHADE
  6
Continuous
 62
     7
100
AcDbText
 10
0.0
 20
0.2050000000000001
 30
0.0
 40
0.01
  1
1,1,1
100
AcDbAttributeDefinition
280
     0
  3
Light Color (RGB)
  2
COLOR
 70
     1
280
     0
  0
ATTDEF
  5
3B
330
2E
100
AcDbEntity
  8
ASHADE
  6
Continuous
 62
     7
100
AcDbText
 10
0.0
 20
0.235
 30
0.0
 40
0.01
  1

100
AcDbAttributeDefinition
280
     0
  3
Look-at Z
  2
LAZ
 70
     1
280
     0
  0
LINE
  5
3C
330
2E
100
AcDbEntity
  8
ASHADE
  6
Continuous
 62
     7
100
AcDbLine
 10
0.0
 20
0.3
 30
0.0
 11
0.0
 21
0.5
 31
0.0
  0
LINE
  5
3D
330
2E
100
AcDbEntity
  8
ASHADE
  6
Continuous
 62
     7
100
AcDbLine
 10
0.11
 20
0.2791057147390572
 30
0.0
 11
0.11
 21
0.5
 31
0.0
  0
ATTDEF
  5
3E
330
2E
100
AcDbEntity
  8
ASHADE
  6
Continuous
 62
     7
100
AcDbText
 10
0.0
 20
0.265
 30
0.0
 40
0.01
  1

100
AcDbAttributeDefinition
280
     0
  3
Look-at X
  2
LAX
 70
     1
280
     0
  0
ATTDEF
  5
3F
330
2E
100
AcDbEntity
  8
ASHADE
  6
Continuous
 62
     7
100
AcDbText
 10
0.0
 20
0.28
 30
0.0
 40
0.01
  1

100
AcDbAttributeDefinition
280
     0
  3

  2
GNAME
 70
     1
280
     0
  0
ENDBLK
  5
41
330
2E
100
AcDbEntity
  8
0
100
AcDbBlockEnd
  0
BLOCK
  5
5D
330
42
100
AcDbEntity
  8
0
100
AcDbBlockBegin
  2
overhead
 70
     2
 10
0.0
 20
0.0
 30
0.0
  3
overhead
  1

  0
ATTDEF
  5
43
330
42
100
AcDbEntity
  8
ASHADE
  6
Continuous
 62
     1
100
AcDbText
 10
0.0
 20
-0.1
 30
0.0
 40
0.2
  1

  7
ASHADE
 72
     1
 11
0.0
 21
-0.1
 31
0.0
100
AcDbAttributeDefinition
280
     0
  3
Light Name
  2
SNAME
 70
     0
280
     0
  0
ARC
  5
44
330
42
100
AcDbEntity
  8
ASHADE
  6
Continuous
 62
     7
100
AcDbCircle
 10
0.0
 20
0.0
 30
0.0
 40
0.3
100
AcDbArc
 50
205.6792886194569
 51
334.3207113805431
  0
LINE
  5
45
330
42
100
AcDbEntity
  8
ASHADE
  6
Continuous
 62
     7
100
AcDbLine
 10
-0.2041413561583015
 20
-0.2198324514393848
 30
0.0
 11
-0.2721884748777353
 21
-0.2931099352525131
 31
0.0
  0
LINE
  5
46
330
42
100
AcDbEntity
  8
ASHADE
  6
Continuous
 62
     7
100
AcDbLine
 10
-0.1096591641591904
 20
-0.2792398032442862
 30
0.0
 11
-0.1279356915190555
 21
-0.3257797704516673
 31
0.0
  0
LINE
  5
47
330
42
100
AcDbEntity
  8
ASHADE
  6
Continuous
 62
     7
100
AcDbLine
 10
0.0
 20
-0.2999999999999999
 30
0.0
 11
0.0
 21
-0.4
 31
0.0
  0
LINE
  5
48
330
42
100
AcDbEntity
  8
ASHADE
  6
Continuous
 62
     7
100
AcDbLine
 10
0.1096591641591904
 20
-0.2792398032442862
 30
0.0
 11
0.1279356915190555
 21
-0.3257797704516673
 31
0.0
  0
LINE
  5
49
330
42
100
AcDbEntity
  8
ASHADE
  6
Continuous
 62
     7
100
AcDbLine
 10
0.2041413561583015
 20
-0.2198324514393848
 30
0.0
 11
0.2721884748777353
 21
-0.2931099352525131
 31
0.0
  0
ARC
  5
4A
330
42
100
AcDbEntity
  8
ASHADE
  6
Continuous
 62
     7
100
AcDbCircle
 10
0.0
 20
0.0
 30
0.0
 40
0.3
100
AcDbArc
 50
25.67928861945685
 51
154.3207113805431
  0
LINE
  5
4B
330
42
100
AcDbEntity
  8
ASHADE
  6
Continuous
 62
     7
100
AcDbLine
 10
-0.2703701166919155
 20
0.13
 30
0.0
 11
-0.3154318028072347
 21
0.1516666666666666
 31
0.0
  0
LINE
  5
4C
330
42
100
AcDbEntity
  8
ASHADE
  6
Continuous
 62
     7
100
AcDbLine
 10
-0.2703701166919155
 20
-0.13
 30
0.0
 11
-0.3154318028072347
 21
-0.1516666666666666
 31
0.0
  0
LINE
  5
4D
330
42
100
AcDbEntity
  8
ASHADE
  6
Continuous
 62
     7
100
AcDbLine
 10
-0.2041413561583015
 20
0.2198324514393849
 30
0.0
 11
-0.2721884748777353
 21
0.2931099352525131
 31
0.0
  0
LINE
  5
4E
330
42
100
AcDbEntity
  8
ASHADE
  6
Continuous
 62
     7
100
AcDbLine
 10
-0.1096591641591904
 20
0.2792398032442862
 30
0.0
 11
-0.1279356915190555
 21
0.3257797704516674
 31
0.0
  0
LINE
  5
4F
330
42
100
AcDbEntity
  8
ASHADE
  6
Continuous
 62
     7
100
AcDbLine
 10
0.2703701166919155
 20
-0.13
 30
0.0
 11
0.3154318028072347
 21
-0.1516666666666666
 31
0.0
  0
LINE
  5
50
330
42
100
AcDbEntity
  8
ASHADE
  6
Continuous
 62
     7
100
AcDbLine
 10
0.2703701166919155
 20
0.13
 30
0.0
 11
0.3154318028072347
 21
0.1516666666666666
 31
0.0
  0
LINE
  5
51
330
42
100
AcDbEntity
  8
ASHADE
  6
Continuous
 62
     7
100
AcDbLine
 10
0.0
 20
0.3
 30
0.0
 11
0.0
 21
0.4
 31
0.0
  0
ATTDEF
  5
52
330
42
100
AcDbEntity
  8
ASHADE
  6
Continuous
 62
     7
100
AcDbText
 10
0.0
 20
0.22
 30
0.0
 40
0.01
  1
1
100
AcDbAttributeDefinition
280
     0
  3
Light Intensity
  2
INTENSITY
 70
     1
280
     0
  0
ATTDEF
  5
53
330
42
100
AcDbEntity
  8
ASHADE
  6
Continuous
 62
     7
100
AcDbText
 10
0.0
 20
0.16
 30
0.0
 40
0.01
  1
-1
100
AcDbAttributeDefinition
280
     0
  3
*not used*
  2
BEAMD
 70
     1
280
     0
  0
ATTDEF
  5
54
330
42
100
AcDbEntity
  8
ASHADE
  6
Continuous
 62
     7
100
AcDbText
 10
0.0
 20
0.175
 30
0.0
 40
0.01
  1
-1
100
AcDbAttributeDefinition
280
     0
  3
*not used*
  2
CONED
 70
     1
280
     0
  0
ATTDEF
  5
55
330
42
100
AcDbEntity
  8
ASHADE
  6
Continuous
 62
     7
100
AcDbText
 10
0.0
 20
0.19
 30
0.0
 40
0.01
  1
0
100
AcDbAttributeDefinition
280
     0
  3
Depth Map Size
  2
CONEA
 70
     1
280
     0
  0
ATTDEF
  5
56
330
42
100
AcDbEntity
  8
ASHADE
  6
Continuous
 62
     7
100
AcDbText
 10
0.0
 20
0.2050000000000001
 30
0.0
 40
0.01
  1
1,1,1
100
AcDbAttributeDefinition
280
     0
  3
Light Color (RGB)
  2
COLOR
 70
     1
280
     0
  0
ATTDEF
  5
57
330
42
100
AcDbEntity
  8
ASHADE
  6
Continuous
 62
     7
100
AcDbText
 10
0.0
 20
0.235
 30
0.0
 40
0.01
  1

100
AcDbAttributeDefinition
280
     0
  3
Look-at Z
  2
LAZ
 70
     1
280
     0
  0
ATTDEF
  5
58
330
42
100
AcDbEntity
  8
ASHADE
  6
Continuous
 62
     7
100
AcDbText
 10
0.0
 20
0.25
 30
0.0
 40
0.01
  1

100
AcDbAttributeDefinition
280
     0
  3
Look-at Y
  2
LAY
 70
     1
280
     0
  0
ATTDEF
  5
59
330
42
100
AcDbEntity
  8
ASHADE
  6
Continuous
 62
     7
100
AcDbText
 10
0.0
 20
0.265
 30
0.0
 40
0.01
  1

100
AcDbAttributeDefinition
280
     0
  3
Look-at X
  2
LAX
 70
     1
280
     0
  0
ATTDEF
  5
5A
330
42
100
AcDbEntity
  8
ASHADE
  6
Continuous
 62
     7
100
AcDbText
 10
0.0
 20
0.28
 30
0.0
 40
0.01
  1

100
AcDbAttributeDefinition
280
     0
  3

  2
GNAME
 70
     1
280
     0
  0
LINE
  5
5B
330
42
100
AcDbEntity
  8
ASHADE
  6
Continuous
 62
     7
100
AcDbLine
 10
0.1096591641591904
 20
0.2792398032442862
 30
0.0
 11
0.1279356915190555
 21
0.3257797704516674
 31
0.0
  0
LINE
  5
5C
330
42
100
AcDbEntity
  8
ASHADE
  6
Continuous
 62
     7
100
AcDbLine
 10
0.2041413561583015
 20
0.2198324514393849
 30
0.0
 11
0.2721884748777353
 21
0.2931099352525131
 31
0.0
  0
ENDBLK
  5
5E
330
42
100
AcDbEntity
  8
0
100
AcDbBlockEnd
  0
BLOCK
  5
85
330
5F
100
AcDbEntity
  8
0
100
AcDbBlockBegin
  2
sh_spot
 70
     2
 10
0.0
 20
0.0
 30
0.0
  3
sh_spot
  1

  0
LINE
  5
60
330
5F
100
AcDbEntity
  8
ASHADE
  6
Continuous
 62
     7
100
AcDbLine
 10
0.25
 20
0.26
 30
0.0
 11
-0.25
 21
0.26
 31
0.0
  0
LINE
  5
61
330
5F
100
AcDbEntity
  8
ASHADE
  6
Continuous
 62
     7
100
AcDbLine
 10
-0.25
 20
-0.3399999999999999
 30
0.0
 11
0.25
 21
-0.3399999999999999
 31
0.0
  0
ATTDEF
  5
62
330
5F
100
AcDbEntity
  8
ASHADE
  6
Continuous
 62
     1
100
AcDbText
 10
0.0
 20
-0.1
 30
0.0
 40
0.2
  1

  7
ASHADE
 72
     1
 11
0.0
 21
-0.1
 31
0.0
100
AcDbAttributeDefinition
280
     0
  3
Light Name
  2
SNAME
 70
     0
280
     0
  0
LINE
  5
63
330
5F
100
AcDbEntity
  8
ASHADE
  6
Continuous
 62
     7
100
AcDbLine
 10
-0.25
 20
-0.13
 30
0.0
 11
-0.25
 21
-0.3399999999999999
 31
0.0
  0
LINE
  5
64
330
5F
100
AcDbEntity
  8
ASHADE
  6
Continuous
 62
     7
100
AcDbLine
 10
-0.25
 20
-0.18
 30
0.0
 11
-0.29
 21
-0.18
 31
0.0
  0
LINE
  5
65
330
5F
100
AcDbEntity
  8
ASHADE
  6
Continuous
 62
     7
100
AcDbLine
 10
-0.29
 20
-0.22
 30
0.0
 11
-0.25
 21
-0.22
 31
0.0
  0
LINE
  5
66
330
5F
100
AcDbEntity
  8
ASHADE
  6
Continuous
 62
     7
100
AcDbLine
 10
-0.29
 20
-0.18
 30
0.0
 11
-0.29
 21
-0.22
 31
0.0
  0
LINE
  5
67
330
5F
100
AcDbEntity
  8
ASHADE
  6
Continuous
 62
     7
100
AcDbLine
 10
-0.1045454545454545
 20
0.26
 30
0.0
 11
-0.15
 21
0.46
 31
0.0
  0
LINE
  5
68
330
5F
100
AcDbEntity
  8
ASHADE
  6
Continuous
 62
     7
100
AcDbLine
 10
-0.21
 20
0.26
 30
0.0
 11
-0.301304347826087
 21
0.46
 31
0.0
  0
LINE
  5
69
330
5F
100
AcDbEntity
  8
ASHADE
  6
Continuous
 62
     7
100
AcDbLine
 10
-0.25
 20
0.26
 30
0.0
 11
-0.25
 21
0.13
 31
0.0
  0
LINE
  5
6A
330
5F
100
AcDbEntity
  8
ASHADE
  6
Continuous
 62
     7
100
AcDbLine
 10
-0.25
 20
0.22
 30
0.0
 11
-0.29
 21
0.22
 31
0.0
  0
LINE
  5
6B
330
5F
100
AcDbEntity
  8
ASHADE
  6
Continuous
 62
     7
100
AcDbLine
 10
-0.29
 20
0.1799999999999999
 30
0.0
 11
-0.25
 21
0.1799999999999999
 31
0.0
  0
LINE
  5
6C
330
5F
100
AcDbEntity
  8
ASHADE
  6
Continuous
 62
     7
100
AcDbLine
 10
-0.29
 20
0.22
 30
0.0
 11
-0.29
 21
0.1799999999999999
 31
0.0
  0
ATTDEF
  5
6D
330
5F
100
AcDbEntity
  8
ASHADE
  6
Continuous
 62
     7
100
AcDbText
 10
0.0
 20
-0.24
 30
0.0
 40
0.01
  1
0
100
AcDbAttributeDefinition
280
     0
  3
Depth Map Size
  2
ZSIZE
 70
     1
280
     0
  0
ATTDEF
  5
6E
330
5F
100
AcDbEntity
  8
ASHADE
  6
Continuous
 62
     7
100
AcDbText
 10
0.0
 20
-0.3300000000000001
 30
0.0
 40
0.01
  1
0,0,0
100
AcDbAttributeDefinition
280
     0
  3
Look-from XYZ
  2
LFXYZ
 70
     1
280
     0
  0
ATTDEF
  5
6F
330
5F
100
AcDbEntity
  8
ASHADE
  6
Continuous
 62
     7
100
AcDbText
 10
0.0
 20
-0.315
 30
0.0
 40
0.01
  1
0.0
100
AcDbAttributeDefinition
280
     0
  3
Beam Distribution
  2
BEAMDI
 70
     1
280
     0
  0
ATTDEF
  5
70
330
5F
100
AcDbEntity
  8
ASHADE
  6
Continuous
 62
     7
100
AcDbText
 10
0.0
 20
-0.3
 30
0.0
 40
0.01
  1
0.0
100
AcDbAttributeDefinition
280
     0
  3
Cone Delta
  2
CONEDE
 70
     1
280
     0
  0
ATTDEF
  5
71
330
5F
100
AcDbEntity
  8
ASHADE
  6
Continuous
 62
     7
100
AcDbText
 10
0.0
 20
-0.2850000000000001
 30
0.0
 40
0.01
  1
10.0
100
AcDbAttributeDefinition
280
     0
  3
Cone Angle
  2
CONEAN
 70
     1
280
     0
  0
ATTDEF
  5
72
330
5F
100
AcDbEntity
  8
ASHADE
  6
Continuous
 62
     7
100
AcDbText
 10
0.0
 20
-0.27
 30
0.0
 40
0.01
  1
-1
100
AcDbAttributeDefinition
280
     0
  3
*not used*
  2
BIASMAX
 70
     1
280
     0
  0
ATTDEF
  5
73
330
5F
100
AcDbEntity
  8
ASHADE
  6
Continuous
 62
     7
100
AcDbText
 10
0.0
 20
-0.255
 30
0.0
 40
0.01
  1
-1
100
AcDbAttributeDefinition
280
     0
  3
*not used*
  2
BIASMIN
 70
     1
280
     0
  0
ATTDEF
  5
74
330
5F
100
AcDbEntity
  8
ASHADE
  6
Continuous
 62
     7
100
AcDbText
 10
0.0
 20
-0.225
 30
0.0
 40
0.01
  1
1,1,1
100
AcDbAttributeDefinition
280
     0
  3
Light Color (RGB)
  2
COLOR
 70
     1
280
     0
  0
ATTDEF
  5
75
330
5F
100
AcDbEntity
  8
ASHADE
  6
Continuous
 62
     7
100
AcDbText
 10
0.0
 20
-0.21
 30
0.0
 40
0.01
  1
1
100
AcDbAttributeDefinition
280
     0
  3
Light Intensity
  2
INTENSITY
 70
     1
280
     0
  0
ATTDEF
  5
76
330
5F
100
AcDbEntity
  8
ASHADE
  6
Continuous
 62
     7
100
AcDbText
 10
0.0
 20
-0.15
 30
0.0
 40
0.01
  1

100
AcDbAttributeDefinition
280
     0
  3

  2
GNAME
 70
     1
280
     0
  0
ATTDEF
  5
77
330
5F
100
AcDbEntity
  8
ASHADE
  6
Continuous
 62
     7
100
AcDbText
 10
0.0
 20
-0.195
 30
0.0
 40
0.01
  1

100
AcDbAttributeDefinition
280
     0
  3
Look-at Z
  2
LAZ
 70
     1
280
     0
  0
ATTDEF
  5
78
330
5F
100
AcDbEntity
  8
ASHADE
  6
Continuous
 62
     7
100
AcDbText
 10
0.0
 20
-0.18
 30
0.0
 40
0.01
  1

100
AcDbAttributeDefinition
280
     0
  3
Look-at Y
  2
LAY
 70
     1
280
     0
  0
ATTDEF
  5
79
330
5F
100
AcDbEntity
  8
ASHADE
  6
Continuous
 62
     7
100
AcDbText
 10
0.0
 20
-0.165
 30
0.0
 40
0.01
  1

100
AcDbAttributeDefinition
280
     0
  3
Look-at X
  2
LAX
 70
     1
280
     0
  0
LINE
  5
7A
330
5F
100
AcDbEntity
  8
ASHADE
  6
Continuous
 62
     7
100
AcDbLine
 10
0.25
 20
-0.3399999999999999
 30
0.0
 11
0.25
 21
-0.13
 31
0.0
  0
LINE
  5
7B
330
5F
100
AcDbEntity
  8
ASHADE
  6
Continuous
 62
     7
100
AcDbLine
 10
0.25
 20
-0.18
 30
0.0
 11
0.29
 21
-0.18
 31
0.0
  0
LINE
  5
7C
330
5F
100
AcDbEntity
  8
ASHADE
  6
Continuous
 62
     7
100
AcDbLine
 10
0.29
 20
-0.22
 30
0.0
 11
0.25
 21
-0.22
 31
0.0
  0
LINE
  5
7D
330
5F
100
AcDbEntity
  8
ASHADE
  6
Continuous
 62
     7
100
AcDbLine
 10
0.29
 20
-0.18
 30
0.0
 11
0.29
 21
-0.22
 31
0.0
  0
LINE
  5
7E
330
5F
100
AcDbEntity
  8
ASHADE
  6
Continuous
 62
     7
100
AcDbLine
 10
0.21
 20
0.26
 30
0.0
 11
0.301304347826087
 21
0.46
 31
0.0
  0
LINE
  5
7F
330
5F
100
AcDbEntity
  8
ASHADE
  6
Continuous
 62
     7
100
AcDbLine
 10
0.1045454545454545
 20
0.26
 30
0.0
 11
0.15
 21
0.46
 31
0.0
  0
LINE
  5
80
330
5F
100
AcDbEntity
  8
ASHADE
  6
Continuous
 62
     7
100
AcDbLine
 10
0.0
 20
0.26
 30
0.0
 11
0.0
 21
0.46
 31
0.0
  0
LINE
  5
81
330
5F
100
AcDbEntity
  8
ASHADE
  6
Continuous
 62
     7
100
AcDbLine
 10
0.25
 20
0.13
 30
0.0
 11
0.25
 21
0.26
 31
0.0
  0
LINE
  5
82
330
5F
100
AcDbEntity
  8
ASHADE
  6
Continuous
 62
     7
100
AcDbLine
 10
0.25
 20
0.22
 30
0.0
 11
0.29
 21
0.22
 31
0.0
  0
LINE
  5
83
330
5F
100
AcDbEntity
  8
ASHADE
  6
Continuous
 62
     7
100
AcDbLine
 10
0.29
 20
0.1799999999999999
 30
0.0
 11
0.25
 21
0.1799999999999999
 31
0.0
  0
LINE
  5
84
330
5F
100
AcDbEntity
  8
ASHADE
  6
Continuous
 62
     7
100
AcDbLine
 10
0.29
 20
0.22
 30
0.0
 11
0.29
 21
0.1799999999999999
 31
0.0
  0
ENDBLK
  5
86
330
5F
100
AcDbEntity
  8
0
100
AcDbBlockEnd
  0
BLOCK
  5
92
330
91
100
AcDbEntity
  8
ASHADE
100
AcDbBlockBegin
  2
AVE_RENDER
 70
     0
 10
0.0
 20
0.0
 30
0.0
  3
AVE_RENDER
  1
AVE_RENDER
  0
ENDBLK
  5
93
330
91
100
AcDbEntity
  8
0
100
AcDbBlockEnd
  0
BLOCK
  5
A0
330
9F
100
AcDbEntity
  8
ASHADE
100
AcDbBlockBegin
  2
AVE_GLOBAL
 70
     0
 10
0.0
 20
0.0
 30
0.0
  3
AVE_GLOBAL
  1
AVE_GLOBAL
  0
ENDBLK
  5
A1
330
9F
100
AcDbEntity
  8
0
100
AcDbBlockEnd
  0
ENDSEC
  0
SECTION
  2
ENTITIES
  0
INSERT
  5
94
330
1F
100
AcDbEntity
  8
ASHADE
 62
     1
100
AcDbBlockReference
  2
AVE_RENDER
 10
0.0
 20
0.0
 30
0.0
1001
AVE_RENDER
1002
{
1070
     7
1000
Pref
1070
    30
1070
    20
1070
     1
1070
     0
1000

1070
    10
1070
     1
1070
    10
1040
1.0
1070
     1
1040
0.3
1040
0.7
1040
0.0
1040
10.0
1010
-1.0
1020
-1.0
1030
-1.0
1040
0.3
1070
    49
1070
     0
1070
     0
1010
1.0
1020
1.0
1030
1.0
1040
45.0
1070
     1
1070
     0
1000
WCS
1040
0.0
1070
     0
1040
10.0
1002
}
  0
INSERT
  5
95
330
1F
100
AcDbEntity
  8
ASHADE
 62
     3
100
AcDbBlockReference
  2
AVE_RENDER
 10
0.0
 20
0.0
 30
0.0
1001
AVE_RENDER
1002
{
1070
     0
1000
Full Opt
1070
     0
1070
     1
1070
     1
1070
     1
1070
     0
1070
     0
1070
     0
1070
     1
1070
     1
1040
0.0001
1040
0.0001
1002
}
  0
INSERT
  5
96
330
1F
100
AcDbEntity
  8
ASHADE
 62
     4
100
AcDbBlockReference
  2
AVE_RENDER
 10
0.0
 20
0.0
 30
0.0
1001
AVE_RENDER
1002
{
1070
     0
1000
Quick Opt
1070
     0
1070
     1
1070
     1
1070
     1
1070
     0
1070
     0
1070
     1
1002
}
  0
INSERT
  5
97
330
1F
100
AcDbEntity
  8
ASHADE
 62
     5
100
AcDbBlockReference
  2
AVE_RENDER
 10
0.0
 20
0.0
 30
0.0
1001
AVE_RENDER
1002
{
1070
     1
1000
Scanl Opt
1070
     2
1070
     0
1070
     2
1040
2.0
1040
4.0
1070
     0
1070
     1
1070
     0
1040
0.03
1002
}
  0
INSERT
  5
98
330
1F
100
AcDbEntity
  8
ASHADE
 62
     6
100
AcDbBlockReference
  2
AVE_RENDER
 10
0.0
 20
0.0
 30
0.0
1001
AVE_RENDER
1002
{
1070
     2
1000
Raytr Opt
1070
     2
1070
     0
1070
     2
1040
2.0
1040
4.0
1070
     0
1070
     1
1070
     1
1040
0.03
1070
     3
1040
0.03
1002
}
  0
INSERT
  5
99
330
1F
100
AcDbEntity
  8
ASHADE
 62
     7
100
AcDbBlockReference
  2
AVE_RENDER
 10
0.0
 20
0.0
 30
0.0
1001
AVE_RENDER
1002
{
1070
     0
1000
RFile Opt
1070
     1
1070
   640
1070
   480
1070
 10000
1070
     1
1070
     8
1070
     8
1070
     0
1070
     0
1070
     0
1070
     0
1070
     0
1070
     0
1070
     0
1002
}
  0
INSERT
  5
9A
330
1F
100
AcDbEntity
  8
ASHADE
 62
     8
100
AcDbBlockReference
  2
AVE_RENDER
 10
0.0
 20
0.0
 30
0.0
1001
AVE_RENDER
1002
{
1070
     0
1000
Fog Opt
1070
     0
1070
     0
1040
0.0
1040
1.0
1040
0.0
1040
1.0
1010
0.5
1020
0.5
1030
0.5
1002
}
  0
INSERT
  5
9B
330
1F
100
AcDbEntity
  8
ASHADE
 62
     9
100
AcDbBlockReference
  2
AVE_RENDER
 10
0.0
 20
0.0
 30
0.0
1001
AVE_RENDER
1002
{
1070
     0
1000
BG Opt
1070
     0
1070
     1
1010
0.0
1020
0.0
1030
0.0
1010
1.0
1020
0.0
1030
0.0
1010
0.0
1020
1.0
1030
0.0
1010
0.0
1020
0.0
1030
1.0
1040
0.5
1040
0.33
1040
0.0
1000

1070
     1
1000

1070
     1
1070
     1
1040
1.0
1040
1.0
1040
0.0
1040
0.0
1070
     0
1002
}
  0
INSERT
  5
A2
330
1F
100
AcDbEntity
  8
ASHADE
 62
     1
100
AcDbBlockReference
  2
AVE_GLOBAL
 10
0.0
 20
0.0
 30
0.0
1001
AVE_MATERIAL
1002
{
1000
*GLOBAL*
1000
2
1000
Global finish.
1002
{
1002
}
1002
{
1070
    63
1002
{
1002
{
1010
-1.0
1020
-1.0
1030
-1.0
1002
}
1040
0.1000000014901161
1000

1040
0.0
1002
{
1002
}
1040
0.0
1002
{
1002
}
1040
0.0
1002
}
1002
{
1002
{
1010
-1.0
1020
-1.0
1030
-1.0
1002
}
1040
0.6999999880790711
1000

1040
0.0
1002
{
1002
}
1040
0.0
1002
{
1002
}
1040
0.0
1002
}
1002
{
1002
{
1010
-1.0
1020
-1.0
1030
-1.0
1002
}
1040
0.2000000029802322
1000

1040
0.0
1002
{
1002
}
1040
0.0
1002
{
1002
}
1040
0.0
1002
}
1002
{
1070
     0
1002
{
1070
     1
1002
{
1040
1.0
1040
1.0
1000

1040
0.0
1002
{
1002
}
1040
0.0
1002
{
1002
}
1040
0.0
1002
}
1002
}
1040
1.0
1040
0.0
1040
0.0
1002
}
1002
{
1040
1.0
1040
1.0
1000

1040
0.0
1002
{
1002
}
1040
0.0
1002
{
1002
}
1040
0.0
1002
}
1002
{
1040
0.5
1040
1.0
1000

1040
0.0
1002
{
1002
}
1040
0.0
1002
{
1002
}
1040
0.0
1002
}
1002
{
1070
     0
1040
0.0
1002
{
1002
}
1040
1.0
1002
{
1002
}
1040
0.0
1002
}
1002
{
1040
0.0
1002
{
1002
{
1010
0.0
1020
0.0
1030
0.0
1002
}
1040
1.0
1000

1040
0.0
1002
{
1002
}
1040
0.0
1002
{
1002
}
1040
0.0
1002
}
1002
}
1002
{
1002
{
1070
     1
1002
{
1040
0.0
1040
1.0
1000

1040
0.0
1002
{
1002
}
1040
0.0
1002
{
1002
}
1040
0.0
1002
}
1002
}
1040
0.0
1002
{
1002
}
1010
1.0
1020
0.0
1030
0.0
1010
0.0
1020
1.0
1030
0.0
1010
0.0
1020
0.0
1030
1.0
1070
     0
1002
}
1002
{
1002
{
1040
1.0
1040
1.0
1002
{
1070
     1
1002
{
1040
1.0
1040
1.0
1000

1040
0.0
1002
{
1002
}
1040
0.0
1002
{
1002
}
1040
0.0
1002
}
1002
}
1002
}
1070
     0
1040
0.0
1002
{
1002
}
1002
}
1002
{
1002
}
1002
}
1002
{
1071
        3
1070
     3
1070
     0
1002
{
1070
     2
1070
     0
1070
     0
1040
0.0
1002
}
1070
     0
1070
     2
1002
{
1002
}
1002
}
1002
{
1040
8030.0
1040
190.3000030517578
1040
0.3050000071525574
1040
228.0
1040
545.0
1040
14.0
1040
17.39999961853027
1040
0.4560000002384186
1002
}
1002
}
  0
MESH
  5
F9
330
1F
100
AcDbEntity
  8
OracDecor_cornice_mouldings
 62
    36
420
  8862472
160
             26216
310
68660000D80200000C00000013000000020000003C00000006000000020000000000004001408F4000000000000012BF00000060000030C00000004001408F4000000000000012BF000000000000BC3E0C000000130000000A0000003C00000006000000020000000000004001408F4000000000000012BF00000060000030
310
C00000002000408FC0000000000000043F00000060050030C00C00000013000000120000003C00000006000000020000000000002000408FC0000000000000043F00000060050030C00000002000408FC0000000000000003F00000000009013BF0C000000130000001A0000003C0000000600000002000000000000400140
310
8F4000000000000012BF000000000000BC3E0000002000408FC0000000000000003F00000000009013BF0C00000013000000220000003C00000006000000020000000000004001408F4000000020010051C000000060FFFF2FC00000004001408F4000000000000012BF00000060000030C00C000000130000002A0000003C
310
00000006000000020000000000004001408F4000000020010051C000000060FFFF2FC00000002000408FC0000000A0FFFF50C000000080040030C00C00000013000000320000003C00000006000000020000000000002000408FC0000000A0FFFF50C000000080040030C00000002000408FC0000000000000043F00000060
310
050030C00C000000130000003A0000003C00000006000000020000000000004001408F4000000020010051C000000040333328C00000004001408F4000000020010051C000000060FFFF2FC00C00000013000000420000003C00000006000000020000000000004001408F4000000020010051C000000040333328C0000000
310
2000408FC0000000A0FFFF50C0000000403D3328C00C000000130000004A0000003C00000006000000020000000000002000408FC0000000A0FFFF50C0000000403D3328C00000002000408FC0000000A0FFFF50C000000080040030C00C00000013000000520000003C00000006000000020000000000004001408F400000
310
0080670651C0000000C0FFFF27C00000004001408F4000000020010051C000000040333328C00C000000130000005A0000003C00000006000000020000000000004001408F4000000080670651C0000000C0FFFF27C00000002000408FC000000000660651C0000000400A0028C00C00000013000000620000003C00000006
310
000000020000000000002000408FC000000000660651C0000000400A0028C00000002000408FC0000000A0FFFF50C0000000403D3328C00C000000130000006A0000003C00000006000000020000000000004001408F4000000080670651C0000000C0FFFF27C00000004001408F40000000C0008058C000000020010028C0
310
0C00000013000000720000003C00000006000000020000000000004001408F40000000C0008058C000000020010028C00000002000408FC000000000008058C0000000A00C0028C00C000000130000007A0000003C00000006000000020000000000002000408FC000000000660651C0000000400A0028C00000002000408F
310
C000000000008058C0000000A00C0028C00C00000013000000820000003C00000006000000020000000000004001408F40000000C0008058C000000020010028C00000004001408F40000000C0008058C000000040333320C00C000000130000008A0000003C00000006000000020000000000004001408F40000000C00080
310
58C000000040333320C00000002000408FC000000000008058C0000000403D3320C00C00000013000000920000003C00000006000000020000000000002000408FC000000000008058C0000000A00C0028C00000002000408FC000000000008058C0000000403D3320C00C000000130000009A0000003C0000000600000002
310
0000000000004001408F4000000000678658C0000000C0000020C00000004001408F40000000C0008058C000000040333320C00C00000013000000A20000003C00000006000000020000000000004001408F4000000000678658C0000000C0000020C00000002000408FC000000040668658C0000000400C0020C00C000000
310
13000000AA0000003C00000006000000020000000000002000408FC000000000008058C0000000403D3320C00000002000408FC000000040668658C0000000400C0020C00C00000013000000B20000003C00000006000000020000000000004001408F4000000000678658C0000000C0000020C00000004001408F40000000
310
C000005EC000000040FFFF1FC00C00000013000000BA0000003C00000006000000020000000000004001408F40000000C000005EC000000040FFFF1FC00000002000408FC00000000000005EC000000080090020C00C00000013000000C20000003C00000006000000020000000000002000408FC00000000000005EC00000
310
0080090020C00000002000408FC000000040668658C0000000400C0020C00C00000013000000CA0000003C00000006000000020000000000004001408F40000000C000005EC000000040FFFF1FC00000004001408F40000000C000005EC0000000000000D9BE0C00000013000000D20000003C000000060000000200000000
310
00004001408F40000000C000005EC0000000000000D9BE0000002000408FC00000000000005EC000000000009015BF0C00000013000000DA0000003C00000006000000020000000000002000408FC00000000000005EC000000080090020C00000002000408FC00000000000005EC000000000009015BF0C00000013000000
310
E20000003C00000006000000020000000000004001408F4000000040F07B5CC0000000000000D9BE0000004001408F40000000C000005EC0000000000000D9BE0C00000013000000EA0000003C00000006000000020000000000004001408F4000000040F07B5CC0000000000000D9BE0000002000408FC000000080EF7B5C
310
C000000000009015BF0C00000013000000F20000003C00000006000000020000000000002000408FC000000080EF7B5CC000000000009015BF0000002000408FC00000000000005EC000000000009015BF0C00000013000000FA0000003C00000006000000020000000000004001408F40000000C0536E5CC000000000C851
310
A8BF0000004001408F4000000040F07B5CC0000000000000D9BE0C00000013000000020100003C00000006000000020000000000004001408F40000000C0536E5CC000000000C851A8BF0000002000408FC0000000C0526E5CC000000000C85BA8BF0C000000130000000A0100003C00000006000000020000000000002000
310
408FC000000080EF7B5CC000000000009015BF0000002000408FC0000000C0526E5CC000000000C85BA8BF0C00000013000000120100003C00000006000000020000000000004001408F40000000C04C635CC0000000007229C7BF0000004001408F40000000C0536E5CC000000000C851A8BF0C000000130000001A010000
310
3C00000006000000020000000000004001408F40000000C04C635CC0000000007229C7BF0000002000408FC0000000004C635CC000000000F22BC7BF0C00000013000000220100003C00000006000000020000000000002000408FC0000000004C635CC000000000F22BC7BF0000002000408FC0000000C0526E5CC0000000
310
00C85BA8BF0C000000130000002A0100003C00000006000000020000000000004001408F4000000040F45C5CC0000000001900D8BF0000004001408F40000000C04C635CC0000000007229C7BF0C00000013000000320100003C00000006000000020000000000004001408F4000000040F45C5CC0000000001900D8BF0000
310
002000408FC000000080F35C5CC0000000005901D8BF0C000000130000003A0100003C00000006000000020000000000002000408FC0000000004C635CC000000000F22BC7BF0000002000408FC000000080F35C5CC0000000005901D8BF0C00000013000000420100003C00000006000000020000000000004001408F4000
310
000080E9495CC000000080ACA1EEBF0000004001408F4000000040F45C5CC0000000001900D8BF0C000000130000004A0100003C00000006000000020000000000004001408F4000000080E9495CC000000080ACA1EEBF0000002000408FC0000000C0E8495CC0000000804CA2EEBF0C00000013000000520100003C000000
310
06000000020000000000002000408FC0000000C0E8495CC0000000804CA2EEBF0000002000408FC000000080F35C5CC0000000005901D8BF0C000000130000005A0100003C00000006000000020000000000004001408F40000000C0D7285CC0000000A03EB8F5BF0000004001408F4000000080E9495CC000000080ACA1EE
310
BF0C00000013000000620100003C00000006000000020000000000004001408F40000000C0D7285CC0000000A03EB8F5BF0000002000408FC000000000D7285CC0000000A08EB8F5BF0C000000130000006A0100003C00000006000000020000000000002000408FC000000000D7285CC0000000A08EB8F5BF000000200040
310
8FC0000000C0E8495CC0000000804CA2EEBF0C00000013000000720100003C00000006000000020000000000004001408F40000000C000005CC0000000800600F8BF0000004001408F40000000C0D7285CC0000000A03EB8F5BF0C000000130000007A0100003C00000006000000020000000000004001408F40000000C000
310
005CC0000000800600F8BF0000002000408FC00000000000005CC0000000805600F8BF0C00000013000000820100003C00000006000000020000000000002000408FC000000000D7285CC0000000A08EB8F5BF0000002000408FC00000000000005CC0000000805600F8BF0C000000130000008A0100003C00000006000000
310
020000000000004001408F40000000C029D75BC0000000403EB8F5BF0000004001408F40000000C000005CC0000000800600F8BF0C00000013000000920100003C00000006000000020000000000004001408F40000000C029D75BC0000000403EB8F5BF0000002000408FC00000000029D75BC0000000408EB8F5BF0C0000
310
00130000009A0100003C00000006000000020000000000002000408FC00000000029D75BC0000000408EB8F5BF0000002000408FC00000000000005CC0000000805600F8BF0C00000013000000A20100003C00000006000000020000000000004001408F40000000C017B65BC000000080ACA1EEBF0000004001408F400000
310
00C029D75BC0000000403EB8F5BF0C00000013000000AA0100003C00000006000000020000000000004001408F40000000C017B65BC000000080ACA1EEBF0000002000408FC00000000017B65BC0000000804CA2EEBF0C00000013000000B20100003C00000006000000020000000000002000408FC00000000017B65BC000
310
0000804CA2EEBF0000002000408FC00000000029D75BC0000000408EB8F5BF0C00000013000000BA0100003C00000006000000020000000000004001408F40000000C017B65BC000000080ACA1EEBF0000004001408F40000000000DA35BC0000000001900D8BF0C00000013000000C20100003C0000000600000002000000
310
0000004001408F40000000000DA35BC0000000001900D8BF0000002000408FC0000000400CA35BC0000000005901D8BF0C00000013000000CA0100003C00000006000000020000000000002000408FC0000000400CA35BC0000000005901D8BF0000002000408FC00000000017B65BC0000000804CA2EEBF0C000000130000
310
00D20100003C00000006000000020000000000004001408F40000000000DA35BC0000000001900D8BF0000004001408F4000000080B49C5BC0000000007229C7BF0C00000013000000DA0100003C00000006000000020000000000004001408F4000000080B49C5BC0000000007229C7BF0000002000408FC0000000C0B39C
310
5BC000000000F22BC7BF0C00000013000000E20100003C00000006000000020000000000002000408FC0000000C0B39C5BC000000000F22BC7BF0000002000408FC0000000400CA35BC0000000005901D8BF0C00000013000000EA0100003C00000006000000020000000000004001408F4000000000AE915BC000000000C8
310
51A8BF0000004001408F4000000080B49C5BC0000000007229C7BF0C00000013000000F20100003C00000006000000020000000000004001408F4000000000AE915BC000000000C851A8BF0000002000408FC000000000AD915BC000000000C85BA8BF0C00000013000000FA0100003C000000060000000200000000000020
310
00408FC000000000AD915BC000000000C85BA8BF0000002000408FC0000000C0B39C5BC000000000F22BC7BF0C00000013000000020200003C00000006000000020000000000004001408F400000004011845BC0000000000000D9BE0000004001408F4000000000AE915BC000000000C851A8BF0C000000130000000A0200
310
003C00000006000000020000000000004001408F400000004011845BC0000000000000D9BE0000002000408FC00000008010845BC000000000009015BF0C00000013000000120200003C00000006000000020000000000002000408FC00000008010845BC000000000009015BF0000002000408FC000000000AD915BC00000
310
0000C85BA8BF0C000000130000001A0200003C00000006000000020000000000004001408F4000000040831A5AC0000000000000D9BE0000004001408F400000004011845BC0000000000000D9BE0C00000013000000220200003C00000006000000020000000000004001408F4000000040831A5AC0000000000000D9BE00
310
00002000408FC000000080821A5AC000000000009015BF0C000000130000002A0200003C00000006000000020000000000002000408FC00000008010845BC000000000009015BF0000002000408FC000000080821A5AC000000000009015BF0C00000013000000320200003C00000006000000020000000000004001408F40
310
0000008009085AC000000000647DB7BF0000004001408F4000000040831A5AC0000000000000D9BE0C000000130000003A0200003C00000006000000020000000000004001408F400000008009085AC000000000647DB7BF0000002000408FC0000000C008085AC0000000006482B7BF0C00000013000000420200003C0000
310
0006000000020000000000002000408FC0000000C008085AC0000000006482B7BF0000002000408FC000000080821A5AC000000000009015BF0C000000130000004A0200003C00000006000000020000000000004001408F40000000C057FC59C0000000007955D5BF0000004001408F400000008009085AC000000000647D
310
B7BF0C00000013000000520200003C00000006000000020000000000004001408F40000000C057FC59C0000000007955D5BF0000002000408FC0000000C056FC59C000000000B956D5BF0C000000130000005A0200003C00000006000000020000000000002000408FC0000000C008085AC0000000006482B7BF0000002000
310
408FC0000000C056FC59C000000000B956D5BF0C00000013000000620200003C00000006000000020000000000004001408F4000000000D2EE59C0000000805CD1E5BF0000004001408F40000000C057FC59C0000000007955D5BF0C000000130000006A0200003C00000006000000020000000000004001408F4000000000
310
D2EE59C0000000805CD1E5BF0000002000408FC000000040D1EE59C000000080FCD1E5BF0C00000013000000720200003C00000006000000020000000000002000408FC000000040D1EE59C000000080FCD1E5BF0000002000408FC0000000C056FC59C000000000B956D5BF0C000000130000007A0200003C000000060000
310
00020000000000004001408F40000000408AD959C0000000808C57EDBF0000004001408F4000000000D2EE59C0000000805CD1E5BF0C00000013000000820200003C00000006000000020000000000004001408F40000000408AD959C0000000808C57EDBF0000002000408FC00000008089D959C0000000803C58EDBF0C00
310
0000130000008A0200003C00000006000000020000000000002000408FC000000040D1EE59C000000080FCD1E5BF0000002000408FC00000008089D959C0000000803C58EDBF0C00000013000000920200003C00000006000000020000000000004001408F40000000C000C059C0000000400600F0BF0000004001408F4000
310
0000408AD959C0000000808C57EDBF0C000000130000009A0200003C00000006000000020000000000004001408F40000000C000C059C0000000400600F0BF0000002000408FC00000000000C059C0000000405600F0BF0C00000013000000A20200003C00000006000000020000000000002000408FC00000008089D959C0
310
000000803C58EDBF0000002000408FC00000000000C059C0000000405600F0BF0C00000013000000AA0200003C00000006000000020000000000004001408F4000000060E92D57C0000000400600F0BF0000004001408F40000000C000C059C0000000400600F0BF0C00000013000000B20200003C00000006000000020000
310
000000004001408F4000000060E92D57C0000000400600F0BF0000002000408FC0000000E0E72D57C0000000405600F0BF0C00000013000000BA0200003C00000006000000020000000000002000408FC0000000E0E72D57C0000000405600F0BF0000002000408FC00000000000C059C0000000405600F0BF0C0000001300
310
0000C20200003C00000006000000020000000000004001408F40000000602F1157C000000040E6B3F1BF0000004001408F4000000060E92D57C0000000400600F0BF0C00000013000000CA0200003C00000006000000020000000000004001408F40000000602F1157C000000040E6B3F1BF0000002000408FC0000000E02D
310
1157C00000004036B4F1BF0C00000013000000D20200003C00000006000000020000000000002000408FC0000000E02D1157C00000004036B4F1BF0000002000408FC0000000E0E72D57C0000000405600F0BF0C00000013000000DA0200003C00000006000000020000000000004001408F400000002094FA56C000000040
310
E671F6BF0000004001408F40000000602F1157C000000040E6B3F1BF0C00000013000000E20200003C00000006000000020000000000004001408F400000002094FA56C000000040E671F6BF0000002000408FC0000000A092FA56C0000000403672F6BF0C00000013000000EA0200003C0000000600000002000000000000
310
2000408FC0000000A092FA56C0000000403672F6BF0000002000408FC0000000E02D1157C00000004036B4F1BF0C00000013000000F20200003C00000006000000020000000000004001408F4000000040E2EE56C000000040C638FDBF0000004001408F400000002094FA56C000000040E671F6BF0C00000013000000FA02
310
00003C00000006000000020000000000004001408F4000000040E2EE56C000000040C638FDBF0000002000408FC0000000E0E0EE56C0000000401639FDBF0C00000013000000020300003C00000006000000020000000000002000408FC0000000E0E0EE56C0000000401639FDBF0000002000408FC0000000A092FA56C000
310
0000403672F6BF0C000000130000000A0300003C00000006000000020000000000004001408F40000000E0ADDF56C000000020A76309C00000004001408F4000000040E2EE56C000000040C638FDBF0C00000013000000120300003C00000006000000020000000000004001408F40000000E0ADDF56C000000020A76309C0
310
0000002000408FC000000060ACDF56C000000020CF6309C00C000000130000001A0300003C00000006000000020000000000002000408FC000000060ACDF56C000000020CF6309C00000002000408FC0000000E0E0EE56C0000000401639FDBF0C00000013000000220300003C00000006000000020000000000004001408F
310
4000000020FCD356C00000002017C70CC00000004001408F40000000E0ADDF56C000000020A76309C00C000000130000002A0300003C00000006000000020000000000004001408F4000000020FCD356C00000002017C70CC00000002000408FC0000000A0FAD356C0000000203FC70CC00C00000013000000320300003C00
310
000006000000020000000000002000408FC000000060ACDF56C000000020CF6309C00000002000408FC0000000A0FAD356C0000000203FC70CC00C000000130000003A0300003C00000006000000020000000000004001408F40000000E060BD56C00000004017260FC00000004001408F4000000020FCD356C00000002017
310
C70CC00C00000013000000420300003C00000006000000020000000000004001408F40000000E060BD56C00000004017260FC00000002000408FC0000000605FBD56C0000000403F260FC00C000000130000004A0300003C00000006000000020000000000002000408FC0000000605FBD56C0000000403F260FC000000020
310
00408FC0000000A0FAD356C0000000203FC70CC00C00000013000000520300003C00000006000000020000000000004001408F4000000000A7A056C000000060FFFF0FC00000004001408F40000000E060BD56C00000004017260FC00C000000130000005A0300003C00000006000000020000000000004001408F40000000
310
00A7A056C000000060FFFF0FC00000002000408FC000000060A5A056C0000000A0130010C00C00000013000000620300003C00000006000000020000000000002000408FC000000060A5A056C0000000A0130010C00000002000408FC0000000605FBD56C0000000403F260FC00C000000130000006A0300003C0000000600
310
0000020000000000004001408F4000000000DC1452C000000000FFFF0FC00000004001408F4000000000A7A056C000000060FFFF0FC00C00000013000000720300003C00000006000000020000000000004001408F4000000000DC1452C000000000FFFF0FC00000002000408FC000000080DA1452C000000080130010C00C
310
000000130000007A0300003C00000006000000020000000000002000408FC000000080DA1452C000000080130010C00000002000408FC000000060A5A056C0000000A0130010C00C00000013000000820300003C00000006000000020000000000004001408F400000000022F851C00000000013260FC00000004001408F40
310
00000000DC1452C000000000FFFF0FC00C000000130000008A0300003C00000006000000020000000000004001408F400000000022F851C00000000013260FC00000002000408FC00000008020F851C0000000003B260FC00C00000013000000920300003C00000006000000020000000000002000408FC00000008020F851
310
C0000000003B260FC00000002000408FC000000080DA1452C000000080130010C00C000000130000009A0300003C00000006000000020000000000004001408F40000000E086E151C00000002013C70CC00000004001408F400000000022F851C00000000013260FC00C00000013000000A20300003C000000060000000200
310
00000000004001408F40000000E086E151C00000002013C70CC00000002000408FC00000006085E151C0000000203BC70CC00C00000013000000AA0300003C00000006000000020000000000002000408FC00000006085E151C0000000203BC70CC00000002000408FC00000008020F851C0000000003B260FC00C00000013
310
000000B20300003C00000006000000020000000000004001408F40000000E0D4D551C000000020A36309C00000004001408F40000000E086E151C00000002013C70CC00C00000013000000BA0300003C00000006000000020000000000004001408F40000000E0D4D551C000000020A36309C00000002000408FC000000060
310
D3D551C000000020CB6309C00C00000013000000C20300003C00000006000000020000000000002000408FC000000060D3D551C000000020CB6309C00000002000408FC00000006085E151C0000000203BC70CC00C00000013000000CA0300003C00000006000000020000000000004001408F40000000E0D4D551C0000000
310
20A36309C00000004001408F40000000A057BB51C0000000807C71EABF0C00000013000000D20300003C00000006000000020000000000004001408F40000000A057BB51C0000000807C71EABF0000002000408FC00000002056BB51C0000000801C72EABF0C00000013000000DA0300003C00000006000000020000000000
310
002000408FC000000060D3D551C000000020CB6309C00000002000408FC00000002056BB51C0000000801C72EABF0C00000013000000E20300003C00000006000000020000000000004001408F40000000C0A5AF51C00000000079C7D9BF0000004001408F40000000A057BB51C0000000807C71EABF0C00000013000000EA
310
0300003C00000006000000020000000000004001408F40000000C0A5AF51C00000000079C7D9BF0000002000408FC000000040A4AF51C000000000B9C8D9BF0C00000013000000F20300003C00000006000000020000000000002000408FC000000040A4AF51C000000000B9C8D9BF0000002000408FC00000002056BB51C0
310
000000801C72EABF0C00000013000000FA0300003C00000006000000020000000000004001408F40000000800A9951C000000000DC3DBBBF0000004001408F40000000C0A5AF51C00000000079C7D9BF0C00000013000000020400003C00000006000000020000000000004001408F40000000800A9951C000000000DC3DBB
310
BF0000002000408FC000000000099951C000000000DC42BBBF0C000000130000000A0400003C00000006000000020000000000002000408FC000000000099951C000000000DC42BBBF0000002000408FC000000040A4AF51C000000000B9C8D9BF0C00000013000000120400003C0000000600000002000000000000400140
310
8F40000000A0507C51C0000000000000BC3E0000004001408F40000000800A9951C000000000DC3DBBBF0C000000130000001A0400003C00000006000000020000000000004001408F40000000A0507C51C0000000000000BC3E0000002000408FC0000000204F7C51C000000000009013BF0C00000013000000220400003C
310
00000006000000020000000000002000408FC0000000204F7C51C000000000009013BF0000002000408FC000000000099951C000000000DC42BBBF0C000000130000002A0400003C00000006000000020000000000004001408F40000000A0507C51C0000000000000BC3E0000004001408F4000000020B82750C000000000
310
0000BC3E0C00000013000000320400003C00000006000000020000000000004001408F4000000020B82750C0000000000000BC3E0000002000408FC0000000C0B62750C000000000009013BF0C000000130000003A0400003C00000006000000020000000000002000408FC0000000204F7C51C000000000009013BF000000
310
2000408FC0000000C0B62750C000000000009013BF0C00000013000000420400003C00000006000000020000000000004001408F4000000020B82750C0000000000000BC3E0000004001408F4000000020FE0A50C000000000E43DBBBF0C000000130000004A0400003C00000006000000020000000000004001408F400000
310
0020FE0A50C000000000E43DBBBF0000002000408FC0000000C0FC0A50C000000000E442BBBF0C00000013000000520400003C00000006000000020000000000002000408FC0000000C0B62750C000000000009013BF0000002000408FC0000000C0FC0A50C000000000E442BBBF0C000000130000005A0400003C00000006
310
000000020000000000004001408F4000000020FE0A50C000000000E43DBBBF0000004001408F40000000C0C5E84FC00000000079C7D9BF0C00000013000000620400003C00000006000000020000000000004001408F40000000C0C5E84FC00000000079C7D9BF0000002000408FC000000020C3E84FC000000000B9C8D9BF
310
0C000000130000006A0400003C00000006000000020000000000002000408FC000000020C3E84FC000000000B9C8D9BF0000002000408FC0000000C0FC0A50C000000000E442BBBF0C00000013000000720400003C00000006000000020000000000004001408F400000000062D14FC0000000807C71EABF0000004001408F
310
40000000C0C5E84FC00000000079C7D9BF0C000000130000007A0400003C00000006000000020000000000004001408F400000000062D14FC0000000807C71EABF0000002000408FC0000000605FD14FC0000000801C72EABF0C00000013000000820400003C00000006000000020000000000002000408FC000000020C3E8
310
4FC000000000B9C8D9BF0000002000408FC0000000605FD14FC0000000801C72EABF0C000000130000008A0400003C00000006000000020000000000004001408F400000000062D14FC0000000807C71EABF0000004001408F4000000020DB814FC0000000804F6611C00C00000013000000920400003C0000000600000002
310
0000000000004001408F4000000020DB814FC0000000804F6611C00000002000408FC000000060D8814FC000000080636611C00C000000130000009A0400003C00000006000000020000000000002000408FC000000060D8814FC000000080636611C00000002000408FC0000000605FD14FC0000000801C72EABF0C000000
310
13000000A20400003C00000006000000020000000000004001408F40000000C0C06A4FC0000000800B1814C00000004001408F4000000020DB814FC0000000804F6611C00C00000013000000AA0400003C00000006000000020000000000004001408F40000000C0C06A4FC0000000800B1814C00000002000408FC0000000
310
00BE6A4FC0000000801F1814C00C00000013000000B20400003C00000006000000020000000000002000408FC000000000BE6A4FC0000000801F1814C00000002000408FC000000060D8814FC000000080636611C00C00000013000000BA0400003C00000006000000020000000000004001408F40000000C0C06A4FC00000
310
00800B1814C00000004001408F4000000000934C4FC00000008052AF16C00C00000013000000C20400003C00000006000000020000000000004001408F4000000000934C4FC00000008052AF16C00000002000408FC000000040904C4FC00000008066AF16C00C00000013000000CA0400003C000000060000000200000000
310
00002000408FC000000040904C4FC00000008066AF16C00000002000408FC000000000BE6A4FC0000000801F1814C00C00000013000000D20400003C00000006000000020000000000004001408F400000000074204FC000000080A61219C00000004001408F4000000000934C4FC00000008052AF16C00C00000013000000
310
DA0400003C00000006000000020000000000004001408F400000000074204FC000000080A61219C00000002000408FC00000004071204FC000000080BA1219C00C00000013000000E20400003C00000006000000020000000000002000408FC00000004071204FC000000080BA1219C00000002000408FC000000040904C4F
310
C00000008066AF16C00C00000013000000EA0400003C00000006000000020000000000004001408F400000000074204FC000000080A61219C00000004001408F4000000040C2E74EC000000080272F1BC00C00000013000000F20400003C00000006000000020000000000004001408F4000000040C2E74EC000000080272F
310
1BC00000002000408FC000000040BFE74EC0000000803B2F1BC00C00000013000000FA0400003C00000006000000020000000000002000408FC000000040BFE74EC0000000803B2F1BC00000002000408FC00000004071204FC000000080BA1219C00C00000013000000020500003C00000006000000020000000000004001
310
408F40000000C029A44EC000000080E7F41CC00000004001408F4000000040C2E74EC000000080272F1BC00C000000130000000A0500003C00000006000000020000000000004001408F40000000C029A44EC000000080E7F41CC00000002000408FC00000000027A44EC000000080FBF41CC00C0000001300000012050000
310
3C00000006000000020000000000002000408FC00000000027A44EC000000080FBF41CC00000002000408FC000000040BFE74EC0000000803B2F1BC00C000000130000001A0500003C00000006000000020000000000004001408F40000000C029A44EC000000080E7F41CC00000004001408F4000000000C8574EC0000000
310
80B7551EC00C00000013000000220500003C00000006000000020000000000004001408F4000000000C8574EC000000080B7551EC00000002000408FC000000040C5574EC000000080CB551EC00C000000130000002A0500003C00000006000000020000000000002000408FC00000000027A44EC000000080FBF41CC00000
310
002000408FC000000040C5574EC000000080CB551EC00C00000013000000320500003C00000006000000020000000000004001408F4000000080DD044EC0000000802A471FC00000004001408F4000000000C8574EC000000080B7551EC00C000000130000003A0500003C00000006000000020000000000004001408F4000
310
000080DD044EC0000000802A471FC00000002000408FC0000000C0DA044EC0000000803F471FC00C00000013000000420500003C00000006000000020000000000002000408FC0000000C0DA044EC0000000803F471FC00000002000408FC000000040C5574EC000000080CB551EC00C000000130000004A0500003C000000
310
06000000020000000000004001408F4000000080DD044EC0000000802A471FC00000004001408F4000000080F9AD4DC000000020C2C11FC00C00000013000000520500003C00000006000000020000000000004001408F4000000080F9AD4DC000000020C2C11FC00000002000408FC0000000C0F6AD4DC000000020D6C11F
310
C00C000000130000005A0500003C00000006000000020000000000002000408FC0000000C0F6AD4DC000000020D6C11FC00000002000408FC0000000C0DA044EC0000000803F471FC00C00000013000000620500003C00000006000000020000000000004001408F40000000400E554DC000000040FFFF1FC0000000400140
310
8F4000000080F9AD4DC000000020C2C11FC00C000000130000006A0500003C00000006000000020000000000004001408F40000000400E554DC000000040FFFF1FC00000002000408FC0000000800B554DC0000000000A0020C00C00000013000000720500003C00000006000000020000000000002000408FC0000000800B
310
554DC0000000000A0020C00000002000408FC0000000C0F6AD4DC000000020D6C11FC00C000000130000007A0500003C00000006000000020000000000004001408F400000008007002AC000000080000020C00000004001408F40000000400E554DC000000040FFFF1FC00C00000013000000820500003C00000006000000
310
020000000000004001408F400000008007002AC000000080000020C00000002000408FC000000080FCFF29C0000000000A0020C00C000000130000008A0500003C00000006000000020000000000002000408FC000000080FCFF29C0000000000A0020C00000002000408FC0000000800B554DC0000000000A0020C00C0000
310
0013000000920500003C00000006000000020000000000004001408F400000008007002AC000000080000020C00000004001408F4000000080070029C000000080D1761FC00C000000130000009A0500003C00000006000000020000000000004001408F4000000080070029C000000080D1761FC00000002000408FC00000
310
0080FCFF28C000000080E5761FC00C00000013000000A20500003C00000006000000020000000000002000408FC000000080FCFF29C0000000000A0020C00000002000408FC000000080FCFF28C000000080E5761FC00C00000013000000AA0500003C00000006000000020000000000004001408F4000000080070029C000
310
000080D1761FC00000004001408F4000000080A04428C00000008001001EC00C00000013000000B20500003C00000006000000020000000000004001408F4000000080A04428C00000008001001EC00000002000408FC000000080954428C00000008014001EC00C00000013000000BA0500003C0000000600000002000000
310
0000002000408FC000000080954428C00000008014001EC00000002000408FC000000080FCFF28C000000080E5761FC00C00000013000000C20500003C00000006000000020000000000004001408F4000000080A04428C00000008001001EC00000004001408F4000000080070028C0000000A001001CC00C000000130000
310
00CA0500003C00000006000000020000000000004001408F4000000080070028C0000000A001001CC00000002000408FC000000080FCFF27C0000000A014001CC00C00000013000000D20500003C00000006000000020000000000002000408FC000000080FCFF27C0000000A014001CC00000002000408FC0000000809544
310
28C00000008014001EC00C00000013000000DA0500003C00000006000000020000000000004001408F4000000080070028C0000000A001001CC00000004001408F4000000080070028C000000000F9FFDFBF0C00000013000000E20500003C00000006000000020000000000004001408F4000000080070028C000000000F9
310
FFDFBF0000002000408FC000000080FCFF27C0000000809C00E0BF0C00000013000000EA0500003C00000006000000020000000000002000408FC000000080FCFF27C0000000809C00E0BF0000002000408FC000000080FCFF27C0000000A014001CC00C00000013000000F20500003C000000060000000200000000000040
310
01408F4000000080BDDD27C0000000003901D0BF0000004001408F4000000080070028C000000000F9FFDFBF0C00000013000000FA0500003C00000006000000020000000000004001408F4000000080BDDD27C0000000003901D0BF0000002000408FC000000080B2DD27C0000000007902D0BF0C00000013000000020600
310
003C00000006000000020000000000002000408FC000000080B2DD27C0000000007902D0BF0000002000408FC000000080FCFF27C0000000809C00E0BF0C000000130000000A0600003C00000006000000020000000000004001408F4000000080FE7F27C0000000006425B1BF0000004001408F4000000080BDDD27C00000
310
00003901D0BF0C00000013000000120600003C00000006000000020000000000004001408F4000000080FE7F27C0000000006425B1BF0000002000408FC000000080F37F27C000000000642AB1BF0C000000130000001A0600003C00000006000000020000000000002000408FC000000080B2DD27C0000000007902D0BF00
310
00002000408FC000000080F37F27C000000000642AB1BF0C00000013000000220600003C00000006000000020000000000004001408F4000000080070027C0000000000000BC3E0000004001408F4000000080FE7F27C0000000006425B1BF0C000000130000002A0600003C00000006000000020000000000004001408F40
310
00000080070027C0000000000000BC3E0000002000408FC000000080FCFF26C000000000009013BF0C00000013000000320600003C00000006000000020000000000002000408FC000000080FCFF26C000000000009013BF0000002000408FC000000080F37F27C000000000642AB1BF0C000000130000003A0600003C0000
310
0006000000020000000000004001408F400000000007BF1FC0000000000000B03E0000004001408F4000000080070027C0000000000000BC3E0C00000013000000420600003C00000006000000020000000000004001408F400000000007BF1FC0000000000000B03E0000002000408FC000000000F1BE1FC00000000000C0
310
13BF0C000000130000004A0600003C00000006000000020000000000002000408FC000000000F1BE1FC00000000000C013BF0000002000408FC000000080FCFF26C000000000009013BF0C00000013000000520600003C00000006000000020000000000004001408F40000000003FE51EC000000000E050A8BF0000004001
310
408F400000000007BF1FC0000000000000B03E0C000000130000005A0600003C00000006000000020000000000004001408F40000000003FE51EC000000000E050A8BF0000002000408FC00000000027E51EC000000000E05AA8BF0C00000013000000620600003C00000006000000020000000000002000408FC000000000
310
27E51EC000000000E05AA8BF0000002000408FC000000000F1BE1FC00000000000C013BF0C000000130000006A0600003C00000006000000020000000000004001408F4000000000D1341EC0000000003829C7BF0000004001408F40000000003FE51EC000000000E050A8BF0C00000013000000720600003C000000060000
310
00020000000000004001408F4000000000D1341EC0000000003829C7BF0000002000408FC000000000BB341EC000000000B82BC7BF0C000000130000007A0600003C00000006000000020000000000002000408FC000000000BB341EC000000000B82BC7BF0000002000408FC00000000027E51EC000000000E05AA8BF0C00
310
000013000000820600003C00000006000000020000000000004001408F400000000049CF1DC000000000FBFFD7BF0000004001408F4000000000D1341EC0000000003829C7BF0C000000130000008A0600003C00000006000000020000000000004001408F400000000049CF1DC000000000FBFFD7BF0000002000408FC000
310
00000033CF1DC0000000003B01D8BF0C00000013000000920600003C00000006000000020000000000002000408FC00000000033CF1DC0000000003B01D8BF0000002000408FC000000000BB341EC000000000B82BC7BF0C000000130000009A0600003C00000006000000020000000000004001408F40000000009D9E1CC0
310
000000009CA1EEBF0000004001408F400000000049CF1DC000000000FBFFD7BF0C00000013000000A20600003C00000006000000020000000000004001408F40000000009D9E1CC0000000009CA1EEBF0000002000408FC000000000879E1CC0000000003CA2EEBF0C00000013000000AA0600003C00000006000000020000
310
000000002000408FC000000000879E1CC0000000003CA2EEBF0000002000408FC00000000033CF1DC0000000003B01D8BF0C00000013000000B20600003C00000006000000020000000000004001408F40000000007F8D1AC00000006036B8F5BF0000004001408F40000000009D9E1CC0000000009CA1EEBF0C0000001300
310
0000BA0600003C00000006000000020000000000004001408F40000000007F8D1AC00000006036B8F5BF0000002000408FC000000000698D1AC00000006086B8F5BF0C00000013000000C20600003C00000006000000020000000000002000408FC000000000698D1AC00000006086B8F5BF0000002000408FC00000000087
310
9E1CC0000000003CA2EEBF0C00000013000000CA0600003C00000006000000020000000000004001408F40000000000F0018C0000000A0FEFFF7BF0000004001408F40000000007F8D1AC00000006036B8F5BF0C00000013000000D20600003C00000006000000020000000000004001408F40000000000F0018C0000000A0
310
FEFFF7BF0000002000408FC000000000F9FF17C0000000A04E00F8BF0C00000013000000DA0600003C00000006000000020000000000002000408FC000000000698D1AC00000006086B8F5BF0000002000408FC000000000F9FF17C0000000A04E00F8BF0C00000013000000E20600003C0000000600000002000000000000
310
4001408F40000000009F7215C00000004036B8F5BF0000004001408F40000000000F0018C0000000A0FEFFF7BF0C00000013000000EA0600003C00000006000000020000000000004001408F40000000009F7215C00000004036B8F5BF0000002000408FC000000000897215C00000004086B8F5BF0C00000013000000F206
310
00003C00000006000000020000000000002000408FC000000000897215C00000004086B8F5BF0000002000408FC000000000F9FF17C0000000A04E00F8BF0C00000013000000FA0600003C00000006000000020000000000004001408F4000000000816113C0000000809CA1EEBF0000004001408F40000000009F7215C000
310
00004036B8F5BF0C00000013000000020700003C00000006000000020000000000004001408F4000000000816113C0000000809CA1EEBF0000002000408FC0000000006B6113C0000000803CA2EEBF0C000000130000000A0700003C00000006000000020000000000002000408FC0000000006B6113C0000000803CA2EEBF
310
0000002000408FC000000000897215C00000004086B8F5BF0C00000013000000120700003C00000006000000020000000000004001408F4000000000816113C0000000809CA1EEBF0000004001408F4000000000D53012C000000000F9FFD7BF0C000000130000001A0700003C00000006000000020000000000004001408F
310
4000000000D53012C000000000F9FFD7BF0000002000408FC000000000BF3012C0000000003901D8BF0C00000013000000220700003C00000006000000020000000000002000408FC000000000BF3012C0000000003901D8BF0000002000408FC0000000006B6113C0000000803CA2EEBF0C000000130000002A0700003C00
310
000006000000020000000000004001408F4000000000D53012C000000000F9FFD7BF0000004001408F40000000004DCB11C0000000003229C7BF0C00000013000000320700003C00000006000000020000000000004001408F40000000004DCB11C0000000003229C7BF0000002000408FC00000000037CB11C000000000B2
310
2BC7BF0C000000130000003A0700003C00000006000000020000000000002000408FC000000000BF3012C0000000003901D8BF0000002000408FC00000000037CB11C000000000B22BC7BF0C00000013000000420700003C00000006000000020000000000004001408F4000000000E31A11C000000000C850A8BF00000040
310
01408F40000000004DCB11C0000000003229C7BF0C000000130000004A0700003C00000006000000020000000000004001408F4000000000E31A11C000000000C850A8BF0000002000408FC000000000CB1A11C000000000C85AA8BF0C00000013000000520700003C00000006000000020000000000002000408FC0000000
310
00CB1A11C000000000C85AA8BF0000002000408FC00000000037CB11C000000000B22BC7BF0C000000130000005A0700003C00000006000000020000000000004001408F4000000000174110C0000000000000BC3E0000004001408F4000000000E31A11C000000000C850A8BF0C00000013000000620700003C0000000600
310
0000020000000000004001408F4000000000174110C0000000000000BC3E0000002000408FC000000000014110C000000000009013BF0C000000130000006A0700003C00000006000000020000000000002000408FC000000000014110C000000000009013BF0000002000408FC000000000CB1A11C000000000C85AA8BF0C
310
00000013000000720700003C00000006000000020000000000004001408F4000000000000012BF000000000000BC3E0000004001408F4000000000174110C0000000000000BC3E0C000000130000007A0700003C00000006000000020000000000002000408FC0000000000000003F00000000009013BF0000002000408FC0
310
00000000014110C000000000009013BF0C00000013000000820700003C00000006000000020000000000002000408FC000000000660651C0000000400A0028C00000002000408FC0000000C0B62750C000000000009013BF0C000000130000008A0700003C00000006000000020000000000002000408FC0000000204F7C51
310
C000000000009013BF0000002000408FC000000000660651C0000000400A0028C00C00000013000000920700003C00000006000000020000000000002000408FC0000000A0FFFF50C0000000403D3328C00000002000408FC0000000800B554DC0000000000A0020C00C000000130000009A0700003C000000060000000200
310
00000000002000408FC0000000A0FFFF50C000000080040030C00000002000408FC0000000800B554DC0000000000A0020C00C00000013000000A20700003C00000006000000020000000000002000408FC000000080FCFF29C0000000000A0020C00000002000408FC0000000000000043F00000060050030C00C00000013
310
000000AA0700003C00000006000000020000000000002000408FC0000000A0FFFF50C0000000403D3328C00000002000408FC0000000C0F6AD4DC000000020D6C11FC00C00000013000000B20700003C00000006000000020000000000002000408FC0000000A0FFFF50C0000000403D3328C00000002000408FC0000000C0
310
DA044EC0000000803F471FC00C00000013000000BA0700003C00000006000000020000000000002000408FC0000000A0FFFF50C0000000403D3328C00000002000408FC000000040C5574EC000000080CB551EC00C00000013000000C20700003C00000006000000020000000000002000408FC0000000A0FFFF50C0000000
310
403D3328C00000002000408FC00000000027A44EC000000080FBF41CC00C00000013000000CA0700003C00000006000000020000000000002000408FC0000000A0FFFF50C0000000403D3328C00000002000408FC000000040BFE74EC0000000803B2F1BC00C00000013000000D20700003C00000006000000020000000000
310
002000408FC0000000A0FFFF50C0000000403D3328C00000002000408FC00000004071204FC000000080BA1219C00C00000013000000DA0700003C00000006000000020000000000002000408FC0000000A0FFFF50C0000000403D3328C00000002000408FC000000040904C4FC00000008066AF16C00C00000013000000E2
310
0700003C00000006000000020000000000002000408FC0000000A0FFFF50C0000000403D3328C00000002000408FC000000000BE6A4FC0000000801F1814C00C00000013000000EA0700003C00000006000000020000000000002000408FC0000000A0FFFF50C0000000403D3328C00000002000408FC000000060D8814FC0
310
00000080636611C00C00000013000000F20700003C00000006000000020000000000002000408FC000000000660651C0000000400A0028C00000002000408FC000000020C3E84FC000000000B9C8D9BF0C00000013000000FA0700003C00000006000000020000000000002000408FC000000000660651C0000000400A0028
310
C00000002000408FC0000000605FD14FC0000000801C72EABF0C00000013000000020800003C00000006000000020000000000002000408FC000000000660651C0000000400A0028C00000002000408FC0000000C0FC0A50C000000000E442BBBF0C000000130000000A0800003C0000000600000002000000000000200040
310
8FC000000000660651C0000000400A0028C00000002000408FC000000000099951C000000000DC42BBBF0C00000013000000120800003C00000006000000020000000000002000408FC000000000660651C0000000400A0028C00000002000408FC000000040A4AF51C000000000B9C8D9BF0C000000130000001A0800003C
310
00000006000000020000000000002000408FC000000000660651C0000000400A0028C00000002000408FC00000002056BB51C0000000801C72EABF0C00000013000000220800003C00000006000000020000000000002000408FC000000000660651C0000000400A0028C00000002000408FC000000060D3D551C000000020
310
CB6309C00C000000130000002A0800003C00000006000000020000000000002000408FC000000000660651C0000000400A0028C00000002000408FC00000006085E151C0000000203BC70CC00C00000013000000320800003C00000006000000020000000000002000408FC000000000660651C0000000400A0028C0000000
310
2000408FC00000008020F851C0000000003B260FC00C000000130000003A0800003C00000006000000020000000000002000408FC000000000660651C0000000400A0028C00000002000408FC000000080DA1452C000000080130010C00C00000013000000420800003C00000006000000020000000000002000408FC00000
310
0060A5A056C0000000A0130010C00000002000408FC000000000008058C0000000A00C0028C00C000000130000004A0800003C00000006000000020000000000002000408FC000000060A5A056C0000000A0130010C00000002000408FC000000000008058C0000000403D3320C00C00000013000000520800003C00000006
310
000000020000000000002000408FC0000000605FBD56C0000000403F260FC00000002000408FC000000000008058C0000000403D3320C00C000000130000005A0800003C00000006000000020000000000002000408FC000000000008058C0000000403D3320C00000002000408FC0000000A0FAD356C0000000203FC70CC0
310
0C00000013000000620800003C00000006000000020000000000002000408FC000000060ACDF56C000000020CF6309C00000002000408FC000000000008058C0000000403D3320C00C000000130000006A0800003C00000006000000020000000000002000408FC0000000E0E0EE56C0000000401639FDBF0000002000408F
310
C000000040668658C0000000400C0020C00C00000013000000720800003C00000006000000020000000000002000408FC000000040668658C0000000400C0020C00000002000408FC0000000A092FA56C0000000403672F6BF0C000000130000007A0800003C00000006000000020000000000002000408FC0000000406686
310
58C0000000400C0020C00000002000408FC0000000E02D1157C00000004036B4F1BF0C00000013000000820800003C00000006000000020000000000002000408FC000000040668658C0000000400C0020C00000002000408FC0000000E0E72D57C0000000405600F0BF0C000000130000008A0800003C0000000600000002
310
0000000000002000408FC000000040668658C0000000400C0020C00000002000408FC00000000000C059C0000000405600F0BF0C00000013000000920800003C00000006000000020000000000002000408FC0000000C008085AC0000000006482B7BF0000002000408FC000000000AD915BC000000000C85BA8BF0C000000
310
130000009A0800003C00000006000000020000000000002000408FC0000000C056FC59C000000000B956D5BF0000002000408FC0000000C0B39C5BC000000000F22BC7BF0C00000013000000A20800003C00000006000000020000000000002000408FC0000000C056FC59C000000000B956D5BF0000002000408FC0000000
310
400CA35BC0000000005901D8BF0C00000013000000AA0800003C00000006000000020000000000002000408FC000000040D1EE59C000000080FCD1E5BF0000002000408FC00000000017B65BC0000000804CA2EEBF0C00000013000000B20800003C00000006000000020000000000002000408FC00000008089D959C00000
310
00803C58EDBF0000002000408FC00000000029D75BC0000000408EB8F5BF0C00000013000000BA0800003C00000006000000020000000000002000408FC00000000000C059C0000000405600F0BF0000002000408FC00000000000005CC0000000805600F8BF0C00000013000000C20800003C000000060000000200000000
310
00002000408FC000000040668658C0000000400C0020C00000002000408FC00000000000005CC0000000805600F8BF0C00000013000000CA0800003C00000006000000020000000000002000408FC000000000D7285CC0000000A08EB8F5BF0000002000408FC00000000000005EC000000080090020C00C00000013000000
310
D20800003C00000006000000020000000000002000408FC00000000000005EC000000080090020C00000002000408FC0000000C0E8495CC0000000804CA2EEBF0C00000013000000DA0800003C00000006000000020000000000002000408FC00000000000005EC000000080090020C00000002000408FC000000080F35C5C
310
C0000000005901D8BF0C00000013000000E20800003C00000006000000020000000000002000408FC00000000000005EC000000080090020C00000002000408FC0000000004C635CC000000000F22BC7BF0C00000013000000EA0800003C00000006000000020000000000002000408FC00000000000005EC0000000800900
310
20C00000002000408FC0000000C0526E5CC000000000C85BA8BF0C00000013000000F20800003C00000006000000020000000000002000408FC00000000000005EC000000080090020C00000002000408FC000000080EF7B5CC000000000009015BF0C00000013000000FA0800003C00000006000000020000000000002000
310
408FC000000000F9FF17C0000000A04E00F8BF0000002000408FC000000080FCFF27C0000000A014001CC00C00000013000000020900003C00000006000000020000000000002000408FC0000000000000043F00000060050030C00000002000408FC000000000F9FF17C0000000A04E00F8BF0C000000130000000A090000
310
3C00000006000000020000000000002000408FC0000000000000043F00000060050030C00000002000408FC000000080FCFF27C0000000A014001CC00C00000013000000120900003C00000006000000020000000000002000408FC0000000000000043F00000060050030C00000002000408FC000000080954428C0000000
310
8014001EC00C000000130000001A0900003C00000006000000020000000000002000408FC0000000000000043F00000060050030C00000002000408FC000000080FCFF28C000000080E5761FC00C00000013000000220900003C00000006000000020000000000002000408FC00000000027E51EC000000000E05AA8BF0000
310
002000408FC000000080F37F27C000000000642AB1BF0C000000130000002A0900003C00000006000000020000000000002000408FC000000080B2DD27C0000000007902D0BF0000002000408FC000000000BB341EC000000000B82BC7BF0C00000013000000320900003C00000006000000020000000000002000408FC000
310
00000033CF1DC0000000003B01D8BF0000002000408FC000000080FCFF27C0000000809C00E0BF0C000000130000003A0900003C00000006000000020000000000002000408FC000000000879E1CC0000000003CA2EEBF0000002000408FC000000080FCFF27C0000000A014001CC00C00000013000000420900003C000000
310
06000000020000000000002000408FC000000000698D1AC00000006086B8F5BF0000002000408FC000000080FCFF27C0000000A014001CC00C000000130000004A0900003C00000006000000020000000000002000408FC0000000000000003F00000000009013BF0000002000408FC000000000CB1A11C000000000C85AA8
310
BF0C00000013000000520900003C00000006000000020000000000002000408FC0000000000000003F00000000009013BF0000002000408FC00000000037CB11C000000000B22BC7BF0C000000130000005A0900003C00000006000000020000000000002000408FC000000000BF3012C0000000003901D8BF000000200040
310
8FC0000000000000003F00000000009013BF0C00000013000000620900003C00000006000000020000000000002000408FC0000000000000043F00000060050030C00000002000408FC0000000006B6113C0000000803CA2EEBF0C000000130000006A0900003C00000006000000020000000000002000408FC00000000000
310
00043F00000060050030C00000002000408FC000000000897215C00000004086B8F5BF0C00000013000000720900003C00000006000000020000000000004001408F4000000080670651C0000000C0FFFF27C00000004001408F40000000A0507C51C0000000000000BC3E0C000000130000007A0900003C00000006000000
310
020000000000004001408F4000000080670651C0000000C0FFFF27C00000004001408F4000000020B82750C0000000000000BC3E0C00000013000000820900003C00000006000000020000000000004001408F4000000020010051C000000060FFFF2FC00000004001408F40000000400E554DC000000040FFFF1FC00C0000
310
00130000008A0900003C00000006000000020000000000004001408F4000000020010051C000000040333328C00000004001408F40000000400E554DC000000040FFFF1FC00C00000013000000920900003C00000006000000020000000000004001408F400000008007002AC000000080000020C00000004001408F400000
310
0000000012BF00000060000030C00C000000130000009A0900003C00000006000000020000000000004001408F4000000020010051C000000040333328C00000004001408F4000000080F9AD4DC000000020C2C11FC00C00000013000000A20900003C00000006000000020000000000004001408F4000000020010051C000
310
000040333328C00000004001408F4000000080DD044EC0000000802A471FC00C00000013000000AA0900003C00000006000000020000000000004001408F4000000020010051C000000040333328C00000004001408F4000000000C8574EC000000080B7551EC00C00000013000000B20900003C0000000600000002000000
310
0000004001408F4000000020010051C000000040333328C00000004001408F40000000C029A44EC000000080E7F41CC00C00000013000000BA0900003C00000006000000020000000000004001408F4000000020010051C000000040333328C00000004001408F4000000040C2E74EC000000080272F1BC00C000000130000
310
00C20900003C00000006000000020000000000004001408F4000000020010051C000000040333328C00000004001408F400000000074204FC000000080A61219C00C00000013000000CA0900003C00000006000000020000000000004001408F4000000020010051C000000040333328C00000004001408F4000000000934C
310
4FC00000008052AF16C00C00000013000000D20900003C00000006000000020000000000004001408F4000000020010051C000000040333328C00000004001408F40000000C0C06A4FC0000000800B1814C00C00000013000000DA0900003C00000006000000020000000000004001408F4000000020010051C00000004033
310
3328C00000004001408F4000000020DB814FC0000000804F6611C00C00000013000000E20900003C00000006000000020000000000004001408F4000000080670651C0000000C0FFFF27C00000004001408F400000000062D14FC0000000807C71EABF0C00000013000000EA0900003C000000060000000200000000000040
310
01408F4000000080670651C0000000C0FFFF27C00000004001408F40000000C0C5E84FC00000000079C7D9BF0C00000013000000F20900003C00000006000000020000000000004001408F4000000080670651C0000000C0FFFF27C00000004001408F4000000020FE0A50C000000000E43DBBBF0C00000013000000FA0900
310
003C00000006000000020000000000004001408F4000000080670651C0000000C0FFFF27C00000004001408F40000000800A9951C000000000DC3DBBBF0C00000013000000020A00003C00000006000000020000000000004001408F4000000080670651C0000000C0FFFF27C00000004001408F40000000C0A5AF51C00000
310
000079C7D9BF0C000000130000000A0A00003C00000006000000020000000000004001408F4000000080670651C0000000C0FFFF27C00000004001408F40000000A057BB51C0000000807C71EABF0C00000013000000120A00003C00000006000000020000000000004001408F4000000080670651C0000000C0FFFF27C000
310
00004001408F40000000E0D4D551C000000020A36309C00C000000130000001A0A00003C00000006000000020000000000004001408F4000000080670651C0000000C0FFFF27C00000004001408F400000000022F851C00000000013260FC00C00000013000000220A00003C00000006000000020000000000004001408F40
310
00000080670651C0000000C0FFFF27C00000004001408F40000000E086E151C00000002013C70CC00C000000130000002A0A00003C00000006000000020000000000004001408F40000000C0008058C000000020010028C00000004001408F4000000000A7A056C000000060FFFF0FC00C00000013000000320A00003C0000
310
0006000000020000000000004001408F4000000080670651C0000000C0FFFF27C00000004001408F4000000000DC1452C000000000FFFF0FC00C000000130000003A0A00003C00000006000000020000000000004001408F40000000E060BD56C00000004017260FC00000004001408F40000000C0008058C0000000403333
310
20C00C00000013000000420A00003C00000006000000020000000000004001408F4000000000A7A056C000000060FFFF0FC00000004001408F40000000C0008058C000000040333320C00C000000130000004A0A00003C00000006000000020000000000004001408F4000000020FCD356C00000002017C70CC00000004001
310
408F40000000C0008058C000000040333320C00C00000013000000520A00003C00000006000000020000000000004001408F40000000E0ADDF56C000000020A76309C00000004001408F40000000C0008058C000000040333320C00C000000130000005A0A00003C00000006000000020000000000004001408F4000000040
310
E2EE56C000000040C638FDBF0000004001408F4000000000678658C0000000C0000020C00C00000013000000620A00003C00000006000000020000000000004001408F40000000602F1157C000000040E6B3F1BF0000004001408F4000000000678658C0000000C0000020C00C000000130000006A0A00003C000000060000
310
00020000000000004001408F400000002094FA56C000000040E671F6BF0000004001408F4000000000678658C0000000C0000020C00C00000013000000720A00003C00000006000000020000000000004001408F4000000060E92D57C0000000400600F0BF0000004001408F4000000000678658C0000000C0000020C00C00
310
0000130000007A0A00003C00000006000000020000000000004001408F4000000000678658C0000000C0000020C00000004001408F40000000C000C059C0000000400600F0BF0C00000013000000820A00003C00000006000000020000000000004001408F400000008009085AC000000000647DB7BF0000004001408F4000
310
000000AE915BC000000000C851A8BF0C000000130000008A0A00003C00000006000000020000000000004001408F40000000C057FC59C0000000007955D5BF0000004001408F4000000080B49C5BC0000000007229C7BF0C00000013000000920A00003C00000006000000020000000000004001408F40000000C057FC59C0
310
000000007955D5BF0000004001408F40000000000DA35BC0000000001900D8BF0C000000130000009A0A00003C00000006000000020000000000004001408F4000000000D2EE59C0000000805CD1E5BF0000004001408F40000000C017B65BC000000080ACA1EEBF0C00000013000000A20A00003C00000006000000020000
310
000000004001408F40000000408AD959C0000000808C57EDBF0000004001408F40000000C029D75BC0000000403EB8F5BF0C00000013000000AA0A00003C00000006000000020000000000004001408F40000000C000C059C0000000400600F0BF0000004001408F40000000C000005CC0000000800600F8BF0C0000001300
310
0000B20A00003C00000006000000020000000000004001408F4000000000678658C0000000C0000020C00000004001408F40000000C000005CC0000000800600F8BF0C00000013000000BA0A00003C00000006000000020000000000004001408F40000000C000005EC000000040FFFF1FC00000004001408F40000000C0D7
310
285CC0000000A03EB8F5BF0C00000013000000C20A00003C00000006000000020000000000004001408F40000000C000005EC000000040FFFF1FC00000004001408F4000000080E9495CC000000080ACA1EEBF0C00000013000000CA0A00003C00000006000000020000000000004001408F40000000C000005EC000000040
310
FFFF1FC00000004001408F4000000040F45C5CC0000000001900D8BF0C00000013000000D20A00003C00000006000000020000000000004001408F40000000C000005EC000000040FFFF1FC00000004001408F40000000C04C635CC0000000007229C7BF0C00000013000000DA0A00003C0000000600000002000000000000
310
4001408F40000000C000005EC000000040FFFF1FC00000004001408F40000000C0536E5CC000000000C851A8BF0C00000013000000E20A00003C00000006000000020000000000004001408F40000000C000005EC000000040FFFF1FC00000004001408F4000000040F07B5CC0000000000000D9BE0C00000013000000EA0A
310
00003C00000006000000020000000000004001408F4000000000000012BF00000060000030C00000004001408F4000000080070028C0000000A001001CC00C00000013000000F20A00003C00000006000000020000000000004001408F4000000000000012BF00000060000030C00000004001408F40000000000F0018C000
310
0000A0FEFFF7BF0C00000013000000FA0A00003C00000006000000020000000000004001408F40000000000F0018C0000000A0FEFFF7BF0000004001408F4000000080070028C0000000A001001CC00C00000013000000020B00003C00000006000000020000000000004001408F4000000000000012BF00000060000030C0
310
0000004001408F4000000080A04428C00000008001001EC00C000000130000000A0B00003C00000006000000020000000000004001408F4000000000000012BF00000060000030C00000004001408F4000000080070029C000000080D1761FC00C00000013000000120B00003C00000006000000020000000000004001408F
310
40000000003FE51EC000000000E050A8BF0000004001408F4000000080FE7F27C0000000006425B1BF0C000000130000001A0B00003C00000006000000020000000000004001408F4000000000D1341EC0000000003829C7BF0000004001408F4000000080BDDD27C0000000003901D0BF0C00000013000000220B00003C00
310
000006000000020000000000004001408F400000000049CF1DC000000000FBFFD7BF0000004001408F4000000080070028C000000000F9FFDFBF0C000000130000002A0B00003C00000006000000020000000000004001408F40000000009D9E1CC0000000009CA1EEBF0000004001408F4000000080070028C0000000A001
310
001CC00C00000013000000320B00003C00000006000000020000000000004001408F40000000007F8D1AC00000006036B8F5BF0000004001408F4000000080070028C0000000A001001CC00C000000130000003A0B00003C00000006000000020000000000004001408F4000000000000012BF000000000000BC3E00000040
310
01408F4000000000E31A11C000000000C850A8BF0C00000013000000420B00003C00000006000000020000000000004001408F4000000000000012BF000000000000BC3E0000004001408F40000000004DCB11C0000000003229C7BF0C000000130000004A0B00003C00000006000000020000000000004001408F40000000
310
00000012BF000000000000BC3E0000004001408F4000000000D53012C000000000F9FFD7BF0C00000013000000520B00003C00000006000000020000000000004001408F4000000000000012BF00000060000030C00000004001408F40000000009F7215C00000004036B8F5BF0C000000130000005A0B00003C0000000600
310
0000020000000000004001408F4000000000000012BF00000060000030C00000004001408F4000000000816113C0000000809CA1EEBF
100
AcDbSubDMesh
 71
     2
 72
     0
 91
        0
 92
      160
 10
1000.000610351562
 20
-68.10006713867188
 30
-11.99999809265136
 10
1000.000610351562
 20
-69.94242095947265
 30
0.0000016689300537
 10
1000.000610351562
 20
-64.62061309814453
 30
0.0000016689300537
 10
1000.000610351562
 20
-68.00006866455078
 30
-12.10000038146972
 10
1000.000610351562
 20
-68.00006866455078
 30
-15.99999523162842
 10
1000.000610351562
 20
-64.17176055908203
 30
-0.1064131259918213
 10
1000.000610351562
 20
-71.34111785888672
 30
-3.173650979995727
 10
1000.000610351562
 20
-70.39126586914062
 30
-0.1064126491546631
 10
1000.000610351562
 20
-71.52385711669921
 30
-3.597204446792602
 10
1000.000610351562
 20
-70.74449157714844
 30
-0.4027998447418213
 10
1000.000610351562
 20
-70.9272232055664
 30
-0.8263533115386962
 10
1000.000610351562
 20
-71.8770751953125
 30
-3.893590927124023
 10
1000.000610351562
 20
-98.0000457763672
 30
-12.00000858306885
 10
1000.000610351562
 20
-72.325927734375
 30
-3.999998092651367
 10
1000.000610351562
 20
-90.51019287109374
 30
-3.999998807907104
 10
1000.000610351562
 20
-90.95903778076172
 30
-3.893599033355712
 10
1000.000610351562
 20
-91.31226348876953
 30
-3.597212076187133
 10
1000.000610351562
 20
-91.49498748779297
 30
-3.173658609390258
 10
1000.000610351562
 20
-91.73255920410156
 30
-1.826360940933227
 10
1000.000610351562
 20
-91.91529083251953
 30
-1.402807474136352
 10
1000.000610351562
 20
-92.26851654052735
 30
-1.106420755386352
 10
1000.000610351562
 20
-92.71736907958985
 30
-1.000005960464477
 10
1000.000610351562
 20
-98.10003662109375
 30
-8.000005722045898
 10
1000.000610351562
 20
-103.0000457763672
 30
-1.000005960464477
 10
1000.000610351562
 20
-98.0000457763672
 30
-8.100000381469726
 10
1000.000610351562
 20
-120.0000457763672
 30
-7.99999713897705
 10
1000.000610351562
 20
-103.3990631103515
 30
-0.9169371128082275
 10
1000.000610351562
 20
-103.7315673828125
 30
-0.6818068027496338
 10
1000.000610351562
 20
-103.9428558349609
 30
-0.3333418369293213
 10
1000.000610351562
 20
-104.1255798339844
 30
-0.0917570590972901
 10
1000.000610351562
 20
-104.4142608642578
 30
-0.0000059604644775
 10
1000.000610351562
 20
-110.8451995849609
 30
-0.95723557472229
 10
1000.000610351562
 20
-110.0635528564453
 30
-0.0000059604644775
 10
1000.000610351562
 20
-111.3619232177734
 30
-1.357481241226196
 10
1000.000610351562
 20
-110.2762451171875
 30
-0.0474989414215088
 10
1000.000610351562
 20
-110.5476684570312
 30
-0.3750059604644775
 10
1000.000610351562
 20
-110.4485168457031
 30
-0.1809523105621338
 10
1000.000610351562
 20
-112.0000457763672
 30
-1.500006198883056
 10
1000.000610351562
 20
-112.6381683349609
 30
-1.357481598854064
 10
1000.000610351562
 20
-113.1548767089844
 30
-0.95723557472229
 10
1000.000610351562
 20
-113.452407836914
 30
-0.3750059604644775
 10
1000.000610351562
 20
-113.5515594482422
 30
-0.1809523105621338
 10
1000.000610351562
 20
-113.7238616943359
 30
-0.0474989414215088
 10
1000.000610351562
 20
-113.936538696289
 30
-0.0000059604644775
 10
1000.000610351562
 20
-120.0000457763672
 30
-0.0000059604644775
 10
1000.000610351562
 20
-13.00005722045898
 30
-8.000003814697265
 10
1000.000610351562
 20
-0.0000686645507813
 30
-16.0000057220459
 10
1000.000610351562
 20
-58.66449737548828
 30
-7.99999713897705
 10
1000.000610351562
 20
-60.03800964355469
 30
-7.819498062133789
 10
1000.000610351562
 20
-61.28252410888672
 30
-7.239164352416992
 10
1000.000610351562
 20
-62.2535400390625
 30
-6.268213272094726
 10
1000.000610351562
 20
-62.83400726318359
 30
-5.023481369018554
 10
1000.000610351562
 20
-63.63580322265625
 30
-0.8263533115386962
 10
1000.000610351562
 20
-63.81853485107422
 30
-0.4027998447418213
 10
1000.000610351562
 20
-12.50005722045898
 30
-7.866033554077148
 10
1000.000610351562
 20
-0.0000686645507813
 30
0.0000016689300537
 10
1000.000610351562
 20
-4.845218658447265
 30
-0.9572279453277587
 10
1000.000610351562
 20
-4.063564300537109
 30
0.0000016689300537
 10
1000.000610351562
 20
-4.276256561279296
 30
-0.0474913120269776
 10
1000.000610351562
 20
-4.547687530517578
 30
-0.3749983310699463
 10
1000.000610351562
 20
-4.448535919189453
 30
-0.1809446811676025
 10
1000.000610351562
 20
-5.361934661865234
 30
-1.357473611831665
 10
1000.000610351562
 20
-6.000057220458984
 30
-1.499998688697814
 10
1000.000610351562
 20
-12.13403701782226
 30
-7.500005722045898
 10
1000.000610351562
 20
-6.638179779052734
 30
-1.357473731040954
 10
1000.000610351562
 20
-7.154895782470703
 30
-0.9572277069091796
 10
1000.000610351562
 20
-7.45242691040039
 30
-0.3749988079071045
 10
1000.000610351562
 20
-7.551578521728515
 30
-0.1809453964233398
 10
1000.000610351562
 20
-7.723873138427734
 30
-0.0474920272827149
 10
1000.000610351562
 20
-7.936550140380859
 30
0.0000009536743164
 10
1000.000610351562
 20
-12.00005722045898
 30
-7.000006198883056
 10
1000.000610351562
 20
-11.50005722045898
 30
0.0000016689300537
 10
1000.000610351562
 20
-11.7499885559082
 30
-0.0669767856597901
 10
1000.000610351562
 20
-11.93308639526367
 30
-0.2500746250152588
 10
1000.000610351562
 20
-12.00005722045898
 30
-0.4999983310699463
 10
1000.000610351562
 20
-59.35917663574219
 30
-7.939217090606689
 10
1000.000610351562
 20
-60.685791015625
 30
-7.583707809448242
 10
1000.000610351562
 20
-61.81061553955078
 30
-6.796049118041992
 10
1000.000610351562
 20
-62.59823608398438
 30
-5.671213150024414
 10
1000.000610351562
 20
-63.01449966430664
 30
-4.349912643432617
 10
-1000.000061035156
 20
-69.94232940673828
 30
-0.0000746250152588
 10
-1000.000061035156
 20
-68.0999755859375
 30
-12.00007820129394
 10
-1000.000061035156
 20
-64.62052917480469
 30
-0.0000746250152588
 10
-1000.000061035156
 20
-67.9999771118164
 30
-12.10007667541504
 10
-1000.000061035156
 20
-4.547603607177734
 30
-0.3750746250152588
 10
-1000.000061035156
 20
-6.63809585571289
 30
-1.357550024986267
 10
-1000.000061035156
 20
-7.154811859130859
 30
-0.9573040008544921
 10
-1000.000061035156
 20
-11.93300247192383
 30
-0.2501509189605713
 10
-1000.000061035156
 20
-12.99997329711914
 30
-8.000076293945312
 10
-1000.000061035156
 20
-61.28244018554688
 30
-7.239240646362304
 10
-1000.000061035156
 20
-61.8105239868164
 30
-6.796125411987304
 10
-1000.000061035156
 20
-62.25345611572265
 30
-6.268289566040039
 10
-1000.000061035156
 20
-63.81845474243164
 30
-0.4028761386871338
 10
-1000.000061035156
 20
-70.39117431640625
 30
-0.1064889430999756
 10
-1000.000061035156
 20
-70.74440002441406
 30
-0.4028761386871338
 10
-1000.000061035156
 20
-71.34102630615235
 30
-3.17372727394104
 10
-1000.000061035156
 20
-71.52376556396484
 30
-3.597280740737915
 10
-1000.000061035156
 20
-71.87698364257812
 30
-3.893667221069335
 10
-1000.000061035156
 20
-72.32583618164063
 30
-4.000074386596679
 10
-1000.000061035156
 20
-90.51009368896485
 30
-4.000074863433837
 10
-1000.000061035156
 20
-98.0
 30
-12.00009632110595
 10
-1000.000061035156
 20
-90.95894622802735
 30
-3.893675327301025
 10
-1000.000061035156
 20
-91.4948959350586
 30
-3.173734903335571
 10
-1000.000061035156
 20
-91.73247528076172
 30
-1.82643723487854
 10
-1000.000061035156
 20
-110.0635070800781
 30
-0.00008225440979
 10
-1000.000061035156
 20
-103.7315216064453
 30
-0.6818830966949463
 10
-1000.000061035156
 20
-103.3990173339843
 30
-0.9170210361480712
 10
-1000.000061035156
 20
-112.6381225585937
 30
-1.357557892799377
 10
-1000.000061035156
 20
-120.0
 30
-8.000072479248046
 10
-1000.000061035156
 20
-113.1548309326172
 30
-0.9573118686676025
 10
-1000.000061035156
 20
-113.551513671875
 30
-0.1810286045074463
 10
-1000.000061035156
 20
-113.9364929199218
 30
-0.00008225440979
 10
-1000.000061035156
 20
-120.0
 30
-0.00008225440979
 10
-1000.000061035156
 20
-67.9999771118164
 30
-16.00006866455078
 10
-1000.000061035156
 20
-58.66441345214844
 30
-8.000076293945312
 10
-1000.000061035156
 20
0.0000381469726563
 30
-16.00008201599121
 10
-1000.000061035156
 20
0.000030517578125
 30
-0.0000746250152588
 10
-1000.000061035156
 20
-4.063480377197265
 30
-0.0000746250152588
 10
-1000.000061035156
 20
-4.276165008544921
 30
-0.0475676059722901
 10
-1000.000061035156
 20
-4.448451995849609
 30
-0.181020975112915
 10
-1000.000061035156
 20
-4.845134735107421
 30
-0.9573042392730712
 10
-1000.000061035156
 20
-5.36185073852539
 30
-1.357549905776977
 10
-1000.000061035156
 20
-5.99997329711914
 30
-1.500074982643127
 10
-1000.000061035156
 20
-7.452342987060546
 30
-0.375075101852417
 10
-1000.000061035156
 20
-7.551494598388671
 30
-0.1810216903686523
 10
-1000.000061035156
 20
-7.723781585693359
 30
-0.0475683212280274
 10
-1000.000061035156
 20
-7.936466217041015
 30
-0.0000753402709961
 10
-1000.000061035156
 20
-11.49997329711914
 30
-0.0000746250152588
 10
-1000.000061035156
 20
-11.74990463256836
 30
-0.0670530796051026
 10
-1000.000061035156
 20
-11.99997329711914
 30
-0.5000746250152588
 10
-1000.000061035156
 20
-11.99997329711914
 30
-7.000078678131103
 10
-1000.000061035156
 20
-12.13395309448242
 30
-7.500078201293945
 10
-1000.000061035156
 20
-12.49997329711914
 30
-7.86610984802246
 10
-1000.000061035156
 20
-59.35909271240234
 30
-7.939293384552001
 10
-1000.000061035156
 20
-60.03792572021485
 30
-7.819578170776367
 10
-1000.000061035156
 20
-60.68570709228516
 30
-7.583784103393554
 10
-1000.000061035156
 20
-62.59815216064453
 30
-5.671289443969726
 10
-1000.000061035156
 20
-62.83392333984375
 30
-5.023557662963867
 10
-1000.000061035156
 20
-63.0144157409668
 30
-4.349988937377929
 10
-1000.000061035156
 20
-63.63572311401367
 30
-0.8264296054840087
 10
-1000.000061035156
 20
-64.17167663574218
 30
-0.1064894199371338
 10
-1000.000061035156
 20
-70.92713165283203
 30
-0.8264296054840087
 10
-1000.000061035156
 20
-98.0
 30
-8.100076675415039
 10
-1000.000061035156
 20
-91.31217193603516
 30
-3.597288370132446
 10
-1000.000061035156
 20
-98.09999084472657
 30
-8.000093460083007
 10
-1000.000061035156
 20
-91.91519927978516
 30
-1.402883768081665
 10
-1000.000061035156
 20
-92.26842498779296
 30
-1.106497049331665
 10
-1000.000061035156
 20
-92.71727752685547
 30
-1.00008225440979
 10
-1000.000061035156
 20
-103.0
 30
-1.00008225440979
 10
-1000.000061035156
 20
-104.1255340576172
 30
-0.0918333530426026
 10
-1000.000061035156
 20
-104.4142150878906
 30
-0.00008225440979
 10
-1000.000061035156
 20
-110.2761840820312
 30
-0.0475752353668213
 10
-1000.000061035156
 20
-103.9427947998047
 30
-0.3334181308746338
 10
-1000.000061035156
 20
-110.4484710693359
 30
-0.1810286045074463
 10
-1000.000061035156
 20
-110.547622680664
 30
-0.37508225440979
 10
-1000.000061035156
 20
-110.8451538085937
 30
-0.9573118686676025
 10
-1000.000061035156
 20
-111.3618774414062
 30
-1.357557535171508
 10
-1000.000061035156
 20
-112.0
 30
-1.500082492828369
 10
-1000.000061035156
 20
-113.4523620605468
 30
-0.37508225440979
 10
-1000.000061035156
 20
-113.7238006591797
 30
-0.0475752353668213
 93
      934
 90
        4
 90
       55
 90
       46
 90
      115
 90
      116
 90
        4
 90
       46
 90
        4
 90
      113
 90
      115
 90
        4
 90
        4
 90
        3
 90
       83
 90
      113
 90
        4
 90
        3
 90
        0
 90
       81
 90
       83
 90
        4
 90
        0
 90
       12
 90
      100
 90
       81
 90
        4
 90
       12
 90
       24
 90
      142
 90
      100
 90
        4
 90
       24
 90
       22
 90
      144
 90
      142
 90
        4
 90
       22
 90
       25
 90
      108
 90
      144
 90
        4
 90
       25
 90
       44
 90
      112
 90
      108
 90
        4
 90
       44
 90
       43
 90
      111
 90
      112
 90
        4
 90
       43
 90
       42
 90
      159
 90
      111
 90
        4
 90
       42
 90
       41
 90
      110
 90
      159
 90
        4
 90
       41
 90
       40
 90
      158
 90
      110
 90
        4
 90
       40
 90
       39
 90
      109
 90
      158
 90
        4
 90
       39
 90
       38
 90
      107
 90
      109
 90
        4
 90
       38
 90
       37
 90
      157
 90
      107
 90
        4
 90
       37
 90
       33
 90
      156
 90
      157
 90
        4
 90
       33
 90
       31
 90
      155
 90
      156
 90
        4
 90
       31
 90
       35
 90
      154
 90
      155
 90
        4
 90
       35
 90
       36
 90
      153
 90
      154
 90
        4
 90
       36
 90
       34
 90
      151
 90
      153
 90
        4
 90
       34
 90
       32
 90
      104
 90
      151
 90
        4
 90
       32
 90
       30
 90
      150
 90
      104
 90
        4
 90
       30
 90
       29
 90
      149
 90
      150
 90
        4
 90
       29
 90
       28
 90
      152
 90
      149
 90
        4
 90
       28
 90
       27
 90
      105
 90
      152
 90
        4
 90
       27
 90
       26
 90
      106
 90
      105
 90
        4
 90
       26
 90
       23
 90
      148
 90
      106
 90
        4
 90
       23
 90
       21
 90
      147
 90
      148
 90
        4
 90
       21
 90
       20
 90
      146
 90
      147
 90
        4
 90
       20
 90
       19
 90
      145
 90
      146
 90
        4
 90
       19
 90
       18
 90
      103
 90
      145
 90
        4
 90
       18
 90
       17
 90
      102
 90
      103
 90
        4
 90
       17
 90
       16
 90
      143
 90
      102
 90
        4
 90
       16
 90
       15
 90
      101
 90
      143
 90
        4
 90
       15
 90
       14
 90
       99
 90
      101
 90
        4
 90
       14
 90
       13
 90
       98
 90
       99
 90
        4
 90
       13
 90
       11
 90
       97
 90
       98
 90
        4
 90
       11
 90
        8
 90
       96
 90
       97
 90
        4
 90
        8
 90
        6
 90
       95
 90
       96
 90
        4
 90
        6
 90
       10
 90
      141
 90
       95
 90
        4
 90
       10
 90
        9
 90
       94
 90
      141
 90
        4
 90
        9
 90
        7
 90
       93
 90
       94
 90
        4
 90
        7
 90
        1
 90
       80
 90
       93
 90
        4
 90
        1
 90
        2
 90
       82
 90
       80
 90
        4
 90
        2
 90
        5
 90
      140
 90
       82
 90
        4
 90
        5
 90
       53
 90
       92
 90
      140
 90
        4
 90
       53
 90
       52
 90
      139
 90
       92
 90
        4
 90
       52
 90
       79
 90
      138
 90
      139
 90
        4
 90
       79
 90
       51
 90
      137
 90
      138
 90
        4
 90
       51
 90
       78
 90
      136
 90
      137
 90
        4
 90
       78
 90
       50
 90
       91
 90
      136
 90
        4
 90
       50
 90
       77
 90
       90
 90
       91
 90
        4
 90
       77
 90
       49
 90
       89
 90
       90
 90
        4
 90
       49
 90
       76
 90
      135
 90
       89
 90
        4
 90
       76
 90
       48
 90
      134
 90
      135
 90
        4
 90
       48
 90
       75
 90
      133
 90
      134
 90
        4
 90
       75
 90
       47
 90
      114
 90
      133
 90
        4
 90
       47
 90
       45
 90
       88
 90
      114
 90
        4
 90
       45
 90
       54
 90
      132
 90
       88
 90
        4
 90
       54
 90
       63
 90
      131
 90
      132
 90
        4
 90
       63
 90
       70
 90
      130
 90
      131
 90
        4
 90
       70
 90
       74
 90
      129
 90
      130
 90
        4
 90
       74
 90
       73
 90
       87
 90
      129
 90
        4
 90
       73
 90
       72
 90
      128
 90
       87
 90
        4
 90
       72
 90
       71
 90
      127
 90
      128
 90
        4
 90
       71
 90
       69
 90
      126
 90
      127
 90
        4
 90
       69
 90
       68
 90
      125
 90
      126
 90
        4
 90
       68
 90
       67
 90
      124
 90
      125
 90
        4
 90
       67
 90
       66
 90
      123
 90
      124
 90
        4
 90
       66
 90
       65
 90
       86
 90
      123
 90
        4
 90
       65
 90
       64
 90
       85
 90
       86
 90
        4
 90
       64
 90
       62
 90
      122
 90
       85
 90
        4
 90
       62
 90
       61
 90
      121
 90
      122
 90
        4
 90
       61
 90
       56
 90
      120
 90
      121
 90
        4
 90
       56
 90
       59
 90
       84
 90
      120
 90
        4
 90
       59
 90
       60
 90
      119
 90
       84
 90
        4
 90
       60
 90
       58
 90
      118
 90
      119
 90
        4
 90
       58
 90
       57
 90
      117
 90
      118
 90
        4
 90
       57
 90
       55
 90
      116
 90
      117
 90
        3
 90
       80
 90
       82
 90
       81
 90
        3
 90
       83
 90
      114
 90
      113
 90
        4
 90
      113
 90
      114
 90
       88
 90
      115
 90
        3
 90
       83
 90
      133
 90
      114
 90
        3
 90
       83
 90
      134
 90
      133
 90
        3
 90
       83
 90
      135
 90
      134
 90
        3
 90
       83
 90
       89
 90
      135
 90
        3
 90
       83
 90
       90
 90
       89
 90
        3
 90
       83
 90
       91
 90
       90
 90
        3
 90
       83
 90
      136
 90
       91
 90
        3
 90
       83
 90
      137
 90
      136
 90
        3
 90
       83
 90
      138
 90
      137
 90
        3
 90
       81
 90
       92
 90
      139
 90
        4
 90
       81
 90
      139
 90
      138
 90
       83
 90
        3
 90
       81
 90
      140
 90
       92
 90
        3
 90
       81
 90
       82
 90
      140
 90
        3
 90
       80
 90
       81
 90
       93
 90
        3
 90
       93
 90
       81
 90
       94
 90
        3
 90
       94
 90
       81
 90
      141
 90
        3
 90
      141
 90
       81
 90
       95
 90
        3
 90
       96
 90
       81
 90
       97
 90
        3
 90
       95
 90
       81
 90
       96
 90
        4
 90
       98
 90
       81
 90
      100
 90
       99
 90
        3
 90
       97
 90
       81
 90
       98
 90
        3
 90
       99
 90
      142
 90
      101
 90
        3
 90
       99
 90
      100
 90
      142
 90
        3
 90
      101
 90
      142
 90
      143
 90
        3
 90
      143
 90
      142
 90
      102
 90
        4
 90
      102
 90
      142
 90
      144
 90
      103
 90
        3
 90
      145
 90
      144
 90
      146
 90
        3
 90
      103
 90
      144
 90
      145
 90
        3
 90
      146
 90
      144
 90
      147
 90
        3
 90
      147
 90
      144
 90
      148
 90
        4
 90
      149
 90
      151
 90
      104
 90
      150
 90
        4
 90
      152
 90
      153
 90
      151
 90
      149
 90
        3
 90
      152
 90
      154
 90
      153
 90
        4
 90
      105
 90
      155
 90
      154
 90
      152
 90
        4
 90
      106
 90
      156
 90
      155
 90
      105
 90
        4
 90
      148
 90
      157
 90
      156
 90
      106
 90
        3
 90
      148
 90
      144
 90
      157
 90
        4
 90
      157
 90
      144
 90
      108
 90
      107
 90
        3
 90
      107
 90
      108
 90
      109
 90
        3
 90
      109
 90
      108
 90
      158
 90
        3
 90
      158
 90
      108
 90
      110
 90
        3
 90
      110
 90
      108
 90
      159
 90
        3
 90
      159
 90
      108
 90
      111
 90
        3
 90
      111
 90
      108
 90
      112
 90
        3
 90
      130
 90
      122
 90
      115
 90
        3
 90
      131
 90
      130
 90
      115
 90
        3
 90
      132
 90
      131
 90
      115
 90
        3
 90
       88
 90
      132
 90
      115
 90
        4
 90
      128
 90
      127
 90
      126
 90
      125
 90
        4
 90
       87
 90
      128
 90
      125
 90
      124
 90
        4
 90
      129
 90
       87
 90
      124
 90
      123
 90
        4
 90
      130
 90
      129
 90
      123
 90
       86
 90
        3
 90
      130
 90
       86
 90
       85
 90
        3
 90
      118
 90
      117
 90
      116
 90
        3
 90
      119
 90
      118
 90
      116
 90
        3
 90
       84
 90
      119
 90
      116
 90
        3
 90
      121
 90
      120
 90
      115
 90
        4
 90
      120
 90
       84
 90
      116
 90
      115
 90
        3
 90
      130
 90
       85
 90
      122
 90
        3
 90
      122
 90
      121
 90
      115
 90
        3
 90
        1
 90
        0
 90
        2
 90
        3
 90
        3
 90
        4
 90
       47
 90
        4
 90
        4
 90
       46
 90
       45
 90
       47
 90
        3
 90
        3
 90
       47
 90
       75
 90
        3
 90
        3
 90
       75
 90
       48
 90
        3
 90
        3
 90
       48
 90
       76
 90
        3
 90
        3
 90
       76
 90
       49
 90
        3
 90
        3
 90
       49
 90
       77
 90
        3
 90
        3
 90
       77
 90
       50
 90
        3
 90
        3
 90
       50
 90
       78
 90
        3
 90
        3
 90
       78
 90
       51
 90
        3
 90
        3
 90
       51
 90
       79
 90
        3
 90
        0
 90
       52
 90
       53
 90
        4
 90
        0
 90
        3
 90
       79
 90
       52
 90
        3
 90
        0
 90
       53
 90
        5
 90
        3
 90
        0
 90
        5
 90
        2
 90
        3
 90
        1
 90
        7
 90
        0
 90
        3
 90
        7
 90
        9
 90
        0
 90
        3
 90
        9
 90
       10
 90
        0
 90
        3
 90
       10
 90
        6
 90
        0
 90
        3
 90
        8
 90
       11
 90
        0
 90
        3
 90
        6
 90
        8
 90
        0
 90
        4
 90
       13
 90
       14
 90
       12
 90
        0
 90
        3
 90
       11
 90
       13
 90
        0
 90
        3
 90
       14
 90
       15
 90
       24
 90
        3
 90
       14
 90
       24
 90
       12
 90
        3
 90
       15
 90
       16
 90
       24
 90
        3
 90
       16
 90
       17
 90
       24
 90
        4
 90
       17
 90
       18
 90
       22
 90
       24
 90
        3
 90
       19
 90
       20
 90
       22
 90
        3
 90
       18
 90
       19
 90
       22
 90
        3
 90
       20
 90
       21
 90
       22
 90
        3
 90
       21
 90
       23
 90
       22
 90
        4
 90
       29
 90
       30
 90
       32
 90
       34
 90
        4
 90
       28
 90
       29
 90
       34
 90
       36
 90
        3
 90
       28
 90
       36
 90
       35
 90
        4
 90
       27
 90
       28
 90
       35
 90
       31
 90
        4
 90
       26
 90
       27
 90
       31
 90
       33
 90
        4
 90
       23
 90
       26
 90
       33
 90
       37
 90
        3
 90
       23
 90
       37
 90
       22
 90
        4
 90
       37
 90
       38
 90
       25
 90
       22
 90
        3
 90
       38
 90
       39
 90
       25
 90
        3
 90
       39
 90
       40
 90
       25
 90
        3
 90
       40
 90
       41
 90
       25
 90
        3
 90
       41
 90
       42
 90
       25
 90
        3
 90
       42
 90
       43
 90
       25
 90
        3
 90
       43
 90
       44
 90
       25
 90
        3
 90
       70
 90
       46
 90
       62
 90
        3
 90
       63
 90
       46
 90
       70
 90
        3
 90
       54
 90
       46
 90
       63
 90
        3
 90
       45
 90
       46
 90
       54
 90
        4
 90
       72
 90
       68
 90
       69
 90
       71
 90
        4
 90
       73
 90
       67
 90
       68
 90
       72
 90
        4
 90
       74
 90
       66
 90
       67
 90
       73
 90
        4
 90
       70
 90
       65
 90
       66
 90
       74
 90
        3
 90
       70
 90
       64
 90
       65
 90
        3
 90
       58
 90
       55
 90
       57
 90
        3
 90
       60
 90
       55
 90
       58
 90
        3
 90
       59
 90
       55
 90
       60
 90
        3
 90
       61
 90
       46
 90
       56
 90
        4
 90
       56
 90
       46
 90
       55
 90
       59
 90
        3
 90
       70
 90
       62
 90
       64
 90
        3
 90
       62
 90
       46
 90
       61
 94
      364
 90
       46
 90
       55
 90
       46
 90
      115
 90
      115
 90
      116
 90
       55
 90
      116
 90
        4
 90
       46
 90
        4
 90
      113
 90
      113
 90
      115
 90
        3
 90
        4
 90
        3
 90
       83
 90
       83
 90
      113
 90
        0
 90
        3
 90
        0
 90
       81
 90
       81
 90
       83
 90
        0
 90
       12
 90
       12
 90
      100
 90
       81
 90
      100
 90
       12
 90
       24
 90
       24
 90
      142
 90
      100
 90
      142
 90
       22
 90
       24
 90
       22
 90
      144
 90
      142
 90
      144
 90
       22
 90
       25
 90
       25
 90
      108
 90
      108
 90
      144
 90
       25
 90
       44
 90
       44
 90
      112
 90
      108
 90
      112
 90
       43
 90
       44
 90
       43
 90
      111
 90
      111
 90
      112
 90
       42
 90
       43
 90
       42
 90
      159
 90
      111
 90
      159
 90
       41
 90
       42
 90
       41
 90
      110
 90
      110
 90
      159
 90
       40
 90
       41
 90
       40
 90
      158
 90
      110
 90
      158
 90
       39
 90
       40
 90
       39
 90
      109
 90
      109
 90
      158
 90
       38
 90
       39
 90
       38
 90
      107
 90
      107
 90
      109
 90
       37
 90
       38
 90
       37
 90
      157
 90
      107
 90
      157
 90
       33
 90
       37
 90
       33
 90
      156
 90
      156
 90
      157
 90
       31
 90
       33
 90
       31
 90
      155
 90
      155
 90
      156
 90
       31
 90
       35
 90
       35
 90
      154
 90
      154
 90
      155
 90
       35
 90
       36
 90
       36
 90
      153
 90
      153
 90
      154
 90
       34
 90
       36
 90
       34
 90
      151
 90
      151
 90
      153
 90
       32
 90
       34
 90
       32
 90
      104
 90
      104
 90
      151
 90
       30
 90
       32
 90
       30
 90
      150
 90
      104
 90
      150
 90
       29
 90
       30
 90
       29
 90
      149
 90
      149
 90
      150
 90
       28
 90
       29
 90
       28
 90
      152
 90
      149
 90
      152
 90
       27
 90
       28
 90
       27
 90
      105
 90
      105
 90
      152
 90
       26
 90
       27
 90
       26
 90
      106
 90
      105
 90
      106
 90
       23
 90
       26
 90
       23
 90
      148
 90
      106
 90
      148
 90
       21
 90
       23
 90
       21
 90
      147
 90
      147
 90
      148
 90
       20
 90
       21
 90
       20
 90
      146
 90
      146
 90
      147
 90
       19
 90
       20
 90
       19
 90
      145
 90
      145
 90
      146
 90
       18
 90
       19
 90
       18
 90
      103
 90
      103
 90
      145
 90
       17
 90
       18
 90
       17
 90
      102
 90
      102
 90
      103
 90
       16
 90
       17
 90
       16
 90
      143
 90
      102
 90
      143
 90
       15
 90
       16
 90
       15
 90
      101
 90
      101
 90
      143
 90
       14
 90
       15
 90
       14
 90
       99
 90
       99
 90
      101
 90
       13
 90
       14
 90
       13
 90
       98
 90
       98
 90
       99
 90
       11
 90
       13
 90
       11
 90
       97
 90
       97
 90
       98
 90
        8
 90
       11
 90
        8
 90
       96
 90
       96
 90
       97
 90
        6
 90
        8
 90
        6
 90
       95
 90
       95
 90
       96
 90
        6
 90
       10
 90
       10
 90
      141
 90
       95
 90
      141
 90
        9
 90
       10
 90
        9
 90
       94
 90
       94
 90
      141
 90
        7
 90
        9
 90
        7
 90
       93
 90
       93
 90
       94
 90
        1
 90
        7
 90
        1
 90
       80
 90
       80
 90
       93
 90
        1
 90
        2
 90
        2
 90
       82
 90
       80
 90
       82
 90
        2
 90
        5
 90
        5
 90
      140
 90
       82
 90
      140
 90
        5
 90
       53
 90
       53
 90
       92
 90
       92
 90
      140
 90
       52
 90
       53
 90
       52
 90
      139
 90
       92
 90
      139
 90
       52
 90
       79
 90
       79
 90
      138
 90
      138
 90
      139
 90
       51
 90
       79
 90
       51
 90
      137
 90
      137
 90
      138
 90
       51
 90
       78
 90
       78
 90
      136
 90
      136
 90
      137
 90
       50
 90
       78
 90
       50
 90
       91
 90
       91
 90
      136
 90
       50
 90
       77
 90
       77
 90
       90
 90
       90
 90
       91
 90
       49
 90
       77
 90
       49
 90
       89
 90
       89
 90
       90
 90
       49
 90
       76
 90
       76
 90
      135
 90
       89
 90
      135
 90
       48
 90
       76
 90
       48
 90
      134
 90
      134
 90
      135
 90
       48
 90
       75
 90
       75
 90
      133
 90
      133
 90
      134
 90
       47
 90
       75
 90
       47
 90
      114
 90
      114
 90
      133
 90
       45
 90
       47
 90
       45
 90
       88
 90
       88
 90
      114
 90
       45
 90
       54
 90
       54
 90
      132
 90
       88
 90
      132
 90
       54
 90
       63
 90
       63
 90
      131
 90
      131
 90
      132
 90
       63
 90
       70
 90
       70
 90
      130
 90
      130
 90
      131
 90
       70
 90
       74
 90
       74
 90
      129
 90
      129
 90
      130
 90
       73
 90
       74
 90
       73
 90
       87
 90
       87
 90
      129
 90
       72
 90
       73
 90
       72
 90
      128
 90
       87
 90
      128
 90
       71
 90
       72
 90
       71
 90
      127
 90
      127
 90
      128
 90
       69
 90
       71
 90
       69
 90
      126
 90
      126
 90
      127
 90
       68
 90
       69
 90
       68
 90
      125
 90
      125
 90
      126
 90
       67
 90
       68
 90
       67
 90
      124
 90
      124
 90
      125
 90
       66
 90
       67
 90
       66
 90
      123
 90
      123
 90
      124
 90
       65
 90
       66
 90
       65
 90
       86
 90
       86
 90
      123
 90
       64
 90
       65
 90
       64
 90
       85
 90
       85
 90
       86
 90
       62
 90
       64
 90
       62
 90
      122
 90
       85
 90
      122
 90
       61
 90
       62
 90
       61
 90
      121
 90
      121
 90
      122
 90
       56
 90
       61
 90
       56
 90
      120
 90
      120
 90
      121
 90
       56
 90
       59
 90
       59
 90
       84
 90
       84
 90
      120
 90
       59
 90
       60
 90
       60
 90
      119
 90
       84
 90
      119
 90
       58
 90
       60
 90
       58
 90
      118
 90
      118
 90
      119
 90
       57
 90
       58
 90
       57
 90
      117
 90
      117
 90
      118
 90
       55
 90
       57
 90
      116
 90
      117
 90
       81
 90
       82
 90
       80
 90
       81
 90
       83
 90
      114
 90
      113
 90
      114
 90
       88
 90
      115
 90
       83
 90
      133
 90
       83
 90
      134
 90
       83
 90
      135
 90
       83
 90
       89
 90
       83
 90
       90
 90
       83
 90
       91
 90
       83
 90
      136
 90
       83
 90
      137
 90
       83
 90
      138
 90
       81
 90
       92
 90
       81
 90
      139
 90
       81
 90
      140
 90
       81
 90
       93
 90
       81
 90
       94
 90
       81
 90
      141
 90
       81
 90
       95
 90
       81
 90
       96
 90
       81
 90
       97
 90
       81
 90
       98
 90
       99
 90
      100
 90
       99
 90
      142
 90
      101
 90
      142
 90
      142
 90
      143
 90
      102
 90
      142
 90
      103
 90
      144
 90
      144
 90
      145
 90
      144
 90
      146
 90
      144
 90
      147
 90
      144
 90
      148
 90
      149
 90
      151
 90
      152
 90
      153
 90
      152
 90
      154
 90
      105
 90
      155
 90
      106
 90
      156
 90
      148
 90
      157
 90
      144
 90
      157
 90
      107
 90
      108
 90
      108
 90
      109
 90
      108
 90
      158
 90
      108
 90
      110
 90
      108
 90
      159
 90
      108
 90
      111
 90
      122
 90
      130
 90
      115
 90
      122
 90
      115
 90
      130
 90
      115
 90
      131
 90
      115
 90
      132
 90
      125
 90
      128
 90
       87
 90
      124
 90
      123
 90
      129
 90
       86
 90
      130
 90
       85
 90
      130
 90
      116
 90
      118
 90
      116
 90
      119
 90
       84
 90
      116
 90
      115
 90
      120
 90
      115
 90
      121
 90
        0
 90
        1
 90
        0
 90
        2
 90
        4
 90
       47
 90
        3
 90
       47
 90
       45
 90
       46
 90
        3
 90
       75
 90
        3
 90
       48
 90
        3
 90
       76
 90
        3
 90
       49
 90
        3
 90
       77
 90
        3
 90
       50
 90
        3
 90
       78
 90
        3
 90
       51
 90
        3
 90
       79
 90
        0
 90
       52
 90
        0
 90
       53
 90
        0
 90
        5
 90
        0
 90
        7
 90
        0
 90
        9
 90
        0
 90
       10
 90
        0
 90
        6
 90
        0
 90
       11
 90
        0
 90
        8
 90
       12
 90
       14
 90
        0
 90
       13
 90
       15
 90
       24
 90
       14
 90
       24
 90
       16
 90
       24
 90
       17
 90
       24
 90
       18
 90
       22
 90
       20
 90
       22
 90
       19
 90
       22
 90
       21
 90
       22
 90
       22
 90
       23
 90
       29
 90
       34
 90
       28
 90
       36
 90
       28
 90
       35
 90
       27
 90
       31
 90
       26
 90
       33
 90
       23
 90
       37
 90
       22
 90
       37
 90
       25
 90
       38
 90
       25
 90
       39
 90
       25
 90
       40
 90
       25
 90
       41
 90
       25
 90
       42
 90
       25
 90
       43
 90
       46
 90
       70
 90
       46
 90
       62
 90
       62
 90
       70
 90
       46
 90
       63
 90
       46
 90
       54
 90
       68
 90
       72
 90
       67
 90
       73
 90
       66
 90
       74
 90
       65
 90
       70
 90
       64
 90
       70
 90
       55
 90
       58
 90
       55
 90
       60
 90
       55
 90
       59
 90
       46
 90
       61
 90
       46
 90
       56
 95
      364
140
0.0
140
0.0
140
0.0
140
0.0
140
0.0
140
0.0
140
0.0
140
0.0
140
0.0
140
0.0
140
0.0
140
0.0
140
0.0
140
0.0
140
0.0
140
0.0
140
0.0
140
0.0
140
0.0
140
0.0
140
0.0
140
0.0
140
0.0
140
0.0
140
0.0
140
0.0
140
0.0
140
0.0
140
0.0
140
0.0
140
0.0
140
0.0
140
0.0
140
0.0
140
0.0
140
0.0
140
0.0
140
0.0
140
0.0
140
0.0
140
0.0
140
0.0
140
0.0
140
0.0
140
0.0
140
0.0
140
0.0
140
0.0
140
0.0
140
0.0
140
0.0
140
0.0
140
0.0
140
0.0
140
0.0
140
0.0
140
0.0
140
0.0
140
0.0
140
0.0
140
0.0
140
0.0
140
0.0
140
0.0
140
0.0
140
0.0
140
0.0
140
0.0
140
0.0
140
0.0
140
0.0
140
0.0
140
0.0
140
0.0
140
0.0
140
0.0
140
0.0
140
0.0
140
0.0
140
0.0
140
0.0
140
0.0
140
0.0
140
0.0
140
0.0
140
0.0
140
0.0
140
0.0
140
0.0
140
0.0
140
0.0
140
0.0
140
0.0
140
0.0
140
0.0
140
0.0
140
0.0
140
0.0
140
0.0
140
0.0
140
0.0
140
0.0
140
0.0
140
0.0
140
0.0
140
0.0
140
0.0
140
0.0
140
0.0
140
0.0
140
0.0
140
0.0
140
0.0
140
0.0
140
0.0
140
0.0
140
0.0
140
0.0
140
0.0
140
0.0
140
0.0
140
0.0
140
0.0
140
0.0
140
0.0
140
0.0
140
0.0
140
0.0
140
0.0
140
0.0
140
0.0
140
0.0
140
0.0
140
0.0
140
0.0
140
0.0
140
0.0
140
0.0
140
0.0
140
0.0
140
0.0
140
0.0
140
0.0
140
0.0
140
0.0
140
0.0
140
0.0
140
0.0
140
0.0
140
0.0
140
0.0
140
0.0
140
0.0
140
0.0
140
0.0
140
0.0
140
0.0
140
0.0
140
0.0
140
0.0
140
0.0
140
0.0
140
0.0
140
0.0
140
0.0
140
0.0
140
0.0
140
0.0
140
0.0
140
0.0
140
0.0
140
0.0
140
0.0
140
0.0
140
0.0
140
0.0
140
0.0
140
0.0
140
0.0
140
0.0
140
0.0
140
0.0
140
0.0
140
0.0
140
0.0
140
0.0
140
0.0
140
0.0
140
0.0
140
0.0
140
0.0
140
0.0
140
0.0
140
0.0
140
0.0
140
0.0
140
0.0
140
0.0
140
0.0
140
0.0
140
0.0
140
0.0
140
0.0
140
0.0
140
0.0
140
0.0
140
0.0
140
0.0
140
0.0
140
0.0
140
0.0
140
0.0
140
0.0
140
0.0
140
0.0
140
0.0
140
0.0
140
0.0
140
0.0
140
0.0
140
0.0
140
0.0
140
0.0
140
0.0
140
0.0
140
0.0
140
0.0
140
0.0
140
0.0
140
0.0
140
0.0
140
0.0
140
0.0
140
0.0
140
0.0
140
0.0
140
0.0
140
0.0
140
0.0
140
0.0
140
0.0
140
0.0
140
0.0
140
0.0
140
0.0
140
0.0
140
0.0
140
0.0
140
0.0
140
0.0
140
0.0
140
0.0
140
0.0
140
0.0
140
0.0
140
0.0
140
0.0
140
0.0
140
0.0
140
0.0
140
0.0
140
0.0
140
0.0
140
0.0
140
0.0
140
0.0
140
0.0
140
0.0
140
0.0
140
0.0
140
0.0
140
0.0
140
0.0
140
0.0
140
0.0
140
0.0
140
0.0
140
0.0
140
0.0
140
0.0
140
0.0
140
0.0
140
0.0
140
0.0
140
0.0
140
0.0
140
0.0
140
0.0
140
0.0
140
0.0
140
0.0
140
0.0
140
0.0
140
0.0
140
0.0
140
0.0
140
0.0
140
0.0
140
0.0
140
0.0
140
0.0
140
0.0
140
0.0
140
0.0
140
0.0
140
0.0
140
0.0
140
0.0
140
0.0
140
0.0
140
0.0
140
0.0
140
0.0
140
0.0
140
0.0
140
0.0
140
0.0
140
0.0
140
0.0
140
0.0
140
0.0
140
0.0
140
0.0
140
0.0
140
0.0
140
0.0
140
0.0
140
0.0
140
0.0
140
0.0
140
0.0
140
0.0
140
0.0
140
0.0
140
0.0
140
0.0
140
0.0
140
0.0
140
0.0
140
0.0
140
0.0
140
0.0
140
0.0
140
0.0
140
0.0
140
0.0
140
0.0
140
0.0
140
0.0
140
0.0
140
0.0
140
0.0
140
0.0
140
0.0
140
0.0
140
0.0
140
0.0
140
0.0
140
0.0
140
0.0
140
0.0
140
0.0
140
0.0
140
0.0
 90
        0
  0
POLYLINE
  5
FA
330
1F
100
AcDbEntity
  8
OracDecor_cornice_mouldings
 62
   133
420
  5759430
100
AcDb2dPolyline
 66
     1
 10
0.0
 20
0.0
 30
0.0000038517109715
 70
     1
210
-0.9999999999999769
220
0.0000001788139343
230
-0.0000001192092896
  0
VERTEX
  5
FB
330
FA
100
AcDbEntity
  8
OracDecor_cornice_mouldings
 62
   133
420
  5759430
100
AcDbVertex
100
AcDb2dVertex
 10
-64.62054443359375
 20
0.0000004249745871
 30
0.0000038517109715
  0
VERTEX
  5
FC
330
FA
100
AcDbEntity
  8
OracDecor_cornice_mouldings
 62
   133
420
  5759430
100
AcDbVertex
100
AcDb2dVertex
 10
-69.94235229492187
 20
0.0000001077701199
 30
0.0000038517109715
  0
VERTEX
  5
FD
330
FA
100
AcDbEntity
  8
OracDecor_cornice_mouldings
 62
   133
420
  5759430
100
AcDbVertex
100
AcDb2dVertex
 10
-70.39118957519531
 20
-0.1064147129654884
 30
0.0000038517109715
  0
VERTEX
  5
FE
330
FA
100
AcDbEntity
  8
OracDecor_cornice_mouldings
 62
   133
420
  5759430
100
AcDbVertex
100
AcDb2dVertex
 10
-70.74441528320313
 20
-0.4028014242649079
 30
0.0000038517109715
  0
VERTEX
  5
FF
330
FA
100
AcDbEntity
  8
OracDecor_cornice_mouldings
 62
   133
420
  5759430
100
AcDbVertex
100
AcDb2dVertex
 10
-70.92715454101562
 20
-0.8263549208641052
 30
0.0000038517109715
  0
VERTEX
  5
100
330
FA
100
AcDbEntity
  8
OracDecor_cornice_mouldings
 62
   133
420
  5759430
100
AcDbVertex
100
AcDb2dVertex
 10
-71.34104919433593
 20
-3.17364501953125
 30
0.0000038517109715
  0
VERTEX
  5
101
330
FA
100
AcDbEntity
  8
OracDecor_cornice_mouldings
 62
   133
420
  5759430
100
AcDbVertex
100
AcDb2dVertex
 10
-71.52378845214844
 20
-3.597198486328125
 30
0.0000038517109715
  0
VERTEX
  5
102
330
FA
100
AcDbEntity
  8
OracDecor_cornice_mouldings
 62
   133
420
  5759430
100
AcDbVertex
100
AcDb2dVertex
 10
-71.87699890136719
 20
-3.893585205078125
 30
0.0000038517109715
  0
VERTEX
  5
103
330
FA
100
AcDbEntity
  8
OracDecor_cornice_mouldings
 62
   133
420
  5759430
100
AcDbVertex
100
AcDb2dVertex
 10
-72.32585144042968
 20
-4.0
 30
0.0000038517109715
  0
VERTEX
  5
104
330
FA
100
AcDbEntity
  8
OracDecor_cornice_mouldings
 62
   133
420
  5759430
100
AcDbVertex
100
AcDb2dVertex
 10
-90.51011657714843
 20
-4.000000953674316
 30
0.0000038517109715
  0
VERTEX
  5
105
330
FA
100
AcDbEntity
  8
OracDecor_cornice_mouldings
 62
   133
420
  5759430
100
AcDbVertex
100
AcDb2dVertex
 10
-90.95896911621094
 20
-3.89358639717102
 30
0.0000038517109715
  0
VERTEX
  5
106
330
FA
100
AcDbEntity
  8
OracDecor_cornice_mouldings
 62
   133
420
  5759430
100
AcDbVertex
100
AcDb2dVertex
 10
-91.31219482421874
 20
-3.59719967842102
 30
0.0000038517109715
  0
VERTEX
  5
107
330
FA
100
AcDbEntity
  8
OracDecor_cornice_mouldings
 62
   133
420
  5759430
100
AcDbVertex
100
AcDb2dVertex
 10
-91.49491882324218
 20
-3.173646211624145
 30
0.0000038517109715
  0
VERTEX
  5
108
330
FA
100
AcDbEntity
  8
OracDecor_cornice_mouldings
 62
   133
420
  5759430
100
AcDbVertex
100
AcDb2dVertex
 10
-91.7324981689453
 20
-1.826348543167114
 30
0.0000038517109715
  0
VERTEX
  5
109
330
FA
100
AcDbEntity
  8
OracDecor_cornice_mouldings
 62
   133
420
  5759430
100
AcDbVertex
100
AcDb2dVertex
 10
-91.91522216796874
 20
-1.402795076370239
 30
0.0000038517109715
  0
VERTEX
  5
10A
330
FA
100
AcDbEntity
  8
OracDecor_cornice_mouldings
 62
   133
420
  5759430
100
AcDbVertex
100
AcDb2dVertex
 10
-92.26844787597656
 20
-1.106408357620239
 30
0.0000038517109715
  0
VERTEX
  5
10B
330
FA
100
AcDbEntity
  8
OracDecor_cornice_mouldings
 62
   133
420
  5759430
100
AcDbVertex
100
AcDb2dVertex
 10
-92.71730041503905
 20
-1.000001192092895
 30
0.0000038517109715
  0
VERTEX
  5
10C
330
FA
100
AcDbEntity
  8
OracDecor_cornice_mouldings
 62
   133
420
  5759430
100
AcDbVertex
100
AcDb2dVertex
 10
-103.0
 20
-1.000001907348632
 30
0.0000038517109715
  0
VERTEX
  5
10D
330
FA
100
AcDbEntity
  8
OracDecor_cornice_mouldings
 62
   133
420
  5759430
100
AcDbVertex
100
AcDb2dVertex
 10
-103.3990173339843
 20
-0.916933000087738
 30
0.0000038517109715
  0
VERTEX
  5
10E
330
FA
100
AcDbEntity
  8
OracDecor_cornice_mouldings
 62
   133
420
  5759430
100
AcDbVertex
100
AcDb2dVertex
 10
-103.7315216064453
 20
-0.6817951202392579
 30
0.0000038517109715
  0
VERTEX
  5
10F
330
FA
100
AcDbEntity
  8
OracDecor_cornice_mouldings
 62
   133
420
  5759430
100
AcDbVertex
100
AcDb2dVertex
 10
-103.9428100585937
 20
-0.3333301544189453
 30
0.0000038517109715
  0
VERTEX
  5
110
330
FA
100
AcDbEntity
  8
OracDecor_cornice_mouldings
 62
   133
420
  5759430
100
AcDbVertex
100
AcDb2dVertex
 10
-104.1255340576172
 20
-0.0917530283331871
 30
0.0000038517109715
  0
VERTEX
  5
111
330
FA
100
AcDbEntity
  8
OracDecor_cornice_mouldings
 62
   133
420
  5759430
100
AcDbVertex
100
AcDb2dVertex
 10
-104.4142150878906
 20
-0.0000019469134713
 30
0.0000038517109715
  0
VERTEX
  5
112
330
FA
100
AcDbEntity
  8
OracDecor_cornice_mouldings
 62
   133
420
  5759430
100
AcDbVertex
100
AcDb2dVertex
 10
-110.0635070800781
 20
-0.0000022836375138
 30
0.0000038517109715
  0
VERTEX
  5
113
330
FA
100
AcDbEntity
  8
OracDecor_cornice_mouldings
 62
   133
420
  5759430
100
AcDbVertex
100
AcDb2dVertex
 10
-110.2761840820312
 20
-0.0474876463413239
 30
0.0000038517109715
  0
VERTEX
  5
114
330
FA
100
AcDbEntity
  8
OracDecor_cornice_mouldings
 62
   133
420
  5759430
100
AcDbVertex
100
AcDb2dVertex
 10
-110.4484710693359
 20
-0.18094103038311
 30
0.0000038517109715
  0
VERTEX
  5
115
330
FA
100
AcDbEntity
  8
OracDecor_cornice_mouldings
 62
   133
420
  5759430
100
AcDbVertex
100
AcDb2dVertex
 10
-110.547622680664
 20
-0.3749946653842926
 30
0.0000038517109715
  0
VERTEX
  5
116
330
FA
100
AcDbEntity
  8
OracDecor_cornice_mouldings
 62
   133
420
  5759430
100
AcDbVertex
100
AcDb2dVertex
 10
-110.8451538085937
 20
-0.9572243094444274
 30
0.0000038517109715
  0
VERTEX
  5
117
330
FA
100
AcDbEntity
  8
OracDecor_cornice_mouldings
 62
   133
420
  5759430
100
AcDbVertex
100
AcDb2dVertex
 10
-111.3618774414062
 20
-1.357470035552978
 30
0.0000038517109715
  0
VERTEX
  5
118
330
FA
100
AcDbEntity
  8
OracDecor_cornice_mouldings
 62
   133
420
  5759430
100
AcDbVertex
100
AcDb2dVertex
 10
-112.0
 20
-1.499994754791259
 30
0.0000038517109715
  0
VERTEX
  5
119
330
FA
100
AcDbEntity
  8
OracDecor_cornice_mouldings
 62
   133
420
  5759430
100
AcDbVertex
100
AcDb2dVertex
 10
-112.6381225585937
 20
-1.357470035552978
 30
0.0000038517109715
  0
VERTEX
  5
11A
330
FA
100
AcDbEntity
  8
OracDecor_cornice_mouldings
 62
   133
420
  5759430
100
AcDbVertex
100
AcDb2dVertex
 10
-113.1548309326172
 20
-0.957224428653717
 30
0.0000038517109715
  0
VERTEX
  5
11B
330
FA
100
AcDbEntity
  8
OracDecor_cornice_mouldings
 62
   133
420
  5759430
100
AcDbVertex
100
AcDb2dVertex
 10
-113.4523620605468
 20
-0.3749948441982269
 30
0.0000038517109715
  0
VERTEX
  5
11C
330
FA
100
AcDbEntity
  8
OracDecor_cornice_mouldings
 62
   133
420
  5759430
100
AcDbVertex
100
AcDb2dVertex
 10
-113.551513671875
 20
-0.1809412091970444
 30
0.0000038517109715
  0
VERTEX
  5
11D
330
FA
100
AcDbEntity
  8
OracDecor_cornice_mouldings
 62
   133
420
  5759430
100
AcDbVertex
100
AcDb2dVertex
 10
-113.7238006591797
 20
-0.0474878549575806
 30
0.0000038517109715
  0
VERTEX
  5
11E
330
FA
100
AcDbEntity
  8
OracDecor_cornice_mouldings
 62
   133
420
  5759430
100
AcDbVertex
100
AcDb2dVertex
 10
-113.9364929199218
 20
-0.000002514485459
 30
0.0000038517109715
  0
VERTEX
  5
11F
330
FA
100
AcDbEntity
  8
OracDecor_cornice_mouldings
 62
   133
420
  5759430
100
AcDbVertex
100
AcDb2dVertex
 10
-120.0
 20
0.0000047534958867
 30
0.0000038517109715
  0
VERTEX
  5
120
330
FA
100
AcDbEntity
  8
OracDecor_cornice_mouldings
 62
   133
420
  5759430
100
AcDbVertex
100
AcDb2dVertex
 10
-120.0
 20
-7.999999046325683
 30
0.0000038517109715
  0
VERTEX
  5
121
330
FA
100
AcDbEntity
  8
OracDecor_cornice_mouldings
 62
   133
420
  5759430
100
AcDbVertex
100
AcDb2dVertex
 10
-98.09999084472657
 20
-7.999997615814208
 30
0.0000038517109715
  0
VERTEX
  5
122
330
FA
100
AcDbEntity
  8
OracDecor_cornice_mouldings
 62
   133
420
  5759430
100
AcDbVertex
100
AcDb2dVertex
 10
-98.0
 20
-8.09999656677246
 30
0.0000038517109715
  0
VERTEX
  5
123
330
FA
100
AcDbEntity
  8
OracDecor_cornice_mouldings
 62
   133
420
  5759430
100
AcDbVertex
100
AcDb2dVertex
 10
-98.0
 20
-11.99999809265136
 30
0.0000038517109715
  0
VERTEX
  5
124
330
FA
100
AcDbEntity
  8
OracDecor_cornice_mouldings
 62
   133
420
  5759430
100
AcDbVertex
100
AcDb2dVertex
 10
-68.09999084472656
 20
-12.0
 30
0.0000038517109715
  0
VERTEX
  5
125
330
FA
100
AcDbEntity
  8
OracDecor_cornice_mouldings
 62
   133
420
  5759430
100
AcDbVertex
100
AcDb2dVertex
 10
-68.0
 20
-12.09999847412109
 30
0.0000038517109715
  0
VERTEX
  5
126
330
FA
100
AcDbEntity
  8
OracDecor_cornice_mouldings
 62
   133
420
  5759430
100
AcDbVertex
100
AcDb2dVertex
 10
-68.0
 20
-16.0
 30
0.0000038517109715
  0
VERTEX
  5
127
330
FA
100
AcDbEntity
  8
OracDecor_cornice_mouldings
 62
   133
420
  5759430
100
AcDbVertex
100
AcDb2dVertex
 10
0.0000071823596954
 20
-16.0
 30
0.0000038517109715
  0
VERTEX
  5
128
330
FA
100
AcDbEntity
  8
OracDecor_cornice_mouldings
 62
   133
420
  5759430
100
AcDbVertex
100
AcDb2dVertex
 10
0.0000071823596954
 20
-0.0000033527346659
 30
0.0000038517109715
  0
VERTEX
  5
129
330
FA
100
AcDbEntity
  8
OracDecor_cornice_mouldings
 62
   133
420
  5759430
100
AcDbVertex
100
AcDb2dVertex
 10
-4.063499927520751
 20
-0.0000035949385619
 30
0.0000038517109715
  0
VERTEX
  5
12A
330
FA
100
AcDbEntity
  8
OracDecor_cornice_mouldings
 62
   133
420
  5759430
100
AcDbVertex
100
AcDb2dVertex
 10
-4.276184558868408
 20
-0.0474889576435089
 30
0.0000038517109715
  0
VERTEX
  5
12B
330
FA
100
AcDbEntity
  8
OracDecor_cornice_mouldings
 62
   133
420
  5759430
100
AcDbVertex
100
AcDb2dVertex
 10
-4.448471546173095
 20
-0.1809423416852951
 30
0.0000038517109715
  0
VERTEX
  5
12C
330
FA
100
AcDbEntity
  8
OracDecor_cornice_mouldings
 62
   133
420
  5759430
100
AcDbVertex
100
AcDb2dVertex
 10
-4.54762315750122
 20
-0.3750036060810089
 30
0.0000038517109715
  0
VERTEX
  5
12D
330
FA
100
AcDbEntity
  8
OracDecor_cornice_mouldings
 62
   133
420
  5759430
100
AcDbVertex
100
AcDb2dVertex
 10
-4.845154285430908
 20
-0.9572332501411437
 30
0.0000038517109715
  0
VERTEX
  5
12E
330
FA
100
AcDbEntity
  8
OracDecor_cornice_mouldings
 62
   133
420
  5759430
100
AcDbVertex
100
AcDb2dVertex
 10
-5.361870288848876
 20
-1.357478976249694
 30
0.0000038517109715
  0
VERTEX
  5
12F
330
FA
100
AcDbEntity
  8
OracDecor_cornice_mouldings
 62
   133
420
  5759430
100
AcDbVertex
100
AcDb2dVertex
 10
-5.999992847442626
 20
-1.500003695487976
 30
0.0000038517109715
  0
VERTEX
  5
130
330
FA
100
AcDbEntity
  8
OracDecor_cornice_mouldings
 62
   133
420
  5759430
100
AcDbVertex
100
AcDb2dVertex
 10
-6.638115406036376
 20
-1.357478976249694
 30
0.0000038517109715
  0
VERTEX
  5
131
330
FA
100
AcDbEntity
  8
OracDecor_cornice_mouldings
 62
   133
420
  5759430
100
AcDbVertex
100
AcDb2dVertex
 10
-7.154831409454345
 20
-0.9572333693504333
 30
0.0000038517109715
  0
VERTEX
  5
132
330
FA
100
AcDbEntity
  8
OracDecor_cornice_mouldings
 62
   133
420
  5759430
100
AcDbVertex
100
AcDb2dVertex
 10
-7.452362537384033
 20
-0.3750037848949432
 30
0.0000038517109715
  0
VERTEX
  5
133
330
FA
100
AcDbEntity
  8
OracDecor_cornice_mouldings
 62
   133
420
  5759430
100
AcDbVertex
100
AcDb2dVertex
 10
-7.551514148712158
 20
-0.1809425204992294
 30
0.0000038517109715
  0
VERTEX
  5
134
330
FA
100
AcDbEntity
  8
OracDecor_cornice_mouldings
 62
   133
420
  5759430
100
AcDbVertex
100
AcDb2dVertex
 10
-7.723801136016845
 20
-0.0474891662597656
 30
0.0000038517109715
  0
VERTEX
  5
135
330
FA
100
AcDbEntity
  8
OracDecor_cornice_mouldings
 62
   133
420
  5759430
100
AcDbVertex
100
AcDb2dVertex
 10
-7.936485767364501
 20
-0.0000038257867345
 30
0.0000038517109715
  0
VERTEX
  5
136
330
FA
100
AcDbEntity
  8
OracDecor_cornice_mouldings
 62
   133
420
  5759430
100
AcDbVertex
100
AcDb2dVertex
 10
-11.49999237060547
 20
-0.0000040381883082
 30
0.0000038517109715
  0
VERTEX
  5
137
330
FA
100
AcDbEntity
  8
OracDecor_cornice_mouldings
 62
   133
420
  5759430
100
AcDbVertex
100
AcDb2dVertex
 10
-11.74992370605469
 20
-0.0669748783111572
 30
0.0000038517109715
  0
VERTEX
  5
138
330
FA
100
AcDbEntity
  8
OracDecor_cornice_mouldings
 62
   133
420
  5759430
100
AcDbVertex
100
AcDb2dVertex
 10
-11.93302154541015
 20
-0.250072717666626
 30
0.0000038517109715
  0
VERTEX
  5
139
330
FA
100
AcDbEntity
  8
OracDecor_cornice_mouldings
 62
   133
420
  5759430
100
AcDbVertex
100
AcDb2dVertex
 10
-11.99999237060547
 20
-0.5000040531158448
 30
0.0000038517109715
  0
VERTEX
  5
13A
330
FA
100
AcDbEntity
  8
OracDecor_cornice_mouldings
 62
   133
420
  5759430
100
AcDbVertex
100
AcDb2dVertex
 10
-11.99999237060547
 20
-7.0
 30
0.0000038517109715
  0
VERTEX
  5
13B
330
FA
100
AcDbEntity
  8
OracDecor_cornice_mouldings
 62
   133
420
  5759430
100
AcDbVertex
100
AcDb2dVertex
 10
-12.13396835327148
 20
-7.500000476837158
 30
0.0000038517109715
  0
VERTEX
  5
13C
330
FA
100
AcDbEntity
  8
OracDecor_cornice_mouldings
 62
   133
420
  5759430
100
AcDbVertex
100
AcDb2dVertex
 10
-12.49999237060547
 20
-7.866024494171142
 30
0.0000038517109715
  0
VERTEX
  5
13D
330
FA
100
AcDbEntity
  8
OracDecor_cornice_mouldings
 62
   133
420
  5759430
100
AcDbVertex
100
AcDb2dVertex
 10
-12.99999237060547
 20
-8.0
 30
0.0000038517109715
  0
VERTEX
  5
13E
330
FA
100
AcDbEntity
  8
OracDecor_cornice_mouldings
 62
   133
420
  5759430
100
AcDbVertex
100
AcDb2dVertex
 10
-58.6644287109375
 20
-7.999999046325683
 30
0.0000038517109715
  0
VERTEX
  5
13F
330
FA
100
AcDbEntity
  8
OracDecor_cornice_mouldings
 62
   133
420
  5759430
100
AcDbVertex
100
AcDb2dVertex
 10
-59.35910797119141
 20
-7.939215660095214
 30
0.0000038517109715
  0
VERTEX
  5
140
330
FA
100
AcDbEntity
  8
OracDecor_cornice_mouldings
 62
   133
420
  5759430
100
AcDbVertex
100
AcDb2dVertex
 10
-60.0379409790039
 20
-7.819499492645263
 30
0.0000038517109715
  0
VERTEX
  5
141
330
FA
100
AcDbEntity
  8
OracDecor_cornice_mouldings
 62
   133
420
  5759430
100
AcDbVertex
100
AcDb2dVertex
 10
-60.68572998046875
 20
-7.583705425262451
 30
0.0000038517109715
  0
VERTEX
  5
142
330
FA
100
AcDbEntity
  8
OracDecor_cornice_mouldings
 62
   133
420
  5759430
100
AcDbVertex
100
AcDb2dVertex
 10
-61.28246307373046
 20
-7.239165782928466
 30
0.0000038517109715
  0
VERTEX
  5
143
330
FA
100
AcDbEntity
  8
OracDecor_cornice_mouldings
 62
   133
420
  5759430
100
AcDbVertex
100
AcDb2dVertex
 10
-61.810546875
 20
-6.796046733856201
 30
0.0000038517109715
  0
VERTEX
  5
144
330
FA
100
AcDbEntity
  8
OracDecor_cornice_mouldings
 62
   133
420
  5759430
100
AcDbVertex
100
AcDb2dVertex
 10
-62.25347137451172
 20
-6.268214702606201
 30
0.0000038517109715
  0
VERTEX
  5
145
330
FA
100
AcDbEntity
  8
OracDecor_cornice_mouldings
 62
   133
420
  5759430
100
AcDbVertex
100
AcDb2dVertex
 10
-62.59817504882812
 20
-5.671214580535888
 30
0.0000038517109715
  0
VERTEX
  5
146
330
FA
100
AcDbEntity
  8
OracDecor_cornice_mouldings
 62
   133
420
  5759430
100
AcDbVertex
100
AcDb2dVertex
 10
-62.83394241333008
 20
-5.023482799530029
 30
0.0000038517109715
  0
VERTEX
  5
147
330
FA
100
AcDbEntity
  8
OracDecor_cornice_mouldings
 62
   133
420
  5759430
100
AcDbVertex
100
AcDb2dVertex
 10
-63.01443481445312
 20
-4.349910259246826
 30
0.0000038517109715
  0
VERTEX
  5
148
330
FA
100
AcDbEntity
  8
OracDecor_cornice_mouldings
 62
   133
420
  5759430
100
AcDbVertex
100
AcDb2dVertex
 10
-63.63573455810547
 20
-0.8263545036315917
 30
0.0000038517109715
  0
VERTEX
  5
149
330
FA
100
AcDbEntity
  8
OracDecor_cornice_mouldings
 62
   133
420
  5759430
100
AcDbVertex
100
AcDb2dVertex
 10
-63.81847381591796
 20
-0.4028010368347168
 30
0.0000038517109715
  0
VERTEX
  5
14A
330
FA
100
AcDbEntity
  8
OracDecor_cornice_mouldings
 62
   133
420
  5759430
100
AcDbVertex
100
AcDb2dVertex
 10
-64.17169189453125
 20
-0.1064143404364586
 30
0.0000038517109715
  0
SEQEND
  5
14B
330
FA
100
AcDbEntity
  8
OracDecor_cornice_mouldings
 62
   133
420
  5759430
  0
ENDSEC
  0
SECTION
  2
OBJECTS
  0
DICTIONARY
  5
C
330
0
100
AcDbDictionary
281
     1
  3
ACAD_COLOR
350
DC
  3
ACAD_DETAILVIEWSTYLE
350
F5
  3
ACAD_GROUP
350
D
  3
ACAD_LAYOUT
350
1A
  3
ACAD_MATERIAL
350
AA
  3
ACAD_MLEADERSTYLE
350
F1
  3
ACAD_MLINESTYLE
350
17
  3
ACAD_PLOTSETTINGS
350
19
  3
ACAD_PLOTSTYLENAME
350
E
  3
ACAD_SCALELIST
350
DF
  3
ACAD_SECTIONVIEWSTYLE
350
F3
  3
ACAD_TABLESTYLE
350
DD
  3
ACAD_VISUALSTYLE
350
C3
  3
ACDB_RECOMPOSE_DATA
350
158
  3
AcDbVariableDictionary
350
14C
  0
DICTIONARY
  5
DC
102
{ACAD_REACTORS
330
C
102
}
330
C
100
AcDbDictionary
281
     1
  0
DICTIONARY
  5
F5
102
{ACAD_REACTORS
330
C
102
}
330
C
100
AcDbDictionary
281
     1
  3
Imperial24
350
F6
  0
DICTIONARY
  5
D
102
{ACAD_REACTORS
330
C
102
}
330
C
100
AcDbDictionary
281
     1
  0
DICTIONARY
  5
1A
102
{ACAD_REACTORS
330
C
102
}
330
C
100
AcDbDictionary
281
     1
  3
Layout1
350
1E
  3
Layout2
350
26
  3
Model
350
22
  0
DICTIONARY
  5
AA
102
{ACAD_REACTORS
330
C
102
}
330
C
100
AcDbDictionary
281
     1
  3
ByBlock
350
B3
  3
ByLayer
350
AB
  3
Global
350
BB
  0
DICTIONARY
  5
F1
102
{ACAD_REACTORS
330
C
102
}
330
C
100
AcDbDictionary
281
     1
  3
Standard
350
F2
  0
DICTIONARY
  5
17
102
{ACAD_REACTORS
330
C
102
}
330
C
100
AcDbDictionary
281
     1
  3
Standard
350
18
  0
DICTIONARY
  5
19
102
{ACAD_REACTORS
330
C
102
}
330
C
100
AcDbDictionary
281
     1
  0
ACDBDICTIONARYWDFLT
  5
E
102
{ACAD_REACTORS
330
C
102
}
330
C
100
AcDbDictionary
281
     1
  3
ByLayer
350
2D
  3
Normal
350
F
100
AcDbDictionaryWithDefault
340
F
  0
DICTIONARY
  5
DF
102
{ACAD_REACTORS
330
C
102
}
330
C
100
AcDbDictionary
281
     1
  3
A0
350
E0
  3
A1
350
E1
  3
A2
350
E2
  3
A3
350
E3
  3
A4
350
E4
  3
A5
350
E5
  3
A6
350
E6
  3
A7
350
E7
  3
A8
350
E8
  3
A9
350
E9
  3
B0
350
EA
  3
B1
350
EB
  3
B2
350
EC
  3
B3
350
ED
  3
B4
350
EE
  3
B5
350
EF
  3
B6
350
F0
  0
DICTIONARY
  5
F3
102
{ACAD_REACTORS
330
C
102
}
330
C
100
AcDbDictionary
281
     1
  3
Imperial24
350
F4
  0
DICTIONARY
  5
DD
102
{ACAD_REACTORS
330
C
102
}
330
C
100
AcDbDictionary
281
     1
  3
Standard
350
DE
  0
DICTIONARY
  5
C3
102
{ACAD_REACTORS
330
C
102
}
330
C
100
AcDbDictionary
281
     1
  3
2dWireframe
350
C9
  3
Basic
350
C8
  3
Brighten
350
CF
  3
ColorChange
350
D3
  3
Conceptual
350
CC
  3
Dim
350
CE
  3
EdgeColorOff
350
DB
  3
Facepattern
350
D2
  3
Flat
350
C4
  3
FlatWithEdges
350
C5
  3
Gouraud
350
C6
  3
GouraudWithEdges
350
C7
  3
Hidden
350
CB
  3
JitterOff
350
D9
  3
Linepattern
350
D1
  3
OverhangOff
350
DA
  3
Realistic
350
CD
  3
Shaded
350
D8
  3
Shaded with edges
350
D7
  3
Shades of Gray
350
D4
  3
Sketchy
350
D5
  3
Thicken
350
D0
  3
Wireframe
350
CA
  3
X-Ray
350
D6
  0
XRECORD
  5
158
102
{ACAD_REACTORS
330
C
102
}
330
C
100
AcDbXrecord
280
     1
 90
        1
330
DE
  0
DICTIONARY
  5
14C
102
{ACAD_REACTORS
330
C
102
}
330
C
100
AcDbDictionary
281
     1
  3
CANNOSCALE
350
152
  3
CMLEADERSTYLE
350
14E
  3
CTABLESTYLE
350
14D
  3
CVIEWDETAILSTYLE
350
14F
  3
CVIEWSECTIONSTYLE
350
150
  3
LAYEREVAL
350
154
  3
LAYERNOTIFY
350
155
  3
LIGHTINGUNITS
350
153
  3
MSLTSCALE
350
151
  0
ACDBDETAILVIEWSTYLE
  5
F6
102
{ACAD_XDICTIONARY
360
18D
102
}
102
{ACAD_REACTORS
330
F5
102
}
330
F5
100
AcDbModelDocViewStyle
 70
     0
  3
Imperial24
290
     0
100
AcDbDetailViewStyle
 70
     0
 71
     0
 90
        3
 71
     1
340
11
 62
   256
 40
0.24
340
0
 62
   256
 40
0.24
300

 40
0.36
280
     3
 71
     2
340
16
 90
       25
 62
   256
 71
     3
340
11
 62
   256
 40
0.24
 90
        1
 40
0.75
 90
        1
300
%<\AcVar ViewType \f "%tc1">% %<\AcVar ViewDetailId>%\PSCALE %<\AcVar ViewScale \f "%sn">%
 71
     4
340
16
 90
       25
 62
   256
340
16
 90
       25
 62
   256
280
     0
  0
LAYOUT
  5
1E
102
{ACAD_REACTORS
330
1A
102
}
330
1A
100
AcDbPlotSettings
  1

  2
\\KTXNTBDC\CASF2PN1
  4

  6

 40
0.0
 41
0.0
 42
0.0
 43
0.0
 44
0.0
 45
0.0
 46
0.0
 47
0.0
 48
0.0
 49
0.0
140
0.0
141
0.0
142
1.0
143
1.0
 70
   688
 72
     0
 73
     0
 74
     5
  7

 75
    16
147
1.0
 76
     0
 77
     2
 78
   300
148
0.0
149
0.0
100
AcDbLayout
  1
Layout1
 70
     1
 71
     1
 10
0.0
 20
0.0
 11
12.0
 21
9.0
 12
0.0
 22
0.0
 32
0.0
 14
1.000000000000000E+20
 24
1.000000000000000E+20
 34
1.000000000000000E+20
 15
-1.000000000000000E+20
 25
-1.000000000000000E+20
 35
-1.000000000000000E+20
146
0.0
 13
0.0
 23
0.0
 33
0.0
 16
1.0
 26
0.0
 36
0.0
 17
0.0
 27
1.0
 37
0.0
 76
     0
330
1B
  0
LAYOUT
  5
26
102
{ACAD_REACTORS
330
1A
102
}
330
1A
100
AcDbPlotSettings
  1

  2
\\KTXNTBDC\CASF2PN1
  4

  6

 40
0.0
 41
0.0
 42
0.0
 43
0.0
 44
0.0
 45
0.0
 46
0.0
 47
0.0
 48
0.0
 49
0.0
140
0.0
141
0.0
142
1.0
143
1.0
 70
   688
 72
     0
 73
     0
 74
     5
  7

 75
    16
147
1.0
 76
     0
 77
     2
 78
   300
148
0.0
149
0.0
100
AcDbLayout
  1
Layout2
 70
     1
 71
     2
 10
0.0
 20
0.0
 11
12.0
 21
9.0
 12
0.0
 22
0.0
 32
0.0
 14
0.0
 24
0.0
 34
0.0
 15
0.0
 25
0.0
 35
0.0
146
0.0
 13
0.0
 23
0.0
 33
0.0
 16
1.0
 26
0.0
 36
0.0
 17
0.0
 27
1.0
 37
0.0
 76
     0
330
23
  0
LAYOUT
  5
22
102
{ACAD_REACTORS
330
1A
102
}
330
1A
100
AcDbPlotSettings
  1

  2
\\KTXNTBDC\CASF2PN1
  4

  6

 40
0.0
 41
0.0
 42
0.0
 43
0.0
 44
0.0
 45
0.0
 46
0.0
 47
0.0
 48
0.0
 49
0.0
140
0.0
141
0.0
142
1.0
143
1.0
 70
  1712
 72
     0
 73
     0
 74
     0
  7

 75
     0
147
1.0
 76
     0
 77
     2
 78
   300
148
0.0
149
0.0
100
AcDbLayout
  1
Model
 70
     1
 71
     0
 10
0.0
 20
0.0
 11
12.0
 21
9.0
 12
0.0
 22
0.0
 32
0.0
 14
0.0
 24
0.0
 34
0.0
 15
0.0
 25
0.0
 35
0.0
146
0.0
 13
0.0
 23
0.0
 33
0.0
 16
1.0
 26
0.0
 36
0.0
 17
0.0
 27
1.0
 37
0.0
 76
     0
330
1F
  0
MATERIAL
  5
B3
102
{ACAD_XDICTIONARY
360
B4
102
}
102
{ACAD_REACTORS
330
AA
102
}
330
AA
100
AcDbMaterial
  1
ByBlock
 72
     0
 43
0.0208333333333333
 43
0.0
 43
0.0
 43
0.0
 43
0.0
 43
0.0208333333333333
 43
0.0
 43
0.0
 43
0.0
 43
0.0
 43
1.0
 43
0.0
 43
0.0
 43
0.0
 43
0.0
 43
1.0
 77
     0
 47
0.0208333333333333
 47
0.0
 47
0.0
 47
0.0
 47
0.0
 47
0.0208333333333333
 47
0.0
 47
0.0
 47
0.0
 47
0.0
 47
1.0
 47
0.0
 47
0.0
 47
0.0
 47
0.0
 47
1.0
171
     0
 49
0.0208333333333333
 49
0.0
 49
0.0
 49
0.0
 49
0.0
 49
0.0208333333333333
 49
0.0
 49
0.0
 49
0.0
 49
0.0
 49
1.0
 49
0.0
 49
0.0
 49
0.0
 49
0.0
 49
1.0
175
     0
142
0.0208333333333333
142
0.0
142
0.0
142
0.0
142
0.0
142
0.0208333333333333
142
0.0
142
0.0
142
0.0
142
0.0
142
1.0
142
0.0
142
0.0
142
0.0
142
0.0
142
1.0
179
     0
144
0.0208333333333333
144
0.0
144
0.0
144
0.0
144
0.0
144
0.0208333333333333
144
0.0
144
0.0
144
0.0
144
0.0
144
1.0
144
0.0
144
0.0
144
0.0
144
0.0
144
1.0
147
0.0208333333333333
147
0.0
147
0.0
147
0.0
147
0.0
147
0.0208333333333333
147
0.0
147
0.0
147
0.0
147
0.0
147
1.0
147
0.0
147
0.0
147
0.0
147
0.0
147
1.0
  0
MATERIAL
  5
AB
102
{ACAD_XDICTIONARY
360
AC
102
}
102
{ACAD_REACTORS
330
AA
102
}
330
AA
100
AcDbMaterial
  1
ByLayer
 72
     0
 43
0.0208333333333333
 43
0.0
 43
0.0
 43
0.0
 43
0.0
 43
0.0208333333333333
 43
0.0
 43
0.0
 43
0.0
 43
0.0
 43
1.0
 43
0.0
 43
0.0
 43
0.0
 43
0.0
 43
1.0
 77
     0
 47
0.0208333333333333
 47
0.0
 47
0.0
 47
0.0
 47
0.0
 47
0.0208333333333333
 47
0.0
 47
0.0
 47
0.0
 47
0.0
 47
1.0
 47
0.0
 47
0.0
 47
0.0
 47
0.0
 47
1.0
171
     0
 49
0.0208333333333333
 49
0.0
 49
0.0
 49
0.0
 49
0.0
 49
0.0208333333333333
 49
0.0
 49
0.0
 49
0.0
 49
0.0
 49
1.0
 49
0.0
 49
0.0
 49
0.0
 49
0.0
 49
1.0
175
     0
142
0.0208333333333333
142
0.0
142
0.0
142
0.0
142
0.0
142
0.0208333333333333
142
0.0
142
0.0
142
0.0
142
0.0
142
1.0
142
0.0
142
0.0
142
0.0
142
0.0
142
1.0
179
     0
144
0.0208333333333333
144
0.0
144
0.0
144
0.0
144
0.0
144
0.0208333333333333
144
0.0
144
0.0
144
0.0
144
0.0
144
1.0
144
0.0
144
0.0
144
0.0
144
0.0
144
1.0
147
0.0208333333333333
147
0.0
147
0.0
147
0.0
147
0.0
147
0.0208333333333333
147
0.0
147
0.0
147
0.0
147
0.0
147
1.0
147
0.0
147
0.0
147
0.0
147
0.0
147
1.0
  0
MATERIAL
  5
BB
102
{ACAD_XDICTIONARY
360
BC
102
}
102
{ACAD_REACTORS
330
AA
102
}
330
AA
100
AcDbMaterial
  1
Global
 72
     0
 43
0.0208333333333333
 43
0.0
 43
0.0
 43
0.0
 43
0.0
 43
0.0208333333333333
 43
0.0
 43
0.0
 43
0.0
 43
0.0
 43
1.0
 43
0.0
 43
0.0
 43
0.0
 43
0.0
 43
1.0
 77
     0
 47
0.0208333333333333
 47
0.0
 47
0.0
 47
0.0
 47
0.0
 47
0.0208333333333333
 47
0.0
 47
0.0
 47
0.0
 47
0.0
 47
1.0
 47
0.0
 47
0.0
 47
0.0
 47
0.0
 47
1.0
171
     0
 49
0.0208333333333333
 49
0.0
 49
0.0
 49
0.0
 49
0.0
 49
0.0208333333333333
 49
0.0
 49
0.0
 49
0.0
 49
0.0
 49
1.0
 49
0.0
 49
0.0
 49
0.0
 49
0.0
 49
1.0
175
     0
142
0.0208333333333333
142
0.0
142
0.0
142
0.0
142
0.0
142
0.0208333333333333
142
0.0
142
0.0
142
0.0
142
0.0
142
1.0
142
0.0
142
0.0
142
0.0
142
0.0
142
1.0
179
     0
144
0.0208333333333333
144
0.0
144
0.0
144
0.0
144
0.0
144
0.0208333333333333
144
0.0
144
0.0
144
0.0
144
0.0
144
1.0
144
0.0
144
0.0
144
0.0
144
0.0
144
1.0
147
0.0208333333333333
147
0.0
147
0.0
147
0.0
147
0.0
147
0.0208333333333333
147
0.0
147
0.0
147
0.0
147
0.0
147
1.0
147
0.0
147
0.0
147
0.0
147
0.0
147
1.0
  0
MLEADERSTYLE
  5
F2
102
{ACAD_XDICTIONARY
360
189
102
}
102
{ACAD_REACTORS
330
F1
102
}
330
F1
100
AcDbMLeaderStyle
179
     2
170
     2
171
     1
172
     0
 90
        2
 40
0.0
 41
0.0
173
     1
 91
-1056964608
340
14
 92
       -2
290
     1
 42
0.09
291
     1
 43
0.36
  3
Standard
 44
0.18
300

342
11
174
     1
178
     6
175
     1
176
     0
 93
-1056964608
 45
0.18
292
     0
297
     0
 46
0.18
 94
-1056964608
 47
1.0
 49
1.0
140
1.0
293
     1
141
0.0
294
     1
177
     0
142
1.0
295
     0
296
     0
143
0.125
271
     0
272
     9
273
     9
  0
MLINESTYLE
  5
18
102
{ACAD_REACTORS
330
17
102
}
330
17
100
AcDbMlineStyle
  2
STANDARD
 70
     0
  3

 62
   256
 51
90.0
 52
90.0
 71
     2
 49
0.5
 62
   256
  6
BYLAYER
 49
-0.5
 62
   256
  6
BYLAYER
  0
ACDBPLACEHOLDER
  5
2D
102
{ACAD_REACTORS
330
E
102
}
330
E
  0
ACDBPLACEHOLDER
  5
F
102
{ACAD_REACTORS
330
E
102
}
330
E
  0
SCALE
  5
E0
102
{ACAD_REACTORS
330
DF
102
}
330
DF
100
AcDbScale
 70
     0
300
1:1
140
1.0
141
1.0
290
     1
  0
SCALE
  5
E1
102
{ACAD_REACTORS
330
DF
102
}
330
DF
100
AcDbScale
 70
     0
300
1/128" = 1'-0"
140
0.0078125
141
12.0
290
     0
  0
SCALE
  5
E2
102
{ACAD_REACTORS
330
DF
102
}
330
DF
100
AcDbScale
 70
     0
300
1/64" = 1'-0"
140
0.015625
141
12.0
290
     0
  0
SCALE
  5
E3
102
{ACAD_REACTORS
330
DF
102
}
330
DF
100
AcDbScale
 70
     0
300
1/32" = 1'-0"
140
0.03125
141
12.0
290
     0
  0
SCALE
  5
E4
102
{ACAD_REACTORS
330
DF
102
}
330
DF
100
AcDbScale
 70
     0
300
1/16" = 1'-0"
140
0.0625
141
12.0
290
     0
  0
SCALE
  5
E5
102
{ACAD_REACTORS
330
DF
102
}
330
DF
100
AcDbScale
 70
     0
300
3/32" = 1'-0"
140
0.09375
141
12.0
290
     0
  0
SCALE
  5
E6
102
{ACAD_REACTORS
330
DF
102
}
330
DF
100
AcDbScale
 70
     0
300
1/8" = 1'-0"
140
0.125
141
12.0
290
     0
  0
SCALE
  5
E7
102
{ACAD_REACTORS
330
DF
102
}
330
DF
100
AcDbScale
 70
     0
300
3/16" = 1'-0"
140
0.1875
141
12.0
290
     0
  0
SCALE
  5
E8
102
{ACAD_REACTORS
330
DF
102
}
330
DF
100
AcDbScale
 70
     0
300
1/4" = 1'-0"
140
0.25
141
12.0
290
     0
  0
SCALE
  5
E9
102
{ACAD_REACTORS
330
DF
102
}
330
DF
100
AcDbScale
 70
     0
300
3/8" = 1'-0"
140
0.375
141
12.0
290
     0
  0
SCALE
  5
EA
102
{ACAD_REACTORS
330
DF
102
}
330
DF
100
AcDbScale
 70
     0
300
1/2" = 1'-0"
140
0.5
141
12.0
290
     0
  0
SCALE
  5
EB
102
{ACAD_REACTORS
330
DF
102
}
330
DF
100
AcDbScale
 70
     0
300
3/4" = 1'-0"
140
0.75
141
12.0
290
     0
  0
SCALE
  5
EC
102
{ACAD_REACTORS
330
DF
102
}
330
DF
100
AcDbScale
 70
     0
300
1" = 1'-0"
140
1.0
141
12.0
290
     0
  0
SCALE
  5
ED
102
{ACAD_REACTORS
330
DF
102
}
330
DF
100
AcDbScale
 70
     0
300
1-1/2" = 1'-0"
140
1.5
141
12.0
290
     0
  0
SCALE
  5
EE
102
{ACAD_REACTORS
330
DF
102
}
330
DF
100
AcDbScale
 70
     0
300
3" = 1'-0"
140
3.0
141
12.0
290
     0
  0
SCALE
  5
EF
102
{ACAD_REACTORS
330
DF
102
}
330
DF
100
AcDbScale
 70
     0
300
6" = 1'-0"
140
6.0
141
12.0
290
     0
  0
SCALE
  5
F0
102
{ACAD_REACTORS
330
DF
102
}
330
DF
100
AcDbScale
 70
     0
300
1'-0" = 1'-0"
140
12.0
141
12.0
290
     0
  0
ACDBSECTIONVIEWSTYLE
  5
F4
102
{ACAD_XDICTIONARY
360
18B
102
}
102
{ACAD_REACTORS
330
F3
102
}
330
F3
100
AcDbModelDocViewStyle
 70
     0
  3
Imperial24
290
     0
100
AcDbSectionViewStyle
 70
     0
 71
     0
 90
       78
 71
     1
340
11
 62
   256
 40
0.24
340
0
340
0
 62
   256
 40
0.24
300
I, O, Q, S, X, Z
 40
0.48
 90
        3
 40
0.18
 90
        1
 71
     2
340
16
 90
       25
 62
   256
340
16
 90
       50
 62
   256
 40
0.24
 40
0.0
 40
0.24
 71
     3
340
11
 62
   256
 40
0.24
 90
        1
 40
0.75
 90
        1
300
%<\AcVar ViewType \f "%tc1">% %<\AcVar ViewSectionStartId>%-%<\AcVar ViewSectionEndId>%\PSCALE %<\AcVar ViewScale \f "%sn">%
 71
     4
 62
   256
 62
   257
300
ANSI31
 40
1.0
 90
        0
290
     0
290
     0
 90
        6
 40
0.0
 40
1.570796326794896
 40
0.2617993877991494
 40
1.308996938995747
 40
-0.2617993877991494
 40
1.832595714594046
  0
TABLESTYLE
  5
DE
102
{ACAD_XDICTIONARY
360
156
102
}
102
{ACAD_REACTORS
330
DD
102
}
330
DD
100
AcDbTableStyle
280
     0
  3
Standard
 70
     0
 71
     0
 40
0.06
 41
0.06
280
     0
281
     0
  7
Standard
140
0.18
170
     2
 62
     0
 63
     7
283
     0
 90
      512
 91
        0
  1

274
    -2
284
     1
 64
     0
275
    -2
285
     1
 65
     0
276
    -2
286
     1
 66
     0
277
    -2
287
     1
 67
     0
278
    -2
288
     1
 68
     0
279
    -2
289
     1
 69
     0
  7
Standard
140
0.25
170
     5
 62
     0
 63
     7
283
     0
 90
      512
 91
        0
  1

274
    -2
284
     1
 64
     0
275
    -2
285
     1
 65
     0
276
    -2
286
     1
 66
     0
277
    -2
287
     1
 67
     0
278
    -2
288
     1
 68
     0
279
    -2
289
     1
 69
     0
  7
Standard
140
0.18
170
     5
 62
     0
 63
     7
283
     0
 90
      512
 91
        0
  1

274
    -2
284
     1
 64
     0
275
    -2
285
     1
 65
     0
276
    -2
286
     1
 66
     0
277
    -2
287
     1
 67
     0
278
    -2
288
     1
 68
     0
279
    -2
289
     1
 69
     0
  0
VISUALSTYLE
  5
C9
102
{ACAD_XDICTIONARY
360
163
102
}
102
{ACAD_REACTORS
330
C3
102
}
330
C3
100
AcDbVisualStyle
  2
2dWireframe
 70
     4
177
     2
291
     0
 71
     0
176
     1
 72
     2
176
     1
 73
     0
176
     1
 90
        0
176
     1
 40
0.6
176
     1
 41
30.0
176
     1
 63
     7
421
 16777215
176
     1
 74
     1
176
     1
 91
        4
176
     1
 64
     7
176
     1
 65
   257
176
     1
 75
     1
176
     1
175
     1
176
     1
 42
1.0
176
     1
 92
        0
176
     1
 66
   257
176
     1
 43
1.0
176
     1
 76
     1
176
     1
 77
     6
176
     1
 78
     2
176
     1
 67
     7
176
     1
 79
     5
176
     1
170
     0
176
     1
171
     0
176
     1
290
     0
176
     1
 93
        1
176
     1
 44
0.0
176
     1
173
     0
176
     1
1001
ACAD
1000
AcDbSavedByObjectVersion
1070
     0
  0
VISUALSTYLE
  5
C8
102
{ACAD_XDICTIONARY
360
161
102
}
102
{ACAD_REACTORS
330
C3
102
}
330
C3
100
AcDbVisualStyle
  2
Basic
 70
     7
177
     2
291
     1
 71
     1
176
     1
 72
     0
176
     1
 73
     1
176
     1
 90
        0
176
     1
 40
0.6
176
     1
 41
30.0
176
     1
 63
     7
421
 16777215
176
     1
 74
     0
176
     1
 91
        4
176
     1
 64
     7
176
     1
 65
   257
176
     1
 75
     1
176
     1
175
     1
176
     1
 42
1.0
176
     1
 92
        8
176
     1
 66
     7
176
     1
 43
1.0
176
     1
 76
     1
176
     1
 77
     6
176
     1
 78
     2
176
     1
 67
     7
176
     1
 79
     5
176
     1
170
     0
176
     1
171
     0
176
     1
290
     0
176
     1
 93
        1
176
     1
 44
0.0
176
     1
173
     0
176
     1
1001
ACAD
1000
AcDbSavedByObjectVersion
1070
     0
  0
VISUALSTYLE
  5
CF
102
{ACAD_XDICTIONARY
360
16F
102
}
102
{ACAD_REACTORS
330
C3
102
}
330
C3
100
AcDbVisualStyle
  2
Brighten
 70
    12
177
     2
291
     1
 71
     2
176
     1
 72
     2
176
     1
 73
     0
176
     1
 90
        0
176
     1
 40
0.6
176
     1
 41
30.0
176
     1
 63
     7
421
 16777215
176
     1
 74
     1
176
     1
 91
        4
176
     1
 64
     7
176
     1
 65
   257
176
     1
 75
     1
176
     1
175
     1
176
     1
 42
1.0
176
     1
 92
        8
176
     1
 66
     7
176
     1
 43
1.0
176
     1
 76
     1
176
     1
 77
     6
176
     1
 78
     2
176
     1
 67
     7
176
     1
 79
     5
176
     1
170
     0
176
     1
171
     0
176
     1
290
     0
176
     1
 93
        1
176
     1
 44
50.0
176
     1
173
     0
176
     1
1001
ACAD
1000
AcDbSavedByObjectVersion
1070
     0
  0
VISUALSTYLE
  5
D3
102
{ACAD_XDICTIONARY
360
177
102
}
102
{ACAD_REACTORS
330
C3
102
}
330
C3
100
AcDbVisualStyle
  2
ColorChange
 70
    16
177
     2
291
     1
 71
     2
176
     1
 72
     2
176
     1
 73
     3
176
     1
 90
        0
176
     1
 40
0.6
176
     1
 41
30.0
176
     1
 63
     8
421
  8421504
176
     1
 74
     1
176
     1
 91
        4
176
     1
 64
     7
176
     1
 65
   257
176
     1
 75
     1
176
     1
175
     1
176
     1
 42
1.0
176
     1
 92
        8
176
     1
 66
     8
424
  8421504
176
     1
 43
1.0
176
     1
 76
     1
176
     1
 77
     6
176
     1
 78
     2
176
     1
 67
     7
176
     1
 79
     5
176
     1
170
     0
176
     1
171
     0
176
     1
290
     0
176
     1
 93
        1
176
     1
 44
0.0
176
     1
173
     0
176
     1
1001
ACAD
1000
AcDbSavedByObjectVersion
1070
     0
  0
VISUALSTYLE
  5
CC
102
{ACAD_XDICTIONARY
360
169
102
}
102
{ACAD_REACTORS
330
C3
102
}
330
C3
100
AcDbVisualStyle
  2
Conceptual
 70
     9
177
     2
291
     0
 71
     3
176
     1
 72
     2
176
     1
 73
     0
176
     1
 90
        0
176
     1
 40
0.6
176
     1
 41
30.0
176
     1
 63
     7
421
 16777215
176
     1
 74
     2
176
     1
 91
        2
176
     1
 64
     7
176
     1
 65
   257
176
     1
 75
     1
176
     1
175
     1
176
     1
 42
179.0
176
     1
 92
        8
176
     1
 66
     7
176
     1
 43
1.0
176
     1
 76
     1
176
     1
 77
     6
176
     1
 78
     2
176
     1
 67
     7
176
     1
 79
     3
176
     1
170
     0
176
     1
171
     0
176
     1
290
     0
176
     1
 93
        1
176
     1
 44
0.0
176
     1
173
     0
176
     1
1001
ACAD
1000
AcDbSavedByObjectVersion
1070
     0
  0
VISUALSTYLE
  5
CE
102
{ACAD_XDICTIONARY
360
16D
102
}
102
{ACAD_REACTORS
330
C3
102
}
330
C3
100
AcDbVisualStyle
  2
Dim
 70
    11
177
     2
291
     1
 71
     2
176
     1
 72
     2
176
     1
 73
     0
176
     1
 90
        0
176
     1
 40
0.6
176
     1
 41
30.0
176
     1
 63
     7
421
 16777215
176
     1
 74
     1
176
     1
 91
        4
176
     1
 64
     7
176
     1
 65
   257
176
     1
 75
     1
176
     1
175
     1
176
     1
 42
1.0
176
     1
 92
        8
176
     1
 66
     7
176
     1
 43
1.0
176
     1
 76
     1
176
     1
 77
     6
176
     1
 78
     2
176
     1
 67
     7
176
     1
 79
     5
176
     1
170
     0
176
     1
171
     0
176
     1
290
     0
176
     1
 93
        1
176
     1
 44
-50.0
176
     1
173
     0
176
     1
1001
ACAD
1000
AcDbSavedByObjectVersion
1070
     0
  0
VISUALSTYLE
  5
DB
102
{ACAD_XDICTIONARY
360
187
102
}
102
{ACAD_REACTORS
330
C3
102
}
330
C3
100
AcDbVisualStyle
  2
EdgeColorOff
 70
    22
177
     2
291
     1
 71
     2
176
     0
 72
     2
176
     0
 73
     0
176
     0
 90
        0
176
     0
 40
0.6
176
     0
 41
30.0
176
     0
 63
     7
421
 16777215
176
     0
 74
     1
176
     0
 91
        4
176
     0
 64
     7
176
     0
 65
   257
176
     0
 75
     1
176
     0
175
     1
176
     0
 42
1.0
176
     0
 92
        8
176
     2
 66
     7
176
     0
 43
1.0
176
     0
 76
     1
176
     0
 77
     6
176
     0
 78
     2
176
     0
 67
     7
176
     0
 79
     5
176
     0
170
     0
176
     0
171
     0
176
     0
290
     0
176
     0
 93
        1
176
     0
 44
0.0
176
     0
173
     0
176
     0
1001
ACAD
1000
AcDbSavedByObjectVersion
1070
     0
  0
VISUALSTYLE
  5
D2
102
{ACAD_XDICTIONARY
360
175
102
}
102
{ACAD_REACTORS
330
C3
102
}
330
C3
100
AcDbVisualStyle
  2
Facepattern
 70
    15
177
     2
291
     1
 71
     2
176
     1
 72
     2
176
     1
 73
     0
176
     1
 90
        0
176
     1
 40
0.6
176
     1
 41
30.0
176
     1
 63
     7
421
 16777215
176
     1
 74
     1
176
     1
 91
        4
176
     1
 64
     7
176
     1
 65
   257
176
     1
 75
     1
176
     1
175
     1
176
     1
 42
1.0
176
     1
 92
        8
176
     1
 66
     7
176
     1
 43
1.0
176
     1
 76
     1
176
     1
 77
     6
176
     1
 78
     2
176
     1
 67
     7
176
     1
 79
     5
176
     1
170
     0
176
     1
171
     0
176
     1
290
     0
176
     1
 93
        1
176
     1
 44
0.0
176
     1
173
     0
176
     1
1001
ACAD
1000
AcDbSavedByObjectVersion
1070
     0
  0
VISUALSTYLE
  5
C4
102
{ACAD_XDICTIONARY
360
159
102
}
102
{ACAD_REACTORS
330
C3
102
}
330
C3
100
AcDbVisualStyle
  2
Flat
 70
     0
177
     2
291
     1
 71
     2
176
     1
 72
     1
176
     1
 73
     1
176
     1
 90
        2
176
     1
 40
0.6
176
     1
 41
30.0
176
     1
 63
     7
421
 16777215
176
     1
 74
     0
176
     1
 91
        0
176
     1
 64
     7
176
     1
 65
   257
176
     1
 75
     1
176
     1
175
     1
176
     1
 42
1.0
176
     1
 92
        8
176
     1
 66
     7
176
     1
 43
1.0
176
     1
 76
     1
176
     1
 77
     6
176
     1
 78
     2
176
     1
 67
     7
176
     1
 79
     5
176
     1
170
     0
176
     1
171
     0
176
     1
290
     0
176
     1
 93
       13
176
     1
 44
0.0
176
     1
173
     0
176
     1
1001
ACAD
1000
AcDbSavedByObjectVersion
1070
     0
  0
VISUALSTYLE
  5
C5
102
{ACAD_XDICTIONARY
360
15B
102
}
102
{ACAD_REACTORS
330
C3
102
}
330
C3
100
AcDbVisualStyle
  2
FlatWithEdges
 70
     1
177
     2
291
     1
 71
     2
176
     1
 72
     1
176
     1
 73
     1
176
     1
 90
        2
176
     1
 40
0.6
176
     1
 41
30.0
176
     1
 63
     7
421
 16777215
176
     1
 74
     1
176
     1
 91
        0
176
     1
 64
     7
176
     1
 65
   257
176
     1
 75
     1
176
     1
175
     1
176
     1
 42
1.0
176
     1
 92
        0
176
     1
 66
   257
176
     1
 43
1.0
176
     1
 76
     1
176
     1
 77
     6
176
     1
 78
     2
176
     1
 67
     7
176
     1
 79
     5
176
     1
170
     0
176
     1
171
     0
176
     1
290
     0
176
     1
 93
       13
176
     1
 44
0.0
176
     1
173
     0
176
     1
1001
ACAD
1000
AcDbSavedByObjectVersion
1070
     0
  0
VISUALSTYLE
  5
C6
102
{ACAD_XDICTIONARY
360
15D
102
}
102
{ACAD_REACTORS
330
C3
102
}
330
C3
100
AcDbVisualStyle
  2
Gouraud
 70
     2
177
     2
291
     1
 71
     2
176
     1
 72
     2
176
     1
 73
     1
176
     1
 90
        2
176
     1
 40
0.6
176
     1
 41
30.0
176
     1
 63
     7
421
 16777215
176
     1
 74
     0
176
     1
 91
        0
176
     1
 64
     7
176
     1
 65
   257
176
     1
 75
     1
176
     1
175
     1
176
     1
 42
1.0
176
     1
 92
        0
176
     1
 66
     7
176
     1
 43
1.0
176
     1
 76
     1
176
     1
 77
     6
176
     1
 78
     2
176
     1
 67
     7
176
     1
 79
     5
176
     1
170
     0
176
     1
171
     0
176
     1
290
     0
176
     1
 93
       13
176
     1
 44
0.0
176
     1
173
     0
176
     1
1001
ACAD
1000
AcDbSavedByObjectVersion
1070
     0
  0
VISUALSTYLE
  5
C7
102
{ACAD_XDICTIONARY
360
15F
102
}
102
{ACAD_REACTORS
330
C3
102
}
330
C3
100
AcDbVisualStyle
  2
GouraudWithEdges
 70
     3
177
     2
291
     1
 71
     2
176
     1
 72
     2
176
     1
 73
     1
176
     1
 90
        2
176
     1
 40
0.6
176
     1
 41
30.0
176
     1
 63
     7
421
 16777215
176
     1
 74
     1
176
     1
 91
        0
176
     1
 64
     7
176
     1
 65
   257
176
     1
 75
     1
176
     1
175
     1
176
     1
 42
1.0
176
     1
 92
        0
176
     1
 66
   257
176
     1
 43
1.0
176
     1
 76
     1
176
     1
 77
     6
176
     1
 78
     2
176
     1
 67
     7
176
     1
 79
     5
176
     1
170
     0
176
     1
171
     0
176
     1
290
     0
176
     1
 93
       13
176
     1
 44
0.0
176
     1
173
     0
176
     1
1001
ACAD
1000
AcDbSavedByObjectVersion
1070
     0
  0
VISUALSTYLE
  5
CB
102
{ACAD_XDICTIONARY
360
167
102
}
102
{ACAD_REACTORS
330
C3
102
}
330
C3
100
AcDbVisualStyle
  2
Hidden
 70
     6
177
     2
291
     0
 71
     1
176
     1
 72
     2
176
     1
 73
     2
176
     1
 90
        0
176
     1
 40
0.6
176
     1
 41
30.0
176
     1
 63
     7
421
 16777215
176
     1
 74
     2
176
     1
 91
        2
176
     1
 64
     7
176
     1
 65
   257
176
     1
 75
     2
176
     1
175
     1
176
     1
 42
40.0
176
     1
 92
        0
176
     1
 66
   257
176
     1
 43
1.0
176
     1
 76
     1
176
     1
 77
     6
176
     1
 78
     2
176
     1
 67
     7
176
     1
 79
     3
176
     1
170
     0
176
     1
171
     0
176
     1
290
     0
176
     1
 93
        1
176
     1
 44
0.0
176
     1
173
     0
176
     1
1001
ACAD
1000
AcDbSavedByObjectVersion
1070
     0
  0
VISUALSTYLE
  5
D9
102
{ACAD_XDICTIONARY
360
183
102
}
102
{ACAD_REACTORS
330
C3
102
}
330
C3
100
AcDbVisualStyle
  2
JitterOff
 70
    20
177
     2
291
     1
 71
     2
176
     0
 72
     2
176
     0
 73
     0
176
     0
 90
        0
176
     0
 40
0.6
176
     0
 41
30.0
176
     0
 63
     7
421
 16777215
176
     0
 74
     1
176
     0
 91
        4
176
     0
 64
     7
176
     0
 65
   257
176
     0
 75
     1
176
     0
175
     1
176
     0
 42
1.0
176
     0
 92
       10
176
     2
 66
     7
176
     0
 43
1.0
176
     0
 76
     1
176
     0
 77
     6
176
     0
 78
     2
176
     0
 67
     7
176
     0
 79
     5
176
     0
170
     0
176
     0
171
     0
176
     0
290
     0
176
     0
 93
        1
176
     0
 44
0.0
176
     0
173
     0
176
     0
1001
ACAD
1000
AcDbSavedByObjectVersion
1070
     0
  0
VISUALSTYLE
  5
D1
102
{ACAD_XDICTIONARY
360
173
102
}
102
{ACAD_REACTORS
330
C3
102
}
330
C3
100
AcDbVisualStyle
  2
Linepattern
 70
    14
177
     2
291
     1
 71
     2
176
     1
 72
     2
176
     1
 73
     0
176
     1
 90
        0
176
     1
 40
0.6
176
     1
 41
30.0
176
     1
 63
     7
421
 16777215
176
     1
 74
     1
176
     1
 91
        4
176
     1
 64
     7
176
     1
 65
   257
176
     1
 75
     7
176
     1
175
     7
176
     1
 42
1.0
176
     1
 92
        8
176
     1
 66
     7
176
     1
 43
1.0
176
     1
 76
     1
176
     1
 77
     6
176
     1
 78
     2
176
     1
 67
     7
176
     1
 79
     5
176
     1
170
     0
176
     1
171
     0
176
     1
290
     0
176
     1
 93
        1
176
     1
 44
0.0
176
     1
173
     0
176
     1
1001
ACAD
1000
AcDbSavedByObjectVersion
1070
     0
  0
VISUALSTYLE
  5
DA
102
{ACAD_XDICTIONARY
360
185
102
}
102
{ACAD_REACTORS
330
C3
102
}
330
C3
100
AcDbVisualStyle
  2
OverhangOff
 70
    21
177
     2
291
     1
 71
     2
176
     0
 72
     2
176
     0
 73
     0
176
     0
 90
        0
176
     0
 40
0.6
176
     0
 41
30.0
176
     0
 63
     7
421
 16777215
176
     0
 74
     1
176
     0
 91
        4
176
     0
 64
     7
176
     0
 65
   257
176
     0
 75
     1
176
     0
175
     1
176
     0
 42
1.0
176
     0
 92
        9
176
     2
 66
     7
176
     0
 43
1.0
176
     0
 76
     1
176
     0
 77
     6
176
     0
 78
     2
176
     0
 67
     7
176
     0
 79
     5
176
     0
170
     0
176
     0
171
     0
176
     0
290
     0
176
     0
 93
        1
176
     0
 44
0.0
176
     0
173
     0
176
     0
1001
ACAD
1000
AcDbSavedByObjectVersion
1070
     0
  0
VISUALSTYLE
  5
CD
102
{ACAD_XDICTIONARY
360
16B
102
}
102
{ACAD_REACTORS
330
C3
102
}
330
C3
100
AcDbVisualStyle
  2
Realistic
 70
     8
177
     2
291
     0
 71
     2
176
     1
 72
     3
176
     1
 73
     0
176
     1
 90
        2
176
     1
 40
0.6
176
     1
 41
30.0
176
     1
 63
     7
421
 16777215
176
     1
 74
     0
176
     1
 91
        0
176
     1
 64
     7
176
     1
 65
   257
176
     1
 75
     1
176
     1
175
     1
176
     1
 42
1.0
176
     1
 92
        8
176
     1
 66
   257
176
     1
 43
1.0
176
     1
 76
     1
176
     1
 77
     6
176
     1
 78
     2
176
     1
 67
     7
176
     1
 79
     3
176
     1
170
     0
176
     1
171
     0
176
     1
290
     0
176
     1
 93
       13
176
     1
 44
0.0
176
     1
173
     0
176
     1
1001
ACAD
1000
AcDbSavedByObjectVersion
1070
     0
  0
VISUALSTYLE
  5
D8
102
{ACAD_XDICTIONARY
360
181
102
}
102
{ACAD_REACTORS
330
C3
102
}
330
C3
100
AcDbVisualStyle
  2
Shaded
 70
    27
177
     2
291
     0
 71
     2
176
     1
 72
     2
176
     1
 73
     1
176
     1
 90
        2
176
     1
 40
0.6
176
     1
 41
30.0
176
     1
 63
     7
421
 16777215
176
     1
 74
     0
176
     1
 91
        4
176
     1
 64
     7
176
     1
 65
   257
176
     1
 75
     1
176
     1
175
     1
176
     1
 42
1.0
176
     1
 92
        8
176
     1
 66
   257
176
     1
 43
1.0
176
     1
 76
     1
176
     1
 77
     6
176
     1
 78
     2
176
     1
 67
     8
425
  7895160
176
     1
 79
     3
176
     1
170
     0
176
     1
171
     0
176
     1
290
     0
176
     1
 93
        5
176
     1
 44
0.0
176
     1
173
     0
176
     1
1001
ACAD
1000
AcDbSavedByObjectVersion
1070
     0
  0
VISUALSTYLE
  5
D7
102
{ACAD_XDICTIONARY
360
17F
102
}
102
{ACAD_REACTORS
330
C3
102
}
330
C3
100
AcDbVisualStyle
  2
Shaded with edges
 70
    26
177
     2
291
     0
 71
     2
176
     1
 72
     2
176
     1
 73
     1
176
     1
 90
        2
176
     1
 40
0.6
176
     1
 41
30.0
176
     1
 63
     7
421
 16777215
176
     1
 74
     1
176
     1
 91
       10
176
     1
 64
     7
176
     1
 65
   257
176
     1
 75
     2
176
     1
175
     1
176
     1
 42
1.0
176
     1
 92
        8
176
     1
 66
   257
176
     1
 43
1.0
176
     1
 76
     1
176
     1
 77
     6
176
     1
 78
     2
176
     1
 67
     7
176
     1
 79
     3
176
     1
170
     0
176
     1
171
     0
176
     1
290
     0
176
     1
 93
        5
176
     1
 44
0.0
176
     1
173
     0
176
     1
1001
ACAD
1000
AcDbSavedByObjectVersion
1070
     0
  0
VISUALSTYLE
  5
D4
102
{ACAD_XDICTIONARY
360
179
102
}
102
{ACAD_REACTORS
330
C3
102
}
330
C3
100
AcDbVisualStyle
  2
Shades of Gray
 70
    23
177
     2
291
     0
 71
     2
176
     1
 72
     2
176
     1
 73
     3
176
     1
 90
        0
176
     1
 40
0.6
176
     1
 41
30.0
176
     1
 63
     7
421
 16777215
176
     1
 74
     2
176
     1
 91
        2
176
     1
 64
     7
176
     1
 65
     7
176
     1
 75
     1
176
     1
175
     1
176
     1
 42
40.0
176
     1
 92
        8
176
     1
 66
     7
176
     1
 43
1.0
176
     1
 76
     1
176
     1
 77
     6
176
     1
 78
     2
176
     1
 67
     7
176
     1
 79
     3
176
     1
170
     0
176
     1
171
     0
176
     1
290
     0
176
     1
 93
        1
176
     1
 44
0.0
176
     1
173
     0
176
     1
1001
ACAD
1000
AcDbSavedByObjectVersion
1070
     0
  0
VISUALSTYLE
  5
D5
102
{ACAD_XDICTIONARY
360
17B
102
}
102
{ACAD_REACTORS
330
C3
102
}
330
C3
100
AcDbVisualStyle
  2
Sketchy
 70
    24
177
     2
291
     0
 71
     1
176
     1
 72
     2
176
     1
 73
     2
176
     1
 90
        0
176
     1
 40
0.6
176
     1
 41
30.0
176
     1
 63
     7
421
 16777215
176
     1
 74
     2
176
     1
 91
        2
176
     1
 64
     7
176
     1
 65
     7
176
     1
 75
     1
176
     1
175
     1
176
     1
 42
40.0
176
     1
 92
       11
176
     1
 66
     7
176
     1
 43
1.0
176
     1
 76
     1
176
     1
 77
     6
176
     1
 78
     2
176
     1
 67
     7
176
     1
 79
     6
176
     1
170
     0
176
     1
171
     0
176
     1
290
     0
176
     1
 93
        1
176
     1
 44
0.0
176
     1
173
     0
176
     1
1001
ACAD
1000
AcDbSavedByObjectVersion
1070
     0
  0
VISUALSTYLE
  5
D0
102
{ACAD_XDICTIONARY
360
171
102
}
102
{ACAD_REACTORS
330
C3
102
}
330
C3
100
AcDbVisualStyle
  2
Thicken
 70
    13
177
     2
291
     1
 71
     2
176
     1
 72
     2
176
     1
 73
     0
176
     1
 90
        0
176
     1
 40
0.6
176
     1
 41
30.0
176
     1
 63
     7
421
 16777215
176
     1
 74
     1
176
     1
 91
        4
176
     1
 64
     7
176
     1
 65
   257
176
     1
 75
     1
176
     1
175
     1
176
     1
 42
1.0
176
     1
 92
       12
176
     1
 66
     7
176
     1
 43
1.0
176
     1
 76
     1
176
     1
 77
     6
176
     1
 78
     2
176
     1
 67
     7
176
     1
 79
     5
176
     1
170
     0
176
     1
171
     0
176
     1
290
     0
176
     1
 93
        1
176
     1
 44
0.0
176
     1
173
     0
176
     1
1001
ACAD
1000
AcDbSavedByObjectVersion
1070
     0
  0
VISUALSTYLE
  5
CA
102
{ACAD_XDICTIONARY
360
165
102
}
102
{ACAD_REACTORS
330
C3
102
}
330
C3
100
AcDbVisualStyle
  2
Wireframe
 70
     5
177
     2
291
     0
 71
     0
176
     1
 72
     2
176
     1
 73
     0
176
     1
 90
        0
176
     1
 40
0.6
176
     1
 41
30.0
176
     1
 63
     7
421
 16777215
176
     1
 74
     1
176
     1
 91
        4
176
     1
 64
     7
176
     1
 65
   257
176
     1
 75
     1
176
     1
175
     1
176
     1
 42
1.0
176
     1
 92
        0
176
     1
 66
   257
176
     1
 43
1.0
176
     1
 76
     1
176
     1
 77
     6
176
     1
 78
     2
176
     1
 67
     7
176
     1
 79
     3
176
     1
170
     0
176
     1
171
     0
176
     1
290
     0
176
     1
 93
        1
176
     1
 44
0.0
176
     1
173
     0
176
     1
1001
ACAD
1000
AcDbSavedByObjectVersion
1070
     0
  0
VISUALSTYLE
  5
D6
102
{ACAD_XDICTIONARY
360
17D
102
}
102
{ACAD_REACTORS
330
C3
102
}
330
C3
100
AcDbVisualStyle
  2
X-Ray
 70
    25
177
     2
291
     0
 71
     2
176
     1
 72
     2
176
     1
 73
     1
176
     1
 90
        1
176
     1
 40
0.5
176
     1
 41
30.0
176
     1
 63
     7
421
 16777215
176
     1
 74
     1
176
     1
 91
        0
176
     1
 64
     7
176
     1
 65
   257
176
     1
 75
     1
176
     1
175
     1
176
     1
 42
1.0
176
     1
 92
        8
176
     1
 66
     7
176
     1
 43
1.0
176
     1
 76
     1
176
     1
 77
     6
176
     1
 78
     2
176
     1
 67
     7
176
     1
 79
     3
176
     1
170
     0
176
     1
171
     0
176
     1
290
     0
176
     1
 93
       13
176
     1
 44
0.0
176
     1
173
     0
176
     1
1001
ACAD
1000
AcDbSavedByObjectVersion
1070
     0
  0
DICTIONARYVAR
  5
152
102
{ACAD_REACTORS
330
14C
102
}
330
14C
100
DictionaryVariables
280
     0
  1
1:1
  0
DICTIONARYVAR
  5
14E
102
{ACAD_REACTORS
330
14C
102
}
330
14C
100
DictionaryVariables
280
     0
  1
STANDARD
  0
DICTIONARYVAR
  5
14D
102
{ACAD_REACTORS
330
14C
102
}
330
14C
100
DictionaryVariables
280
     0
  1
STANDARD
  0
DICTIONARYVAR
  5
14F
102
{ACAD_REACTORS
330
14C
102
}
330
14C
100
DictionaryVariables
280
     0
  1
Imperial24
  0
DICTIONARYVAR
  5
150
102
{ACAD_REACTORS
330
14C
102
}
330
14C
100
DictionaryVariables
280
     0
  1
Imperial24
  0
DICTIONARYVAR
  5
154
102
{ACAD_REACTORS
330
14C
102
}
330
14C
100
DictionaryVariables
280
     0
  1
1
  0
DICTIONARYVAR
  5
155
102
{ACAD_REACTORS
330
14C
102
}
330
14C
100
DictionaryVariables
280
     0
  1
15
  0
DICTIONARYVAR
  5
153
102
{ACAD_REACTORS
330
14C
102
}
330
14C
100
DictionaryVariables
280
     0
  1
0
  0
DICTIONARYVAR
  5
151
102
{ACAD_REACTORS
330
14C
102
}
330
14C
100
DictionaryVariables
280
     0
  1
0
  0
DICTIONARY
  5
18D
330
F6
100
AcDbDictionary
280
     1
281
     1
  3
ACAD_XREC_ROUNDTRIP
360
18E
  0
DICTIONARY
  5
B4
330
B3
100
AcDbDictionary
280
     1
281
     1
  3
BUMPTILE
360
B6
  3
DIFFUSETILE
360
B5
  3
OPACITYTILE
360
B9
  3
REFLECTIONTILE
360
B8
  3
REFRACTIONTILE
360
BA
  3
SPECULARTILE
360
B7
  0
DICTIONARY
  5
AC
330
AB
100
AcDbDictionary
280
     1
281
     1
  3
BUMPTILE
360
AE
  3
DIFFUSETILE
360
AD
  3
OPACITYTILE
360
B1
  3
REFLECTIONTILE
360
B0
  3
REFRACTIONTILE
360
B2
  3
SPECULARTILE
360
AF
  0
DICTIONARY
  5
BC
330
BB
100
AcDbDictionary
280
     1
281
     1
  3
BUMPTILE
360
BE
  3
DIFFUSETILE
360
BD
  3
OPACITYTILE
360
C1
  3
REFLECTIONTILE
360
C0
  3
REFRACTIONTILE
360
C2
  3
SPECULARTILE
360
BF
  0
DICTIONARY
  5
189
330
F2
100
AcDbDictionary
280
     1
281
     1
  3
ACAD_XREC_ROUNDTRIP
360
18A
  0
DICTIONARY
  5
18B
330
F4
100
AcDbDictionary
280
     1
281
     1
  3
ACAD_XREC_ROUNDTRIP
360
18C
  0
DICTIONARY
  5
156
330
DE
100
AcDbDictionary
280
     1
281
     1
  3
ACAD_ROUNDTRIP_2008_TABLESTYLE_CELLSTYLEMAP
360
157
  0
DICTIONARY
  5
163
330
C9
100
AcDbDictionary
280
     1
281
     1
  3
ACAD_XREC_ROUNDTRIP
360
164
  0
DICTIONARY
  5
161
330
C8
100
AcDbDictionary
280
     1
281
     1
  3
ACAD_XREC_ROUNDTRIP
360
162
  0
DICTIONARY
  5
16F
330
CF
100
AcDbDictionary
280
     1
281
     1
  3
ACAD_XREC_ROUNDTRIP
360
170
  0
DICTIONARY
  5
177
330
D3
100
AcDbDictionary
280
     1
281
     1
  3
ACAD_XREC_ROUNDTRIP
360
178
  0
DICTIONARY
  5
169
330
CC
100
AcDbDictionary
280
     1
281
     1
  3
ACAD_XREC_ROUNDTRIP
360
16A
  0
DICTIONARY
  5
16D
330
CE
100
AcDbDictionary
280
     1
281
     1
  3
ACAD_XREC_ROUNDTRIP
360
16E
  0
DICTIONARY
  5
187
330
DB
100
AcDbDictionary
280
     1
281
     1
  3
ACAD_XREC_ROUNDTRIP
360
188
  0
DICTIONARY
  5
175
330
D2
100
AcDbDictionary
280
     1
281
     1
  3
ACAD_XREC_ROUNDTRIP
360
176
  0
DICTIONARY
  5
159
330
C4
100
AcDbDictionary
280
     1
281
     1
  3
ACAD_XREC_ROUNDTRIP
360
15A
  0
DICTIONARY
  5
15B
330
C5
100
AcDbDictionary
280
     1
281
     1
  3
ACAD_XREC_ROUNDTRIP
360
15C
  0
DICTIONARY
  5
15D
330
C6
100
AcDbDictionary
280
     1
281
     1
  3
ACAD_XREC_ROUNDTRIP
360
15E
  0
DICTIONARY
  5
15F
330
C7
100
AcDbDictionary
280
     1
281
     1
  3
ACAD_XREC_ROUNDTRIP
360
160
  0
DICTIONARY
  5
167
330
CB
100
AcDbDictionary
280
     1
281
     1
  3
ACAD_XREC_ROUNDTRIP
360
168
  0
DICTIONARY
  5
183
330
D9
100
AcDbDictionary
280
     1
281
     1
  3
ACAD_XREC_ROUNDTRIP
360
184
  0
DICTIONARY
  5
173
330
D1
100
AcDbDictionary
280
     1
281
     1
  3
ACAD_XREC_ROUNDTRIP
360
174
  0
DICTIONARY
  5
185
330
DA
100
AcDbDictionary
280
     1
281
     1
  3
ACAD_XREC_ROUNDTRIP
360
186
  0
DICTIONARY
  5
16B
330
CD
100
AcDbDictionary
280
     1
281
     1
  3
ACAD_XREC_ROUNDTRIP
360
16C
  0
DICTIONARY
  5
181
330
D8
100
AcDbDictionary
280
     1
281
     1
  3
ACAD_XREC_ROUNDTRIP
360
182
  0
DICTIONARY
  5
17F
330
D7
100
AcDbDictionary
280
     1
281
     1
  3
ACAD_XREC_ROUNDTRIP
360
180
  0
DICTIONARY
  5
179
330
D4
100
AcDbDictionary
280
     1
281
     1
  3
ACAD_XREC_ROUNDTRIP
360
17A
  0
DICTIONARY
  5
17B
330
D5
100
AcDbDictionary
280
     1
281
     1
  3
ACAD_XREC_ROUNDTRIP
360
17C
  0
DICTIONARY
  5
171
330
D0
100
AcDbDictionary
280
     1
281
     1
  3
ACAD_XREC_ROUNDTRIP
360
172
  0
DICTIONARY
  5
165
330
CA
100
AcDbDictionary
280
     1
281
     1
  3
ACAD_XREC_ROUNDTRIP
360
166
  0
DICTIONARY
  5
17D
330
D6
100
AcDbDictionary
280
     1
281
     1
  3
ACAD_XREC_ROUNDTRIP
360
17E
  0
XRECORD
  5
18E
102
{ACAD_REACTORS
330
18D
102
}
330
18D
100
AcDbXrecord
280
     1
102
DISPLAYNAME
  1
Imperial24
102
FLAGS
 90
        0
  0
XRECORD
  5
B6
102
{ACAD_REACTORS
330
B4
102
}
330
B4
100
AcDbXrecord
280
     1
270
     1
271
     1
  0
XRECORD
  5
B5
102
{ACAD_REACTORS
330
B4
102
}
330
B4
100
AcDbXrecord
280
     1
270
     1
271
     1
  0
XRECORD
  5
B9
102
{ACAD_REACTORS
330
B4
102
}
330
B4
100
AcDbXrecord
280
     1
270
     1
271
     1
  0
XRECORD
  5
B8
102
{ACAD_REACTORS
330
B4
102
}
330
B4
100
AcDbXrecord
280
     1
270
     1
271
     1
  0
XRECORD
  5
BA
102
{ACAD_REACTORS
330
B4
102
}
330
B4
100
AcDbXrecord
280
     1
270
     1
271
     1
  0
XRECORD
  5
B7
102
{ACAD_REACTORS
330
B4
102
}
330
B4
100
AcDbXrecord
280
     1
270
     1
271
     1
  0
XRECORD
  5
AE
102
{ACAD_REACTORS
330
AC
102
}
330
AC
100
AcDbXrecord
280
     1
270
     1
271
     1
  0
XRECORD
  5
AD
102
{ACAD_REACTORS
330
AC
102
}
330
AC
100
AcDbXrecord
280
     1
270
     1
271
     1
  0
XRECORD
  5
B1
102
{ACAD_REACTORS
330
AC
102
}
330
AC
100
AcDbXrecord
280
     1
270
     1
271
     1
  0
XRECORD
  5
B0
102
{ACAD_REACTORS
330
AC
102
}
330
AC
100
AcDbXrecord
280
     1
270
     1
271
     1
  0
XRECORD
  5
B2
102
{ACAD_REACTORS
330
AC
102
}
330
AC
100
AcDbXrecord
280
     1
270
     1
271
     1
  0
XRECORD
  5
AF
102
{ACAD_REACTORS
330
AC
102
}
330
AC
100
AcDbXrecord
280
     1
270
     1
271
     1
  0
XRECORD
  5
BE
102
{ACAD_REACTORS
330
BC
102
}
330
BC
100
AcDbXrecord
280
     1
270
     1
271
     1
  0
XRECORD
  5
BD
102
{ACAD_REACTORS
330
BC
102
}
330
BC
100
AcDbXrecord
280
     1
270
     1
271
     1
  0
XRECORD
  5
C1
102
{ACAD_REACTORS
330
BC
102
}
330
BC
100
AcDbXrecord
280
     1
270
     1
271
     1
  0
XRECORD
  5
C0
102
{ACAD_REACTORS
330
BC
102
}
330
BC
100
AcDbXrecord
280
     1
270
     1
271
     1
  0
XRECORD
  5
C2
102
{ACAD_REACTORS
330
BC
102
}
330
BC
100
AcDbXrecord
280
     1
270
     1
271
     1
  0
XRECORD
  5
BF
102
{ACAD_REACTORS
330
BC
102
}
330
BC
100
AcDbXrecord
280
     1
270
     1
271
     1
  0
XRECORD
  5
18A
102
{ACAD_REACTORS
330
189
102
}
330
189
100
AcDbXrecord
280
     1
102
ACAD_ROUNDTRIP_2012_MLEADER_STYLE
298
     1
  0
XRECORD
  5
18C
102
{ACAD_REACTORS
330
18B
102
}
330
18B
100
AcDbXrecord
280
     1
102
DISPLAYNAME
  1
Imperial24
102
FLAGS
 90
        0
  0
CELLSTYLEMAP
  5
157
102
{ACAD_REACTORS
330
156
102
}
330
156
100
AcDbCellStyleMap
 90
        3
300
CELLSTYLE
  1
TABLEFORMAT_BEGIN
 90
        5
170
     1
 91
        0
 92
    32768
 62
   257
 93
        1
300
CONTENTFORMAT
  1
CONTENTFORMAT_BEGIN
 90
        0
 91
        0
 92
      512
 93
        0
300

 40
0.0
140
1.0
 94
        5
 62
     0
340
11
144
0.25
309
CONTENTFORMAT_END
171
     0
 94
        0
309
TABLEFORMAT_END
  1
CELLSTYLE_BEGIN
 90
        1
 91
        1
300
_TITLE
309
CELLSTYLE_END
300
CELLSTYLE
  1
TABLEFORMAT_BEGIN
 90
        5
170
     1
 91
        0
 92
        0
 62
   257
 93
        1
300
CONTENTFORMAT
  1
CONTENTFORMAT_BEGIN
 90
        0
 91
        0
 92
      512
 93
        0
300

 40
0.0
140
1.0
 94
        5
 62
     0
340
11
144
0.18
309
CONTENTFORMAT_END
171
     0
 94
        0
309
TABLEFORMAT_END
  1
CELLSTYLE_BEGIN
 90
        2
 91
        1
300
_HEADER
309
CELLSTYLE_END
300
CELLSTYLE
  1
TABLEFORMAT_BEGIN
 90
        5
170
     1
 91
        0
 92
        0
 62
   257
 93
        1
300
CONTENTFORMAT
  1
CONTENTFORMAT_BEGIN
 90
        0
 91
        0
 92
      512
 93
        0
300

 40
0.0
140
1.0
 94
        2
 62
     0
340
11
144
0.18
309
CONTENTFORMAT_END
171
     0
 94
        0
309
TABLEFORMAT_END
  1
CELLSTYLE_BEGIN
 90
        3
 91
        2
300
_DATA
309
CELLSTYLE_END
  0
XRECORD
  5
164
102
{ACAD_REACTORS
330
163
102
}
330
163
100
AcDbXrecord
280
     1
102
RTVSPost2010Prop28
280
     1
102
RTVSPost2010PropOp28
 70
     1
102
RTVSPost2010Prop29
280
     1
102
RTVSPost2010PropOp29
 70
     1
102
RTVSPost2010Prop30
280
     0
102
RTVSPost2010PropOp30
 70
     1
102
RTVSPost2010Prop31
280
     0
102
RTVSPost2010PropOp31
 70
     1
102
RTVSPost2010Prop32
280
     0
102
RTVSPost2010PropOp32
 70
     1
102
RTVSPost2010Prop33
280
     0
102
RTVSPost2010PropOp33
 70
     1
102
RTVSPost2010Prop34
280
     0
102
RTVSPost2010PropOp34
 70
     1
102
RTVSPost2010Prop35
280
     0
102
RTVSPost2010PropOp35
 70
     1
102
RTVSPost2010Prop36
280
     0
102
RTVSPost2010PropOp36
 70
     1
102
RTVSPost2010Prop37
 90
       50
102
RTVSPost2010PropOp37
 70
     1
102
RTVSPost2010Prop38
140
0.0
102
RTVSPost2010PropOp38
 70
     1
102
RTVSPost2010Prop39
140
1.0
102
RTVSPost2010PropOp39
 70
     1
102
RTVSPost2010Prop40
 90
        0
102
RTVSPost2010PropOp40
 70
     1
102
RTVSPost2010Prop41ColorIndex
 90
       18
102
RTVSPost2010Prop41ColorRGB
 90
        0
102
RTVSPost2010PropOp41
 70
     1
102
RTVSPost2010Prop42
 90
       50
102
RTVSPost2010PropOp42
 70
     1
102
RTVSPost2010Prop43
 90
        3
102
RTVSPost2010PropOp43
 70
     1
102
RTVSPost2010Prop44ColorIndex
 90
        5
102
RTVSPost2010Prop44ColorRGB
 90
      255
102
RTVSPost2010PropOp44
 70
     1
102
RTVSPost2010Prop45
280
     0
102
RTVSPost2010PropOp45
 70
     1
102
RTVSPost2010Prop46
 90
       50
102
RTVSPost2010PropOp46
 70
     1
102
RTVSPost2010Prop47
 90
       50
102
RTVSPost2010PropOp47
 70
     1
102
RTVSPost2010Prop48
 90
       50
102
RTVSPost2010PropOp48
 70
     1
102
RTVSPost2010Prop49
280
     0
102
RTVSPost2010PropOp49
 70
     1
102
RTVSPost2010Prop50
 90
       50
102
RTVSPost2010PropOp50
 70
     1
102
RTVSPost2010Prop51ColorIndex
 90
      256
102
RTVSPost2010Prop51ColorRGB
 90
-16777216
102
RTVSPost2010PropOp51
 70
     0
102
RTVSPost2010Prop52
140
1.0
102
RTVSPost2010PropOp52
 70
     0
102
RTVSPost2010Prop53
 90
        2
102
RTVSPost2010PropOp53
 70
     1
102
RTVSPost2010Prop54
  1
strokes_ogs.tif
102
RTVSPost2010PropOp54
 70
     1
102
RTVSPost2010Prop55
280
     0
102
RTVSPost2010PropOp55
 70
     1
102
RTVSPost2010Prop56
140
1.0
102
RTVSPost2010PropOp56
 70
     1
102
RTVSPost2010Prop57
140
1.0
102
RTVSPost2010PropOp57
 70
     1
  0
XRECORD
  5
162
102
{ACAD_REACTORS
330
161
102
}
330
161
100
AcDbXrecord
280
     1
102
RTVSPost2010Prop28
280
     0
102
RTVSPost2010PropOp28
 70
     1
102
RTVSPost2010Prop29
280
     1
102
RTVSPost2010PropOp29
 70
     1
102
RTVSPost2010Prop30
280
     1
102
RTVSPost2010PropOp30
 70
     1
102
RTVSPost2010Prop31
280
     0
102
RTVSPost2010PropOp31
 70
     1
102
RTVSPost2010Prop32
280
     0
102
RTVSPost2010PropOp32
 70
     1
102
RTVSPost2010Prop33
280
     0
102
RTVSPost2010PropOp33
 70
     1
102
RTVSPost2010Prop34
280
     0
102
RTVSPost2010PropOp34
 70
     1
102
RTVSPost2010Prop35
280
     0
102
RTVSPost2010PropOp35
 70
     1
102
RTVSPost2010Prop36
280
     0
102
RTVSPost2010PropOp36
 70
     1
102
RTVSPost2010Prop37
 90
       50
102
RTVSPost2010PropOp37
 70
     1
102
RTVSPost2010Prop38
140
0.0
102
RTVSPost2010PropOp38
 70
     1
102
RTVSPost2010Prop39
140
1.0
102
RTVSPost2010PropOp39
 70
     1
102
RTVSPost2010Prop40
 90
        0
102
RTVSPost2010PropOp40
 70
     1
102
RTVSPost2010Prop41ColorIndex
 90
       18
102
RTVSPost2010Prop41ColorRGB
 90
        0
102
RTVSPost2010PropOp41
 70
     1
102
RTVSPost2010Prop42
 90
       50
102
RTVSPost2010PropOp42
 70
     1
102
RTVSPost2010Prop43
 90
        3
102
RTVSPost2010PropOp43
 70
     1
102
RTVSPost2010Prop44ColorIndex
 90
        5
102
RTVSPost2010Prop44ColorRGB
 90
      255
102
RTVSPost2010PropOp44
 70
     1
102
RTVSPost2010Prop45
280
     0
102
RTVSPost2010PropOp45
 70
     1
102
RTVSPost2010Prop46
 90
       50
102
RTVSPost2010PropOp46
 70
     1
102
RTVSPost2010Prop47
 90
       50
102
RTVSPost2010PropOp47
 70
     1
102
RTVSPost2010Prop48
 90
       50
102
RTVSPost2010PropOp48
 70
     1
102
RTVSPost2010Prop49
280
     0
102
RTVSPost2010PropOp49
 70
     1
102
RTVSPost2010Prop50
 90
       50
102
RTVSPost2010PropOp50
 70
     1
102
RTVSPost2010Prop51ColorIndex
 90
      256
102
RTVSPost2010Prop51ColorRGB
 90
-16777216
102
RTVSPost2010PropOp51
 70
     0
102
RTVSPost2010Prop52
140
1.0
102
RTVSPost2010PropOp52
 70
     0
102
RTVSPost2010Prop53
 90
        2
102
RTVSPost2010PropOp53
 70
     1
102
RTVSPost2010Prop54
  1
strokes_ogs.tif
102
RTVSPost2010PropOp54
 70
     1
102
RTVSPost2010Prop55
280
     0
102
RTVSPost2010PropOp55
 70
     1
102
RTVSPost2010Prop56
140
1.0
102
RTVSPost2010PropOp56
 70
     1
102
RTVSPost2010Prop57
140
1.0
102
RTVSPost2010PropOp57
 70
     1
  0
XRECORD
  5
170
102
{ACAD_REACTORS
330
16F
102
}
330
16F
100
AcDbXrecord
280
     1
102
RTVSPost2010Prop28
280
     0
102
RTVSPost2010PropOp28
 70
     1
102
RTVSPost2010Prop29
280
     1
102
RTVSPost2010PropOp29
 70
     1
102
RTVSPost2010Prop30
280
     1
102
RTVSPost2010PropOp30
 70
     1
102
RTVSPost2010Prop31
280
     0
102
RTVSPost2010PropOp31
 70
     1
102
RTVSPost2010Prop32
280
     0
102
RTVSPost2010PropOp32
 70
     1
102
RTVSPost2010Prop33
280
     0
102
RTVSPost2010PropOp33
 70
     1
102
RTVSPost2010Prop34
280
     0
102
RTVSPost2010PropOp34
 70
     1
102
RTVSPost2010Prop35
280
     0
102
RTVSPost2010PropOp35
 70
     1
102
RTVSPost2010Prop36
280
     0
102
RTVSPost2010PropOp36
 70
     1
102
RTVSPost2010Prop37
 90
       50
102
RTVSPost2010PropOp37
 70
     1
102
RTVSPost2010Prop38
140
0.0
102
RTVSPost2010PropOp38
 70
     1
102
RTVSPost2010Prop39
140
1.0
102
RTVSPost2010PropOp39
 70
     1
102
RTVSPost2010Prop40
 90
        0
102
RTVSPost2010PropOp40
 70
     1
102
RTVSPost2010Prop41ColorIndex
 90
       18
102
RTVSPost2010Prop41ColorRGB
 90
        0
102
RTVSPost2010PropOp41
 70
     1
102
RTVSPost2010Prop42
 90
       50
102
RTVSPost2010PropOp42
 70
     1
102
RTVSPost2010Prop43
 90
        3
102
RTVSPost2010PropOp43
 70
     1
102
RTVSPost2010Prop44ColorIndex
 90
        5
102
RTVSPost2010Prop44ColorRGB
 90
      255
102
RTVSPost2010PropOp44
 70
     1
102
RTVSPost2010Prop45
280
     0
102
RTVSPost2010PropOp45
 70
     1
102
RTVSPost2010Prop46
 90
       50
102
RTVSPost2010PropOp46
 70
     1
102
RTVSPost2010Prop47
 90
       50
102
RTVSPost2010PropOp47
 70
     1
102
RTVSPost2010Prop48
 90
       50
102
RTVSPost2010PropOp48
 70
     1
102
RTVSPost2010Prop49
280
     0
102
RTVSPost2010PropOp49
 70
     1
102
RTVSPost2010Prop50
 90
       50
102
RTVSPost2010PropOp50
 70
     1
102
RTVSPost2010Prop51ColorIndex
 90
      256
102
RTVSPost2010Prop51ColorRGB
 90
-16777216
102
RTVSPost2010PropOp51
 70
     0
102
RTVSPost2010Prop52
140
1.0
102
RTVSPost2010PropOp52
 70
     0
102
RTVSPost2010Prop53
 90
        2
102
RTVSPost2010PropOp53
 70
     1
102
RTVSPost2010Prop54
  1
strokes_ogs.tif
102
RTVSPost2010PropOp54
 70
     1
102
RTVSPost2010Prop55
280
     0
102
RTVSPost2010PropOp55
 70
     1
102
RTVSPost2010Prop56
140
1.0
102
RTVSPost2010PropOp56
 70
     1
102
RTVSPost2010Prop57
140
1.0
102
RTVSPost2010PropOp57
 70
     1
  0
XRECORD
  5
178
102
{ACAD_REACTORS
330
177
102
}
330
177
100
AcDbXrecord
280
     1
102
RTVSPost2010Prop28
280
     0
102
RTVSPost2010PropOp28
 70
     1
102
RTVSPost2010Prop29
280
     1
102
RTVSPost2010PropOp29
 70
     1
102
RTVSPost2010Prop30
280
     1
102
RTVSPost2010PropOp30
 70
     1
102
RTVSPost2010Prop31
280
     0
102
RTVSPost2010PropOp31
 70
     1
102
RTVSPost2010Prop32
280
     0
102
RTVSPost2010PropOp32
 70
     1
102
RTVSPost2010Prop33
280
     0
102
RTVSPost2010PropOp33
 70
     1
102
RTVSPost2010Prop34
280
     0
102
RTVSPost2010PropOp34
 70
     1
102
RTVSPost2010Prop35
280
     0
102
RTVSPost2010PropOp35
 70
     1
102
RTVSPost2010Prop36
280
     0
102
RTVSPost2010PropOp36
 70
     1
102
RTVSPost2010Prop37
 90
       50
102
RTVSPost2010PropOp37
 70
     1
102
RTVSPost2010Prop38
140
0.0
102
RTVSPost2010PropOp38
 70
     1
102
RTVSPost2010Prop39
140
1.0
102
RTVSPost2010PropOp39
 70
     1
102
RTVSPost2010Prop40
 90
        0
102
RTVSPost2010PropOp40
 70
     1
102
RTVSPost2010Prop41ColorIndex
 90
       18
102
RTVSPost2010Prop41ColorRGB
 90
        0
102
RTVSPost2010PropOp41
 70
     1
102
RTVSPost2010Prop42
 90
       50
102
RTVSPost2010PropOp42
 70
     1
102
RTVSPost2010Prop43
 90
        3
102
RTVSPost2010PropOp43
 70
     1
102
RTVSPost2010Prop44ColorIndex
 90
        5
102
RTVSPost2010Prop44ColorRGB
 90
      255
102
RTVSPost2010PropOp44
 70
     1
102
RTVSPost2010Prop45
280
     0
102
RTVSPost2010PropOp45
 70
     1
102
RTVSPost2010Prop46
 90
       50
102
RTVSPost2010PropOp46
 70
     1
102
RTVSPost2010Prop47
 90
       50
102
RTVSPost2010PropOp47
 70
     1
102
RTVSPost2010Prop48
 90
       50
102
RTVSPost2010PropOp48
 70
     1
102
RTVSPost2010Prop49
280
     0
102
RTVSPost2010PropOp49
 70
     1
102
RTVSPost2010Prop50
 90
       50
102
RTVSPost2010PropOp50
 70
     1
102
RTVSPost2010Prop51ColorIndex
 90
      256
102
RTVSPost2010Prop51ColorRGB
 90
-16777216
102
RTVSPost2010PropOp51
 70
     0
102
RTVSPost2010Prop52
140
1.0
102
RTVSPost2010PropOp52
 70
     0
102
RTVSPost2010Prop53
 90
        2
102
RTVSPost2010PropOp53
 70
     1
102
RTVSPost2010Prop54
  1
strokes_ogs.tif
102
RTVSPost2010PropOp54
 70
     1
102
RTVSPost2010Prop55
280
     0
102
RTVSPost2010PropOp55
 70
     1
102
RTVSPost2010Prop56
140
1.0
102
RTVSPost2010PropOp56
 70
     1
102
RTVSPost2010Prop57
140
1.0
102
RTVSPost2010PropOp57
 70
     1
  0
XRECORD
  5
16A
102
{ACAD_REACTORS
330
169
102
}
330
169
100
AcDbXrecord
280
     1
102
RTVSPost2010Prop28
280
     0
102
RTVSPost2010PropOp28
 70
     1
102
RTVSPost2010Prop29
280
     1
102
RTVSPost2010PropOp29
 70
     1
102
RTVSPost2010Prop30
280
     1
102
RTVSPost2010PropOp30
 70
     1
102
RTVSPost2010Prop31
280
     0
102
RTVSPost2010PropOp31
 70
     1
102
RTVSPost2010Prop32
280
     0
102
RTVSPost2010PropOp32
 70
     1
102
RTVSPost2010Prop33
280
     0
102
RTVSPost2010PropOp33
 70
     1
102
RTVSPost2010Prop34
280
     0
102
RTVSPost2010PropOp34
 70
     1
102
RTVSPost2010Prop35
280
     0
102
RTVSPost2010PropOp35
 70
     1
102
RTVSPost2010Prop36
280
     0
102
RTVSPost2010PropOp36
 70
     1
102
RTVSPost2010Prop37
 90
       50
102
RTVSPost2010PropOp37
 70
     1
102
RTVSPost2010Prop38
140
0.0
102
RTVSPost2010PropOp38
 70
     1
102
RTVSPost2010Prop39
140
1.0
102
RTVSPost2010PropOp39
 70
     1
102
RTVSPost2010Prop40
 90
        0
102
RTVSPost2010PropOp40
 70
     1
102
RTVSPost2010Prop41ColorIndex
 90
       18
102
RTVSPost2010Prop41ColorRGB
 90
        0
102
RTVSPost2010PropOp41
 70
     1
102
RTVSPost2010Prop42
 90
       50
102
RTVSPost2010PropOp42
 70
     1
102
RTVSPost2010Prop43
 90
        3
102
RTVSPost2010PropOp43
 70
     1
102
RTVSPost2010Prop44ColorIndex
 90
        5
102
RTVSPost2010Prop44ColorRGB
 90
      255
102
RTVSPost2010PropOp44
 70
     1
102
RTVSPost2010Prop45
280
     0
102
RTVSPost2010PropOp45
 70
     1
102
RTVSPost2010Prop46
 90
       50
102
RTVSPost2010PropOp46
 70
     1
102
RTVSPost2010Prop47
 90
       50
102
RTVSPost2010PropOp47
 70
     1
102
RTVSPost2010Prop48
 90
       50
102
RTVSPost2010PropOp48
 70
     1
102
RTVSPost2010Prop49
280
     0
102
RTVSPost2010PropOp49
 70
     1
102
RTVSPost2010Prop50
 90
       50
102
RTVSPost2010PropOp50
 70
     1
102
RTVSPost2010Prop51ColorIndex
 90
      256
102
RTVSPost2010Prop51ColorRGB
 90
-16777216
102
RTVSPost2010PropOp51
 70
     0
102
RTVSPost2010Prop52
140
1.0
102
RTVSPost2010PropOp52
 70
     0
102
RTVSPost2010Prop53
 90
        2
102
RTVSPost2010PropOp53
 70
     1
102
RTVSPost2010Prop54
  1
strokes_ogs.tif
102
RTVSPost2010PropOp54
 70
     1
102
RTVSPost2010Prop55
280
     0
102
RTVSPost2010PropOp55
 70
     1
102
RTVSPost2010Prop56
140
1.0
102
RTVSPost2010PropOp56
 70
     1
102
RTVSPost2010Prop57
140
1.0
102
RTVSPost2010PropOp57
 70
     1
  0
XRECORD
  5
16E
102
{ACAD_REACTORS
330
16D
102
}
330
16D
100
AcDbXrecord
280
     1
102
RTVSPost2010Prop28
280
     0
102
RTVSPost2010PropOp28
 70
     1
102
RTVSPost2010Prop29
280
     1
102
RTVSPost2010PropOp29
 70
     1
102
RTVSPost2010Prop30
280
     1
102
RTVSPost2010PropOp30
 70
     1
102
RTVSPost2010Prop31
280
     0
102
RTVSPost2010PropOp31
 70
     1
102
RTVSPost2010Prop32
280
     0
102
RTVSPost2010PropOp32
 70
     1
102
RTVSPost2010Prop33
280
     0
102
RTVSPost2010PropOp33
 70
     1
102
RTVSPost2010Prop34
280
     0
102
RTVSPost2010PropOp34
 70
     1
102
RTVSPost2010Prop35
280
     0
102
RTVSPost2010PropOp35
 70
     1
102
RTVSPost2010Prop36
280
     0
102
RTVSPost2010PropOp36
 70
     1
102
RTVSPost2010Prop37
 90
       50
102
RTVSPost2010PropOp37
 70
     1
102
RTVSPost2010Prop38
140
0.0
102
RTVSPost2010PropOp38
 70
     1
102
RTVSPost2010Prop39
140
1.0
102
RTVSPost2010PropOp39
 70
     1
102
RTVSPost2010Prop40
 90
        0
102
RTVSPost2010PropOp40
 70
     1
102
RTVSPost2010Prop41ColorIndex
 90
       18
102
RTVSPost2010Prop41ColorRGB
 90
        0
102
RTVSPost2010PropOp41
 70
     1
102
RTVSPost2010Prop42
 90
       50
102
RTVSPost2010PropOp42
 70
     1
102
RTVSPost2010Prop43
 90
        3
102
RTVSPost2010PropOp43
 70
     1
102
RTVSPost2010Prop44ColorIndex
 90
        5
102
RTVSPost2010Prop44ColorRGB
 90
      255
102
RTVSPost2010PropOp44
 70
     1
102
RTVSPost2010Prop45
280
     0
102
RTVSPost2010PropOp45
 70
     1
102
RTVSPost2010Prop46
 90
       50
102
RTVSPost2010PropOp46
 70
     1
102
RTVSPost2010Prop47
 90
       50
102
RTVSPost2010PropOp47
 70
     1
102
RTVSPost2010Prop48
 90
       50
102
RTVSPost2010PropOp48
 70
     1
102
RTVSPost2010Prop49
280
     0
102
RTVSPost2010PropOp49
 70
     1
102
RTVSPost2010Prop50
 90
       50
102
RTVSPost2010PropOp50
 70
     1
102
RTVSPost2010Prop51ColorIndex
 90
      256
102
RTVSPost2010Prop51ColorRGB
 90
-16777216
102
RTVSPost2010PropOp51
 70
     0
102
RTVSPost2010Prop52
140
1.0
102
RTVSPost2010PropOp52
 70
     0
102
RTVSPost2010Prop53
 90
        2
102
RTVSPost2010PropOp53
 70
     1
102
RTVSPost2010Prop54
  1
strokes_ogs.tif
102
RTVSPost2010PropOp54
 70
     1
102
RTVSPost2010Prop55
280
     0
102
RTVSPost2010PropOp55
 70
     1
102
RTVSPost2010Prop56
140
1.0
102
RTVSPost2010PropOp56
 70
     1
102
RTVSPost2010Prop57
140
1.0
102
RTVSPost2010PropOp57
 70
     1
  0
XRECORD
  5
188
102
{ACAD_REACTORS
330
187
102
}
330
187
100
AcDbXrecord
280
     1
102
RTVSPost2010Prop28
280
     0
102
RTVSPost2010PropOp28
 70
     0
102
RTVSPost2010Prop29
280
     1
102
RTVSPost2010PropOp29
 70
     0
102
RTVSPost2010Prop30
280
     1
102
RTVSPost2010PropOp30
 70
     0
102
RTVSPost2010Prop31
280
     0
102
RTVSPost2010PropOp31
 70
     0
102
RTVSPost2010Prop32
280
     0
102
RTVSPost2010PropOp32
 70
     0
102
RTVSPost2010Prop33
280
     0
102
RTVSPost2010PropOp33
 70
     0
102
RTVSPost2010Prop34
280
     0
102
RTVSPost2010PropOp34
 70
     0
102
RTVSPost2010Prop35
280
     0
102
RTVSPost2010PropOp35
 70
     0
102
RTVSPost2010Prop36
280
     0
102
RTVSPost2010PropOp36
 70
     0
102
RTVSPost2010Prop37
 90
       50
102
RTVSPost2010PropOp37
 70
     0
102
RTVSPost2010Prop38
140
0.0
102
RTVSPost2010PropOp38
 70
     0
102
RTVSPost2010Prop39
140
1.0
102
RTVSPost2010PropOp39
 70
     0
102
RTVSPost2010Prop40
 90
        0
102
RTVSPost2010PropOp40
 70
     0
102
RTVSPost2010Prop41ColorIndex
 90
       18
102
RTVSPost2010Prop41ColorRGB
 90
        0
102
RTVSPost2010PropOp41
 70
     0
102
RTVSPost2010Prop42
 90
       50
102
RTVSPost2010PropOp42
 70
     0
102
RTVSPost2010Prop43
 90
        3
102
RTVSPost2010PropOp43
 70
     0
102
RTVSPost2010Prop44ColorIndex
 90
        5
102
RTVSPost2010Prop44ColorRGB
 90
      255
102
RTVSPost2010PropOp44
 70
     0
102
RTVSPost2010Prop45
280
     0
102
RTVSPost2010PropOp45
 70
     0
102
RTVSPost2010Prop46
 90
       50
102
RTVSPost2010PropOp46
 70
     0
102
RTVSPost2010Prop47
 90
       50
102
RTVSPost2010PropOp47
 70
     0
102
RTVSPost2010Prop48
 90
       50
102
RTVSPost2010PropOp48
 70
     0
102
RTVSPost2010Prop49
280
     0
102
RTVSPost2010PropOp49
 70
     0
102
RTVSPost2010Prop50
 90
       50
102
RTVSPost2010PropOp50
 70
     0
102
RTVSPost2010Prop51ColorIndex
 90
      256
102
RTVSPost2010Prop51ColorRGB
 90
-16777216
102
RTVSPost2010PropOp51
 70
     0
102
RTVSPost2010Prop52
140
1.0
102
RTVSPost2010PropOp52
 70
     0
102
RTVSPost2010Prop53
 90
        2
102
RTVSPost2010PropOp53
 70
     0
102
RTVSPost2010Prop54
  1
strokes_ogs.tif
102
RTVSPost2010PropOp54
 70
     0
102
RTVSPost2010Prop55
280
     0
102
RTVSPost2010PropOp55
 70
     0
102
RTVSPost2010Prop56
140
1.0
102
RTVSPost2010PropOp56
 70
     0
102
RTVSPost2010Prop57
140
1.0
102
RTVSPost2010PropOp57
 70
     0
  0
XRECORD
  5
176
102
{ACAD_REACTORS
330
175
102
}
330
175
100
AcDbXrecord
280
     1
102
RTVSPost2010Prop28
280
     0
102
RTVSPost2010PropOp28
 70
     1
102
RTVSPost2010Prop29
280
     1
102
RTVSPost2010PropOp29
 70
     1
102
RTVSPost2010Prop30
280
     1
102
RTVSPost2010PropOp30
 70
     1
102
RTVSPost2010Prop31
280
     0
102
RTVSPost2010PropOp31
 70
     1
102
RTVSPost2010Prop32
280
     0
102
RTVSPost2010PropOp32
 70
     1
102
RTVSPost2010Prop33
280
     0
102
RTVSPost2010PropOp33
 70
     1
102
RTVSPost2010Prop34
280
     0
102
RTVSPost2010PropOp34
 70
     1
102
RTVSPost2010Prop35
280
     0
102
RTVSPost2010PropOp35
 70
     1
102
RTVSPost2010Prop36
280
     0
102
RTVSPost2010PropOp36
 70
     1
102
RTVSPost2010Prop37
 90
       50
102
RTVSPost2010PropOp37
 70
     1
102
RTVSPost2010Prop38
140
0.0
102
RTVSPost2010PropOp38
 70
     1
102
RTVSPost2010Prop39
140
1.0
102
RTVSPost2010PropOp39
 70
     1
102
RTVSPost2010Prop40
 90
        0
102
RTVSPost2010PropOp40
 70
     1
102
RTVSPost2010Prop41ColorIndex
 90
       18
102
RTVSPost2010Prop41ColorRGB
 90
        0
102
RTVSPost2010PropOp41
 70
     1
102
RTVSPost2010Prop42
 90
       50
102
RTVSPost2010PropOp42
 70
     1
102
RTVSPost2010Prop43
 90
        3
102
RTVSPost2010PropOp43
 70
     1
102
RTVSPost2010Prop44ColorIndex
 90
        5
102
RTVSPost2010Prop44ColorRGB
 90
      255
102
RTVSPost2010PropOp44
 70
     1
102
RTVSPost2010Prop45
280
     0
102
RTVSPost2010PropOp45
 70
     1
102
RTVSPost2010Prop46
 90
       50
102
RTVSPost2010PropOp46
 70
     1
102
RTVSPost2010Prop47
 90
       50
102
RTVSPost2010PropOp47
 70
     1
102
RTVSPost2010Prop48
 90
       50
102
RTVSPost2010PropOp48
 70
     1
102
RTVSPost2010Prop49
280
     0
102
RTVSPost2010PropOp49
 70
     1
102
RTVSPost2010Prop50
 90
       50
102
RTVSPost2010PropOp50
 70
     1
102
RTVSPost2010Prop51ColorIndex
 90
      256
102
RTVSPost2010Prop51ColorRGB
 90
-16777216
102
RTVSPost2010PropOp51
 70
     0
102
RTVSPost2010Prop52
140
1.0
102
RTVSPost2010PropOp52
 70
     0
102
RTVSPost2010Prop53
 90
        2
102
RTVSPost2010PropOp53
 70
     1
102
RTVSPost2010Prop54
  1
strokes_ogs.tif
102
RTVSPost2010PropOp54
 70
     1
102
RTVSPost2010Prop55
280
     0
102
RTVSPost2010PropOp55
 70
     1
102
RTVSPost2010Prop56
140
1.0
102
RTVSPost2010PropOp56
 70
     1
102
RTVSPost2010Prop57
140
1.0
102
RTVSPost2010PropOp57
 70
     1
  0
XRECORD
  5
15A
102
{ACAD_REACTORS
330
159
102
}
330
159
100
AcDbXrecord
280
     1
102
RTVSPost2010Prop28
280
     0
102
RTVSPost2010PropOp28
 70
     1
102
RTVSPost2010Prop29
280
     1
102
RTVSPost2010PropOp29
 70
     1
102
RTVSPost2010Prop30
280
     1
102
RTVSPost2010PropOp30
 70
     1
102
RTVSPost2010Prop31
280
     0
102
RTVSPost2010PropOp31
 70
     1
102
RTVSPost2010Prop32
280
     0
102
RTVSPost2010PropOp32
 70
     1
102
RTVSPost2010Prop33
280
     0
102
RTVSPost2010PropOp33
 70
     1
102
RTVSPost2010Prop34
280
     0
102
RTVSPost2010PropOp34
 70
     1
102
RTVSPost2010Prop35
280
     0
102
RTVSPost2010PropOp35
 70
     1
102
RTVSPost2010Prop36
280
     0
102
RTVSPost2010PropOp36
 70
     1
102
RTVSPost2010Prop37
 90
       50
102
RTVSPost2010PropOp37
 70
     1
102
RTVSPost2010Prop38
140
0.0
102
RTVSPost2010PropOp38
 70
     1
102
RTVSPost2010Prop39
140
1.0
102
RTVSPost2010PropOp39
 70
     1
102
RTVSPost2010Prop40
 90
        0
102
RTVSPost2010PropOp40
 70
     1
102
RTVSPost2010Prop41ColorIndex
 90
       18
102
RTVSPost2010Prop41ColorRGB
 90
        0
102
RTVSPost2010PropOp41
 70
     1
102
RTVSPost2010Prop42
 90
       50
102
RTVSPost2010PropOp42
 70
     1
102
RTVSPost2010Prop43
 90
        3
102
RTVSPost2010PropOp43
 70
     1
102
RTVSPost2010Prop44ColorIndex
 90
        5
102
RTVSPost2010Prop44ColorRGB
 90
      255
102
RTVSPost2010PropOp44
 70
     1
102
RTVSPost2010Prop45
280
     0
102
RTVSPost2010PropOp45
 70
     1
102
RTVSPost2010Prop46
 90
       50
102
RTVSPost2010PropOp46
 70
     1
102
RTVSPost2010Prop47
 90
       50
102
RTVSPost2010PropOp47
 70
     1
102
RTVSPost2010Prop48
 90
       50
102
RTVSPost2010PropOp48
 70
     1
102
RTVSPost2010Prop49
280
     0
102
RTVSPost2010PropOp49
 70
     1
102
RTVSPost2010Prop50
 90
       50
102
RTVSPost2010PropOp50
 70
     1
102
RTVSPost2010Prop51ColorIndex
 90
      256
102
RTVSPost2010Prop51ColorRGB
 90
-16777216
102
RTVSPost2010PropOp51
 70
     0
102
RTVSPost2010Prop52
140
1.0
102
RTVSPost2010PropOp52
 70
     0
102
RTVSPost2010Prop53
 90
        2
102
RTVSPost2010PropOp53
 70
     1
102
RTVSPost2010Prop54
  1
strokes_ogs.tif
102
RTVSPost2010PropOp54
 70
     1
102
RTVSPost2010Prop55
280
     0
102
RTVSPost2010PropOp55
 70
     1
102
RTVSPost2010Prop56
140
1.0
102
RTVSPost2010PropOp56
 70
     1
102
RTVSPost2010Prop57
140
1.0
102
RTVSPost2010PropOp57
 70
     1
  0
XRECORD
  5
15C
102
{ACAD_REACTORS
330
15B
102
}
330
15B
100
AcDbXrecord
280
     1
102
RTVSPost2010Prop28
280
     0
102
RTVSPost2010PropOp28
 70
     1
102
RTVSPost2010Prop29
280
     1
102
RTVSPost2010PropOp29
 70
     1
102
RTVSPost2010Prop30
280
     1
102
RTVSPost2010PropOp30
 70
     1
102
RTVSPost2010Prop31
280
     0
102
RTVSPost2010PropOp31
 70
     1
102
RTVSPost2010Prop32
280
     0
102
RTVSPost2010PropOp32
 70
     1
102
RTVSPost2010Prop33
280
     0
102
RTVSPost2010PropOp33
 70
     1
102
RTVSPost2010Prop34
280
     0
102
RTVSPost2010PropOp34
 70
     1
102
RTVSPost2010Prop35
280
     0
102
RTVSPost2010PropOp35
 70
     1
102
RTVSPost2010Prop36
280
     0
102
RTVSPost2010PropOp36
 70
     1
102
RTVSPost2010Prop37
 90
       50
102
RTVSPost2010PropOp37
 70
     1
102
RTVSPost2010Prop38
140
0.0
102
RTVSPost2010PropOp38
 70
     1
102
RTVSPost2010Prop39
140
1.0
102
RTVSPost2010PropOp39
 70
     1
102
RTVSPost2010Prop40
 90
        0
102
RTVSPost2010PropOp40
 70
     1
102
RTVSPost2010Prop41ColorIndex
 90
       18
102
RTVSPost2010Prop41ColorRGB
 90
        0
102
RTVSPost2010PropOp41
 70
     1
102
RTVSPost2010Prop42
 90
       50
102
RTVSPost2010PropOp42
 70
     1
102
RTVSPost2010Prop43
 90
        3
102
RTVSPost2010PropOp43
 70
     1
102
RTVSPost2010Prop44ColorIndex
 90
        5
102
RTVSPost2010Prop44ColorRGB
 90
      255
102
RTVSPost2010PropOp44
 70
     1
102
RTVSPost2010Prop45
280
     0
102
RTVSPost2010PropOp45
 70
     1
102
RTVSPost2010Prop46
 90
       50
102
RTVSPost2010PropOp46
 70
     1
102
RTVSPost2010Prop47
 90
       50
102
RTVSPost2010PropOp47
 70
     1
102
RTVSPost2010Prop48
 90
       50
102
RTVSPost2010PropOp48
 70
     1
102
RTVSPost2010Prop49
280
     0
102
RTVSPost2010PropOp49
 70
     1
102
RTVSPost2010Prop50
 90
       50
102
RTVSPost2010PropOp50
 70
     1
102
RTVSPost2010Prop51ColorIndex
 90
      256
102
RTVSPost2010Prop51ColorRGB
 90
-16777216
102
RTVSPost2010PropOp51
 70
     0
102
RTVSPost2010Prop52
140
1.0
102
RTVSPost2010PropOp52
 70
     0
102
RTVSPost2010Prop53
 90
        2
102
RTVSPost2010PropOp53
 70
     1
102
RTVSPost2010Prop54
  1
strokes_ogs.tif
102
RTVSPost2010PropOp54
 70
     1
102
RTVSPost2010Prop55
280
     0
102
RTVSPost2010PropOp55
 70
     1
102
RTVSPost2010Prop56
140
1.0
102
RTVSPost2010PropOp56
 70
     1
102
RTVSPost2010Prop57
140
1.0
102
RTVSPost2010PropOp57
 70
     1
  0
XRECORD
  5
15E
102
{ACAD_REACTORS
330
15D
102
}
330
15D
100
AcDbXrecord
280
     1
102
RTVSPost2010Prop28
280
     0
102
RTVSPost2010PropOp28
 70
     1
102
RTVSPost2010Prop29
280
     1
102
RTVSPost2010PropOp29
 70
     1
102
RTVSPost2010Prop30
280
     1
102
RTVSPost2010PropOp30
 70
     1
102
RTVSPost2010Prop31
280
     0
102
RTVSPost2010PropOp31
 70
     1
102
RTVSPost2010Prop32
280
     0
102
RTVSPost2010PropOp32
 70
     1
102
RTVSPost2010Prop33
280
     0
102
RTVSPost2010PropOp33
 70
     1
102
RTVSPost2010Prop34
280
     0
102
RTVSPost2010PropOp34
 70
     1
102
RTVSPost2010Prop35
280
     0
102
RTVSPost2010PropOp35
 70
     1
102
RTVSPost2010Prop36
280
     0
102
RTVSPost2010PropOp36
 70
     1
102
RTVSPost2010Prop37
 90
       50
102
RTVSPost2010PropOp37
 70
     1
102
RTVSPost2010Prop38
140
0.0
102
RTVSPost2010PropOp38
 70
     1
102
RTVSPost2010Prop39
140
1.0
102
RTVSPost2010PropOp39
 70
     1
102
RTVSPost2010Prop40
 90
        0
102
RTVSPost2010PropOp40
 70
     1
102
RTVSPost2010Prop41ColorIndex
 90
       18
102
RTVSPost2010Prop41ColorRGB
 90
        0
102
RTVSPost2010PropOp41
 70
     1
102
RTVSPost2010Prop42
 90
       50
102
RTVSPost2010PropOp42
 70
     1
102
RTVSPost2010Prop43
 90
        3
102
RTVSPost2010PropOp43
 70
     1
102
RTVSPost2010Prop44ColorIndex
 90
        5
102
RTVSPost2010Prop44ColorRGB
 90
      255
102
RTVSPost2010PropOp44
 70
     1
102
RTVSPost2010Prop45
280
     0
102
RTVSPost2010PropOp45
 70
     1
102
RTVSPost2010Prop46
 90
       50
102
RTVSPost2010PropOp46
 70
     1
102
RTVSPost2010Prop47
 90
       50
102
RTVSPost2010PropOp47
 70
     1
102
RTVSPost2010Prop48
 90
       50
102
RTVSPost2010PropOp48
 70
     1
102
RTVSPost2010Prop49
280
     0
102
RTVSPost2010PropOp49
 70
     1
102
RTVSPost2010Prop50
 90
       50
102
RTVSPost2010PropOp50
 70
     1
102
RTVSPost2010Prop51ColorIndex
 90
      256
102
RTVSPost2010Prop51ColorRGB
 90
-16777216
102
RTVSPost2010PropOp51
 70
     0
102
RTVSPost2010Prop52
140
1.0
102
RTVSPost2010PropOp52
 70
     0
102
RTVSPost2010Prop53
 90
        2
102
RTVSPost2010PropOp53
 70
     1
102
RTVSPost2010Prop54
  1
strokes_ogs.tif
102
RTVSPost2010PropOp54
 70
     1
102
RTVSPost2010Prop55
280
     0
102
RTVSPost2010PropOp55
 70
     1
102
RTVSPost2010Prop56
140
1.0
102
RTVSPost2010PropOp56
 70
     1
102
RTVSPost2010Prop57
140
1.0
102
RTVSPost2010PropOp57
 70
     1
  0
XRECORD
  5
160
102
{ACAD_REACTORS
330
15F
102
}
330
15F
100
AcDbXrecord
280
     1
102
RTVSPost2010Prop28
280
     0
102
RTVSPost2010PropOp28
 70
     1
102
RTVSPost2010Prop29
280
     1
102
RTVSPost2010PropOp29
 70
     1
102
RTVSPost2010Prop30
280
     1
102
RTVSPost2010PropOp30
 70
     1
102
RTVSPost2010Prop31
280
     0
102
RTVSPost2010PropOp31
 70
     1
102
RTVSPost2010Prop32
280
     0
102
RTVSPost2010PropOp32
 70
     1
102
RTVSPost2010Prop33
280
     0
102
RTVSPost2010PropOp33
 70
     1
102
RTVSPost2010Prop34
280
     0
102
RTVSPost2010PropOp34
 70
     1
102
RTVSPost2010Prop35
280
     0
102
RTVSPost2010PropOp35
 70
     1
102
RTVSPost2010Prop36
280
     0
102
RTVSPost2010PropOp36
 70
     1
102
RTVSPost2010Prop37
 90
       50
102
RTVSPost2010PropOp37
 70
     1
102
RTVSPost2010Prop38
140
0.0
102
RTVSPost2010PropOp38
 70
     1
102
RTVSPost2010Prop39
140
1.0
102
RTVSPost2010PropOp39
 70
     1
102
RTVSPost2010Prop40
 90
        0
102
RTVSPost2010PropOp40
 70
     1
102
RTVSPost2010Prop41ColorIndex
 90
       18
102
RTVSPost2010Prop41ColorRGB
 90
        0
102
RTVSPost2010PropOp41
 70
     1
102
RTVSPost2010Prop42
 90
       50
102
RTVSPost2010PropOp42
 70
     1
102
RTVSPost2010Prop43
 90
        3
102
RTVSPost2010PropOp43
 70
     1
102
RTVSPost2010Prop44ColorIndex
 90
        5
102
RTVSPost2010Prop44ColorRGB
 90
      255
102
RTVSPost2010PropOp44
 70
     1
102
RTVSPost2010Prop45
280
     0
102
RTVSPost2010PropOp45
 70
     1
102
RTVSPost2010Prop46
 90
       50
102
RTVSPost2010PropOp46
 70
     1
102
RTVSPost2010Prop47
 90
       50
102
RTVSPost2010PropOp47
 70
     1
102
RTVSPost2010Prop48
 90
       50
102
RTVSPost2010PropOp48
 70
     1
102
RTVSPost2010Prop49
280
     0
102
RTVSPost2010PropOp49
 70
     1
102
RTVSPost2010Prop50
 90
       50
102
RTVSPost2010PropOp50
 70
     1
102
RTVSPost2010Prop51ColorIndex
 90
      256
102
RTVSPost2010Prop51ColorRGB
 90
-16777216
102
RTVSPost2010PropOp51
 70
     0
102
RTVSPost2010Prop52
140
1.0
102
RTVSPost2010PropOp52
 70
     0
102
RTVSPost2010Prop53
 90
        2
102
RTVSPost2010PropOp53
 70
     1
102
RTVSPost2010Prop54
  1
strokes_ogs.tif
102
RTVSPost2010PropOp54
 70
     1
102
RTVSPost2010Prop55
280
     0
102
RTVSPost2010PropOp55
 70
     1
102
RTVSPost2010Prop56
140
1.0
102
RTVSPost2010PropOp56
 70
     1
102
RTVSPost2010Prop57
140
1.0
102
RTVSPost2010PropOp57
 70
     1
  0
XRECORD
  5
168
102
{ACAD_REACTORS
330
167
102
}
330
167
100
AcDbXrecord
280
     1
102
RTVSPost2010Prop28
280
     0
102
RTVSPost2010PropOp28
 70
     1
102
RTVSPost2010Prop29
280
     1
102
RTVSPost2010PropOp29
 70
     1
102
RTVSPost2010Prop30
280
     1
102
RTVSPost2010PropOp30
 70
     1
102
RTVSPost2010Prop31
280
     0
102
RTVSPost2010PropOp31
 70
     1
102
RTVSPost2010Prop32
280
     0
102
RTVSPost2010PropOp32
 70
     1
102
RTVSPost2010Prop33
280
     0
102
RTVSPost2010PropOp33
 70
     1
102
RTVSPost2010Prop34
280
     0
102
RTVSPost2010PropOp34
 70
     1
102
RTVSPost2010Prop35
280
     0
102
RTVSPost2010PropOp35
 70
     1
102
RTVSPost2010Prop36
280
     0
102
RTVSPost2010PropOp36
 70
     1
102
RTVSPost2010Prop37
 90
       50
102
RTVSPost2010PropOp37
 70
     1
102
RTVSPost2010Prop38
140
0.0
102
RTVSPost2010PropOp38
 70
     1
102
RTVSPost2010Prop39
140
1.0
102
RTVSPost2010PropOp39
 70
     1
102
RTVSPost2010Prop40
 90
        0
102
RTVSPost2010PropOp40
 70
     1
102
RTVSPost2010Prop41ColorIndex
 90
       18
102
RTVSPost2010Prop41ColorRGB
 90
        0
102
RTVSPost2010PropOp41
 70
     1
102
RTVSPost2010Prop42
 90
       50
102
RTVSPost2010PropOp42
 70
     1
102
RTVSPost2010Prop43
 90
        3
102
RTVSPost2010PropOp43
 70
     1
102
RTVSPost2010Prop44ColorIndex
 90
        5
102
RTVSPost2010Prop44ColorRGB
 90
      255
102
RTVSPost2010PropOp44
 70
     1
102
RTVSPost2010Prop45
280
     0
102
RTVSPost2010PropOp45
 70
     1
102
RTVSPost2010Prop46
 90
       50
102
RTVSPost2010PropOp46
 70
     1
102
RTVSPost2010Prop47
 90
       50
102
RTVSPost2010PropOp47
 70
     1
102
RTVSPost2010Prop48
 90
       50
102
RTVSPost2010PropOp48
 70
     1
102
RTVSPost2010Prop49
280
     0
102
RTVSPost2010PropOp49
 70
     1
102
RTVSPost2010Prop50
 90
       50
102
RTVSPost2010PropOp50
 70
     1
102
RTVSPost2010Prop51ColorIndex
 90
      256
102
RTVSPost2010Prop51ColorRGB
 90
-16777216
102
RTVSPost2010PropOp51
 70
     0
102
RTVSPost2010Prop52
140
1.0
102
RTVSPost2010PropOp52
 70
     0
102
RTVSPost2010Prop53
 90
        2
102
RTVSPost2010PropOp53
 70
     1
102
RTVSPost2010Prop54
  1
strokes_ogs.tif
102
RTVSPost2010PropOp54
 70
     1
102
RTVSPost2010Prop55
280
     0
102
RTVSPost2010PropOp55
 70
     1
102
RTVSPost2010Prop56
140
1.0
102
RTVSPost2010PropOp56
 70
     1
102
RTVSPost2010Prop57
140
1.0
102
RTVSPost2010PropOp57
 70
     1
  0
XRECORD
  5
184
102
{ACAD_REACTORS
330
183
102
}
330
183
100
AcDbXrecord
280
     1
102
RTVSPost2010Prop28
280
     0
102
RTVSPost2010PropOp28
 70
     0
102
RTVSPost2010Prop29
280
     1
102
RTVSPost2010PropOp29
 70
     0
102
RTVSPost2010Prop30
280
     1
102
RTVSPost2010PropOp30
 70
     0
102
RTVSPost2010Prop31
280
     0
102
RTVSPost2010PropOp31
 70
     0
102
RTVSPost2010Prop32
280
     0
102
RTVSPost2010PropOp32
 70
     0
102
RTVSPost2010Prop33
280
     0
102
RTVSPost2010PropOp33
 70
     0
102
RTVSPost2010Prop34
280
     0
102
RTVSPost2010PropOp34
 70
     0
102
RTVSPost2010Prop35
280
     0
102
RTVSPost2010PropOp35
 70
     0
102
RTVSPost2010Prop36
280
     0
102
RTVSPost2010PropOp36
 70
     0
102
RTVSPost2010Prop37
 90
       50
102
RTVSPost2010PropOp37
 70
     0
102
RTVSPost2010Prop38
140
0.0
102
RTVSPost2010PropOp38
 70
     0
102
RTVSPost2010Prop39
140
1.0
102
RTVSPost2010PropOp39
 70
     0
102
RTVSPost2010Prop40
 90
        0
102
RTVSPost2010PropOp40
 70
     0
102
RTVSPost2010Prop41ColorIndex
 90
       18
102
RTVSPost2010Prop41ColorRGB
 90
        0
102
RTVSPost2010PropOp41
 70
     0
102
RTVSPost2010Prop42
 90
       50
102
RTVSPost2010PropOp42
 70
     0
102
RTVSPost2010Prop43
 90
        3
102
RTVSPost2010PropOp43
 70
     0
102
RTVSPost2010Prop44ColorIndex
 90
        5
102
RTVSPost2010Prop44ColorRGB
 90
      255
102
RTVSPost2010PropOp44
 70
     0
102
RTVSPost2010Prop45
280
     0
102
RTVSPost2010PropOp45
 70
     0
102
RTVSPost2010Prop46
 90
       50
102
RTVSPost2010PropOp46
 70
     0
102
RTVSPost2010Prop47
 90
       50
102
RTVSPost2010PropOp47
 70
     0
102
RTVSPost2010Prop48
 90
       50
102
RTVSPost2010PropOp48
 70
     0
102
RTVSPost2010Prop49
280
     0
102
RTVSPost2010PropOp49
 70
     0
102
RTVSPost2010Prop50
 90
       50
102
RTVSPost2010PropOp50
 70
     0
102
RTVSPost2010Prop51ColorIndex
 90
      256
102
RTVSPost2010Prop51ColorRGB
 90
-16777216
102
RTVSPost2010PropOp51
 70
     0
102
RTVSPost2010Prop52
140
1.0
102
RTVSPost2010PropOp52
 70
     0
102
RTVSPost2010Prop53
 90
        2
102
RTVSPost2010PropOp53
 70
     0
102
RTVSPost2010Prop54
  1
strokes_ogs.tif
102
RTVSPost2010PropOp54
 70
     0
102
RTVSPost2010Prop55
280
     0
102
RTVSPost2010PropOp55
 70
     0
102
RTVSPost2010Prop56
140
1.0
102
RTVSPost2010PropOp56
 70
     0
102
RTVSPost2010Prop57
140
1.0
102
RTVSPost2010PropOp57
 70
     0
  0
XRECORD
  5
174
102
{ACAD_REACTORS
330
173
102
}
330
173
100
AcDbXrecord
280
     1
102
RTVSPost2010Prop28
280
     0
102
RTVSPost2010PropOp28
 70
     1
102
RTVSPost2010Prop29
280
     1
102
RTVSPost2010PropOp29
 70
     1
102
RTVSPost2010Prop30
280
     1
102
RTVSPost2010PropOp30
 70
     1
102
RTVSPost2010Prop31
280
     0
102
RTVSPost2010PropOp31
 70
     1
102
RTVSPost2010Prop32
280
     0
102
RTVSPost2010PropOp32
 70
     1
102
RTVSPost2010Prop33
280
     0
102
RTVSPost2010PropOp33
 70
     1
102
RTVSPost2010Prop34
280
     0
102
RTVSPost2010PropOp34
 70
     1
102
RTVSPost2010Prop35
280
     0
102
RTVSPost2010PropOp35
 70
     1
102
RTVSPost2010Prop36
280
     0
102
RTVSPost2010PropOp36
 70
     1
102
RTVSPost2010Prop37
 90
       50
102
RTVSPost2010PropOp37
 70
     1
102
RTVSPost2010Prop38
140
0.0
102
RTVSPost2010PropOp38
 70
     1
102
RTVSPost2010Prop39
140
1.0
102
RTVSPost2010PropOp39
 70
     1
102
RTVSPost2010Prop40
 90
        0
102
RTVSPost2010PropOp40
 70
     1
102
RTVSPost2010Prop41ColorIndex
 90
       18
102
RTVSPost2010Prop41ColorRGB
 90
        0
102
RTVSPost2010PropOp41
 70
     1
102
RTVSPost2010Prop42
 90
       50
102
RTVSPost2010PropOp42
 70
     1
102
RTVSPost2010Prop43
 90
        3
102
RTVSPost2010PropOp43
 70
     1
102
RTVSPost2010Prop44ColorIndex
 90
        5
102
RTVSPost2010Prop44ColorRGB
 90
      255
102
RTVSPost2010PropOp44
 70
     1
102
RTVSPost2010Prop45
280
     0
102
RTVSPost2010PropOp45
 70
     1
102
RTVSPost2010Prop46
 90
       50
102
RTVSPost2010PropOp46
 70
     1
102
RTVSPost2010Prop47
 90
       50
102
RTVSPost2010PropOp47
 70
     1
102
RTVSPost2010Prop48
 90
       50
102
RTVSPost2010PropOp48
 70
     1
102
RTVSPost2010Prop49
280
     0
102
RTVSPost2010PropOp49
 70
     1
102
RTVSPost2010Prop50
 90
       50
102
RTVSPost2010PropOp50
 70
     1
102
RTVSPost2010Prop51ColorIndex
 90
      256
102
RTVSPost2010Prop51ColorRGB
 90
-16777216
102
RTVSPost2010PropOp51
 70
     0
102
RTVSPost2010Prop52
140
1.0
102
RTVSPost2010PropOp52
 70
     0
102
RTVSPost2010Prop53
 90
        2
102
RTVSPost2010PropOp53
 70
     1
102
RTVSPost2010Prop54
  1
strokes_ogs.tif
102
RTVSPost2010PropOp54
 70
     1
102
RTVSPost2010Prop55
280
     0
102
RTVSPost2010PropOp55
 70
     1
102
RTVSPost2010Prop56
140
1.0
102
RTVSPost2010PropOp56
 70
     1
102
RTVSPost2010Prop57
140
1.0
102
RTVSPost2010PropOp57
 70
     1
  0
XRECORD
  5
186
102
{ACAD_REACTORS
330
185
102
}
330
185
100
AcDbXrecord
280
     1
102
RTVSPost2010Prop28
280
     0
102
RTVSPost2010PropOp28
 70
     0
102
RTVSPost2010Prop29
280
     1
102
RTVSPost2010PropOp29
 70
     0
102
RTVSPost2010Prop30
280
     1
102
RTVSPost2010PropOp30
 70
     0
102
RTVSPost2010Prop31
280
     0
102
RTVSPost2010PropOp31
 70
     0
102
RTVSPost2010Prop32
280
     0
102
RTVSPost2010PropOp32
 70
     0
102
RTVSPost2010Prop33
280
     0
102
RTVSPost2010PropOp33
 70
     0
102
RTVSPost2010Prop34
280
     0
102
RTVSPost2010PropOp34
 70
     0
102
RTVSPost2010Prop35
280
     0
102
RTVSPost2010PropOp35
 70
     0
102
RTVSPost2010Prop36
280
     0
102
RTVSPost2010PropOp36
 70
     0
102
RTVSPost2010Prop37
 90
       50
102
RTVSPost2010PropOp37
 70
     0
102
RTVSPost2010Prop38
140
0.0
102
RTVSPost2010PropOp38
 70
     0
102
RTVSPost2010Prop39
140
1.0
102
RTVSPost2010PropOp39
 70
     0
102
RTVSPost2010Prop40
 90
        0
102
RTVSPost2010PropOp40
 70
     0
102
RTVSPost2010Prop41ColorIndex
 90
       18
102
RTVSPost2010Prop41ColorRGB
 90
        0
102
RTVSPost2010PropOp41
 70
     0
102
RTVSPost2010Prop42
 90
       50
102
RTVSPost2010PropOp42
 70
     0
102
RTVSPost2010Prop43
 90
        3
102
RTVSPost2010PropOp43
 70
     0
102
RTVSPost2010Prop44ColorIndex
 90
        5
102
RTVSPost2010Prop44ColorRGB
 90
      255
102
RTVSPost2010PropOp44
 70
     0
102
RTVSPost2010Prop45
280
     0
102
RTVSPost2010PropOp45
 70
     0
102
RTVSPost2010Prop46
 90
       50
102
RTVSPost2010PropOp46
 70
     0
102
RTVSPost2010Prop47
 90
       50
102
RTVSPost2010PropOp47
 70
     0
102
RTVSPost2010Prop48
 90
       50
102
RTVSPost2010PropOp48
 70
     0
102
RTVSPost2010Prop49
280
     0
102
RTVSPost2010PropOp49
 70
     0
102
RTVSPost2010Prop50
 90
       50
102
RTVSPost2010PropOp50
 70
     0
102
RTVSPost2010Prop51ColorIndex
 90
      256
102
RTVSPost2010Prop51ColorRGB
 90
-16777216
102
RTVSPost2010PropOp51
 70
     0
102
RTVSPost2010Prop52
140
1.0
102
RTVSPost2010PropOp52
 70
     0
102
RTVSPost2010Prop53
 90
        2
102
RTVSPost2010PropOp53
 70
     0
102
RTVSPost2010Prop54
  1
strokes_ogs.tif
102
RTVSPost2010PropOp54
 70
     0
102
RTVSPost2010Prop55
280
     0
102
RTVSPost2010PropOp55
 70
     0
102
RTVSPost2010Prop56
140
1.0
102
RTVSPost2010PropOp56
 70
     0
102
RTVSPost2010Prop57
140
1.0
102
RTVSPost2010PropOp57
 70
     0
  0
XRECORD
  5
16C
102
{ACAD_REACTORS
330
16B
102
}
330
16B
100
AcDbXrecord
280
     1
102
RTVSPost2010Prop28
280
     0
102
RTVSPost2010PropOp28
 70
     1
102
RTVSPost2010Prop29
280
     1
102
RTVSPost2010PropOp29
 70
     1
102
RTVSPost2010Prop30
280
     1
102
RTVSPost2010PropOp30
 70
     1
102
RTVSPost2010Prop31
280
     0
102
RTVSPost2010PropOp31
 70
     1
102
RTVSPost2010Prop32
280
     0
102
RTVSPost2010PropOp32
 70
     1
102
RTVSPost2010Prop33
280
     0
102
RTVSPost2010PropOp33
 70
     1
102
RTVSPost2010Prop34
280
     0
102
RTVSPost2010PropOp34
 70
     1
102
RTVSPost2010Prop35
280
     0
102
RTVSPost2010PropOp35
 70
     1
102
RTVSPost2010Prop36
280
     0
102
RTVSPost2010PropOp36
 70
     1
102
RTVSPost2010Prop37
 90
       50
102
RTVSPost2010PropOp37
 70
     1
102
RTVSPost2010Prop38
140
0.0
102
RTVSPost2010PropOp38
 70
     1
102
RTVSPost2010Prop39
140
1.0
102
RTVSPost2010PropOp39
 70
     1
102
RTVSPost2010Prop40
 90
        0
102
RTVSPost2010PropOp40
 70
     1
102
RTVSPost2010Prop41ColorIndex
 90
       18
102
RTVSPost2010Prop41ColorRGB
 90
        0
102
RTVSPost2010PropOp41
 70
     1
102
RTVSPost2010Prop42
 90
       50
102
RTVSPost2010PropOp42
 70
     1
102
RTVSPost2010Prop43
 90
        3
102
RTVSPost2010PropOp43
 70
     1
102
RTVSPost2010Prop44ColorIndex
 90
        5
102
RTVSPost2010Prop44ColorRGB
 90
      255
102
RTVSPost2010PropOp44
 70
     1
102
RTVSPost2010Prop45
280
     0
102
RTVSPost2010PropOp45
 70
     1
102
RTVSPost2010Prop46
 90
       50
102
RTVSPost2010PropOp46
 70
     1
102
RTVSPost2010Prop47
 90
       50
102
RTVSPost2010PropOp47
 70
     1
102
RTVSPost2010Prop48
 90
       50
102
RTVSPost2010PropOp48
 70
     1
102
RTVSPost2010Prop49
280
     0
102
RTVSPost2010PropOp49
 70
     1
102
RTVSPost2010Prop50
 90
       50
102
RTVSPost2010PropOp50
 70
     1
102
RTVSPost2010Prop51ColorIndex
 90
      256
102
RTVSPost2010Prop51ColorRGB
 90
-16777216
102
RTVSPost2010PropOp51
 70
     0
102
RTVSPost2010Prop52
140
1.0
102
RTVSPost2010PropOp52
 70
     0
102
RTVSPost2010Prop53
 90
        2
102
RTVSPost2010PropOp53
 70
     1
102
RTVSPost2010Prop54
  1
strokes_ogs.tif
102
RTVSPost2010PropOp54
 70
     1
102
RTVSPost2010Prop55
280
     0
102
RTVSPost2010PropOp55
 70
     1
102
RTVSPost2010Prop56
140
1.0
102
RTVSPost2010PropOp56
 70
     1
102
RTVSPost2010Prop57
140
1.0
102
RTVSPost2010PropOp57
 70
     1
  0
XRECORD
  5
182
102
{ACAD_REACTORS
330
181
102
}
330
181
100
AcDbXrecord
280
     1
102
RTVSPost2010Prop28
280
     0
102
RTVSPost2010PropOp28
 70
     1
102
RTVSPost2010Prop29
280
     1
102
RTVSPost2010PropOp29
 70
     1
102
RTVSPost2010Prop30
280
     1
102
RTVSPost2010PropOp30
 70
     1
102
RTVSPost2010Prop31
280
     0
102
RTVSPost2010PropOp31
 70
     1
102
RTVSPost2010Prop32
280
     0
102
RTVSPost2010PropOp32
 70
     1
102
RTVSPost2010Prop33
280
     0
102
RTVSPost2010PropOp33
 70
     1
102
RTVSPost2010Prop34
280
     0
102
RTVSPost2010PropOp34
 70
     1
102
RTVSPost2010Prop35
280
     0
102
RTVSPost2010PropOp35
 70
     1
102
RTVSPost2010Prop36
280
     0
102
RTVSPost2010PropOp36
 70
     1
102
RTVSPost2010Prop37
 90
       50
102
RTVSPost2010PropOp37
 70
     1
102
RTVSPost2010Prop38
140
0.0
102
RTVSPost2010PropOp38
 70
     1
102
RTVSPost2010Prop39
140
1.0
102
RTVSPost2010PropOp39
 70
     1
102
RTVSPost2010Prop40
 90
        0
102
RTVSPost2010PropOp40
 70
     1
102
RTVSPost2010Prop41ColorIndex
 90
       18
102
RTVSPost2010Prop41ColorRGB
 90
        0
102
RTVSPost2010PropOp41
 70
     1
102
RTVSPost2010Prop42
 90
       50
102
RTVSPost2010PropOp42
 70
     1
102
RTVSPost2010Prop43
 90
        3
102
RTVSPost2010PropOp43
 70
     1
102
RTVSPost2010Prop44ColorIndex
 90
        5
102
RTVSPost2010Prop44ColorRGB
 90
      255
102
RTVSPost2010PropOp44
 70
     1
102
RTVSPost2010Prop45
280
     0
102
RTVSPost2010PropOp45
 70
     1
102
RTVSPost2010Prop46
 90
       50
102
RTVSPost2010PropOp46
 70
     1
102
RTVSPost2010Prop47
 90
       50
102
RTVSPost2010PropOp47
 70
     1
102
RTVSPost2010Prop48
 90
       50
102
RTVSPost2010PropOp48
 70
     1
102
RTVSPost2010Prop49
280
     0
102
RTVSPost2010PropOp49
 70
     1
102
RTVSPost2010Prop50
 90
       50
102
RTVSPost2010PropOp50
 70
     1
102
RTVSPost2010Prop51ColorIndex
 90
      256
102
RTVSPost2010Prop51ColorRGB
 90
-16777216
102
RTVSPost2010PropOp51
 70
     0
102
RTVSPost2010Prop52
140
1.0
102
RTVSPost2010PropOp52
 70
     0
102
RTVSPost2010Prop53
 90
        2
102
RTVSPost2010PropOp53
 70
     1
102
RTVSPost2010Prop54
  1
strokes_ogs.tif
102
RTVSPost2010PropOp54
 70
     1
102
RTVSPost2010Prop55
280
     0
102
RTVSPost2010PropOp55
 70
     1
102
RTVSPost2010Prop56
140
1.0
102
RTVSPost2010PropOp56
 70
     1
102
RTVSPost2010Prop57
140
1.0
102
RTVSPost2010PropOp57
 70
     1
  0
XRECORD
  5
180
102
{ACAD_REACTORS
330
17F
102
}
330
17F
100
AcDbXrecord
280
     1
102
RTVSPost2010Prop28
280
     0
102
RTVSPost2010PropOp28
 70
     1
102
RTVSPost2010Prop29
280
     1
102
RTVSPost2010PropOp29
 70
     1
102
RTVSPost2010Prop30
280
     1
102
RTVSPost2010PropOp30
 70
     1
102
RTVSPost2010Prop31
280
     0
102
RTVSPost2010PropOp31
 70
     1
102
RTVSPost2010Prop32
280
     0
102
RTVSPost2010PropOp32
 70
     1
102
RTVSPost2010Prop33
280
     0
102
RTVSPost2010PropOp33
 70
     1
102
RTVSPost2010Prop34
280
     0
102
RTVSPost2010PropOp34
 70
     1
102
RTVSPost2010Prop35
280
     0
102
RTVSPost2010PropOp35
 70
     1
102
RTVSPost2010Prop36
280
     0
102
RTVSPost2010PropOp36
 70
     1
102
RTVSPost2010Prop37
 90
       50
102
RTVSPost2010PropOp37
 70
     1
102
RTVSPost2010Prop38
140
0.0
102
RTVSPost2010PropOp38
 70
     1
102
RTVSPost2010Prop39
140
1.0
102
RTVSPost2010PropOp39
 70
     1
102
RTVSPost2010Prop40
 90
        0
102
RTVSPost2010PropOp40
 70
     1
102
RTVSPost2010Prop41ColorIndex
 90
       18
102
RTVSPost2010Prop41ColorRGB
 90
        0
102
RTVSPost2010PropOp41
 70
     1
102
RTVSPost2010Prop42
 90
       50
102
RTVSPost2010PropOp42
 70
     1
102
RTVSPost2010Prop43
 90
        3
102
RTVSPost2010PropOp43
 70
     1
102
RTVSPost2010Prop44ColorIndex
 90
        5
102
RTVSPost2010Prop44ColorRGB
 90
      255
102
RTVSPost2010PropOp44
 70
     1
102
RTVSPost2010Prop45
280
     0
102
RTVSPost2010PropOp45
 70
     1
102
RTVSPost2010Prop46
 90
       50
102
RTVSPost2010PropOp46
 70
     1
102
RTVSPost2010Prop47
 90
       50
102
RTVSPost2010PropOp47
 70
     1
102
RTVSPost2010Prop48
 90
       50
102
RTVSPost2010PropOp48
 70
     1
102
RTVSPost2010Prop49
280
     0
102
RTVSPost2010PropOp49
 70
     1
102
RTVSPost2010Prop50
 90
       50
102
RTVSPost2010PropOp50
 70
     1
102
RTVSPost2010Prop51ColorIndex
 90
      256
102
RTVSPost2010Prop51ColorRGB
 90
-16777216
102
RTVSPost2010PropOp51
 70
     0
102
RTVSPost2010Prop52
140
1.0
102
RTVSPost2010PropOp52
 70
     0
102
RTVSPost2010Prop53
 90
        2
102
RTVSPost2010PropOp53
 70
     1
102
RTVSPost2010Prop54
  1
strokes_ogs.tif
102
RTVSPost2010PropOp54
 70
     1
102
RTVSPost2010Prop55
280
     0
102
RTVSPost2010PropOp55
 70
     1
102
RTVSPost2010Prop56
140
1.0
102
RTVSPost2010PropOp56
 70
     1
102
RTVSPost2010Prop57
140
1.0
102
RTVSPost2010PropOp57
 70
     1
  0
XRECORD
  5
17A
102
{ACAD_REACTORS
330
179
102
}
330
179
100
AcDbXrecord
280
     1
102
RTVSPost2010Prop28
280
     0
102
RTVSPost2010PropOp28
 70
     1
102
RTVSPost2010Prop29
280
     1
102
RTVSPost2010PropOp29
 70
     1
102
RTVSPost2010Prop30
280
     1
102
RTVSPost2010PropOp30
 70
     1
102
RTVSPost2010Prop31
280
     0
102
RTVSPost2010PropOp31
 70
     1
102
RTVSPost2010Prop32
280
     0
102
RTVSPost2010PropOp32
 70
     1
102
RTVSPost2010Prop33
280
     0
102
RTVSPost2010PropOp33
 70
     1
102
RTVSPost2010Prop34
280
     0
102
RTVSPost2010PropOp34
 70
     1
102
RTVSPost2010Prop35
280
     0
102
RTVSPost2010PropOp35
 70
     1
102
RTVSPost2010Prop36
280
     0
102
RTVSPost2010PropOp36
 70
     1
102
RTVSPost2010Prop37
 90
       50
102
RTVSPost2010PropOp37
 70
     1
102
RTVSPost2010Prop38
140
0.0
102
RTVSPost2010PropOp38
 70
     1
102
RTVSPost2010Prop39
140
1.0
102
RTVSPost2010PropOp39
 70
     1
102
RTVSPost2010Prop40
 90
        0
102
RTVSPost2010PropOp40
 70
     1
102
RTVSPost2010Prop41ColorIndex
 90
       18
102
RTVSPost2010Prop41ColorRGB
 90
        0
102
RTVSPost2010PropOp41
 70
     1
102
RTVSPost2010Prop42
 90
       50
102
RTVSPost2010PropOp42
 70
     1
102
RTVSPost2010Prop43
 90
        3
102
RTVSPost2010PropOp43
 70
     1
102
RTVSPost2010Prop44ColorIndex
 90
        5
102
RTVSPost2010Prop44ColorRGB
 90
      255
102
RTVSPost2010PropOp44
 70
     1
102
RTVSPost2010Prop45
280
     0
102
RTVSPost2010PropOp45
 70
     1
102
RTVSPost2010Prop46
 90
       50
102
RTVSPost2010PropOp46
 70
     1
102
RTVSPost2010Prop47
 90
       50
102
RTVSPost2010PropOp47
 70
     1
102
RTVSPost2010Prop48
 90
       50
102
RTVSPost2010PropOp48
 70
     1
102
RTVSPost2010Prop49
280
     0
102
RTVSPost2010PropOp49
 70
     1
102
RTVSPost2010Prop50
 90
       50
102
RTVSPost2010PropOp50
 70
     1
102
RTVSPost2010Prop51ColorIndex
 90
      256
102
RTVSPost2010Prop51ColorRGB
 90
-16777216
102
RTVSPost2010PropOp51
 70
     0
102
RTVSPost2010Prop52
140
1.0
102
RTVSPost2010PropOp52
 70
     0
102
RTVSPost2010Prop53
 90
        2
102
RTVSPost2010PropOp53
 70
     1
102
RTVSPost2010Prop54
  1
strokes_ogs.tif
102
RTVSPost2010PropOp54
 70
     1
102
RTVSPost2010Prop55
280
     0
102
RTVSPost2010PropOp55
 70
     1
102
RTVSPost2010Prop56
140
1.0
102
RTVSPost2010PropOp56
 70
     1
102
RTVSPost2010Prop57
140
1.0
102
RTVSPost2010PropOp57
 70
     1
  0
XRECORD
  5
17C
102
{ACAD_REACTORS
330
17B
102
}
330
17B
100
AcDbXrecord
280
     1
102
RTVSPost2010Prop28
280
     0
102
RTVSPost2010PropOp28
 70
     1
102
RTVSPost2010Prop29
280
     1
102
RTVSPost2010PropOp29
 70
     1
102
RTVSPost2010Prop30
280
     1
102
RTVSPost2010PropOp30
 70
     1
102
RTVSPost2010Prop31
280
     0
102
RTVSPost2010PropOp31
 70
     1
102
RTVSPost2010Prop32
280
     0
102
RTVSPost2010PropOp32
 70
     1
102
RTVSPost2010Prop33
280
     0
102
RTVSPost2010PropOp33
 70
     1
102
RTVSPost2010Prop34
280
     0
102
RTVSPost2010PropOp34
 70
     1
102
RTVSPost2010Prop35
280
     0
102
RTVSPost2010PropOp35
 70
     1
102
RTVSPost2010Prop36
280
     0
102
RTVSPost2010PropOp36
 70
     1
102
RTVSPost2010Prop37
 90
       50
102
RTVSPost2010PropOp37
 70
     1
102
RTVSPost2010Prop38
140
0.0
102
RTVSPost2010PropOp38
 70
     1
102
RTVSPost2010Prop39
140
1.0
102
RTVSPost2010PropOp39
 70
     1
102
RTVSPost2010Prop40
 90
        0
102
RTVSPost2010PropOp40
 70
     1
102
RTVSPost2010Prop41ColorIndex
 90
       18
102
RTVSPost2010Prop41ColorRGB
 90
        0
102
RTVSPost2010PropOp41
 70
     1
102
RTVSPost2010Prop42
 90
       50
102
RTVSPost2010PropOp42
 70
     1
102
RTVSPost2010Prop43
 90
        3
102
RTVSPost2010PropOp43
 70
     1
102
RTVSPost2010Prop44ColorIndex
 90
        5
102
RTVSPost2010Prop44ColorRGB
 90
      255
102
RTVSPost2010PropOp44
 70
     1
102
RTVSPost2010Prop45
280
     0
102
RTVSPost2010PropOp45
 70
     1
102
RTVSPost2010Prop46
 90
       50
102
RTVSPost2010PropOp46
 70
     1
102
RTVSPost2010Prop47
 90
       50
102
RTVSPost2010PropOp47
 70
     1
102
RTVSPost2010Prop48
 90
       50
102
RTVSPost2010PropOp48
 70
     1
102
RTVSPost2010Prop49
280
     0
102
RTVSPost2010PropOp49
 70
     1
102
RTVSPost2010Prop50
 90
       50
102
RTVSPost2010PropOp50
 70
     1
102
RTVSPost2010Prop51ColorIndex
 90
      256
102
RTVSPost2010Prop51ColorRGB
 90
-16777216
102
RTVSPost2010PropOp51
 70
     0
102
RTVSPost2010Prop52
140
1.0
102
RTVSPost2010PropOp52
 70
     0
102
RTVSPost2010Prop53
 90
        2
102
RTVSPost2010PropOp53
 70
     1
102
RTVSPost2010Prop54
  1
strokes_ogs.tif
102
RTVSPost2010PropOp54
 70
     1
102
RTVSPost2010Prop55
280
     0
102
RTVSPost2010PropOp55
 70
     1
102
RTVSPost2010Prop56
140
1.0
102
RTVSPost2010PropOp56
 70
     1
102
RTVSPost2010Prop57
140
1.0
102
RTVSPost2010PropOp57
 70
     1
  0
XRECORD
  5
172
102
{ACAD_REACTORS
330
171
102
}
330
171
100
AcDbXrecord
280
     1
102
RTVSPost2010Prop28
280
     0
102
RTVSPost2010PropOp28
 70
     1
102
RTVSPost2010Prop29
280
     1
102
RTVSPost2010PropOp29
 70
     1
102
RTVSPost2010Prop30
280
     1
102
RTVSPost2010PropOp30
 70
     1
102
RTVSPost2010Prop31
280
     0
102
RTVSPost2010PropOp31
 70
     1
102
RTVSPost2010Prop32
280
     0
102
RTVSPost2010PropOp32
 70
     1
102
RTVSPost2010Prop33
280
     0
102
RTVSPost2010PropOp33
 70
     1
102
RTVSPost2010Prop34
280
     0
102
RTVSPost2010PropOp34
 70
     1
102
RTVSPost2010Prop35
280
     0
102
RTVSPost2010PropOp35
 70
     1
102
RTVSPost2010Prop36
280
     0
102
RTVSPost2010PropOp36
 70
     1
102
RTVSPost2010Prop37
 90
       50
102
RTVSPost2010PropOp37
 70
     1
102
RTVSPost2010Prop38
140
0.0
102
RTVSPost2010PropOp38
 70
     1
102
RTVSPost2010Prop39
140
1.0
102
RTVSPost2010PropOp39
 70
     1
102
RTVSPost2010Prop40
 90
        0
102
RTVSPost2010PropOp40
 70
     1
102
RTVSPost2010Prop41ColorIndex
 90
       18
102
RTVSPost2010Prop41ColorRGB
 90
        0
102
RTVSPost2010PropOp41
 70
     1
102
RTVSPost2010Prop42
 90
       50
102
RTVSPost2010PropOp42
 70
     1
102
RTVSPost2010Prop43
 90
        3
102
RTVSPost2010PropOp43
 70
     1
102
RTVSPost2010Prop44ColorIndex
 90
        5
102
RTVSPost2010Prop44ColorRGB
 90
      255
102
RTVSPost2010PropOp44
 70
     1
102
RTVSPost2010Prop45
280
     0
102
RTVSPost2010PropOp45
 70
     1
102
RTVSPost2010Prop46
 90
       50
102
RTVSPost2010PropOp46
 70
     1
102
RTVSPost2010Prop47
 90
       50
102
RTVSPost2010PropOp47
 70
     1
102
RTVSPost2010Prop48
 90
       50
102
RTVSPost2010PropOp48
 70
     1
102
RTVSPost2010Prop49
280
     0
102
RTVSPost2010PropOp49
 70
     1
102
RTVSPost2010Prop50
 90
       50
102
RTVSPost2010PropOp50
 70
     1
102
RTVSPost2010Prop51ColorIndex
 90
      256
102
RTVSPost2010Prop51ColorRGB
 90
-16777216
102
RTVSPost2010PropOp51
 70
     0
102
RTVSPost2010Prop52
140
1.0
102
RTVSPost2010PropOp52
 70
     0
102
RTVSPost2010Prop53
 90
        2
102
RTVSPost2010PropOp53
 70
     1
102
RTVSPost2010Prop54
  1
strokes_ogs.tif
102
RTVSPost2010PropOp54
 70
     1
102
RTVSPost2010Prop55
280
     0
102
RTVSPost2010PropOp55
 70
     1
102
RTVSPost2010Prop56
140
1.0
102
RTVSPost2010PropOp56
 70
     1
102
RTVSPost2010Prop57
140
1.0
102
RTVSPost2010PropOp57
 70
     1
  0
XRECORD
  5
166
102
{ACAD_REACTORS
330
165
102
}
330
165
100
AcDbXrecord
280
     1
102
RTVSPost2010Prop28
280
     0
102
RTVSPost2010PropOp28
 70
     1
102
RTVSPost2010Prop29
280
     1
102
RTVSPost2010PropOp29
 70
     1
102
RTVSPost2010Prop30
280
     1
102
RTVSPost2010PropOp30
 70
     1
102
RTVSPost2010Prop31
280
     0
102
RTVSPost2010PropOp31
 70
     1
102
RTVSPost2010Prop32
280
     0
102
RTVSPost2010PropOp32
 70
     1
102
RTVSPost2010Prop33
280
     0
102
RTVSPost2010PropOp33
 70
     1
102
RTVSPost2010Prop34
280
     0
102
RTVSPost2010PropOp34
 70
     1
102
RTVSPost2010Prop35
280
     0
102
RTVSPost2010PropOp35
 70
     1
102
RTVSPost2010Prop36
280
     0
102
RTVSPost2010PropOp36
 70
     1
102
RTVSPost2010Prop37
 90
       50
102
RTVSPost2010PropOp37
 70
     1
102
RTVSPost2010Prop38
140
0.0
102
RTVSPost2010PropOp38
 70
     1
102
RTVSPost2010Prop39
140
1.0
102
RTVSPost2010PropOp39
 70
     1
102
RTVSPost2010Prop40
 90
        0
102
RTVSPost2010PropOp40
 70
     1
102
RTVSPost2010Prop41ColorIndex
 90
       18
102
RTVSPost2010Prop41ColorRGB
 90
        0
102
RTVSPost2010PropOp41
 70
     1
102
RTVSPost2010Prop42
 90
       50
102
RTVSPost2010PropOp42
 70
     1
102
RTVSPost2010Prop43
 90
        3
102
RTVSPost2010PropOp43
 70
     1
102
RTVSPost2010Prop44ColorIndex
 90
        5
102
RTVSPost2010Prop44ColorRGB
 90
      255
102
RTVSPost2010PropOp44
 70
     1
102
RTVSPost2010Prop45
280
     0
102
RTVSPost2010PropOp45
 70
     1
102
RTVSPost2010Prop46
 90
       50
102
RTVSPost2010PropOp46
 70
     1
102
RTVSPost2010Prop47
 90
       50
102
RTVSPost2010PropOp47
 70
     1
102
RTVSPost2010Prop48
 90
       50
102
RTVSPost2010PropOp48
 70
     1
102
RTVSPost2010Prop49
280
     0
102
RTVSPost2010PropOp49
 70
     1
102
RTVSPost2010Prop50
 90
       50
102
RTVSPost2010PropOp50
 70
     1
102
RTVSPost2010Prop51ColorIndex
 90
      256
102
RTVSPost2010Prop51ColorRGB
 90
-16777216
102
RTVSPost2010PropOp51
 70
     0
102
RTVSPost2010Prop52
140
1.0
102
RTVSPost2010PropOp52
 70
     0
102
RTVSPost2010Prop53
 90
        2
102
RTVSPost2010PropOp53
 70
     1
102
RTVSPost2010Prop54
  1
strokes_ogs.tif
102
RTVSPost2010PropOp54
 70
     1
102
RTVSPost2010Prop55
280
     0
102
RTVSPost2010PropOp55
 70
     1
102
RTVSPost2010Prop56
140
1.0
102
RTVSPost2010PropOp56
 70
     1
102
RTVSPost2010Prop57
140
1.0
102
RTVSPost2010PropOp57
 70
     1
  0
XRECORD
  5
17E
102
{ACAD_REACTORS
330
17D
102
}
330
17D
100
AcDbXrecord
280
     1
102
RTVSPost2010Prop28
280
     0
102
RTVSPost2010PropOp28
 70
     1
102
RTVSPost2010Prop29
280
     1
102
RTVSPost2010PropOp29
 70
     1
102
RTVSPost2010Prop30
280
     1
102
RTVSPost2010PropOp30
 70
     1
102
RTVSPost2010Prop31
280
     0
102
RTVSPost2010PropOp31
 70
     1
102
RTVSPost2010Prop32
280
     0
102
RTVSPost2010PropOp32
 70
     1
102
RTVSPost2010Prop33
280
     0
102
RTVSPost2010PropOp33
 70
     1
102
RTVSPost2010Prop34
280
     0
102
RTVSPost2010PropOp34
 70
     1
102
RTVSPost2010Prop35
280
     0
102
RTVSPost2010PropOp35
 70
     1
102
RTVSPost2010Prop36
280
     0
102
RTVSPost2010PropOp36
 70
     1
102
RTVSPost2010Prop37
 90
       50
102
RTVSPost2010PropOp37
 70
     1
102
RTVSPost2010Prop38
140
0.0
102
RTVSPost2010PropOp38
 70
     1
102
RTVSPost2010Prop39
140
1.0
102
RTVSPost2010PropOp39
 70
     1
102
RTVSPost2010Prop40
 90
        0
102
RTVSPost2010PropOp40
 70
     1
102
RTVSPost2010Prop41ColorIndex
 90
       18
102
RTVSPost2010Prop41ColorRGB
 90
        0
102
RTVSPost2010PropOp41
 70
     1
102
RTVSPost2010Prop42
 90
       50
102
RTVSPost2010PropOp42
 70
     1
102
RTVSPost2010Prop43
 90
        3
102
RTVSPost2010PropOp43
 70
     1
102
RTVSPost2010Prop44ColorIndex
 90
        5
102
RTVSPost2010Prop44ColorRGB
 90
      255
102
RTVSPost2010PropOp44
 70
     1
102
RTVSPost2010Prop45
280
     0
102
RTVSPost2010PropOp45
 70
     1
102
RTVSPost2010Prop46
 90
       50
102
RTVSPost2010PropOp46
 70
     1
102
RTVSPost2010Prop47
 90
       50
102
RTVSPost2010PropOp47
 70
     1
102
RTVSPost2010Prop48
 90
       50
102
RTVSPost2010PropOp48
 70
     1
102
RTVSPost2010Prop49
280
     0
102
RTVSPost2010PropOp49
 70
     1
102
RTVSPost2010Prop50
 90
       50
102
RTVSPost2010PropOp50
 70
     1
102
RTVSPost2010Prop51ColorIndex
 90
      256
102
RTVSPost2010Prop51ColorRGB
 90
-16777216
102
RTVSPost2010PropOp51
 70
     0
102
RTVSPost2010Prop52
140
1.0
102
RTVSPost2010PropOp52
 70
     0
102
RTVSPost2010Prop53
 90
        2
102
RTVSPost2010PropOp53
 70
     1
102
RTVSPost2010Prop54
  1
strokes_ogs.tif
102
RTVSPost2010PropOp54
 70
     1
102
RTVSPost2010Prop55
280
     0
102
RTVSPost2010PropOp55
 70
     1
102
RTVSPost2010Prop56
140
1.0
102
RTVSPost2010PropOp56
 70
     1
102
RTVSPost2010Prop57
140
1.0
102
RTVSPost2010PropOp57
 70
     1
  0
ENDSEC
  0
EOF
