  0
SECTION
  2
HEADER
  9
$ACADVER
  1
AC1024
  9
$ACADMAINTVER
 70
   205
  9
$DWGCODEPAGE
  3
ANSI_1251
  9
$INSBASE
 10
0.0
 20
0.0
 30
0.0
  9
$EXTMIN
 10
1.000000000000000E+20
 20
1.000000000000000E+20
 30
1.000000000000000E+20
  9
$EXTMAX
 10
-1.000000000000000E+20
 20
-1.000000000000000E+20
 30
-1.000000000000000E+20
  9
$LIMMIN
 10
0.0
 20
0.0
  9
$LIMMAX
 10
12.0
 20
9.0
  9
$ORTHOMODE
 70
     0
  9
$REGENMODE
 70
     1
  9
$FILLMODE
 70
     1
  9
$QTEXTMODE
 70
     0
  9
$MIRRTEXT
 70
     1
  9
$LTSCALE
 40
1.0
  9
$ATTMODE
 70
     1
  9
$TEXTSIZE
 40
0.2
  9
$TRACEWID
 40
0.05
  9
$TEXTSTYLE
  7
Standard
  9
$CLAYER
  8
OracDecor_panel_moldings
  9
$CELTYPE
  6
ByLayer
  9
$CECOLOR
 62
   256
  9
$CELTSCALE
 40
1.0
  9
$DISPSILH
 70
     0
  9
$DIMSCALE
 40
1.0
  9
$DIMASZ
 40
0.18
  9
$DIMEXO
 40
0.0625
  9
$DIMDLI
 40
0.38
  9
$DIMRND
 40
0.0
  9
$DIMDLE
 40
0.0
  9
$DIMEXE
 40
0.18
  9
$DIMTP
 40
0.0
  9
$DIMTM
 40
0.0
  9
$DIMTXT
 40
0.18
  9
$DIMCEN
 40
0.09
  9
$DIMTSZ
 40
0.0
  9
$DIMTOL
 70
     0
  9
$DIMLIM
 70
     0
  9
$DIMTIH
 70
     1
  9
$DIMTOH
 70
     1
  9
$DIMSE1
 70
     0
  9
$DIMSE2
 70
     0
  9
$DIMTAD
 70
     0
  9
$DIMZIN
 70
     0
  9
$DIMBLK
  1

  9
$DIMASO
 70
     1
  9
$DIMSHO
 70
     1
  9
$DIMPOST
  1

  9
$DIMAPOST
  1

  9
$DIMALT
 70
     0
  9
$DIMALTD
 70
     2
  9
$DIMALTF
 40
25.4
  9
$DIMLFAC
 40
1.0
  9
$DIMTOFL
 70
     0
  9
$DIMTVP
 40
0.0
  9
$DIMTIX
 70
     0
  9
$DIMSOXD
 70
     0
  9
$DIMSAH
 70
     0
  9
$DIMBLK1
  1

  9
$DIMBLK2
  1

  9
$DIMSTYLE
  2
Standard
  9
$DIMCLRD
 70
     0
  9
$DIMCLRE
 70
     0
  9
$DIMCLRT
 70
     0
  9
$DIMTFAC
 40
1.0
  9
$DIMGAP
 40
0.09
  9
$DIMJUST
 70
     0
  9
$DIMSD1
 70
     0
  9
$DIMSD2
 70
     0
  9
$DIMTOLJ
 70
     1
  9
$DIMTZIN
 70
     0
  9
$DIMALTZ
 70
     0
  9
$DIMALTTZ
 70
     0
  9
$DIMUPT
 70
     0
  9
$DIMDEC
 70
     4
  9
$DIMTDEC
 70
     4
  9
$DIMALTU
 70
     2
  9
$DIMALTTD
 70
     2
  9
$DIMTXSTY
  7
Standard
  9
$DIMAUNIT
 70
     0
  9
$DIMADEC
 70
     0
  9
$DIMALTRND
 40
0.0
  9
$DIMAZIN
 70
     0
  9
$DIMDSEP
 70
    46
  9
$DIMATFIT
 70
     3
  9
$DIMFRAC
 70
     0
  9
$DIMLDRBLK
  1

  9
$DIMLUNIT
 70
     2
  9
$DIMLWD
 70
    -2
  9
$DIMLWE
 70
    -2
  9
$DIMTMOVE
 70
     0
  9
$DIMFXL
 40
1.0
  9
$DIMFXLON
 70
     0
  9
$DIMJOGANG
 40
0.7853981633974483
  9
$DIMTFILL
 70
     0
  9
$DIMTFILLCLR
 70
     0
  9
$DIMARCSYM
 70
     0
  9
$DIMLTYPE
  6

  9
$DIMLTEX1
  6

  9
$DIMLTEX2
  6

  9
$DIMTXTDIRECTION
 70
     0
  9
$LUNITS
 70
     2
  9
$LUPREC
 70
     4
  9
$SKETCHINC
 40
0.1
  9
$FILLETRAD
 40
0.5
  9
$AUNITS
 70
     0
  9
$AUPREC
 70
     0
  9
$MENU
  1
.
  9
$ELEVATION
 40
0.0
  9
$PELEVATION
 40
0.0
  9
$THICKNESS
 40
0.0
  9
$LIMCHECK
 70
     0
  9
$CHAMFERA
 40
0.5
  9
$CHAMFERB
 40
0.5
  9
$CHAMFERC
 40
1.0
  9
$CHAMFERD
 40
0.0
  9
$SKPOLY
 70
     0
  9
$TDCREATE
 40
2451380.930432396
  9
$TDUCREATE
 40
2451380.805432396
  9
$TDUPDATE
 40
2451380.966180555
  9
$TDUUPDATE
 40
2451380.841180556
  9
$TDINDWG
 40
0.0075615278
  9
$TDUSRTIMER
 40
0.0075524884
  9
$USRTIMER
 70
     1
  9
$ANGBASE
 50
0.0
  9
$ANGDIR
 70
     0
  9
$PDMODE
 70
     0
  9
$PDSIZE
 40
0.0
  9
$PLINEWID
 40
0.0
  9
$SPLFRAME
 70
     0
  9
$SPLINETYPE
 70
     6
  9
$SPLINESEGS
 70
     8
  9
$HANDSEED
  5
18F
  9
$SURFTAB1
 70
     6
  9
$SURFTAB2
 70
     6
  9
$SURFTYPE
 70
     6
  9
$SURFU
 70
     6
  9
$SURFV
 70
     6
  9
$UCSBASE
  2

  9
$UCSNAME
  2

  9
$UCSORG
 10
0.0
 20
0.0
 30
0.0
  9
$UCSXDIR
 10
1.0
 20
0.0
 30
0.0
  9
$UCSYDIR
 10
0.0
 20
1.0
 30
0.0
  9
$UCSORTHOREF
  2

  9
$UCSORTHOVIEW
 70
     0
  9
$UCSORGTOP
 10
0.0
 20
0.0
 30
0.0
  9
$UCSORGBOTTOM
 10
0.0
 20
0.0
 30
0.0
  9
$UCSORGLEFT
 10
0.0
 20
0.0
 30
0.0
  9
$UCSORGRIGHT
 10
0.0
 20
0.0
 30
0.0
  9
$UCSORGFRONT
 10
0.0
 20
0.0
 30
0.0
  9
$UCSORGBACK
 10
0.0
 20
0.0
 30
0.0
  9
$PUCSBASE
  2

  9
$PUCSNAME
  2

  9
$PUCSORG
 10
0.0
 20
0.0
 30
0.0
  9
$PUCSXDIR
 10
1.0
 20
0.0
 30
0.0
  9
$PUCSYDIR
 10
0.0
 20
1.0
 30
0.0
  9
$PUCSORTHOREF
  2

  9
$PUCSORTHOVIEW
 70
     0
  9
$PUCSORGTOP
 10
0.0
 20
0.0
 30
0.0
  9
$PUCSORGBOTTOM
 10
0.0
 20
0.0
 30
0.0
  9
$PUCSORGLEFT
 10
0.0
 20
0.0
 30
0.0
  9
$PUCSORGRIGHT
 10
0.0
 20
0.0
 30
0.0
  9
$PUCSORGFRONT
 10
0.0
 20
0.0
 30
0.0
  9
$PUCSORGBACK
 10
0.0
 20
0.0
 30
0.0
  9
$USERI1
 70
     0
  9
$USERI2
 70
     0
  9
$USERI3
 70
     0
  9
$USERI4
 70
     0
  9
$USERI5
 70
     0
  9
$USERR1
 40
0.0
  9
$USERR2
 40
0.0
  9
$USERR3
 40
0.0
  9
$USERR4
 40
0.0
  9
$USERR5
 40
0.0
  9
$WORLDVIEW
 70
     1
  9
$SHADEDGE
 70
     3
  9
$SHADEDIF
 70
    70
  9
$TILEMODE
 70
     1
  9
$MAXACTVP
 70
    64
  9
$PINSBASE
 10
0.0
 20
0.0
 30
0.0
  9
$PLIMCHECK
 70
     0
  9
$PEXTMIN
 10
1.000000000000000E+20
 20
1.000000000000000E+20
 30
1.000000000000000E+20
  9
$PEXTMAX
 10
-1.000000000000000E+20
 20
-1.000000000000000E+20
 30
-1.000000000000000E+20
  9
$PLIMMIN
 10
0.0
 20
0.0
  9
$PLIMMAX
 10
12.0
 20
9.0
  9
$UNITMODE
 70
     0
  9
$VISRETAIN
 70
     1
  9
$PLINEGEN
 70
     0
  9
$PSLTSCALE
 70
     1
  9
$TREEDEPTH
 70
  3020
  9
$CMLSTYLE
  2
Standard
  9
$CMLJUST
 70
     0
  9
$CMLSCALE
 40
1.0
  9
$PROXYGRAPHICS
 70
     1
  9
$MEASUREMENT
 70
     1
  9
$CELWEIGHT
370
    -1
  9
$ENDCAPS
280
     0
  9
$JOINSTYLE
280
     0
  9
$LWDISPLAY
290
     0
  9
$INSUNITS
 70
     4
  9
$HYPERLINKBASE
  1

  9
$STYLESHEET
  1

  9
$XEDIT
290
     1
  9
$CEPSNTYPE
380
     0
  9
$PSTYLEMODE
290
     1
  9
$FINGERPRINTGUID
  2
{12F50282-3ED8-11D3-A8B7-0060B0F84BC6}
  9
$VERSIONGUID
  2
{12F50293-3ED8-11D3-A8B7-0060B0F84BC6}
  9
$EXTNAMES
290
     1
  9
$PSVPSCALE
 40
0.0
  9
$OLESTARTUP
290
     0
  9
$SORTENTS
280
   127
  9
$INDEXCTL
280
     0
  9
$HIDETEXT
280
     0
  9
$XCLIPFRAME
280
     2
  9
$HALOGAP
280
     0
  9
$OBSCOLOR
 70
   257
  9
$OBSLTYPE
280
     0
  9
$INTERSECTIONDISPLAY
280
     0
  9
$INTERSECTIONCOLOR
 70
   257
  9
$DIMASSOC
280
     1
  9
$PROJECTNAME
  1

  9
$CAMERADISPLAY
290
     0
  9
$LENSLENGTH
 40
50.0
  9
$CAMERAHEIGHT
 40
0.0
  9
$STEPSPERSEC
 40
2.0
  9
$STEPSIZE
 40
6.0
  9
$3DDWFPREC
 40
2.0
  9
$PSOLWIDTH
 40
0.25
  9
$PSOLHEIGHT
 40
4.0
  9
$LOFTANG1
 40
1.570796326794896
  9
$LOFTANG2
 40
1.570796326794896
  9
$LOFTMAG1
 40
0.0
  9
$LOFTMAG2
 40
0.0
  9
$LOFTPARAM
 70
     7
  9
$LOFTNORMALS
280
     1
  9
$LATITUDE
 40
37.795
  9
$LONGITUDE
 40
-122.394
  9
$NORTHDIRECTION
 40
0.0
  9
$TIMEZONE
 70
 -8000
  9
$LIGHTGLYPHDISPLAY
280
     1
  9
$TILEMODELIGHTSYNCH
280
     1
  9
$CMATERIAL
347
AB
  9
$SOLIDHIST
280
     0
  9
$SHOWHIST
280
     1
  9
$DWFFRAME
280
     2
  9
$DGNFRAME
280
     0
  9
$REALWORLDSCALE
290
     1
  9
$INTERFERECOLOR
 62
     1
  9
$INTERFEREOBJVS
345
CD
  9
$INTERFEREVPVS
346
CA
  9
$CSHADOW
280
     0
  9
$SHADOWPLANELOCATION
 40
0.0
  0
ENDSEC
  0
SECTION
  2
CLASSES
  0
CLASS
  1
ACDBDICTIONARYWDFLT
  2
AcDbDictionaryWithDefault
  3
ObjectDBX Classes
 90
        0
 91
        1
280
     0
281
     0
  0
CLASS
  1
ACDBPLACEHOLDER
  2
AcDbPlaceHolder
  3
ObjectDBX Classes
 90
        0
 91
        2
280
     0
281
     0
  0
CLASS
  1
LAYOUT
  2
AcDbLayout
  3
ObjectDBX Classes
 90
        0
 91
        3
280
     0
281
     0
  0
CLASS
  1
MATERIAL
  2
AcDbMaterial
  3
ObjectDBX Classes
 90
     1153
 91
        3
280
     0
281
     0
  0
CLASS
  1
VISUALSTYLE
  2
AcDbVisualStyle
  3
ObjectDBX Classes
 90
     4095
 91
       24
280
     0
281
     0
  0
CLASS
  1
TABLESTYLE
  2
AcDbTableStyle
  3
ObjectDBX Classes
 90
     4095
 91
        1
280
     0
281
     0
  0
CLASS
  1
SCALE
  2
AcDbScale
  3
ObjectDBX Classes
 90
     1153
 91
       17
280
     0
281
     0
  0
CLASS
  1
MLEADERSTYLE
  2
AcDbMLeaderStyle
  3
ACDB_MLEADERSTYLE_CLASS
 90
     4095
 91
        1
280
     0
281
     0
  0
CLASS
  1
ACDBSECTIONVIEWSTYLE
  2
AcDbSectionViewStyle
  3
ObjectDBX Classes
 90
     1025
 91
        1
280
     0
281
     0
  0
CLASS
  1
ACDBDETAILVIEWSTYLE
  2
AcDbDetailViewStyle
  3
ObjectDBX Classes
 90
     1025
 91
        1
280
     0
281
     0
  0
CLASS
  1
MESH
  2
AcDbSubDMesh
  3
ObjectDBX Classes
 90
        0
 91
        1
280
     0
281
     1
  0
CLASS
  1
DICTIONARYVAR
  2
AcDbDictionaryVar
  3
ObjectDBX Classes
 90
        0
 91
        9
280
     0
281
     0
  0
CLASS
  1
CELLSTYLEMAP
  2
AcDbCellStyleMap
  3
ObjectDBX Classes
 90
     1152
 91
        1
280
     0
281
     0
  0
ENDSEC
  0
SECTION
  2
TABLES
  0
TABLE
  2
VPORT
  5
8
330
0
100
AcDbSymbolTable
 70
     1
  0
VPORT
  5
A8
330
8
100
AcDbSymbolTableRecord
100
AcDbViewportTableRecord
  2
*Active
 70
     0
 10
0.0
 20
0.0
 11
1.0
 21
1.0
 12
0.0
 22
14.28870105743408
 13
0.0
 23
0.0
 14
0.5
 24
0.5
 15
0.5
 25
0.5
 16
-1.0
 26
-1.0
 36
1.0
 17
0.0
 27
0.0
 37
0.0
 40
1049.999998066341
 41
1.674315777455148
 42
50.0
 43
0.0
 44
0.0
 50
0.0
 51
0.0
 71
     0
 72
   100
 73
     1
 74
     3
 75
     0
 76
     0
 77
     0
 78
     0
281
     0
 65
     1
110
0.0
120
0.0
130
0.0
111
1.0
121
0.0
131
0.0
112
0.0
122
1.0
132
0.0
 79
     0
146
0.0
348
C9
 60
     3
 61
     5
292
     1
282
     1
141
0.0
142
0.0
 63
   250
421
  3355443
  0
ENDTAB
  0
TABLE
  2
LTYPE
  5
5
330
0
100
AcDbSymbolTable
 70
     1
  0
LTYPE
  5
14
330
5
100
AcDbSymbolTableRecord
100
AcDbLinetypeTableRecord
  2
ByBlock
 70
     0
  3

 72
    65
 73
     0
 40
0.0
  0
LTYPE
  5
15
330
5
100
AcDbSymbolTableRecord
100
AcDbLinetypeTableRecord
  2
ByLayer
 70
     0
  3

 72
    65
 73
     0
 40
0.0
  0
LTYPE
  5
16
330
5
100
AcDbSymbolTableRecord
100
AcDbLinetypeTableRecord
  2
Continuous
 70
     0
  3
Solid line
 72
    65
 73
     0
 40
0.0
  0
ENDTAB
  0
TABLE
  2
LAYER
  5
2
330
0
100
AcDbSymbolTable
 70
     3
  0
LAYER
  5
10
330
2
100
AcDbSymbolTableRecord
100
AcDbLayerTableRecord
  2
0
 70
     0
 62
     7
  6
Continuous
370
    -3
390
F
347
BB
  0
LAYER
  5
2B
330
2
100
AcDbSymbolTableRecord
100
AcDbLayerTableRecord
  2
ASHADE
 70
     4
 62
     7
  6
Continuous
370
    -3
390
2D
347
BB
  0
LAYER
  5
F8
330
2
100
AcDbSymbolTableRecord
100
AcDbLayerTableRecord
  2
OracDecor_panel_moldings
 70
     0
 62
   194
420
  5577905
  6
Continuous
370
    -3
390
F
347
BB
  0
ENDTAB
  0
TABLE
  2
STYLE
  5
3
330
0
100
AcDbSymbolTable
 70
     2
  0
STYLE
  5
11
330
3
100
AcDbSymbolTableRecord
100
AcDbTextStyleTableRecord
  2
Standard
 70
     0
 40
0.0
 41
1.0
 50
0.0
 71
     0
 42
0.2
  3
txt
  4

  0
STYLE
  5
2C
330
3
100
AcDbSymbolTableRecord
100
AcDbTextStyleTableRecord
  2
ASHADE
 70
     0
 40
0.2
 41
1.0
 50
0.0
 71
     0
 42
0.2
  3
simplex
  4

  0
ENDTAB
  0
TABLE
  2
VIEW
  5
6
330
0
100
AcDbSymbolTable
 70
     0
  0
ENDTAB
  0
TABLE
  2
UCS
  5
7
330
0
100
AcDbSymbolTable
 70
     0
  0
ENDTAB
  0
TABLE
  2
APPID
  5
9
330
0
100
AcDbSymbolTable
 70
     6
  0
APPID
  5
12
330
9
100
AcDbSymbolTableRecord
100
AcDbRegAppTableRecord
  2
ACAD
 70
     0
  0
APPID
  5
8F
330
9
100
AcDbSymbolTableRecord
100
AcDbRegAppTableRecord
  2
AVE_RENDER
 70
     0
  0
APPID
  5
90
330
9
100
AcDbSymbolTableRecord
100
AcDbRegAppTableRecord
  2
AVE_ENTITY_MATERIAL
 70
     0
  0
APPID
  5
9C
330
9
100
AcDbSymbolTableRecord
100
AcDbRegAppTableRecord
  2
AVE_FINISH
 70
     0
  0
APPID
  5
9D
330
9
100
AcDbSymbolTableRecord
100
AcDbRegAppTableRecord
  2
AVE_MATERIAL
 70
     0
  0
APPID
  5
9E
330
9
100
AcDbSymbolTableRecord
100
AcDbRegAppTableRecord
  2
AVE_GLOBAL
 70
     0
  0
ENDTAB
  0
TABLE
  2
DIMSTYLE
  5
A
330
0
100
AcDbSymbolTable
 70
     1
100
AcDbDimStyleTable
 71
     0
  0
DIMSTYLE
105
27
330
A
100
AcDbSymbolTableRecord
100
AcDbDimStyleTableRecord
  2
Standard
 70
     0
340
11
  0
ENDTAB
  0
TABLE
  2
BLOCK_RECORD
  5
1
330
0
100
AcDbSymbolTable
 70
     6
  0
BLOCK_RECORD
  5
1F
330
1
100
AcDbSymbolTableRecord
100
AcDbBlockTableRecord
  2
*Model_Space
340
22
 70
     0
280
     1
281
     0
  0
BLOCK_RECORD
  5
1B
330
1
100
AcDbSymbolTableRecord
100
AcDbBlockTableRecord
  2
*Paper_Space
340
1E
 70
     0
280
     1
281
     0
  0
BLOCK_RECORD
  5
23
330
1
100
AcDbSymbolTableRecord
100
AcDbBlockTableRecord
  2
*Paper_Space0
340
26
 70
     0
280
     1
281
     0
  0
BLOCK_RECORD
  5
2E
330
1
100
AcDbSymbolTableRecord
100
AcDbBlockTableRecord
  2
direct
340
0
 70
     0
280
     1
281
     0
  0
BLOCK_RECORD
  5
42
330
1
100
AcDbSymbolTableRecord
100
AcDbBlockTableRecord
  2
overhead
340
0
 70
     0
280
     1
281
     0
  0
BLOCK_RECORD
  5
5F
330
1
100
AcDbSymbolTableRecord
100
AcDbBlockTableRecord
  2
sh_spot
340
0
 70
     0
280
     1
281
     0
  0
BLOCK_RECORD
  5
91
330
1
100
AcDbSymbolTableRecord
100
AcDbBlockTableRecord
  2
AVE_RENDER
340
0
102
{BLKREFS
331
94
331
95
331
96
331
97
331
98
331
99
331
9A
331
9B
102
}
 70
     0
280
     1
281
     0
  0
BLOCK_RECORD
  5
9F
330
1
100
AcDbSymbolTableRecord
100
AcDbBlockTableRecord
  2
AVE_GLOBAL
340
0
102
{BLKREFS
331
A2
102
}
 70
     0
280
     1
281
     0
  0
ENDTAB
  0
ENDSEC
  0
SECTION
  2
BLOCKS
  0
BLOCK
  5
20
330
1F
100
AcDbEntity
  8
0
100
AcDbBlockBegin
  2
*Model_Space
 70
     0
 10
0.0
 20
0.0
 30
0.0
  3
*Model_Space
  1

  0
ENDBLK
  5
21
330
1F
100
AcDbEntity
  8
0
100
AcDbBlockEnd
  0
BLOCK
  5
1C
330
1B
100
AcDbEntity
 67
     1
  8
0
100
AcDbBlockBegin
  2
*Paper_Space
 70
     0
 10
0.0
 20
0.0
 30
0.0
  3
*Paper_Space
  1

  0
ENDBLK
  5
1D
330
1B
100
AcDbEntity
 67
     1
  8
0
100
AcDbBlockEnd
  0
BLOCK
  5
24
330
23
100
AcDbEntity
 67
     1
  8
0
100
AcDbBlockBegin
  2
*Paper_Space0
 70
     0
 10
0.0
 20
0.0
 30
0.0
  3
*Paper_Space0
  1

  0
ENDBLK
  5
25
330
23
100
AcDbEntity
 67
     1
  8
0
100
AcDbBlockEnd
  0
BLOCK
  5
40
330
2E
100
AcDbEntity
  8
0
100
AcDbBlockBegin
  2
direct
 70
     2
 10
0.0
 20
0.0
 30
0.0
  3
direct
  1

  0
ATTDEF
  5
2F
330
2E
100
AcDbEntity
  8
ASHADE
  6
Continuous
 62
     1
100
AcDbText
 10
0.0
 20
-0.1
 30
0.0
 40
0.2
  1

  7
ASHADE
 72
     1
 11
0.0
 21
-0.1
 31
0.0
100
AcDbAttributeDefinition
280
     0
  3
Light Name
  2
SNAME
 70
     0
280
     0
  0
ARC
  5
30
330
2E
100
AcDbEntity
  8
ASHADE
  6
Continuous
 62
     7
100
AcDbCircle
 10
0.0
 20
0.0
 30
0.0
 40
0.3
100
AcDbArc
 50
205.6792886194569
 51
334.3207113805431
  0
ARC
  5
31
330
2E
100
AcDbEntity
  8
ASHADE
  6
Continuous
 62
     7
100
AcDbCircle
 10
0.0
 20
0.0
 30
0.0
 40
0.3
100
AcDbArc
 50
25.67928861945685
 51
154.3207113805431
  0
LINE
  5
32
330
2E
100
AcDbEntity
  8
ASHADE
  6
Continuous
 62
     7
100
AcDbLine
 10
-0.21
 20
0.2142428528562855
 30
0.0
 11
-0.21
 21
0.5
 31
0.0
  0
LINE
  5
33
330
2E
100
AcDbEntity
  8
ASHADE
  6
Continuous
 62
     7
100
AcDbLine
 10
-0.11
 20
0.2791057147390572
 30
0.0
 11
-0.11
 21
0.5
 31
0.0
  0
LINE
  5
34
330
2E
100
AcDbEntity
  8
ASHADE
  6
Continuous
 62
     7
100
AcDbLine
 10
0.21
 20
0.2142428528562855
 30
0.0
 11
0.21
 21
0.5
 31
0.0
  0
ATTDEF
  5
35
330
2E
100
AcDbEntity
  8
ASHADE
  6
Continuous
 62
     7
100
AcDbText
 10
0.0
 20
0.25
 30
0.0
 40
0.01
  1

100
AcDbAttributeDefinition
280
     0
  3
Look-at Y
  2
LAY
 70
     1
280
     0
  0
ATTDEF
  5
36
330
2E
100
AcDbEntity
  8
ASHADE
  6
Continuous
 62
     7
100
AcDbText
 10
0.0
 20
0.22
 30
0.0
 40
0.01
  1
1
100
AcDbAttributeDefinition
280
     0
  3
Light Intensity
  2
INTENSITY
 70
     1
280
     0
  0
ATTDEF
  5
37
330
2E
100
AcDbEntity
  8
ASHADE
  6
Continuous
 62
     7
100
AcDbText
 10
0.0
 20
0.16
 30
0.0
 40
0.01
  1
-1
100
AcDbAttributeDefinition
280
     0
  3
*not used*
  2
BEAMD
 70
     1
280
     0
  0
ATTDEF
  5
38
330
2E
100
AcDbEntity
  8
ASHADE
  6
Continuous
 62
     7
100
AcDbText
 10
0.0
 20
0.175
 30
0.0
 40
0.01
  1
-1
100
AcDbAttributeDefinition
280
     0
  3
*not used*
  2
CONED
 70
     1
280
     0
  0
ATTDEF
  5
39
330
2E
100
AcDbEntity
  8
ASHADE
  6
Continuous
 62
     7
100
AcDbText
 10
0.0
 20
0.19
 30
0.0
 40
0.01
  1
0
100
AcDbAttributeDefinition
280
     0
  3
Depth Map Size
  2
CONEA
 70
     1
280
     0
  0
ATTDEF
  5
3A
330
2E
100
AcDbEntity
  8
ASHADE
  6
Continuous
 62
     7
100
AcDbText
 10
0.0
 20
0.2050000000000001
 30
0.0
 40
0.01
  1
1,1,1
100
AcDbAttributeDefinition
280
     0
  3
Light Color (RGB)
  2
COLOR
 70
     1
280
     0
  0
ATTDEF
  5
3B
330
2E
100
AcDbEntity
  8
ASHADE
  6
Continuous
 62
     7
100
AcDbText
 10
0.0
 20
0.235
 30
0.0
 40
0.01
  1

100
AcDbAttributeDefinition
280
     0
  3
Look-at Z
  2
LAZ
 70
     1
280
     0
  0
LINE
  5
3C
330
2E
100
AcDbEntity
  8
ASHADE
  6
Continuous
 62
     7
100
AcDbLine
 10
0.0
 20
0.3
 30
0.0
 11
0.0
 21
0.5
 31
0.0
  0
LINE
  5
3D
330
2E
100
AcDbEntity
  8
ASHADE
  6
Continuous
 62
     7
100
AcDbLine
 10
0.11
 20
0.2791057147390572
 30
0.0
 11
0.11
 21
0.5
 31
0.0
  0
ATTDEF
  5
3E
330
2E
100
AcDbEntity
  8
ASHADE
  6
Continuous
 62
     7
100
AcDbText
 10
0.0
 20
0.265
 30
0.0
 40
0.01
  1

100
AcDbAttributeDefinition
280
     0
  3
Look-at X
  2
LAX
 70
     1
280
     0
  0
ATTDEF
  5
3F
330
2E
100
AcDbEntity
  8
ASHADE
  6
Continuous
 62
     7
100
AcDbText
 10
0.0
 20
0.28
 30
0.0
 40
0.01
  1

100
AcDbAttributeDefinition
280
     0
  3

  2
GNAME
 70
     1
280
     0
  0
ENDBLK
  5
41
330
2E
100
AcDbEntity
  8
0
100
AcDbBlockEnd
  0
BLOCK
  5
5D
330
42
100
AcDbEntity
  8
0
100
AcDbBlockBegin
  2
overhead
 70
     2
 10
0.0
 20
0.0
 30
0.0
  3
overhead
  1

  0
ATTDEF
  5
43
330
42
100
AcDbEntity
  8
ASHADE
  6
Continuous
 62
     1
100
AcDbText
 10
0.0
 20
-0.1
 30
0.0
 40
0.2
  1

  7
ASHADE
 72
     1
 11
0.0
 21
-0.1
 31
0.0
100
AcDbAttributeDefinition
280
     0
  3
Light Name
  2
SNAME
 70
     0
280
     0
  0
ARC
  5
44
330
42
100
AcDbEntity
  8
ASHADE
  6
Continuous
 62
     7
100
AcDbCircle
 10
0.0
 20
0.0
 30
0.0
 40
0.3
100
AcDbArc
 50
205.6792886194569
 51
334.3207113805431
  0
LINE
  5
45
330
42
100
AcDbEntity
  8
ASHADE
  6
Continuous
 62
     7
100
AcDbLine
 10
-0.2041413561583015
 20
-0.2198324514393848
 30
0.0
 11
-0.2721884748777353
 21
-0.2931099352525131
 31
0.0
  0
LINE
  5
46
330
42
100
AcDbEntity
  8
ASHADE
  6
Continuous
 62
     7
100
AcDbLine
 10
-0.1096591641591904
 20
-0.2792398032442862
 30
0.0
 11
-0.1279356915190555
 21
-0.3257797704516673
 31
0.0
  0
LINE
  5
47
330
42
100
AcDbEntity
  8
ASHADE
  6
Continuous
 62
     7
100
AcDbLine
 10
0.0
 20
-0.2999999999999999
 30
0.0
 11
0.0
 21
-0.4
 31
0.0
  0
LINE
  5
48
330
42
100
AcDbEntity
  8
ASHADE
  6
Continuous
 62
     7
100
AcDbLine
 10
0.1096591641591904
 20
-0.2792398032442862
 30
0.0
 11
0.1279356915190555
 21
-0.3257797704516673
 31
0.0
  0
LINE
  5
49
330
42
100
AcDbEntity
  8
ASHADE
  6
Continuous
 62
     7
100
AcDbLine
 10
0.2041413561583015
 20
-0.2198324514393848
 30
0.0
 11
0.2721884748777353
 21
-0.2931099352525131
 31
0.0
  0
ARC
  5
4A
330
42
100
AcDbEntity
  8
ASHADE
  6
Continuous
 62
     7
100
AcDbCircle
 10
0.0
 20
0.0
 30
0.0
 40
0.3
100
AcDbArc
 50
25.67928861945685
 51
154.3207113805431
  0
LINE
  5
4B
330
42
100
AcDbEntity
  8
ASHADE
  6
Continuous
 62
     7
100
AcDbLine
 10
-0.2703701166919155
 20
0.13
 30
0.0
 11
-0.3154318028072347
 21
0.1516666666666666
 31
0.0
  0
LINE
  5
4C
330
42
100
AcDbEntity
  8
ASHADE
  6
Continuous
 62
     7
100
AcDbLine
 10
-0.2703701166919155
 20
-0.13
 30
0.0
 11
-0.3154318028072347
 21
-0.1516666666666666
 31
0.0
  0
LINE
  5
4D
330
42
100
AcDbEntity
  8
ASHADE
  6
Continuous
 62
     7
100
AcDbLine
 10
-0.2041413561583015
 20
0.2198324514393849
 30
0.0
 11
-0.2721884748777353
 21
0.2931099352525131
 31
0.0
  0
LINE
  5
4E
330
42
100
AcDbEntity
  8
ASHADE
  6
Continuous
 62
     7
100
AcDbLine
 10
-0.1096591641591904
 20
0.2792398032442862
 30
0.0
 11
-0.1279356915190555
 21
0.3257797704516674
 31
0.0
  0
LINE
  5
4F
330
42
100
AcDbEntity
  8
ASHADE
  6
Continuous
 62
     7
100
AcDbLine
 10
0.2703701166919155
 20
-0.13
 30
0.0
 11
0.3154318028072347
 21
-0.1516666666666666
 31
0.0
  0
LINE
  5
50
330
42
100
AcDbEntity
  8
ASHADE
  6
Continuous
 62
     7
100
AcDbLine
 10
0.2703701166919155
 20
0.13
 30
0.0
 11
0.3154318028072347
 21
0.1516666666666666
 31
0.0
  0
LINE
  5
51
330
42
100
AcDbEntity
  8
ASHADE
  6
Continuous
 62
     7
100
AcDbLine
 10
0.0
 20
0.3
 30
0.0
 11
0.0
 21
0.4
 31
0.0
  0
ATTDEF
  5
52
330
42
100
AcDbEntity
  8
ASHADE
  6
Continuous
 62
     7
100
AcDbText
 10
0.0
 20
0.22
 30
0.0
 40
0.01
  1
1
100
AcDbAttributeDefinition
280
     0
  3
Light Intensity
  2
INTENSITY
 70
     1
280
     0
  0
ATTDEF
  5
53
330
42
100
AcDbEntity
  8
ASHADE
  6
Continuous
 62
     7
100
AcDbText
 10
0.0
 20
0.16
 30
0.0
 40
0.01
  1
-1
100
AcDbAttributeDefinition
280
     0
  3
*not used*
  2
BEAMD
 70
     1
280
     0
  0
ATTDEF
  5
54
330
42
100
AcDbEntity
  8
ASHADE
  6
Continuous
 62
     7
100
AcDbText
 10
0.0
 20
0.175
 30
0.0
 40
0.01
  1
-1
100
AcDbAttributeDefinition
280
     0
  3
*not used*
  2
CONED
 70
     1
280
     0
  0
ATTDEF
  5
55
330
42
100
AcDbEntity
  8
ASHADE
  6
Continuous
 62
     7
100
AcDbText
 10
0.0
 20
0.19
 30
0.0
 40
0.01
  1
0
100
AcDbAttributeDefinition
280
     0
  3
Depth Map Size
  2
CONEA
 70
     1
280
     0
  0
ATTDEF
  5
56
330
42
100
AcDbEntity
  8
ASHADE
  6
Continuous
 62
     7
100
AcDbText
 10
0.0
 20
0.2050000000000001
 30
0.0
 40
0.01
  1
1,1,1
100
AcDbAttributeDefinition
280
     0
  3
Light Color (RGB)
  2
COLOR
 70
     1
280
     0
  0
ATTDEF
  5
57
330
42
100
AcDbEntity
  8
ASHADE
  6
Continuous
 62
     7
100
AcDbText
 10
0.0
 20
0.235
 30
0.0
 40
0.01
  1

100
AcDbAttributeDefinition
280
     0
  3
Look-at Z
  2
LAZ
 70
     1
280
     0
  0
ATTDEF
  5
58
330
42
100
AcDbEntity
  8
ASHADE
  6
Continuous
 62
     7
100
AcDbText
 10
0.0
 20
0.25
 30
0.0
 40
0.01
  1

100
AcDbAttributeDefinition
280
     0
  3
Look-at Y
  2
LAY
 70
     1
280
     0
  0
ATTDEF
  5
59
330
42
100
AcDbEntity
  8
ASHADE
  6
Continuous
 62
     7
100
AcDbText
 10
0.0
 20
0.265
 30
0.0
 40
0.01
  1

100
AcDbAttributeDefinition
280
     0
  3
Look-at X
  2
LAX
 70
     1
280
     0
  0
ATTDEF
  5
5A
330
42
100
AcDbEntity
  8
ASHADE
  6
Continuous
 62
     7
100
AcDbText
 10
0.0
 20
0.28
 30
0.0
 40
0.01
  1

100
AcDbAttributeDefinition
280
     0
  3

  2
GNAME
 70
     1
280
     0
  0
LINE
  5
5B
330
42
100
AcDbEntity
  8
ASHADE
  6
Continuous
 62
     7
100
AcDbLine
 10
0.1096591641591904
 20
0.2792398032442862
 30
0.0
 11
0.1279356915190555
 21
0.3257797704516674
 31
0.0
  0
LINE
  5
5C
330
42
100
AcDbEntity
  8
ASHADE
  6
Continuous
 62
     7
100
AcDbLine
 10
0.2041413561583015
 20
0.2198324514393849
 30
0.0
 11
0.2721884748777353
 21
0.2931099352525131
 31
0.0
  0
ENDBLK
  5
5E
330
42
100
AcDbEntity
  8
0
100
AcDbBlockEnd
  0
BLOCK
  5
85
330
5F
100
AcDbEntity
  8
0
100
AcDbBlockBegin
  2
sh_spot
 70
     2
 10
0.0
 20
0.0
 30
0.0
  3
sh_spot
  1

  0
LINE
  5
60
330
5F
100
AcDbEntity
  8
ASHADE
  6
Continuous
 62
     7
100
AcDbLine
 10
0.25
 20
0.26
 30
0.0
 11
-0.25
 21
0.26
 31
0.0
  0
LINE
  5
61
330
5F
100
AcDbEntity
  8
ASHADE
  6
Continuous
 62
     7
100
AcDbLine
 10
-0.25
 20
-0.3399999999999999
 30
0.0
 11
0.25
 21
-0.3399999999999999
 31
0.0
  0
ATTDEF
  5
62
330
5F
100
AcDbEntity
  8
ASHADE
  6
Continuous
 62
     1
100
AcDbText
 10
0.0
 20
-0.1
 30
0.0
 40
0.2
  1

  7
ASHADE
 72
     1
 11
0.0
 21
-0.1
 31
0.0
100
AcDbAttributeDefinition
280
     0
  3
Light Name
  2
SNAME
 70
     0
280
     0
  0
LINE
  5
63
330
5F
100
AcDbEntity
  8
ASHADE
  6
Continuous
 62
     7
100
AcDbLine
 10
-0.25
 20
-0.13
 30
0.0
 11
-0.25
 21
-0.3399999999999999
 31
0.0
  0
LINE
  5
64
330
5F
100
AcDbEntity
  8
ASHADE
  6
Continuous
 62
     7
100
AcDbLine
 10
-0.25
 20
-0.18
 30
0.0
 11
-0.29
 21
-0.18
 31
0.0
  0
LINE
  5
65
330
5F
100
AcDbEntity
  8
ASHADE
  6
Continuous
 62
     7
100
AcDbLine
 10
-0.29
 20
-0.22
 30
0.0
 11
-0.25
 21
-0.22
 31
0.0
  0
LINE
  5
66
330
5F
100
AcDbEntity
  8
ASHADE
  6
Continuous
 62
     7
100
AcDbLine
 10
-0.29
 20
-0.18
 30
0.0
 11
-0.29
 21
-0.22
 31
0.0
  0
LINE
  5
67
330
5F
100
AcDbEntity
  8
ASHADE
  6
Continuous
 62
     7
100
AcDbLine
 10
-0.1045454545454545
 20
0.26
 30
0.0
 11
-0.15
 21
0.46
 31
0.0
  0
LINE
  5
68
330
5F
100
AcDbEntity
  8
ASHADE
  6
Continuous
 62
     7
100
AcDbLine
 10
-0.21
 20
0.26
 30
0.0
 11
-0.301304347826087
 21
0.46
 31
0.0
  0
LINE
  5
69
330
5F
100
AcDbEntity
  8
ASHADE
  6
Continuous
 62
     7
100
AcDbLine
 10
-0.25
 20
0.26
 30
0.0
 11
-0.25
 21
0.13
 31
0.0
  0
LINE
  5
6A
330
5F
100
AcDbEntity
  8
ASHADE
  6
Continuous
 62
     7
100
AcDbLine
 10
-0.25
 20
0.22
 30
0.0
 11
-0.29
 21
0.22
 31
0.0
  0
LINE
  5
6B
330
5F
100
AcDbEntity
  8
ASHADE
  6
Continuous
 62
     7
100
AcDbLine
 10
-0.29
 20
0.1799999999999999
 30
0.0
 11
-0.25
 21
0.1799999999999999
 31
0.0
  0
LINE
  5
6C
330
5F
100
AcDbEntity
  8
ASHADE
  6
Continuous
 62
     7
100
AcDbLine
 10
-0.29
 20
0.22
 30
0.0
 11
-0.29
 21
0.1799999999999999
 31
0.0
  0
ATTDEF
  5
6D
330
5F
100
AcDbEntity
  8
ASHADE
  6
Continuous
 62
     7
100
AcDbText
 10
0.0
 20
-0.24
 30
0.0
 40
0.01
  1
0
100
AcDbAttributeDefinition
280
     0
  3
Depth Map Size
  2
ZSIZE
 70
     1
280
     0
  0
ATTDEF
  5
6E
330
5F
100
AcDbEntity
  8
ASHADE
  6
Continuous
 62
     7
100
AcDbText
 10
0.0
 20
-0.3300000000000001
 30
0.0
 40
0.01
  1
0,0,0
100
AcDbAttributeDefinition
280
     0
  3
Look-from XYZ
  2
LFXYZ
 70
     1
280
     0
  0
ATTDEF
  5
6F
330
5F
100
AcDbEntity
  8
ASHADE
  6
Continuous
 62
     7
100
AcDbText
 10
0.0
 20
-0.315
 30
0.0
 40
0.01
  1
0.0
100
AcDbAttributeDefinition
280
     0
  3
Beam Distribution
  2
BEAMDI
 70
     1
280
     0
  0
ATTDEF
  5
70
330
5F
100
AcDbEntity
  8
ASHADE
  6
Continuous
 62
     7
100
AcDbText
 10
0.0
 20
-0.3
 30
0.0
 40
0.01
  1
0.0
100
AcDbAttributeDefinition
280
     0
  3
Cone Delta
  2
CONEDE
 70
     1
280
     0
  0
ATTDEF
  5
71
330
5F
100
AcDbEntity
  8
ASHADE
  6
Continuous
 62
     7
100
AcDbText
 10
0.0
 20
-0.2850000000000001
 30
0.0
 40
0.01
  1
10.0
100
AcDbAttributeDefinition
280
     0
  3
Cone Angle
  2
CONEAN
 70
     1
280
     0
  0
ATTDEF
  5
72
330
5F
100
AcDbEntity
  8
ASHADE
  6
Continuous
 62
     7
100
AcDbText
 10
0.0
 20
-0.27
 30
0.0
 40
0.01
  1
-1
100
AcDbAttributeDefinition
280
     0
  3
*not used*
  2
BIASMAX
 70
     1
280
     0
  0
ATTDEF
  5
73
330
5F
100
AcDbEntity
  8
ASHADE
  6
Continuous
 62
     7
100
AcDbText
 10
0.0
 20
-0.255
 30
0.0
 40
0.01
  1
-1
100
AcDbAttributeDefinition
280
     0
  3
*not used*
  2
BIASMIN
 70
     1
280
     0
  0
ATTDEF
  5
74
330
5F
100
AcDbEntity
  8
ASHADE
  6
Continuous
 62
     7
100
AcDbText
 10
0.0
 20
-0.225
 30
0.0
 40
0.01
  1
1,1,1
100
AcDbAttributeDefinition
280
     0
  3
Light Color (RGB)
  2
COLOR
 70
     1
280
     0
  0
ATTDEF
  5
75
330
5F
100
AcDbEntity
  8
ASHADE
  6
Continuous
 62
     7
100
AcDbText
 10
0.0
 20
-0.21
 30
0.0
 40
0.01
  1
1
100
AcDbAttributeDefinition
280
     0
  3
Light Intensity
  2
INTENSITY
 70
     1
280
     0
  0
ATTDEF
  5
76
330
5F
100
AcDbEntity
  8
ASHADE
  6
Continuous
 62
     7
100
AcDbText
 10
0.0
 20
-0.15
 30
0.0
 40
0.01
  1

100
AcDbAttributeDefinition
280
     0
  3

  2
GNAME
 70
     1
280
     0
  0
ATTDEF
  5
77
330
5F
100
AcDbEntity
  8
ASHADE
  6
Continuous
 62
     7
100
AcDbText
 10
0.0
 20
-0.195
 30
0.0
 40
0.01
  1

100
AcDbAttributeDefinition
280
     0
  3
Look-at Z
  2
LAZ
 70
     1
280
     0
  0
ATTDEF
  5
78
330
5F
100
AcDbEntity
  8
ASHADE
  6
Continuous
 62
     7
100
AcDbText
 10
0.0
 20
-0.18
 30
0.0
 40
0.01
  1

100
AcDbAttributeDefinition
280
     0
  3
Look-at Y
  2
LAY
 70
     1
280
     0
  0
ATTDEF
  5
79
330
5F
100
AcDbEntity
  8
ASHADE
  6
Continuous
 62
     7
100
AcDbText
 10
0.0
 20
-0.165
 30
0.0
 40
0.01
  1

100
AcDbAttributeDefinition
280
     0
  3
Look-at X
  2
LAX
 70
     1
280
     0
  0
LINE
  5
7A
330
5F
100
AcDbEntity
  8
ASHADE
  6
Continuous
 62
     7
100
AcDbLine
 10
0.25
 20
-0.3399999999999999
 30
0.0
 11
0.25
 21
-0.13
 31
0.0
  0
LINE
  5
7B
330
5F
100
AcDbEntity
  8
ASHADE
  6
Continuous
 62
     7
100
AcDbLine
 10
0.25
 20
-0.18
 30
0.0
 11
0.29
 21
-0.18
 31
0.0
  0
LINE
  5
7C
330
5F
100
AcDbEntity
  8
ASHADE
  6
Continuous
 62
     7
100
AcDbLine
 10
0.29
 20
-0.22
 30
0.0
 11
0.25
 21
-0.22
 31
0.0
  0
LINE
  5
7D
330
5F
100
AcDbEntity
  8
ASHADE
  6
Continuous
 62
     7
100
AcDbLine
 10
0.29
 20
-0.18
 30
0.0
 11
0.29
 21
-0.22
 31
0.0
  0
LINE
  5
7E
330
5F
100
AcDbEntity
  8
ASHADE
  6
Continuous
 62
     7
100
AcDbLine
 10
0.21
 20
0.26
 30
0.0
 11
0.301304347826087
 21
0.46
 31
0.0
  0
LINE
  5
7F
330
5F
100
AcDbEntity
  8
ASHADE
  6
Continuous
 62
     7
100
AcDbLine
 10
0.1045454545454545
 20
0.26
 30
0.0
 11
0.15
 21
0.46
 31
0.0
  0
LINE
  5
80
330
5F
100
AcDbEntity
  8
ASHADE
  6
Continuous
 62
     7
100
AcDbLine
 10
0.0
 20
0.26
 30
0.0
 11
0.0
 21
0.46
 31
0.0
  0
LINE
  5
81
330
5F
100
AcDbEntity
  8
ASHADE
  6
Continuous
 62
     7
100
AcDbLine
 10
0.25
 20
0.13
 30
0.0
 11
0.25
 21
0.26
 31
0.0
  0
LINE
  5
82
330
5F
100
AcDbEntity
  8
ASHADE
  6
Continuous
 62
     7
100
AcDbLine
 10
0.25
 20
0.22
 30
0.0
 11
0.29
 21
0.22
 31
0.0
  0
LINE
  5
83
330
5F
100
AcDbEntity
  8
ASHADE
  6
Continuous
 62
     7
100
AcDbLine
 10
0.29
 20
0.1799999999999999
 30
0.0
 11
0.25
 21
0.1799999999999999
 31
0.0
  0
LINE
  5
84
330
5F
100
AcDbEntity
  8
ASHADE
  6
Continuous
 62
     7
100
AcDbLine
 10
0.29
 20
0.22
 30
0.0
 11
0.29
 21
0.1799999999999999
 31
0.0
  0
ENDBLK
  5
86
330
5F
100
AcDbEntity
  8
0
100
AcDbBlockEnd
  0
BLOCK
  5
92
330
91
100
AcDbEntity
  8
ASHADE
100
AcDbBlockBegin
  2
AVE_RENDER
 70
     0
 10
0.0
 20
0.0
 30
0.0
  3
AVE_RENDER
  1
AVE_RENDER
  0
ENDBLK
  5
93
330
91
100
AcDbEntity
  8
0
100
AcDbBlockEnd
  0
BLOCK
  5
A0
330
9F
100
AcDbEntity
  8
ASHADE
100
AcDbBlockBegin
  2
AVE_GLOBAL
 70
     0
 10
0.0
 20
0.0
 30
0.0
  3
AVE_GLOBAL
  1
AVE_GLOBAL
  0
ENDBLK
  5
A1
330
9F
100
AcDbEntity
  8
0
100
AcDbBlockEnd
  0
ENDSEC
  0
SECTION
  2
ENTITIES
  0
INSERT
  5
94
330
1F
100
AcDbEntity
  8
ASHADE
 62
     1
100
AcDbBlockReference
  2
AVE_RENDER
 10
0.0
 20
0.0
 30
0.0
1001
AVE_RENDER
1002
{
1070
     7
1000
Pref
1070
    30
1070
    20
1070
     1
1070
     0
1000

1070
    10
1070
     1
1070
    10
1040
1.0
1070
     1
1040
0.3
1040
0.7
1040
0.0
1040
10.0
1010
-1.0
1020
-1.0
1030
-1.0
1040
0.3
1070
    49
1070
     0
1070
     0
1010
1.0
1020
1.0
1030
1.0
1040
45.0
1070
     1
1070
     0
1000
WCS
1040
0.0
1070
     0
1040
10.0
1002
}
  0
INSERT
  5
95
330
1F
100
AcDbEntity
  8
ASHADE
 62
     3
100
AcDbBlockReference
  2
AVE_RENDER
 10
0.0
 20
0.0
 30
0.0
1001
AVE_RENDER
1002
{
1070
     0
1000
Full Opt
1070
     0
1070
     1
1070
     1
1070
     1
1070
     0
1070
     0
1070
     0
1070
     1
1070
     1
1040
0.0001
1040
0.0001
1002
}
  0
INSERT
  5
96
330
1F
100
AcDbEntity
  8
ASHADE
 62
     4
100
AcDbBlockReference
  2
AVE_RENDER
 10
0.0
 20
0.0
 30
0.0
1001
AVE_RENDER
1002
{
1070
     0
1000
Quick Opt
1070
     0
1070
     1
1070
     1
1070
     1
1070
     0
1070
     0
1070
     1
1002
}
  0
INSERT
  5
97
330
1F
100
AcDbEntity
  8
ASHADE
 62
     5
100
AcDbBlockReference
  2
AVE_RENDER
 10
0.0
 20
0.0
 30
0.0
1001
AVE_RENDER
1002
{
1070
     1
1000
Scanl Opt
1070
     2
1070
     0
1070
     2
1040
2.0
1040
4.0
1070
     0
1070
     1
1070
     0
1040
0.03
1002
}
  0
INSERT
  5
98
330
1F
100
AcDbEntity
  8
ASHADE
 62
     6
100
AcDbBlockReference
  2
AVE_RENDER
 10
0.0
 20
0.0
 30
0.0
1001
AVE_RENDER
1002
{
1070
     2
1000
Raytr Opt
1070
     2
1070
     0
1070
     2
1040
2.0
1040
4.0
1070
     0
1070
     1
1070
     1
1040
0.03
1070
     3
1040
0.03
1002
}
  0
INSERT
  5
99
330
1F
100
AcDbEntity
  8
ASHADE
 62
     7
100
AcDbBlockReference
  2
AVE_RENDER
 10
0.0
 20
0.0
 30
0.0
1001
AVE_RENDER
1002
{
1070
     0
1000
RFile Opt
1070
     1
1070
   640
1070
   480
1070
 10000
1070
     1
1070
     8
1070
     8
1070
     0
1070
     0
1070
     0
1070
     0
1070
     0
1070
     0
1070
     0
1002
}
  0
INSERT
  5
9A
330
1F
100
AcDbEntity
  8
ASHADE
 62
     8
100
AcDbBlockReference
  2
AVE_RENDER
 10
0.0
 20
0.0
 30
0.0
1001
AVE_RENDER
1002
{
1070
     0
1000
Fog Opt
1070
     0
1070
     0
1040
0.0
1040
1.0
1040
0.0
1040
1.0
1010
0.5
1020
0.5
1030
0.5
1002
}
  0
INSERT
  5
9B
330
1F
100
AcDbEntity
  8
ASHADE
 62
     9
100
AcDbBlockReference
  2
AVE_RENDER
 10
0.0
 20
0.0
 30
0.0
1001
AVE_RENDER
1002
{
1070
     0
1000
BG Opt
1070
     0
1070
     1
1010
0.0
1020
0.0
1030
0.0
1010
1.0
1020
0.0
1030
0.0
1010
0.0
1020
1.0
1030
0.0
1010
0.0
1020
0.0
1030
1.0
1040
0.5
1040
0.33
1040
0.0
1000

1070
     1
1000

1070
     1
1070
     1
1040
1.0
1040
1.0
1040
0.0
1040
0.0
1070
     0
1002
}
  0
INSERT
  5
A2
330
1F
100
AcDbEntity
  8
ASHADE
 62
     1
100
AcDbBlockReference
  2
AVE_GLOBAL
 10
0.0
 20
0.0
 30
0.0
1001
AVE_MATERIAL
1002
{
1000
*GLOBAL*
1000
2
1000
Global finish.
1002
{
1002
}
1002
{
1070
    63
1002
{
1002
{
1010
-1.0
1020
-1.0
1030
-1.0
1002
}
1040
0.1000000014901161
1000

1040
0.0
1002
{
1002
}
1040
0.0
1002
{
1002
}
1040
0.0
1002
}
1002
{
1002
{
1010
-1.0
1020
-1.0
1030
-1.0
1002
}
1040
0.6999999880790711
1000

1040
0.0
1002
{
1002
}
1040
0.0
1002
{
1002
}
1040
0.0
1002
}
1002
{
1002
{
1010
-1.0
1020
-1.0
1030
-1.0
1002
}
1040
0.2000000029802322
1000

1040
0.0
1002
{
1002
}
1040
0.0
1002
{
1002
}
1040
0.0
1002
}
1002
{
1070
     0
1002
{
1070
     1
1002
{
1040
1.0
1040
1.0
1000

1040
0.0
1002
{
1002
}
1040
0.0
1002
{
1002
}
1040
0.0
1002
}
1002
}
1040
1.0
1040
0.0
1040
0.0
1002
}
1002
{
1040
1.0
1040
1.0
1000

1040
0.0
1002
{
1002
}
1040
0.0
1002
{
1002
}
1040
0.0
1002
}
1002
{
1040
0.5
1040
1.0
1000

1040
0.0
1002
{
1002
}
1040
0.0
1002
{
1002
}
1040
0.0
1002
}
1002
{
1070
     0
1040
0.0
1002
{
1002
}
1040
1.0
1002
{
1002
}
1040
0.0
1002
}
1002
{
1040
0.0
1002
{
1002
{
1010
0.0
1020
0.0
1030
0.0
1002
}
1040
1.0
1000

1040
0.0
1002
{
1002
}
1040
0.0
1002
{
1002
}
1040
0.0
1002
}
1002
}
1002
{
1002
{
1070
     1
1002
{
1040
0.0
1040
1.0
1000

1040
0.0
1002
{
1002
}
1040
0.0
1002
{
1002
}
1040
0.0
1002
}
1002
}
1040
0.0
1002
{
1002
}
1010
1.0
1020
0.0
1030
0.0
1010
0.0
1020
1.0
1030
0.0
1010
0.0
1020
0.0
1030
1.0
1070
     0
1002
}
1002
{
1002
{
1040
1.0
1040
1.0
1002
{
1070
     1
1002
{
1040
1.0
1040
1.0
1000

1040
0.0
1002
{
1002
}
1040
0.0
1002
{
1002
}
1040
0.0
1002
}
1002
}
1002
}
1070
     0
1040
0.0
1002
{
1002
}
1002
}
1002
{
1002
}
1002
}
1002
{
1071
        3
1070
     3
1070
     0
1002
{
1070
     2
1070
     0
1070
     0
1040
0.0
1002
}
1070
     0
1070
     2
1002
{
1002
}
1002
}
1002
{
1040
8030.0
1040
190.3000030517578
1040
0.3050000071525574
1040
228.0
1040
545.0
1040
14.0
1040
17.39999961853027
1040
0.4560000002384186
1002
}
1002
}
  0
MESH
  5
F9
330
1F
100
AcDbEntity
  8
OracDecor_panel_moldings
 62
   176
420
   526472
160
             25928
310
48650000D00200000C00000013000000020000003C00000006000000020000000000000000408FC0000000C0656612C000000060008041400000000000408FC0000000000000C83E00000060008041400C000000130000000A0000003C00000006000000020000000000000000408FC0000000C0656612C000000060008041
310
400000000000408F40000000C0656612C000000060008041400C00000013000000120000003C00000006000000020000000000000000408F40000000000000C83E00000060008041400000000000408F40000000C0656612C000000060008041400C000000130000001A0000003C0000000600000002000000000000000040
310
8F40000000000000C83E00000060008041400000000000408FC0000000000000C83E00000060008041400C00000013000000220000003C00000006000000020000000000000000408FC0000000C0656612C000000060008041400000000000408FC0000000C0D65213C0000000206C7A41400C000000130000002A0000003C
310
00000006000000020000000000000000408FC0000000C0D65213C0000000206C7A41400000000000408F40000000C0D65213C0000000206C7A41400C00000013000000320000003C00000006000000020000000000000000408F40000000C0D65213C0000000206C7A41400000000000408F40000000C0656612C000000060
310
008041400C000000130000003A0000003C00000006000000020000000000000000408FC0000000C0D65213C0000000206C7A41400000000000408FC00000004008F613C000000020AF6941400C00000013000000420000003C00000006000000020000000000000000408F400000002008F613C000000020AF694140000000
310
0000408FC00000004008F613C000000020AF6941400C000000130000004A0000003C00000006000000020000000000000000408F400000002008F613C000000020AF6941400000000000408F40000000C0D65213C0000000206C7A41400C00000013000000520000003C00000006000000020000000000000000408FC00000
310
00C0F94F14C000000060C94D41400000000000408FC00000004008F613C000000020AF6941400C000000130000005A0000003C00000006000000020000000000000000408FC0000000C0F94F14C000000060C94D41400000000000408F40000000A0F94F14C000000060C94D41400C00000013000000620000003C00000006
310
000000020000000000000000408F400000002008F613C000000020AF6941400000000000408F40000000A0F94F14C000000060C94D41400C000000130000006A0000003C00000006000000020000000000000000408FC0000000C0F94F14C000000060C94D41400000000000408FC000000080219114C0000000E0E0244140
310
0C00000013000000720000003C00000006000000020000000000000000408F4000000080219114C0000000E0E02441400000000000408FC000000080219114C0000000E0E02441400C000000130000007A0000003C00000006000000020000000000000000408F40000000A0F94F14C000000060C94D41400000000000408F
310
4000000080219114C0000000E0E02441400C00000013000000820000003C00000006000000020000000000000000408FC000000040605115C0000000E0E3EA40400000000000408FC000000080219114C0000000E0E02441400C000000130000008A0000003C00000006000000020000000000000000408FC0000000406051
310
15C0000000E0E3EA40400000000000408F4000000040605115C0000000E0E3EA40400C00000013000000920000003C00000006000000020000000000000000408F4000000080219114C0000000E0E02441400000000000408F4000000040605115C0000000E0E3EA40400C000000130000009A0000003C0000000600000002
310
0000000000000000408FC000000040605115C0000000E0E3EA40400000000000408FC000000000A75F16C00000006058B840400C00000013000000A20000003C00000006000000020000000000000000408FC000000000A75F16C00000006058B840400000000000408F4000000000A75F16C00000006058B840400C000000
310
13000000AA0000003C00000006000000020000000000000000408F4000000000A75F16C00000006058B840400000000000408F4000000040605115C0000000E0E3EA40400C00000013000000B20000003C00000006000000020000000000000000408FC000000000A75F16C00000006058B840400000000000408FC0000000
310
C0BEC217C000000060F58B40400C00000013000000BA0000003C00000006000000020000000000000000408F40000000C0BEC217C000000060F58B40400000000000408FC0000000C0BEC217C000000060F58B40400C00000013000000C20000003C00000006000000020000000000000000408F4000000000A75F16C00000
310
006058B840400000000000408F40000000C0BEC217C000000060F58B40400C00000013000000CA0000003C00000006000000020000000000000000408FC0000000C0BEC217C000000060F58B40400000000000408FC0000000801B5719C0000000602C6A40400C00000013000000D20000003C000000060000000200000000
310
00000000408F40000000801B5719C0000000602C6A40400000000000408FC0000000801B5719C0000000602C6A40400C00000013000000DA0000003C00000006000000020000000000000000408F40000000801B5719C0000000602C6A40400000000000408F40000000C0BEC217C000000060F58B40400C00000013000000
310
E20000003C00000006000000020000000000000000408FC00000008003271BC0000000A0245240400000000000408FC0000000801B5719C0000000602C6A40400C00000013000000EA0000003C00000006000000020000000000000000408FC00000008003271BC0000000A0245240400000000000408F400000008003271B
310
C0000000A0245240400C00000013000000F20000003C00000006000000020000000000000000408F40000000801B5719C0000000602C6A40400000000000408F400000008003271BC0000000A0245240400C00000013000000FA0000003C00000006000000020000000000000000408FC00000008003271BC0000000A02452
310
40400000000000408FC000000080FFFF1DC000000060004040400C00000013000000020100003C00000006000000020000000000000000408FC000000080FFFF1DC000000060004040400000000000408F4000000060FFFF1DC000000060004040400C000000130000000A0100003C00000006000000020000000000000000
310
408F4000000060FFFF1DC000000060004040400000000000408F400000008003271BC0000000A0245240400C00000013000000120100003C00000006000000020000000000000000408FC000000080FFFF1DC000000060004040400000000000408FC000000040333328C000000060004040400C000000130000001A010000
310
3C00000006000000020000000000000000408FC000000040333328C000000060004040400000000000408F4000000040333328C000000060004040400C00000013000000220100003C00000006000000020000000000000000408F4000000040333328C000000060004040400000000000408F4000000060FFFF1DC0000000
310
60004040400C000000130000002A0100003C00000006000000020000000000000000408FC000000040333328C000000060004040400000000000408FC0000000C06BA928C0000000E06B3A40400C00000013000000320100003C00000006000000020000000000000000408FC0000000C06BA928C0000000E06B3A40400000
310
000000408F40000000C06BA928C0000000E06B3A40400C000000130000003A0100003C00000006000000020000000000000000408F40000000C06BA928C0000000E06B3A40400000000000408F4000000040333328C000000060004040400C00000013000000420100003C00000006000000020000000000000000408FC000
310
0000C06BA928C0000000E06B3A40400000000000408FC00000008004FB28C000000020AF2940400C000000130000004A0100003C00000006000000020000000000000000408F400000008004FB28C000000000AF2940400000000000408FC00000008004FB28C000000020AF2940400C00000013000000520100003C000000
310
06000000020000000000000000408F400000008004FB28C000000000AF2940400000000000408F40000000C06BA928C0000000E06B3A40400C000000130000005A0100003C00000006000000020000000000000000408FC000000000FD2729C000000060C90D40400000000000408FC00000008004FB28C000000020AF2940
310
400C00000013000000620100003C00000006000000020000000000000000408F4000000000FD2729C000000060C90D40400000000000408FC000000000FD2729C000000060C90D40400C000000130000006A0100003C00000006000000020000000000000000408F4000000000FD2729C000000060C90D4040000000000040
310
8F400000008004FB28C000000000AF2940400C00000013000000720100003C00000006000000020000000000000000408FC000000000FD2729C000000060C90D40400000000000408FC000000000914829C0000000A0C1C93F400C000000130000007A0100003C00000006000000020000000000000000408F400000000091
310
4829C0000000A0C1C93F400000000000408FC000000000914829C0000000A0C1C93F400C00000013000000820100003C00000006000000020000000000000000408F4000000000914829C0000000A0C1C93F400000000000408F4000000000FD2729C000000060C90D40400C000000130000008A0100003C00000006000000
310
020000000000000000408FC000000040B0A829C0000000A0C7553F400000000000408FC000000000914829C0000000A0C1C93F400C00000013000000920100003C00000006000000020000000000000000408F4000000060B0A829C0000000A0C7553F400000000000408FC000000040B0A829C0000000A0C7553F400C0000
310
00130000009A0100003C00000006000000020000000000000000408F4000000060B0A829C0000000A0C7553F400000000000408F4000000000914829C0000000A0C1C93F400C00000013000000A20100003C00000006000000020000000000000000408FC000000040B0A829C0000000A0C7553F400000000000408FC00000
310
0080D32F2AC000000060B0F03E400C00000013000000AA0100003C00000006000000020000000000000000408F40000000A0D32F2AC000000060B0F03E400000000000408FC000000080D32F2AC000000060B0F03E400C00000013000000B20100003C00000006000000020000000000000000408F40000000A0D32F2AC000
310
000060B0F03E400000000000408F4000000060B0A829C0000000A0C7553F400C00000013000000BA0100003C00000006000000020000000000000000408FC0000000805FE12AC0000000A0EA973E400000000000408FC000000080D32F2AC000000060B0F03E400C00000013000000C20100003C0000000600000002000000
310
0000000000408FC0000000805FE12AC0000000A0EA973E400000000000408F40000000805FE12AC000000080EA973E400C00000013000000CA0100003C00000006000000020000000000000000408F40000000805FE12AC000000080EA973E400000000000408F40000000A0D32F2AC000000060B0F03E400C000000130000
310
00D20100003C00000006000000020000000000000000408FC0000000805FE12AC0000000A0EA973E400000000000408FC0000000008EAB2BC0000000E058543E400C00000013000000DA0100003C00000006000000020000000000000000408F40000000008EAB2BC0000000C058543E400000000000408FC0000000008EAB
310
2BC0000000E058543E400C00000013000000E20100003C00000006000000020000000000000000408F40000000008EAB2BC0000000C058543E400000000000408F40000000805FE12AC000000080EA973E400C00000013000000EA0100003C00000006000000020000000000000000408FC00000000082932CC00000002049
310
243E400000000000408FC0000000008EAB2BC0000000E058543E400C00000013000000F20100003C00000006000000020000000000000000408F400000000082932CC00000002049243E400000000000408FC00000000082932CC00000002049243E400C00000013000000FA0100003C000000060000000200000000000000
310
00408F400000000082932CC00000002049243E400000000000408F40000000008EAB2BC0000000C058543E400C00000013000000020200003C00000006000000020000000000000000408FC00000000082932CC00000002049243E400000000000408FC00000000024372DC000000020FF133E400C000000130000000A0200
310
003C00000006000000020000000000000000408F400000002024372DC000000020FF133E400000000000408FC00000000024372DC000000020FF133E400C00000013000000120200003C00000006000000020000000000000000408F400000002024372DC000000020FF133E400000000000408F400000000082932CC00000
310
002049243E400C000000130000001A0200003C00000006000000020000000000000000408FC00000000024372DC000000020FF133E400000000000408FC000000080BAA62DC0000000A082FD3D400C00000013000000220200003C00000006000000020000000000000000408F4000000080BAA62DC0000000A082FD3D4000
310
00000000408FC000000080BAA62DC0000000A082FD3D400C000000130000002A0200003C00000006000000020000000000000000408F4000000080BAA62DC0000000A082FD3D400000000000408F400000002024372DC000000020FF133E400C00000013000000320200003C00000006000000020000000000000000408FC0
310
00000040AEE92DC000000060B6D43D400000000000408FC000000080BAA62DC0000000A082FD3D400C000000130000003A0200003C00000006000000020000000000000000408FC000000040AEE92DC000000060B6D43D400000000000408F4000000040AEE92DC000000060B6D43D400C00000013000000420200003C0000
310
0006000000020000000000000000408F4000000040AEE92DC000000060B6D43D400000000000408F4000000080BAA62DC0000000A082FD3D400C000000130000004A0200003C00000006000000020000000000000000408FC000000040AEE92DC000000060B6D43D400000000000408FC000000080FFFF2DC0000000209A99
310
3D400C00000013000000520200003C00000006000000020000000000000000408F4000000080FFFF2DC0000000209A993D400000000000408FC000000080FFFF2DC0000000209A993D400C000000130000005A0200003C00000006000000020000000000000000408F4000000080FFFF2DC0000000209A993D400000000000
310
408F4000000040AEE92DC000000060B6D43D400C00000013000000620200003C00000006000000020000000000000000408FC000000080FFFF2DC0000000209A993D400000000000408FC000000080FFFF2DC000000020676638400C000000130000006A0200003C00000006000000020000000000000000408F4000000080
310
FFFF2DC000000020676638400000000000408FC000000080FFFF2DC000000020676638400C00000013000000720200003C00000006000000020000000000000000408F4000000080FFFF2DC000000020676638400000000000408F4000000080FFFF2DC0000000209A993D400C000000130000007A0200003C000000060000
310
00020000000000000000408FC0000000C07EEA2DC0000000A0CA2938400000000000408FC000000080FFFF2DC000000020676638400C00000013000000820200003C00000006000000020000000000000000408FC0000000C07EEA2DC0000000A0CA2938400000000000408F40000000C07EEA2DC0000000A0CA2938400C00
310
0000130000008A0200003C00000006000000020000000000000000408F40000000C07EEA2DC0000000A0CA2938400000000000408F4000000080FFFF2DC000000020676638400C00000013000000920200003C00000006000000020000000000000000408FC0000000C07EEA2DC0000000A0CA2938400000000000408FC000
310
000000FCA92DC0000000E07DFC37400C000000130000009A0200003C00000006000000020000000000000000408F4000000000FCA92DC0000000E07DFC37400000000000408FC000000000FCA92DC0000000E07DFC37400C00000013000000A20200003C00000006000000020000000000000000408F40000000C07EEA2DC0
310
000000A0CA2938400000000000408F4000000000FCA92DC0000000E07DFC37400C00000013000000AA0200003C00000006000000020000000000000000408FC0000000C0773E2DC0000000A080DE37400000000000408FC000000000FCA92DC0000000E07DFC37400C00000013000000B20200003C00000006000000020000
310
000000000000408F40000000C0773E2DC0000000A080DE37400000000000408FC0000000C0773E2DC0000000A080DE37400C00000013000000BA0200003C00000006000000020000000000000000408F4000000000FCA92DC0000000E07DFC37400000000000408F40000000C0773E2DC0000000A080DE37400C0000001300
310
0000C20200003C00000006000000020000000000000000408FC000000040378D2CC000000020D2BF37400000000000408FC0000000C0773E2DC0000000A080DE37400C00000013000000CA0200003C00000006000000020000000000000000408FC000000040378D2CC000000020D2BF37400000000000408F400000004037
310
8D2CC000000020D2BF37400C00000013000000D20200003C00000006000000020000000000000000408F40000000C0773E2DC0000000A080DE37400000000000408F4000000040378D2CC000000020D2BF37400C00000013000000DA0200003C00000006000000020000000000000000408FC000000040378D2CC000000020
310
D2BF37400000000000408FC000000040AB832AC0000000E0AE4637400C00000013000000E20200003C00000006000000020000000000000000408F4000000040AB832AC0000000E0AE4637400000000000408FC000000040AB832AC0000000E0AE4637400C00000013000000EA0200003C0000000600000002000000000000
310
0000408F4000000040378D2CC000000020D2BF37400000000000408F4000000040AB832AC0000000E0AE4637400C00000013000000F20200003C00000006000000020000000000000000408FC000000040AB832AC0000000E0AE4637400000000000408FC0000000E007D928C000000020ACB736400C00000013000000FA02
310
00003C00000006000000020000000000000000408F40000000E007D928C000000020ACB736400000000000408FC0000000E007D928C000000020ACB736400C00000013000000020300003C00000006000000020000000000000000408F4000000040AB832AC0000000E0AE4637400000000000408F40000000E007D928C000
310
000020ACB736400C000000130000000A0300003C00000006000000020000000000000000408FC0000000E007D928C000000020ACB736400000000000408FC0000000C0518427C000000040781536400C00000013000000120300003C00000006000000020000000000000000408F40000000C0518427C00000004078153640
310
0000000000408FC0000000C0518427C000000040781536400C000000130000001A0300003C00000006000000020000000000000000408F40000000E007D928C000000020ACB736400000000000408F40000000C0518427C000000040781536400C00000013000000220300003C00000006000000020000000000000000408F
310
C0000000C0518427C000000040781536400000000000408FC0000000E0BD7126C000000080315B35400C000000130000002A0300003C00000006000000020000000000000000408F4000000000BE7126C000000080315B35400000000000408FC0000000E0BD7126C000000080315B35400C00000013000000320300003C00
310
000006000000020000000000000000408F40000000C0518427C000000040781536400000000000408F4000000000BE7126C000000080315B35400C000000130000003A0300003C00000006000000020000000000000000408FC000000080669D25C0000000E0FE8934400000000000408FC0000000E0BD7126C00000008031
310
5B35400C00000013000000420300003C00000006000000020000000000000000408FC000000080669D25C0000000E0FE8934400000000000408F4000000080669D25C0000000E0FE8934400C000000130000004A0300003C00000006000000020000000000000000408F4000000080669D25C0000000E0FE89344000000000
310
00408F4000000000BE7126C000000080315B35400C00000013000000520300003C00000006000000020000000000000000408FC000000080669D25C0000000E0FE8934400000000000408FC0000000C0E00625C0000000802DA833400C000000130000005A0300003C00000006000000020000000000000000408FC0000000
310
C0E00625C0000000802DA833400000000000408F40000000C0E00625C0000000802DA833400C00000013000000620300003C00000006000000020000000000000000408F4000000080669D25C0000000E0FE8934400000000000408F40000000C0E00625C0000000802DA833400C000000130000006A0300003C0000000600
310
0000020000000000000000408FC0000000C0E00625C0000000802DA833400000000000408FC00000008052A324C00000002069BC32400C00000013000000720300003C00000006000000020000000000000000408F400000008052A324C00000002069BC32400000000000408FC00000008052A324C00000002069BC32400C
310
000000130000007A0300003C00000006000000020000000000000000408F40000000C0E00625C0000000802DA833400000000000408F400000008052A324C00000002069BC32400C00000013000000820300003C00000006000000020000000000000000408FC000000000906B24C0000000009ADB31400000000000408FC0
310
0000008052A324C00000002069BC32400C000000130000008A0300003C00000006000000020000000000000000408FC000000000906B24C0000000009ADB31400000000000408F4000000000906B24C0000000009ADB31400C00000013000000920300003C00000006000000020000000000000000408F4000000000906B24
310
C0000000009ADB31400000000000408F400000008052A324C00000002069BC32400C000000130000009A0300003C00000006000000020000000000000000408FC000000000906B24C0000000009ADB31400000000000408FC0000000400B4C24C000000060FCE830400C00000013000000A20300003C000000060000000200
310
00000000000000408FC0000000400B4C24C000000060FCE830400000000000408F40000000400B4C24C000000060FCE830400C00000013000000AA0300003C00000006000000020000000000000000408F4000000000906B24C0000000009ADB31400000000000408F40000000400B4C24C000000060FCE830400C00000013
310
000000B20300003C00000006000000020000000000000000408FC0000000400B4C24C000000060FCE830400000000000408FC000000000313C24C0000000003AF02F400C00000013000000BA0300003C00000006000000020000000000000000408F4000000000313C24C0000000003AF02F400000000000408FC000000000
310
313C24C0000000003AF02F400C00000013000000C20300003C00000006000000020000000000000000408F4000000000313C24C0000000003AF02F400000000000408F40000000400B4C24C000000060FCE830400C00000013000000CA0300003C00000006000000020000000000000000408FC000000000313C24C0000000
310
003AF02F400000000000408FC0000000A0D03424C00000004066FF2D400C00000013000000D20300003C00000006000000020000000000000000408F40000000C0D03424C00000004066FF2D400000000000408FC0000000A0D03424C00000004066FF2D400C00000013000000DA0300003C00000006000000020000000000
310
000000408F40000000C0D03424C00000004066FF2D400000000000408F4000000000313C24C0000000003AF02F400C00000013000000E20300003C00000006000000020000000000000000408FC0000000A0D03424C00000004066FF2D400000000000408FC000000060122824C00000008016092C400C00000013000000EA
310
0300003C00000006000000020000000000000000408F4000000080122824C00000008016092C400000000000408FC000000060122824C00000008016092C400C00000013000000F20300003C00000006000000020000000000000000408F40000000C0D03424C00000004066FF2D400000000000408F4000000080122824C0
310
0000008016092C400C00000013000000FA0300003C00000006000000020000000000000000408FC000000060380E24C000000000E1FC29400000000000408FC000000060122824C00000008016092C400C00000013000000020400003C00000006000000020000000000000000408FC000000060380E24C000000000E1FC29
310
400000000000408F4000000080380E24C000000000E1FC29400C000000130000000A0400003C00000006000000020000000000000000408F4000000080122824C00000008016092C400000000000408F4000000080380E24C000000000E1FC29400C00000013000000120400003C0000000600000002000000000000000040
310
8FC000000060380E24C000000000E1FC29400000000000408FC0000000A0F6DB23C000000000DC1028400C000000130000001A0400003C00000006000000020000000000000000408F40000000C0F6DB23C000000000DC1028400000000000408FC0000000A0F6DB23C000000000DC1028400C00000013000000220400003C
310
00000006000000020000000000000000408F4000000080380E24C000000000E1FC29400000000000408F40000000C0F6DB23C000000000DC1028400C000000130000002A0400003C00000006000000020000000000000000408FC000000000A78523C0000000E0492D26400000000000408FC0000000A0F6DB23C000000000
310
DC1028400C00000013000000320400003C00000006000000020000000000000000408FC000000000A78523C0000000E0492D26400000000000408F4000000020A78523C0000000C0492D26400C000000130000003A0400003C00000006000000020000000000000000408F40000000C0F6DB23C000000000DC102840000000
310
0000408F4000000020A78523C0000000C0492D26400C00000013000000420400003C00000006000000020000000000000000408FC000000000A78523C0000000E0492D26400000000000408FC0000000C0AA0523C000000000A96824400C000000130000004A0400003C00000006000000020000000000000000408FC00000
310
00C0AA0523C000000000A96824400000000000408F40000000E0AA0523C000000000A96824400C00000013000000520400003C00000006000000020000000000000000408F4000000020A78523C0000000C0492D26400000000000408F40000000E0AA0523C000000000A96824400C000000130000005A0400003C00000006
310
000000020000000000000000408FC0000000C0AA0523C000000000A96824400000000000408FC0000000E0C75722C00000008002CB22400C00000013000000620400003C00000006000000020000000000000000408FC0000000E0C75722C00000008002CB22400000000000408F4000000000C85722C00000008002CB2240
310
0C000000130000006A0400003C00000006000000020000000000000000408F40000000E0AA0523C000000000A96824400000000000408F4000000000C85722C00000008002CB22400C00000013000000720400003C00000006000000020000000000000000408FC0000000E0C75722C00000008002CB22400000000000408F
310
C0000000E0D57121C0000000C0C24621400C000000130000007A0400003C00000006000000020000000000000000408F40000000E0D57121C0000000C0C24621400000000000408FC0000000E0D57121C0000000C0C24621400C00000013000000820400003C00000006000000020000000000000000408F4000000000C857
310
22C00000008002CB22400000000000408F40000000E0D57121C0000000C0C24621400C000000130000008A0400003C00000006000000020000000000000000408FC0000000A0C74720C000000080D1BA1F400000000000408FC0000000E0D57121C0000000C0C24621400C00000013000000920400003C0000000600000002
310
0000000000000000408FC0000000A0C74720C000000080D1BA1F400000000000408F40000000C0C74720C000000080D1BA1F400C000000130000009A0400003C00000006000000020000000000000000408F40000000E0D57121C0000000C0C24621400000000000408F40000000C0C74720C000000080D1BA1F400C000000
310
13000000A20400003C00000006000000020000000000000000408FC0000000A0C74720C000000080D1BA1F400000000000408FC0000000A05D671DC0000000806AF21C400C00000013000000AA0400003C00000006000000020000000000000000408F40000000A05D671DC0000000806AF21C400000000000408FC0000000
310
A05D671DC0000000806AF21C400C00000013000000B20400003C00000006000000020000000000000000408F40000000C0C74720C000000080D1BA1F400000000000408F40000000A05D671DC0000000806AF21C400C00000013000000BA0400003C00000006000000020000000000000000408FC0000000A05D671DC00000
310
00806AF21C400000000000408FC000000000AA6F19C000000080CA6E1A400C00000013000000C20400003C00000006000000020000000000000000408F4000000000AA6F19C000000080CA6E1A400000000000408FC000000000AA6F19C000000080CA6E1A400C00000013000000CA0400003C000000060000000200000000
310
00000000408F40000000A05D671DC0000000806AF21C400000000000408F4000000000AA6F19C000000080CA6E1A400C00000013000000D20400003C00000006000000020000000000000000408FC000000000AA6F19C000000080CA6E1A400000000000408FC000000000DE7515C00000000052A718400C00000013000000
310
DA0400003C00000006000000020000000000000000408F4000000000DE7515C00000000052A718400000000000408FC000000000DE7515C00000000052A718400C00000013000000E20400003C00000006000000020000000000000000408F4000000000AA6F19C000000080CA6E1A400000000000408F4000000000DE7515
310
C00000000052A718400C00000013000000EA0400003C00000006000000020000000000000000408FC000000000DE7515C00000000052A718400000000000408FC00000004029A614C000000000DC1C18400C00000013000000F20400003C00000006000000020000000000000000408F400000004029A614C000000000DC1C
310
18400000000000408FC00000004029A614C000000000DC1C18400C00000013000000FA0400003C00000006000000020000000000000000408F400000004029A614C000000000DC1C18400000000000408F4000000000DE7515C00000000052A718400C00000013000000020500003C00000006000000020000000000000000
310
408FC000000080892914C0000000808E5C17400000000000408FC00000004029A614C000000000DC1C18400C000000130000000A0500003C00000006000000020000000000000000408F4000000080892914C0000000808E5C17400000000000408FC000000080892914C0000000808E5C17400C0000001300000012050000
310
3C00000006000000020000000000000000408F400000004029A614C000000000DC1C18400000000000408F4000000080892914C0000000808E5C17400C000000130000001A0500003C00000006000000020000000000000000408FC000000020FFFF13C000000000696616400000000000408FC000000080892914C0000000
310
808E5C17400C00000013000000220500003C00000006000000020000000000000000408FC000000020FFFF13C000000000696616400000000000408F4000000020FFFF13C000000000696616400C000000130000002A0500003C00000006000000020000000000000000408F4000000020FFFF13C000000000696616400000
310
000000408F4000000080892914C0000000808E5C17400C00000013000000320500003C00000006000000020000000000000000408FC000000020FFFF13C000000000696616400000000000408FC000000040FFFF13C0000000009C9915400C000000130000003A0500003C00000006000000020000000000000000408F4000
310
000040FFFF13C0000000009C9915400000000000408FC000000040FFFF13C0000000009C9915400C00000013000000420500003C00000006000000020000000000000000408F4000000020FFFF13C000000000696616400000000000408F4000000040FFFF13C0000000009C9915400C000000130000004A0500003C000000
310
06000000020000000000000000408FC0000000C0382D14C000000080F4B014400000000000408FC000000040FFFF13C0000000009C9915400C00000013000000520500003C00000006000000020000000000000000408FC0000000C0382D14C000000080F4B014400000000000408F40000000C0382D14C000000080F4B014
310
400C000000130000005A0500003C00000006000000020000000000000000408F40000000C0382D14C000000080F4B014400000000000408F4000000040FFFF13C0000000009C9915400C00000013000000620500003C00000006000000020000000000000000408FC000000040E5B414C00000000020191440000000000040
310
8FC0000000C0382D14C000000080F4B014400C000000130000006A0500003C00000006000000020000000000000000408FC000000040E5B414C000000000201914400000000000408F4000000040E5B414C000000000201914400C00000013000000720500003C00000006000000020000000000000000408F4000000040E5
310
B414C000000000201914400000000000408F40000000C0382D14C000000080F4B014400C000000130000007A0500003C00000006000000020000000000000000408FC000000080049715C0000000801ED213400000000000408FC000000040E5B414C000000000201914400C00000013000000820500003C00000006000000
310
020000000000000000408FC000000080049715C0000000801ED213400000000000408F4000000080049715C0000000801ED213400C000000130000008A0500003C00000006000000020000000000000000408F4000000080049715C0000000801ED213400000000000408F4000000040E5B414C000000000201914400C0000
310
0013000000920500003C00000006000000020000000000000000408FC000000080049715C0000000801ED213400000000000408FC0000000C0E07817C000000080033513400C000000130000009A0500003C00000006000000020000000000000000408F40000000C0E07817C000000080033513400000000000408FC00000
310
00C0E07817C000000080033513400C00000013000000A20500003C00000006000000020000000000000000408F40000000C0E07817C000000080033513400000000000408F4000000080049715C0000000801ED213400C00000013000000AA0500003C00000006000000020000000000000000408FC00000004026FD18C000
310
000080E94012400000000000408FC0000000C0E07817C000000080033513400C00000013000000B20500003C00000006000000020000000000000000408FC00000004026FD18C000000080E94012400000000000408F400000004026FD18C000000080E94012400C00000013000000BA0500003C0000000600000002000000
310
0000000000408F400000004026FD18C000000080E94012400000000000408F40000000C0E07817C000000080033513400C00000013000000C20500003C00000006000000020000000000000000408FC00000004026FD18C000000080E94012400000000000408FC00000004050411AC00000000096FC10400C000000130000
310
00CA0500003C00000006000000020000000000000000408FC00000004050411AC00000000096FC10400000000000408F400000004050411AC00000000096FC10400C00000013000000D20500003C00000006000000020000000000000000408F400000004050411AC00000000096FC10400000000000408F400000004026FD
310
18C000000080E94012400C00000013000000DA0500003C00000006000000020000000000000000408FC00000004050411AC00000000096FC10400000000000408FC0000000002B351BC000000000A2F00E400C00000013000000E20500003C00000006000000020000000000000000408FC0000000002B351BC000000000A2
310
F00E400000000000408F40000000002B351BC000000000A2F00E400C00000013000000EA0500003C00000006000000020000000000000000408F40000000002B351BC000000000A2F00E400000000000408F400000004050411AC00000000096FC10400C00000013000000F20500003C000000060000000200000000000000
310
00408FC0000000002B351BC000000000A2F00E400000000000408FC0000000C086CC1BC000000000228F0B400C00000013000000FA0500003C00000006000000020000000000000000408F40000000E086CC1BC000000000228F0B400000000000408FC0000000C086CC1BC000000000228F0B400C00000013000000020600
310
003C00000006000000020000000000000000408F40000000E086CC1BC000000000228F0B400000000000408F40000000002B351BC000000000A2F00E400C000000130000000A0600003C00000006000000020000000000000000408FC0000000C086CC1BC000000000228F0B400000000000408FC000000080D5FF1BC00000
310
0000060008400C00000013000000120600003C00000006000000020000000000000000408F40000000A0D5FF1BC000000000060008400000000000408FC000000080D5FF1BC000000000060008400C000000130000001A0600003C00000006000000020000000000000000408F40000000A0D5FF1BC0000000000600084000
310
00000000408F40000000E086CC1BC000000000228F0B400C00000013000000220600003C00000006000000020000000000000000408FC000000080D5FF1BC000000000060008400000000000408FC00000008086CC1BC000000000E97004400C000000130000002A0600003C00000006000000020000000000000000408F40
310
000000A086CC1BC000000000E97004400000000000408FC00000008086CC1BC000000000E97004400C00000013000000320600003C00000006000000020000000000000000408F40000000A086CC1BC000000000E97004400000000000408F40000000A0D5FF1BC000000000060008400C000000130000003A0600003C0000
310
0006000000020000000000000000408FC00000008086CC1BC000000000E97004400000000000408FC0000000C02A351BC000000000690F01400C00000013000000420600003C00000006000000020000000000000000408F40000000C02A351BC000000000690F01400000000000408FC0000000C02A351BC000000000690F
310
01400C000000130000004A0600003C00000006000000020000000000000000408F40000000A086CC1BC000000000E97004400000000000408F40000000C02A351BC000000000690F01400C00000013000000520600003C00000006000000020000000000000000408FC0000000C02A351BC000000000690F01400000000000
310
408FC0000000C04F411AC000000000BE0DFC3F0C000000130000005A0600003C00000006000000020000000000000000408F40000000E04F411AC000000000BE0DFC3F0000000000408FC0000000C04F411AC000000000BE0DFC3F0C00000013000000620600003C00000006000000020000000000000000408F40000000C0
310
2A351BC000000000690F01400000000000408F40000000E04F411AC000000000BE0DFC3F0C000000130000006A0600003C00000006000000020000000000000000408FC0000000C04F411AC000000000BE0DFC3F0000000000408FC00000000026FD18C00000000072FCF63F0C00000013000000720600003C000000060000
310
00020000000000000000408F400000000026FD18C00000000072FCF63F0000000000408FC00000000026FD18C00000000072FCF63F0C000000130000007A0600003C00000006000000020000000000000000408F40000000E04F411AC000000000BE0DFC3F0000000000408F400000000026FD18C00000000072FCF63F0C00
310
000013000000820600003C00000006000000020000000000000000408FC00000000026FD18C00000000072FCF63F0000000000408FC000000080E07817C000000000062CF33F0C000000130000008A0600003C00000006000000020000000000000000408F4000000080E07817C000000000062CF33F0000000000408FC000
310
000080E07817C000000000062CF33F0C00000013000000920600003C00000006000000020000000000000000408F400000000026FD18C00000000072FCF63F0000000000408F4000000080E07817C000000000062CF33F0C000000130000009A0600003C00000006000000020000000000000000408FC000000000049715C0
310
000000009EB7F03F0000000000408FC000000080E07817C000000000062CF33F0C00000013000000A20600003C00000006000000020000000000000000408FC000000000049715C0000000009EB7F03F0000000000408F4000000020049715C0000000009EB7F03F0C00000013000000AA0600003C00000006000000020000
310
000000000000408F4000000080E07817C000000000062CF33F0000000000408F4000000020049715C0000000009EB7F03F0C00000013000000B20600003C00000006000000020000000000000000408FC000000000049715C0000000009EB7F03F0000000000408FC0000000C0E4B414C0000000002C37EF3F0C0000001300
310
0000BA0600003C00000006000000020000000000000000408FC0000000C0E4B414C0000000002C37EF3F0000000000408F40000000C0E4B414C0000000002C37EF3F0C00000013000000C20600003C00000006000000020000000000000000408F4000000020049715C0000000009EB7F03F0000000000408F40000000C0E4
310
B414C0000000002C37EF3F0C00000013000000CA0600003C00000006000000020000000000000000408FC0000000C0E4B414C0000000002C37EF3F0000000000408FC000000040382D14C0000000008478EA3F0C00000013000000D20600003C00000006000000020000000000000000408F4000000060382D14C000000000
310
8478EA3F0000000000408FC000000040382D14C0000000008478EA3F0C00000013000000DA0600003C00000006000000020000000000000000408F40000000C0E4B414C0000000002C37EF3F0000000000408F4000000060382D14C0000000008478EA3F0C00000013000000E20600003C0000000600000002000000000000
310
0000408FC0000000C0FEFF13C0000000004833E33F0000000000408FC000000040382D14C0000000008478EA3F0C00000013000000EA0600003C00000006000000020000000000000000408FC0000000C0FEFF13C0000000004833E33F0000000000408F40000000E0FEFF13C0000000004833E33F0C00000013000000F206
310
00003C00000006000000020000000000000000408F4000000060382D14C0000000008478EA3F0000000000408F40000000E0FEFF13C0000000004833E33F0C00000013000000FA0600003C00000006000000020000000000000000408FC0000000C0FEFF13C0000000004833E33F0000000000408FC0000000C0FEFF13C000
310
000000C099D93F0C00000013000000020700003C00000006000000020000000000000000408F40000000E0FEFF13C000000000C899D93F0000000000408FC0000000C0FEFF13C000000000C099D93F0C000000130000000A0700003C00000006000000020000000000000000408F40000000E0FEFF13C000000000C899D93F
310
0000000000408F40000000E0FEFF13C0000000004833E33F0C00000013000000120700003C00000006000000020000000000000000408FC0000000007CD213C000000000C0C1C63F0000000000408FC0000000C0FEFF13C000000000C099D93F0C000000130000001A0700003C00000006000000020000000000000000408F
310
C0000000007CD213C000000000C0C1C63F0000000000408F40000000007CD213C000000000D0C1C63F0C00000013000000220700003C00000006000000020000000000000000408F40000000007CD213C000000000D0C1C63F0000000000408F40000000E0FEFF13C000000000C899D93F0C000000130000002A0700003C00
310
000006000000020000000000000000408FC000000080F34913C000000000C0C2A63F0000000000408FC0000000007CD213C000000000C0C1C63F0C00000013000000320700003C00000006000000020000000000000000408FC000000080F34913C000000000C0C2A63F0000000000408F4000000080F34913C000000000C0
310
C2A63F0C000000130000003A0700003C00000006000000020000000000000000408F4000000080F34913C000000000C0C2A63F0000000000408F40000000007CD213C000000000D0C1C63F0C00000013000000420700003C00000006000000020000000000000000408FC000000040656612C0000000000000E43E00000000
310
00408FC000000080F34913C000000000C0C2A63F0C000000130000004A0700003C00000006000000020000000000000000408FC000000040656612C0000000000000E43E0000000000408F4000000040656612C0000000000000E43E0C00000013000000520700003C00000006000000020000000000000000408F40000000
310
40656612C0000000000000E43E0000000000408F4000000080F34913C000000000C0C2A63F0C000000130000005A0700003C00000006000000020000000000000000408FC000000040656612C0000000000000E43E0000000000408FC0000000000000D03E000000000000E83E0C00000013000000620700003C0000000600
310
0000020000000000000000408FC0000000000000D03E000000000000E83E0000000000408F40000000000000D03E000000000000E83E0C000000130000006A0700003C00000006000000020000000000000000408F40000000000000D03E000000000000E83E0000000000408F4000000040656612C0000000000000E43E0C
310
00000013000000720700003C00000006000000020000000000000000408FC0000000000000D03E000000000000E83E0000000000408FC0000000000000C83E00000060008041400C000000130000007A0700003C00000006000000020000000000000000408F40000000000000C83E00000060008041400000000000408F40
310
000000000000D03E000000000000E83E0C00000013000000820700003C00000006000000020000000000000000408F40000000C07EEA2DC0000000A0CA2938400000000000408F4000000040AEE92DC000000060B6D43D400C000000130000008A0700003C00000006000000020000000000000000408F4000000000FCA92D
310
C0000000E07DFC37400000000000408F4000000080BAA62DC0000000A082FD3D400C00000013000000920700003C00000006000000020000000000000000408F40000000C0773E2DC0000000A080DE37400000000000408F400000002024372DC000000020FF133E400C000000130000009A0700003C000000060000000200
310
00000000000000408F4000000040378D2CC000000020D2BF37400000000000408F400000000082932CC00000002049243E400C00000013000000A20700003C00000006000000020000000000000000408F4000000040AB832AC0000000E0AE4637400000000000408F40000000008EAB2BC0000000C058543E400C00000013
310
000000AA0700003C00000006000000020000000000000000408F40000000000000C83E00000060008041400000000000408F40000000C0D65213C0000000206C7A41400C00000013000000B20700003C00000006000000020000000000000000408F40000000000000C83E00000060008041400000000000408F4000000020
310
08F613C000000020AF6941400C00000013000000BA0700003C00000006000000020000000000000000408F40000000000000C83E00000060008041400000000000408F40000000A0F94F14C000000060C94D41400C00000013000000C20700003C00000006000000020000000000000000408F40000000000000C83E000000
310
60008041400000000000408F4000000080219114C0000000E0E02441400C00000013000000CA0700003C00000006000000020000000000000000408F40000000000000C83E00000060008041400000000000408F4000000040605115C0000000E0E3EA40400C00000013000000D20700003C00000006000000020000000000
310
000000408F40000000000000C83E00000060008041400000000000408F4000000000A75F16C00000006058B840400C00000013000000DA0700003C00000006000000020000000000000000408F40000000A086CC1BC000000000E97004400000000000408F40000000E086CC1BC000000000228F0B400C00000013000000E2
310
0700003C00000006000000020000000000000000408F40000000C02A351BC000000000690F01400000000000408F40000000002B351BC000000000A2F00E400C00000013000000EA0700003C00000006000000020000000000000000408F40000000E04F411AC000000000BE0DFC3F0000000000408F400000004050411AC0
310
0000000096FC10400C00000013000000F20700003C00000006000000020000000000000000408F400000000026FD18C00000000072FCF63F0000000000408F400000004026FD18C000000080E94012400C00000013000000FA0700003C00000006000000020000000000000000408F4000000080E07817C000000000062CF3
310
3F0000000000408F40000000C0E07817C000000080033513400C00000013000000020800003C00000006000000020000000000000000408F4000000020049715C0000000009EB7F03F0000000000408F4000000080049715C0000000801ED213400C000000130000000A0800003C0000000600000002000000000000000040
310
8F40000000C0E4B414C0000000002C37EF3F0000000000408F4000000040E5B414C000000000201914400C00000013000000120800003C00000006000000020000000000000000408F4000000060382D14C0000000008478EA3F0000000000408F40000000C0382D14C000000080F4B014400C000000130000001A0800003C
310
00000006000000020000000000000000408F40000000E007D928C000000020ACB736400000000000408F40000000805FE12AC000000080EA973E400C00000013000000220800003C00000006000000020000000000000000408F40000000E007D928C000000020ACB736400000000000408F40000000A0D32F2AC000000060
310
B0F03E400C000000130000002A0800003C00000006000000020000000000000000408F40000000C0518427C000000040781536400000000000408F4000000000914829C0000000A0C1C93F400C00000013000000320800003C00000006000000020000000000000000408F40000000E007D928C000000020ACB73640000000
310
0000408F4000000060B0A829C0000000A0C7553F400C000000130000003A0800003C00000006000000020000000000000000408F40000000000000C83E00000060008041400000000000408F40000000C0BEC217C000000060F58B40400C00000013000000420800003C00000006000000020000000000000000408F400000
310
0080669D25C0000000E0FE8934400000000000408F40000000801B5719C0000000602C6A40400C000000130000004A0800003C00000006000000020000000000000000408F40000000000000C83E00000060008041400000000000408F4000000080669D25C0000000E0FE8934400C00000013000000520800003C00000006
310
000000020000000000000000408F40000000000000C83E00000060008041400000000000408F40000000C0E00625C0000000802DA833400C000000130000005A0800003C00000006000000020000000000000000408F40000000000000C83E00000060008041400000000000408F400000008052A324C00000002069BC3240
310
0C00000013000000620800003C00000006000000020000000000000000408F40000000000000C83E00000060008041400000000000408F4000000000906B24C0000000009ADB31400C000000130000006A0800003C00000006000000020000000000000000408F40000000000000C83E00000060008041400000000000408F
310
4000000000313C24C0000000003AF02F400C00000013000000720800003C00000006000000020000000000000000408F40000000000000C83E00000060008041400000000000408F40000000C0D03424C00000004066FF2D400C000000130000007A0800003C00000006000000020000000000000000408F40000000000000
310
C83E00000060008041400000000000408F40000000400B4C24C000000060FCE830400C00000013000000820800003C00000006000000020000000000000000408F40000000000000C83E00000060008041400000000000408F4000000080122824C00000008016092C400C000000130000008A0800003C0000000600000002
310
0000000000000000408F40000000000000C83E00000060008041400000000000408F4000000080380E24C000000000E1FC29400C00000013000000920800003C00000006000000020000000000000000408F40000000000000C83E00000060008041400000000000408F40000000C0F6DB23C000000000DC1028400C000000
310
130000009A0800003C00000006000000020000000000000000408F40000000000000C83E00000060008041400000000000408F4000000020A78523C0000000C0492D26400C00000013000000A20800003C00000006000000020000000000000000408F40000000000000C83E00000060008041400000000000408F40000000
310
E0AA0523C000000000A96824400C00000013000000AA0800003C00000006000000020000000000000000408F40000000000000C83E00000060008041400000000000408F4000000000C85722C00000008002CB22400C00000013000000B20800003C00000006000000020000000000000000408F40000000000000C83E0000
310
0060008041400000000000408F40000000E0D57121C0000000C0C24621400C00000013000000BA0800003C00000006000000020000000000000000408F40000000000000C83E00000060008041400000000000408F40000000C0C74720C000000080D1BA1F400C00000013000000C20800003C000000060000000200000000
310
00000000408F40000000000000C83E00000060008041400000000000408F40000000A05D671DC0000000806AF21C400C00000013000000CA0800003C00000006000000020000000000000000408F40000000000000C83E00000060008041400000000000408F4000000000AA6F19C000000080CA6E1A400C00000013000000
310
D20800003C00000006000000020000000000000000408F40000000000000C83E00000060008041400000000000408F4000000000DE7515C00000000052A718400C00000013000000DA0800003C00000006000000020000000000000000408F40000000000000C83E00000060008041400000000000408F400000004029A614
310
C000000000DC1C18400C00000013000000E20800003C00000006000000020000000000000000408F40000000000000C83E00000060008041400000000000408F4000000080892914C0000000808E5C17400C00000013000000EA0800003C00000006000000020000000000000000408F40000000000000C83E000000600080
310
41400000000000408F4000000020FFFF13C000000000696616400C00000013000000F20800003C00000006000000020000000000000000408F40000000000000C83E00000060008041400000000000408F4000000040FFFF13C0000000009C9915400C00000013000000FA0800003C00000006000000020000000000000000
310
408F40000000000000D03E000000000000E83E0000000000408F4000000040FFFF13C0000000009C9915400C00000013000000020900003C00000006000000020000000000000000408F40000000C0382D14C000000080F4B014400000000000408F40000000000000D03E000000000000E83E0C000000130000000A090000
310
3C00000006000000020000000000000000408F4000000060382D14C0000000008478EA3F0000000000408F40000000000000D03E000000000000E83E0C00000013000000120900003C00000006000000020000000000000000408F40000000000000D03E000000000000E83E0000000000408F4000000080F34913C0000000
310
00C0C2A63F0C000000130000001A0900003C00000006000000020000000000000000408F40000000000000D03E000000000000E83E0000000000408F40000000007CD213C000000000D0C1C63F0C00000013000000220900003C00000006000000020000000000000000408F40000000000000D03E000000000000E83E0000
310
000000408F40000000E0FEFF13C000000000C899D93F0C000000130000002A0900003C00000006000000020000000000000000408F40000000000000D03E000000000000E83E0000000000408F40000000E0FEFF13C0000000004833E33F0C00000013000000320900003C00000006000000020000000000000000408F4000
310
0000C0518427C000000040781536400000000000408F4000000000FD2729C000000060C90D40400C000000130000003A0900003C00000006000000020000000000000000408F40000000C0518427C000000040781536400000000000408F400000008004FB28C000000000AF2940400C00000013000000420900003C000000
310
06000000020000000000000000408F40000000C0518427C000000040781536400000000000408F40000000C06BA928C0000000E06B3A40400C000000130000004A0900003C00000006000000020000000000000000408F40000000C0518427C000000040781536400000000000408F4000000040333328C000000060004040
310
400C00000013000000520900003C00000006000000020000000000000000408F4000000000BE7126C000000080315B35400000000000408F4000000060FFFF1DC000000060004040400C000000130000005A0900003C00000006000000020000000000000000408F4000000000BE7126C000000080315B3540000000000040
310
8F400000008003271BC0000000A0245240400C00000013000000620900003C00000006000000020000000000000000408FC000000040AEE92DC000000060B6D43D400000000000408FC0000000C07EEA2DC0000000A0CA2938400C000000130000006A0900003C00000006000000020000000000000000408FC000000080BA
310
A62DC0000000A082FD3D400000000000408FC000000000FCA92DC0000000E07DFC37400C00000013000000720900003C00000006000000020000000000000000408FC0000000C0773E2DC0000000A080DE37400000000000408FC00000000024372DC000000020FF133E400C000000130000007A0900003C00000006000000
310
020000000000000000408FC000000040378D2CC000000020D2BF37400000000000408FC00000000082932CC00000002049243E400C00000013000000820900003C00000006000000020000000000000000408FC000000040AB832AC0000000E0AE4637400000000000408FC0000000008EAB2BC0000000E058543E400C0000
310
00130000008A0900003C00000006000000020000000000000000408FC0000000000000C83E00000060008041400000000000408FC00000004008F613C000000020AF6941400C00000013000000920900003C00000006000000020000000000000000408FC0000000C0D65213C0000000206C7A41400000000000408FC00000
310
00000000C83E00000060008041400C000000130000009A0900003C00000006000000020000000000000000408FC0000000C0F94F14C000000060C94D41400000000000408FC0000000000000C83E00000060008041400C00000013000000A20900003C00000006000000020000000000000000408FC0000000000000C83E00
310
000060008041400000000000408FC000000080219114C0000000E0E02441400C00000013000000AA0900003C00000006000000020000000000000000408FC000000000A75F16C00000006058B840400000000000408FC0000000000000C83E00000060008041400C00000013000000B20900003C0000000600000002000000
310
0000000000408FC000000040605115C0000000E0E3EA40400000000000408FC0000000000000C83E00000060008041400C00000013000000BA0900003C00000006000000020000000000000000408FC0000000C086CC1BC000000000228F0B400000000000408FC00000008086CC1BC000000000E97004400C000000130000
310
00C20900003C00000006000000020000000000000000408FC0000000002B351BC000000000A2F00E400000000000408FC0000000C02A351BC000000000690F01400C00000013000000CA0900003C00000006000000020000000000000000408FC00000004050411AC00000000096FC10400000000000408FC0000000C04F41
310
1AC000000000BE0DFC3F0C00000013000000D20900003C00000006000000020000000000000000408FC00000004026FD18C000000080E94012400000000000408FC00000000026FD18C00000000072FCF63F0C00000013000000DA0900003C00000006000000020000000000000000408FC0000000C0E07817C00000008003
310
3513400000000000408FC000000080E07817C000000000062CF33F0C00000013000000E20900003C00000006000000020000000000000000408FC000000080049715C0000000801ED213400000000000408FC000000000049715C0000000009EB7F03F0C00000013000000EA0900003C000000060000000200000000000000
310
00408FC000000040E5B414C000000000201914400000000000408FC0000000C0E4B414C0000000002C37EF3F0C00000013000000F20900003C00000006000000020000000000000000408FC0000000C0382D14C000000080F4B014400000000000408FC000000040382D14C0000000008478EA3F0C00000013000000FA0900
310
003C00000006000000020000000000000000408FC0000000805FE12AC0000000A0EA973E400000000000408FC0000000E007D928C000000020ACB736400C00000013000000020A00003C00000006000000020000000000000000408FC0000000E007D928C000000020ACB736400000000000408FC000000080D32F2AC00000
310
0060B0F03E400C000000130000000A0A00003C00000006000000020000000000000000408FC000000040B0A829C0000000A0C7553F400000000000408FC0000000E007D928C000000020ACB736400C00000013000000120A00003C00000006000000020000000000000000408FC0000000C0518427C0000000407815364000
310
00000000408FC000000000914829C0000000A0C1C93F400C000000130000001A0A00003C00000006000000020000000000000000408FC000000080669D25C0000000E0FE8934400000000000408FC0000000000000C83E00000060008041400C00000013000000220A00003C00000006000000020000000000000000408FC0
310
00000080669D25C0000000E0FE8934400000000000408FC0000000801B5719C0000000602C6A40400C000000130000002A0A00003C00000006000000020000000000000000408FC0000000000000C83E00000060008041400000000000408FC0000000C0BEC217C000000060F58B40400C00000013000000320A00003C0000
310
0006000000020000000000000000408FC0000000C0E00625C0000000802DA833400000000000408FC0000000000000C83E00000060008041400C000000130000003A0A00003C00000006000000020000000000000000408FC000000000906B24C0000000009ADB31400000000000408FC0000000000000C83E000000600080
310
41400C00000013000000420A00003C00000006000000020000000000000000408FC0000000000000C83E00000060008041400000000000408FC00000008052A324C00000002069BC32400C000000130000004A0A00003C00000006000000020000000000000000408FC0000000000000C83E00000060008041400000000000
310
408FC0000000A0D03424C00000004066FF2D400C00000013000000520A00003C00000006000000020000000000000000408FC0000000000000C83E00000060008041400000000000408FC000000000313C24C0000000003AF02F400C000000130000005A0A00003C00000006000000020000000000000000408FC000000040
310
0B4C24C000000060FCE830400000000000408FC0000000000000C83E00000060008041400C00000013000000620A00003C00000006000000020000000000000000408FC0000000000000C83E00000060008041400000000000408FC000000060122824C00000008016092C400C000000130000006A0A00003C000000060000
310
00020000000000000000408FC000000060380E24C000000000E1FC29400000000000408FC0000000000000C83E00000060008041400C00000013000000720A00003C00000006000000020000000000000000408FC0000000000000C83E00000060008041400000000000408FC0000000A0F6DB23C000000000DC1028400C00
310
0000130000007A0A00003C00000006000000020000000000000000408FC000000000A78523C0000000E0492D26400000000000408FC0000000000000C83E00000060008041400C00000013000000820A00003C00000006000000020000000000000000408FC0000000C0AA0523C000000000A96824400000000000408FC000
310
0000000000C83E00000060008041400C000000130000008A0A00003C00000006000000020000000000000000408FC0000000E0C75722C00000008002CB22400000000000408FC0000000000000C83E00000060008041400C00000013000000920A00003C00000006000000020000000000000000408FC0000000000000C83E
310
00000060008041400000000000408FC0000000E0D57121C0000000C0C24621400C000000130000009A0A00003C00000006000000020000000000000000408FC0000000A0C74720C000000080D1BA1F400000000000408FC0000000000000C83E00000060008041400C00000013000000A20A00003C00000006000000020000
310
000000000000408FC0000000000000C83E00000060008041400000000000408FC0000000A05D671DC0000000806AF21C400C00000013000000AA0A00003C00000006000000020000000000000000408FC0000000000000C83E00000060008041400000000000408FC000000000AA6F19C000000080CA6E1A400C0000001300
310
0000B20A00003C00000006000000020000000000000000408FC0000000000000C83E00000060008041400000000000408FC00000004029A614C000000000DC1C18400C00000013000000BA0A00003C00000006000000020000000000000000408FC0000000000000C83E00000060008041400000000000408FC000000000DE
310
7515C00000000052A718400C00000013000000C20A00003C00000006000000020000000000000000408FC000000020FFFF13C000000000696616400000000000408FC0000000000000C83E00000060008041400C00000013000000CA0A00003C00000006000000020000000000000000408FC0000000000000C83E00000060
310
008041400000000000408FC000000080892914C0000000808E5C17400C00000013000000D20A00003C00000006000000020000000000000000408FC0000000000000D03E000000000000E83E0000000000408FC000000040FFFF13C0000000009C9915400C00000013000000DA0A00003C0000000600000002000000000000
310
0000408FC0000000000000C83E00000060008041400000000000408FC000000040FFFF13C0000000009C9915400C00000013000000E20A00003C00000006000000020000000000000000408FC0000000000000D03E000000000000E83E0000000000408FC000000040382D14C0000000008478EA3F0C00000013000000EA0A
310
00003C00000006000000020000000000000000408FC0000000000000D03E000000000000E83E0000000000408FC0000000C0382D14C000000080F4B014400C00000013000000F20A00003C00000006000000020000000000000000408FC0000000000000D03E000000000000E83E0000000000408FC000000080F34913C000
310
000000C0C2A63F0C00000013000000FA0A00003C00000006000000020000000000000000408FC0000000000000D03E000000000000E83E0000000000408FC0000000007CD213C000000000C0C1C63F0C00000013000000020B00003C00000006000000020000000000000000408FC0000000000000D03E000000000000E83E
310
0000000000408FC0000000C0FEFF13C000000000C099D93F0C000000130000000A0B00003C00000006000000020000000000000000408FC0000000C0FEFF13C0000000004833E33F0000000000408FC0000000000000D03E000000000000E83E0C00000013000000120B00003C00000006000000020000000000000000408F
310
C000000000FD2729C000000060C90D40400000000000408FC0000000C0518427C000000040781536400C000000130000001A0B00003C00000006000000020000000000000000408FC0000000C0518427C000000040781536400000000000408FC00000008004FB28C000000020AF2940400C00000013000000220B00003C00
310
000006000000020000000000000000408FC0000000C06BA928C0000000E06B3A40400000000000408FC0000000C0518427C000000040781536400C000000130000002A0B00003C00000006000000020000000000000000408FC000000040333328C000000060004040400000000000408FC0000000C0518427C00000004078
310
1536400C00000013000000320B00003C00000006000000020000000000000000408FC000000080FFFF1DC000000060004040400000000000408FC0000000E0BD7126C000000080315B35400C000000130000003A0B00003C00000006000000020000000000000000408FC00000008003271BC0000000A02452404000000000
310
00408FC0000000E0BD7126C000000080315B3540
100
AcDbSubDMesh
 71
     2
 72
     0
 91
        0
 92
      160
 10
-1000.0
 20
-5.078101158142089
 30
34.60770797729492
 10
-1000.0
 20
-5.329468727111816
 30
33.83507919311524
 10
-1000.0
 20
-6.788099288940429
 30
32.64174270629883
 10
-1000.0
 20
-7.499998092651367
 30
32.5000114440918
 10
-1000.0
 20
-13.44018173217773
 30
30.59342384338379
 10
-1000.0
 20
-14.27581214904785
 30
23.74930000305176
 10
-1000.0
 20
-10.80742263793945
 30
20.5390453338623
 10
-1000.0
 20
-10.5134334564209
 30
19.65694427490234
 10
-1000.0
 20
-10.2100830078125
 30
17.85781860351562
 10
-1000.0
 20
-10.14852333068847
 30
16.91010093688965
 10
-1000.0
 20
-10.0277738571167
 30
12.99390411376953
 10
-1000.0
 20
-9.761039733886718
 30
11.08845424652099
 10
-1000.0
 20
-9.51106834411621
 30
10.20441436767578
 10
-1000.0
 20
-9.171446800231933
 30
9.396503448486328
 10
-1000.0
 20
-8.1401948928833
 30
7.932439804077148
 10
-1000.0
 20
-5.397478103637695
 30
4.955194473266601
 10
-1000.0
 20
-6.24721622467041
 30
4.563390731811523
 10
-1000.0
 20
-6.563782691955566
 30
4.246665954589843
 10
-1000.0
 20
-6.801921844482421
 30
3.867496490478515
 10
-1000.0
 20
-4.999995231628417
 30
0.6000099182128907
 10
-1000.0
 20
-4.599995613098144
 30
0.0000095367431641
 10
-1000.0
 20
0.0000038146972656
 30
0.0000114440917969
 10
-1000.0
 20
-4.999996662139892
 30
5.60000991821289
 10
-1000.0
 20
-5.593410491943359
 30
33.4401969909668
 10
-1000.0
 20
-4.599997520446777
 30
35.0000114440918
 10
-1000.0
 20
-12.10000038146972
 30
32.5000114440918
 10
-1000.0
 20
-4.830897331237792
 30
34.95642471313477
 10
-1000.0
 20
-12.33090019226074
 30
32.45641708374023
 10
-1000.0
 20
-14.95640754699707
 30
29.83090782165528
 10
-1000.0
 20
-14.95799827575683
 30
24.16324806213379
 10
-1000.0
 20
-5.176655769348144
 30
5.0245361328125
 10
-1000.0
 20
-5.044161796569824
 30
5.172807693481445
 10
-1000.0
 20
-5.397476196289062
 30
1.044828414916992
 10
-1000.0
 20
-5.176653861999511
 30
0.9754848480224609
 10
-1000.0
 20
-4.822217941284179
 30
0.0444545745849609
 10
-1000.0
 20
-4.955551147460937
 30
0.1777877807617187
 10
1000.0
 20
-14.95799827575683
 30
24.16324806213379
 10
1000.0
 20
-14.99999618530273
 30
24.40001106262207
 10
1000.0
 20
-14.99999618530273
 30
29.60000801086426
 10
1000.0
 20
-14.95640754699707
 30
29.83090782165528
 10
1000.0
 20
-14.83200073242187
 30
23.98629570007324
 10
1000.0
 20
-14.82564163208008
 30
29.99027442932129
 10
1000.0
 20
-14.62200736999512
 30
23.86915016174317
 10
1000.0
 20
-14.60769748687744
 30
30.07811164855957
 10
1000.0
 20
-14.27581214904785
 30
23.74930000305176
 10
1000.0
 20
-14.28810119628906
 30
30.1417407989502
 10
1000.0
 20
-13.25716590881347
 30
23.27610588073731
 10
1000.0
 20
-13.83506774902343
 30
30.3294792175293
 10
1000.0
 20
0.0000028610229492
 30
35.0000114440918
 10
1000.0
 20
-4.990265369415283
 30
34.82565689086914
 10
1000.0
 20
-4.830897331237792
 30
34.95642471313477
 10
1000.0
 20
-4.599997520446777
 30
35.0000114440918
 10
1000.0
 20
-5.078100681304931
 30
34.60770797729492
 10
1000.0
 20
-5.141729354858398
 30
34.28811264038086
 10
1000.0
 20
-5.593410491943359
 30
33.4401969909668
 10
1000.0
 20
-5.329468727111816
 30
33.83507919311524
 10
1000.0
 20
-6.949732303619384
 30
2.555131912231445
 10
1000.0
 20
-6.999838352203369
 30
3.000011444091796
 10
1000.0
 20
-6.949733257293701
 30
3.444889068603515
 10
1000.0
 20
-6.801920890808105
 30
2.132524490356445
 10
1000.0
 20
-6.801921844482421
 30
3.867496490478515
 10
1000.0
 20
-6.563781261444091
 30
1.753355026245117
 10
1000.0
 20
-6.563782691955566
 30
4.246665954589843
 10
1000.0
 20
-6.247215270996093
 30
1.43663215637207
 10
1000.0
 20
-6.24721622467041
 30
4.563390731811523
 10
1000.0
 20
-5.868043899536132
 30
1.198247909545898
 10
1000.0
 20
-5.868044853210449
 30
4.801771163940429
 10
1000.0
 20
-5.39747667312622
 30
1.044828414916992
 10
1000.0
 20
-5.397478103637695
 30
4.955194473266601
 10
1000.0
 20
-5.176653861999511
 30
0.9754848480224609
 10
1000.0
 20
-5.176655769348144
 30
5.0245361328125
 10
1000.0
 20
-5.044160366058349
 30
0.8272113800048828
 10
1000.0
 20
-5.044161796569824
 30
5.172807693481445
 10
1000.0
 20
-12.42388820648193
 30
22.71747016906738
 10
1000.0
 20
-13.44018173217773
 30
30.59342193603516
 10
1000.0
 20
-13.09341144561767
 30
30.9401912689209
 10
1000.0
 20
-11.75843620300293
 30
22.08386611938477
 10
1000.0
 20
-12.82947063446045
 30
31.3350772857666
 10
1000.0
 20
-12.64173126220703
 30
31.78811073303223
 10
1000.0
 20
-10.80742263793945
 30
20.5390453338623
 10
1000.0
 20
-6.335065841674804
 30
32.8294792175293
 10
1000.0
 20
-5.940180778503417
 30
33.09342575073242
 10
1000.0
 20
-10.5134334564209
 30
19.65694427490234
 10
1000.0
 20
-10.2100830078125
 30
17.85781860351562
 10
1000.0
 20
-10.31898880004883
 30
18.73597908020019
 10
1000.0
 20
-10.1031551361084
 30
14.99882698059082
 10
1000.0
 20
-10.11756134033203
 30
15.96919250488281
 10
1000.0
 20
-10.14852333068847
 30
16.91010093688965
 10
1000.0
 20
-10.07826614379883
 30
14.01774978637695
 10
1000.0
 20
-10.02777481079101
 30
12.99390411376953
 10
1000.0
 20
-9.929616928100585
 30
12.03292846679687
 10
1000.0
 20
-9.761040687561035
 30
11.08845329284668
 10
1000.0
 20
-9.511069297790527
 30
10.20441436767578
 10
1000.0
 20
-9.17144775390625
 30
9.396503448486328
 10
1000.0
 20
-8.722334861755371
 30
8.63820457458496
 10
1000.0
 20
-8.140195846557617
 30
7.932439804077148
 10
1000.0
 20
-7.350943088531494
 30
7.236734390258789
 10
1000.0
 20
-6.359046936035156
 30
6.608194351196289
 10
1000.0
 20
-5.162266731262207
 30
6.028182983398437
 10
1000.0
 20
-5.365104675292968
 30
6.163398742675781
 10
1000.0
 20
-4.999996662139892
 30
5.60000991821289
 10
1000.0
 20
-5.040563583374023
 30
5.840387344360351
 10
1000.0
 20
0.0000038146972656
 30
0.0000114440917969
 10
1000.0
 20
-4.99999713897705
 30
5.400009155273437
 10
1000.0
 20
-4.599995613098144
 30
0.0000095367431641
 10
1000.0
 20
-4.822217941284179
 30
0.0444545745849609
 10
1000.0
 20
-4.955551147460937
 30
0.1777896881103516
 10
1000.0
 20
-4.999995708465576
 30
0.4000110626220704
 10
1000.0
 20
-4.999995708465576
 30
0.6000099182128907
 10
1000.0
 20
-12.5781021118164
 30
32.10770797729492
 10
1000.0
 20
-12.49026870727539
 30
32.32565307617188
 10
1000.0
 20
-12.33090019226074
 30
32.45641708374023
 10
1000.0
 20
-12.10000038146972
 30
32.5000114440918
 10
1000.0
 20
-11.22215270996093
 30
21.35622406005859
 10
1000.0
 20
-7.499997615814208
 30
32.5000114440918
 10
1000.0
 20
-6.788099288940429
 30
32.64174270629883
 10
-1000.0
 20
0.0000028610229492
 30
35.0000114440918
 10
-1000.0
 20
-5.940180778503417
 30
33.09342575073242
 10
-1000.0
 20
-12.5781021118164
 30
32.10770797729492
 10
-1000.0
 20
-12.82946968078613
 30
31.3350772857666
 10
-1000.0
 20
-14.28810119628906
 30
30.1417407989502
 10
-1000.0
 20
-14.99999618530273
 30
29.60000801086426
 10
-1000.0
 20
-14.62200736999512
 30
23.86915016174317
 10
-1000.0
 20
-13.25716590881347
 30
23.27610588073731
 10
-1000.0
 20
-12.42388820648193
 30
22.71747016906738
 10
-1000.0
 20
-11.75843620300293
 30
22.08386611938477
 10
-1000.0
 20
-11.22215175628662
 30
21.35622406005859
 10
-1000.0
 20
-10.31898880004883
 30
18.73597908020019
 10
-1000.0
 20
-10.11756134033203
 30
15.96919250488281
 10
-1000.0
 20
-10.10315418243408
 30
14.99882698059082
 10
-1000.0
 20
-10.07826519012451
 30
14.01774978637695
 10
-1000.0
 20
-9.929615974426269
 30
12.03292846679687
 10
-1000.0
 20
-8.722334861755371
 30
8.63820457458496
 10
-1000.0
 20
-7.350943088531494
 30
7.236734390258789
 10
-1000.0
 20
-6.359046936035156
 30
6.608194351196289
 10
-1000.0
 20
-5.868044853210449
 30
4.801771163940429
 10
-1000.0
 20
-6.949732780456542
 30
3.444889068603515
 10
-1000.0
 20
-6.99983787536621
 30
3.000011444091796
 10
-1000.0
 20
-6.949731826782226
 30
2.555131912231445
 10
-1000.0
 20
-6.801920890808105
 30
2.132524490356445
 10
-1000.0
 20
-6.563780784606933
 30
1.753355026245117
 10
-1000.0
 20
-6.247215270996093
 30
1.43663215637207
 10
-1000.0
 20
-5.868043899536132
 30
1.198247909545898
 10
-1000.0
 20
-5.141729354858398
 30
34.28811264038086
 10
-1000.0
 20
-6.335065841674804
 30
32.8294792175293
 10
-1000.0
 20
-12.64173126220703
 30
31.78811073303223
 10
-1000.0
 20
-13.09341049194336
 30
30.9401912689209
 10
-1000.0
 20
-13.83506774902343
 30
30.32948112487793
 10
-1000.0
 20
-14.60769653320312
 30
30.07811164855957
 10
-1000.0
 20
-14.99999618530273
 30
24.40001106262207
 10
-1000.0
 20
-4.990265846252441
 30
34.82565689086914
 10
-1000.0
 20
-12.49026870727539
 30
32.32565689086914
 10
-1000.0
 20
-14.82564163208008
 30
29.99027442932129
 10
-1000.0
 20
-14.83200073242187
 30
23.98629570007324
 10
-1000.0
 20
-4.99999713897705
 30
5.400009155273437
 10
-1000.0
 20
-5.365104675292968
 30
6.163398742675781
 10
-1000.0
 20
-5.040563583374023
 30
5.840387344360351
 10
-1000.0
 20
-5.162266731262207
 30
6.028182983398437
 10
-1000.0
 20
-4.999995231628417
 30
0.4000091552734375
 10
-1000.0
 20
-5.044159889221191
 30
0.8272113800048828
 93
      922
 90
        4
 90
      116
 90
       24
 90
       51
 90
       48
 90
        4
 90
       24
 90
       26
 90
       50
 90
       51
 90
        4
 90
       26
 90
      150
 90
       49
 90
       50
 90
        4
 90
      150
 90
        0
 90
       52
 90
       49
 90
        4
 90
        0
 90
      143
 90
       53
 90
       52
 90
        4
 90
      143
 90
        1
 90
       55
 90
       53
 90
        4
 90
        1
 90
       23
 90
       54
 90
       55
 90
        4
 90
       23
 90
      117
 90
       81
 90
       54
 90
        4
 90
      117
 90
      144
 90
       80
 90
       81
 90
        4
 90
      144
 90
        2
 90
      115
 90
       80
 90
        4
 90
        2
 90
        3
 90
      114
 90
      115
 90
        4
 90
        3
 90
       25
 90
      112
 90
      114
 90
        4
 90
       25
 90
       27
 90
      111
 90
      112
 90
        4
 90
       27
 90
      151
 90
      110
 90
      111
 90
        4
 90
      151
 90
      118
 90
      109
 90
      110
 90
        4
 90
      118
 90
      145
 90
       78
 90
      109
 90
        4
 90
      145
 90
      119
 90
       77
 90
       78
 90
        4
 90
      119
 90
      146
 90
       75
 90
       77
 90
        4
 90
      146
 90
        4
 90
       74
 90
       75
 90
        4
 90
        4
 90
      147
 90
       47
 90
       74
 90
        4
 90
      147
 90
      120
 90
       45
 90
       47
 90
        4
 90
      120
 90
      148
 90
       43
 90
       45
 90
        4
 90
      148
 90
      152
 90
       41
 90
       43
 90
        4
 90
      152
 90
       28
 90
       39
 90
       41
 90
        4
 90
       28
 90
      121
 90
       38
 90
       39
 90
        4
 90
      121
 90
      149
 90
       37
 90
       38
 90
        4
 90
      149
 90
       29
 90
       36
 90
       37
 90
        4
 90
       29
 90
      153
 90
       40
 90
       36
 90
        4
 90
      153
 90
      122
 90
       42
 90
       40
 90
        4
 90
      122
 90
        5
 90
       44
 90
       42
 90
        4
 90
        5
 90
      123
 90
       46
 90
       44
 90
        4
 90
      123
 90
      124
 90
       73
 90
       46
 90
        4
 90
      124
 90
      125
 90
       76
 90
       73
 90
        4
 90
      125
 90
      126
 90
      113
 90
       76
 90
        4
 90
      126
 90
        6
 90
       79
 90
      113
 90
        4
 90
        6
 90
        7
 90
       82
 90
       79
 90
        4
 90
        7
 90
      127
 90
       84
 90
       82
 90
        4
 90
      127
 90
        8
 90
       83
 90
       84
 90
        4
 90
        8
 90
        9
 90
       87
 90
       83
 90
        4
 90
        9
 90
      128
 90
       86
 90
       87
 90
        4
 90
      128
 90
      129
 90
       85
 90
       86
 90
        4
 90
      129
 90
      130
 90
       88
 90
       85
 90
        4
 90
      130
 90
       10
 90
       89
 90
       88
 90
        4
 90
       10
 90
      131
 90
       90
 90
       89
 90
        4
 90
      131
 90
       11
 90
       91
 90
       90
 90
        4
 90
       11
 90
       12
 90
       92
 90
       91
 90
        4
 90
       12
 90
       13
 90
       93
 90
       92
 90
        4
 90
       13
 90
      132
 90
       94
 90
       93
 90
        4
 90
      132
 90
       14
 90
       95
 90
       94
 90
        4
 90
       14
 90
      133
 90
       96
 90
       95
 90
        4
 90
      133
 90
      134
 90
       97
 90
       96
 90
        4
 90
      134
 90
      155
 90
       99
 90
       97
 90
        4
 90
      155
 90
      157
 90
       98
 90
       99
 90
        4
 90
      157
 90
      156
 90
      101
 90
       98
 90
        4
 90
      156
 90
       22
 90
      100
 90
      101
 90
        4
 90
       22
 90
      154
 90
      103
 90
      100
 90
        4
 90
      154
 90
       31
 90
       72
 90
      103
 90
        4
 90
       31
 90
       30
 90
       70
 90
       72
 90
        4
 90
       30
 90
       15
 90
       68
 90
       70
 90
        4
 90
       15
 90
      135
 90
       66
 90
       68
 90
        4
 90
      135
 90
       16
 90
       64
 90
       66
 90
        4
 90
       16
 90
       17
 90
       62
 90
       64
 90
        4
 90
       17
 90
       18
 90
       60
 90
       62
 90
        4
 90
       18
 90
      136
 90
       58
 90
       60
 90
        4
 90
      136
 90
      137
 90
       57
 90
       58
 90
        4
 90
      137
 90
      138
 90
       56
 90
       57
 90
        4
 90
      138
 90
      139
 90
       59
 90
       56
 90
        4
 90
      139
 90
      140
 90
       61
 90
       59
 90
        4
 90
      140
 90
      141
 90
       63
 90
       61
 90
        4
 90
      141
 90
      142
 90
       65
 90
       63
 90
        4
 90
      142
 90
       32
 90
       67
 90
       65
 90
        4
 90
       32
 90
       33
 90
       69
 90
       67
 90
        4
 90
       33
 90
      159
 90
       71
 90
       69
 90
        4
 90
      159
 90
       19
 90
      108
 90
       71
 90
        4
 90
       19
 90
      158
 90
      107
 90
      108
 90
        4
 90
      158
 90
       35
 90
      106
 90
      107
 90
        4
 90
       35
 90
       34
 90
      105
 90
      106
 90
        4
 90
       34
 90
       20
 90
      104
 90
      105
 90
        4
 90
       20
 90
       21
 90
      102
 90
      104
 90
        4
 90
       21
 90
      116
 90
       48
 90
      102
 90
        4
 90
       36
 90
       39
 90
       38
 90
       37
 90
        4
 90
       40
 90
       41
 90
       39
 90
       36
 90
        4
 90
       42
 90
       43
 90
       41
 90
       40
 90
        4
 90
       44
 90
       45
 90
       43
 90
       42
 90
        4
 90
       46
 90
       47
 90
       45
 90
       44
 90
        3
 90
       48
 90
       50
 90
       49
 90
        3
 90
       48
 90
       51
 90
       50
 90
        3
 90
       48
 90
       49
 90
       52
 90
        3
 90
       48
 90
       52
 90
       53
 90
        3
 90
       48
 90
       55
 90
       54
 90
        3
 90
       48
 90
       53
 90
       55
 90
        3
 90
       56
 90
       58
 90
       57
 90
        4
 90
       59
 90
       60
 90
       58
 90
       56
 90
        4
 90
       61
 90
       62
 90
       60
 90
       59
 90
        4
 90
       63
 90
       64
 90
       62
 90
       61
 90
        4
 90
       65
 90
       66
 90
       64
 90
       63
 90
        4
 90
       67
 90
       68
 90
       66
 90
       65
 90
        4
 90
       69
 90
       70
 90
       68
 90
       67
 90
        4
 90
       71
 90
       72
 90
       70
 90
       69
 90
        4
 90
       73
 90
       74
 90
       47
 90
       46
 90
        3
 90
       73
 90
       75
 90
       74
 90
        4
 90
       76
 90
       78
 90
       77
 90
       73
 90
        4
 90
       48
 90
       81
 90
       80
 90
       79
 90
        3
 90
       48
 90
       54
 90
       81
 90
        3
 90
       48
 90
       79
 90
       82
 90
        3
 90
       48
 90
       84
 90
       83
 90
        3
 90
       48
 90
       82
 90
       84
 90
        3
 90
       48
 90
       86
 90
       85
 90
        3
 90
       48
 90
       83
 90
       87
 90
        3
 90
       48
 90
       85
 90
       88
 90
        3
 90
       86
 90
       48
 90
       87
 90
        3
 90
       48
 90
       88
 90
       89
 90
        3
 90
       48
 90
       89
 90
       90
 90
        3
 90
       48
 90
       90
 90
       91
 90
        3
 90
       48
 90
       91
 90
       92
 90
        3
 90
       48
 90
       92
 90
       93
 90
        3
 90
       48
 90
       93
 90
       94
 90
        3
 90
       48
 90
       94
 90
       95
 90
        3
 90
       48
 90
       95
 90
       96
 90
        3
 90
       48
 90
       96
 90
       97
 90
        3
 90
       48
 90
       99
 90
       98
 90
        3
 90
       48
 90
       97
 90
       99
 90
        3
 90
       48
 90
      101
 90
      100
 90
        3
 90
       48
 90
       98
 90
      101
 90
        3
 90
       48
 90
      103
 90
      102
 90
        3
 90
       48
 90
      100
 90
      103
 90
        3
 90
      102
 90
       72
 90
       71
 90
        3
 90
      102
 90
      103
 90
       72
 90
        3
 90
      102
 90
      105
 90
      104
 90
        3
 90
      102
 90
      106
 90
      105
 90
        3
 90
      102
 90
      107
 90
      106
 90
        3
 90
      102
 90
      108
 90
      107
 90
        3
 90
      102
 90
       71
 90
      108
 90
        3
 90
       76
 90
      109
 90
       78
 90
        3
 90
       76
 90
      110
 90
      109
 90
        3
 90
       76
 90
      111
 90
      110
 90
        3
 90
       76
 90
      112
 90
      111
 90
        3
 90
       73
 90
       77
 90
       75
 90
        4
 90
      113
 90
      114
 90
      112
 90
       76
 90
        3
 90
      113
 90
      115
 90
      114
 90
        4
 90
       79
 90
       80
 90
      115
 90
      113
 90
        4
 90
       29
 90
      149
 90
      121
 90
       28
 90
        4
 90
      153
 90
       29
 90
       28
 90
      152
 90
        4
 90
      122
 90
      153
 90
      152
 90
      148
 90
        4
 90
        5
 90
      122
 90
      148
 90
      120
 90
        4
 90
      123
 90
        5
 90
      120
 90
      147
 90
        3
 90
      116
 90
      150
 90
       26
 90
        3
 90
      116
 90
       26
 90
       24
 90
        3
 90
      116
 90
        0
 90
      150
 90
        3
 90
      116
 90
      143
 90
        0
 90
        3
 90
      116
 90
       23
 90
        1
 90
        3
 90
      116
 90
        1
 90
      143
 90
        3
 90
      138
 90
      137
 90
      136
 90
        4
 90
      139
 90
      138
 90
      136
 90
       18
 90
        4
 90
      140
 90
      139
 90
       18
 90
       17
 90
        4
 90
      141
 90
      140
 90
       17
 90
       16
 90
        4
 90
      142
 90
      141
 90
       16
 90
      135
 90
        4
 90
       32
 90
      142
 90
      135
 90
       15
 90
        4
 90
       33
 90
       32
 90
       15
 90
       30
 90
        4
 90
      159
 90
       33
 90
       30
 90
       31
 90
        4
 90
      124
 90
      123
 90
      147
 90
        4
 90
        3
 90
      124
 90
        4
 90
      146
 90
        4
 90
      125
 90
      124
 90
      119
 90
      145
 90
        4
 90
      116
 90
        6
 90
      144
 90
      117
 90
        3
 90
      116
 90
      117
 90
       23
 90
        3
 90
      116
 90
        7
 90
        6
 90
        3
 90
      116
 90
        8
 90
      127
 90
        3
 90
      116
 90
      127
 90
        7
 90
        3
 90
      116
 90
      129
 90
      128
 90
        3
 90
      116
 90
        9
 90
        8
 90
        3
 90
      116
 90
      130
 90
      129
 90
        3
 90
      128
 90
        9
 90
      116
 90
        3
 90
      116
 90
       10
 90
      130
 90
        3
 90
      116
 90
      131
 90
       10
 90
        3
 90
      116
 90
       11
 90
      131
 90
        3
 90
      116
 90
       12
 90
       11
 90
        3
 90
      116
 90
       13
 90
       12
 90
        3
 90
      116
 90
      132
 90
       13
 90
        3
 90
      116
 90
       14
 90
      132
 90
        3
 90
      116
 90
      133
 90
       14
 90
        3
 90
      116
 90
      134
 90
      133
 90
        3
 90
      116
 90
      157
 90
      155
 90
        3
 90
      116
 90
      155
 90
      134
 90
        3
 90
      116
 90
       22
 90
      156
 90
        3
 90
      116
 90
      156
 90
      157
 90
        3
 90
      116
 90
       21
 90
      154
 90
        3
 90
      116
 90
      154
 90
       22
 90
        3
 90
       21
 90
      159
 90
       31
 90
        3
 90
       21
 90
       31
 90
      154
 90
        3
 90
       21
 90
       20
 90
       34
 90
        3
 90
       21
 90
       34
 90
       35
 90
        3
 90
       21
 90
       35
 90
      158
 90
        3
 90
       21
 90
      158
 90
       19
 90
        3
 90
       21
 90
       19
 90
      159
 90
        3
 90
      125
 90
      145
 90
      118
 90
        3
 90
      125
 90
      118
 90
      151
 90
        3
 90
      125
 90
      151
 90
       27
 90
        3
 90
      125
 90
       27
 90
       25
 90
        3
 90
      124
 90
      146
 90
      119
 90
        4
 90
      126
 90
      125
 90
       25
 90
        3
 90
        3
 90
      126
 90
        3
 90
        2
 90
        4
 90
        6
 90
      126
 90
        2
 90
      144
 94
      360
 90
       24
 90
      116
 90
       24
 90
       51
 90
       48
 90
       51
 90
       48
 90
      116
 90
       24
 90
       26
 90
       26
 90
       50
 90
       50
 90
       51
 90
       26
 90
      150
 90
       49
 90
      150
 90
       49
 90
       50
 90
        0
 90
      150
 90
        0
 90
       52
 90
       49
 90
       52
 90
        0
 90
      143
 90
       53
 90
      143
 90
       52
 90
       53
 90
        1
 90
      143
 90
        1
 90
       55
 90
       53
 90
       55
 90
        1
 90
       23
 90
       23
 90
       54
 90
       54
 90
       55
 90
       23
 90
      117
 90
       81
 90
      117
 90
       54
 90
       81
 90
      117
 90
      144
 90
       80
 90
      144
 90
       80
 90
       81
 90
        2
 90
      144
 90
        2
 90
      115
 90
       80
 90
      115
 90
        2
 90
        3
 90
        3
 90
      114
 90
      114
 90
      115
 90
        3
 90
       25
 90
       25
 90
      112
 90
      112
 90
      114
 90
       25
 90
       27
 90
       27
 90
      111
 90
      111
 90
      112
 90
       27
 90
      151
 90
      110
 90
      151
 90
      110
 90
      111
 90
      118
 90
      151
 90
      109
 90
      118
 90
      109
 90
      110
 90
      118
 90
      145
 90
       78
 90
      145
 90
       78
 90
      109
 90
      119
 90
      145
 90
       77
 90
      119
 90
       77
 90
       78
 90
      119
 90
      146
 90
       75
 90
      146
 90
       75
 90
       77
 90
        4
 90
      146
 90
        4
 90
       74
 90
       74
 90
       75
 90
        4
 90
      147
 90
       47
 90
      147
 90
       47
 90
       74
 90
      120
 90
      147
 90
       45
 90
      120
 90
       45
 90
       47
 90
      120
 90
      148
 90
       43
 90
      148
 90
       43
 90
       45
 90
      148
 90
      152
 90
       41
 90
      152
 90
       41
 90
       43
 90
       28
 90
      152
 90
       28
 90
       39
 90
       39
 90
       41
 90
       28
 90
      121
 90
       38
 90
      121
 90
       38
 90
       39
 90
      121
 90
      149
 90
       37
 90
      149
 90
       37
 90
       38
 90
       29
 90
      149
 90
       29
 90
       36
 90
       36
 90
       37
 90
       29
 90
      153
 90
       40
 90
      153
 90
       36
 90
       40
 90
      122
 90
      153
 90
       42
 90
      122
 90
       40
 90
       42
 90
        5
 90
      122
 90
        5
 90
       44
 90
       42
 90
       44
 90
        5
 90
      123
 90
       46
 90
      123
 90
       44
 90
       46
 90
      123
 90
      124
 90
       73
 90
      124
 90
       46
 90
       73
 90
      124
 90
      125
 90
       76
 90
      125
 90
       73
 90
       76
 90
      125
 90
      126
 90
      113
 90
      126
 90
       76
 90
      113
 90
        6
 90
      126
 90
        6
 90
       79
 90
       79
 90
      113
 90
        6
 90
        7
 90
        7
 90
       82
 90
       79
 90
       82
 90
        7
 90
      127
 90
       84
 90
      127
 90
       82
 90
       84
 90
        8
 90
      127
 90
        8
 90
       83
 90
       83
 90
       84
 90
        8
 90
        9
 90
        9
 90
       87
 90
       83
 90
       87
 90
        9
 90
      128
 90
       86
 90
      128
 90
       86
 90
       87
 90
      128
 90
      129
 90
       85
 90
      129
 90
       85
 90
       86
 90
      129
 90
      130
 90
       88
 90
      130
 90
       85
 90
       88
 90
       10
 90
      130
 90
       10
 90
       89
 90
       88
 90
       89
 90
       10
 90
      131
 90
       90
 90
      131
 90
       89
 90
       90
 90
       11
 90
      131
 90
       11
 90
       91
 90
       90
 90
       91
 90
       11
 90
       12
 90
       12
 90
       92
 90
       91
 90
       92
 90
       12
 90
       13
 90
       13
 90
       93
 90
       92
 90
       93
 90
       13
 90
      132
 90
       94
 90
      132
 90
       93
 90
       94
 90
       14
 90
      132
 90
       14
 90
       95
 90
       94
 90
       95
 90
       14
 90
      133
 90
       96
 90
      133
 90
       95
 90
       96
 90
      133
 90
      134
 90
       97
 90
      134
 90
       96
 90
       97
 90
      134
 90
      155
 90
       99
 90
      155
 90
       97
 90
       99
 90
      155
 90
      157
 90
       98
 90
      157
 90
       98
 90
       99
 90
      156
 90
      157
 90
      101
 90
      156
 90
       98
 90
      101
 90
       22
 90
      156
 90
       22
 90
      100
 90
      100
 90
      101
 90
       22
 90
      154
 90
      103
 90
      154
 90
      100
 90
      103
 90
       31
 90
      154
 90
       31
 90
       72
 90
       72
 90
      103
 90
       30
 90
       31
 90
       30
 90
       70
 90
       70
 90
       72
 90
       15
 90
       30
 90
       15
 90
       68
 90
       68
 90
       70
 90
       15
 90
      135
 90
       66
 90
      135
 90
       66
 90
       68
 90
       16
 90
      135
 90
       16
 90
       64
 90
       64
 90
       66
 90
       16
 90
       17
 90
       17
 90
       62
 90
       62
 90
       64
 90
       17
 90
       18
 90
       18
 90
       60
 90
       60
 90
       62
 90
       18
 90
      136
 90
       58
 90
      136
 90
       58
 90
       60
 90
      136
 90
      137
 90
       57
 90
      137
 90
       57
 90
       58
 90
      137
 90
      138
 90
       56
 90
      138
 90
       56
 90
       57
 90
      138
 90
      139
 90
       59
 90
      139
 90
       56
 90
       59
 90
      139
 90
      140
 90
       61
 90
      140
 90
       59
 90
       61
 90
      140
 90
      141
 90
       63
 90
      141
 90
       61
 90
       63
 90
      141
 90
      142
 90
       65
 90
      142
 90
       63
 90
       65
 90
       32
 90
      142
 90
       32
 90
       67
 90
       65
 90
       67
 90
       32
 90
       33
 90
       33
 90
       69
 90
       67
 90
       69
 90
       33
 90
      159
 90
       71
 90
      159
 90
       69
 90
       71
 90
       19
 90
      159
 90
       19
 90
      108
 90
       71
 90
      108
 90
       19
 90
      158
 90
      107
 90
      158
 90
      107
 90
      108
 90
       35
 90
      158
 90
       35
 90
      106
 90
      106
 90
      107
 90
       34
 90
       35
 90
       34
 90
      105
 90
      105
 90
      106
 90
       20
 90
       34
 90
       20
 90
      104
 90
      104
 90
      105
 90
       20
 90
       21
 90
       21
 90
      102
 90
      102
 90
      104
 90
       21
 90
      116
 90
       48
 90
      102
 90
       36
 90
       39
 90
       40
 90
       41
 90
       42
 90
       43
 90
       44
 90
       45
 90
       46
 90
       47
 90
       48
 90
       50
 90
       48
 90
       49
 90
       48
 90
       52
 90
       48
 90
       53
 90
       48
 90
       55
 90
       48
 90
       54
 90
       56
 90
       58
 90
       59
 90
       60
 90
       61
 90
       62
 90
       63
 90
       64
 90
       65
 90
       66
 90
       67
 90
       68
 90
       69
 90
       70
 90
       71
 90
       72
 90
       73
 90
       74
 90
       73
 90
       75
 90
       76
 90
       78
 90
       73
 90
       77
 90
       48
 90
       81
 90
       79
 90
       80
 90
       48
 90
       79
 90
       48
 90
       82
 90
       48
 90
       84
 90
       48
 90
       83
 90
       48
 90
       86
 90
       48
 90
       85
 90
       48
 90
       87
 90
       48
 90
       88
 90
       48
 90
       89
 90
       48
 90
       90
 90
       48
 90
       91
 90
       48
 90
       92
 90
       48
 90
       93
 90
       48
 90
       94
 90
       48
 90
       95
 90
       48
 90
       96
 90
       48
 90
       97
 90
       48
 90
       99
 90
       48
 90
       98
 90
       48
 90
      101
 90
       48
 90
      100
 90
       48
 90
      103
 90
      102
 90
      103
 90
       72
 90
      102
 90
       71
 90
      102
 90
      102
 90
      105
 90
      102
 90
      106
 90
      102
 90
      107
 90
      102
 90
      108
 90
       76
 90
      109
 90
       76
 90
      110
 90
       76
 90
      111
 90
       76
 90
      112
 90
      113
 90
      114
 90
      113
 90
      115
 90
       28
 90
       29
 90
      152
 90
      153
 90
      122
 90
      148
 90
        5
 90
      120
 90
      123
 90
      147
 90
      116
 90
      150
 90
       26
 90
      116
 90
        0
 90
      116
 90
      116
 90
      143
 90
       23
 90
      116
 90
        1
 90
      116
 90
      136
 90
      138
 90
       18
 90
      139
 90
       17
 90
      140
 90
       16
 90
      141
 90
      135
 90
      142
 90
       15
 90
       32
 90
       30
 90
       33
 90
       31
 90
      159
 90
        4
 90
      124
 90
      124
 90
      146
 90
      119
 90
      124
 90
      125
 90
      145
 90
        6
 90
      116
 90
        6
 90
      144
 90
      116
 90
      117
 90
        7
 90
      116
 90
        8
 90
      116
 90
      116
 90
      127
 90
      116
 90
      129
 90
      116
 90
      128
 90
        9
 90
      116
 90
      116
 90
      130
 90
       10
 90
      116
 90
      116
 90
      131
 90
       11
 90
      116
 90
       12
 90
      116
 90
       13
 90
      116
 90
      116
 90
      132
 90
       14
 90
      116
 90
      116
 90
      133
 90
      116
 90
      134
 90
      116
 90
      157
 90
      116
 90
      155
 90
       22
 90
      116
 90
      116
 90
      156
 90
       21
 90
      154
 90
      116
 90
      154
 90
       21
 90
      159
 90
       21
 90
       31
 90
       21
 90
       34
 90
       21
 90
       35
 90
       21
 90
      158
 90
       19
 90
       21
 90
      118
 90
      125
 90
      125
 90
      151
 90
       27
 90
      125
 90
       25
 90
      125
 90
        3
 90
      126
 90
        2
 90
      126
 95
      360
140
0.0
140
0.0
140
0.0
140
0.0
140
0.0
140
0.0
140
0.0
140
0.0
140
0.0
140
0.0
140
0.0
140
0.0
140
0.0
140
0.0
140
0.0
140
0.0
140
0.0
140
0.0
140
0.0
140
0.0
140
0.0
140
0.0
140
0.0
140
0.0
140
0.0
140
0.0
140
0.0
140
0.0
140
0.0
140
0.0
140
0.0
140
0.0
140
0.0
140
0.0
140
0.0
140
0.0
140
0.0
140
0.0
140
0.0
140
0.0
140
0.0
140
0.0
140
0.0
140
0.0
140
0.0
140
0.0
140
0.0
140
0.0
140
0.0
140
0.0
140
0.0
140
0.0
140
0.0
140
0.0
140
0.0
140
0.0
140
0.0
140
0.0
140
0.0
140
0.0
140
0.0
140
0.0
140
0.0
140
0.0
140
0.0
140
0.0
140
0.0
140
0.0
140
0.0
140
0.0
140
0.0
140
0.0
140
0.0
140
0.0
140
0.0
140
0.0
140
0.0
140
0.0
140
0.0
140
0.0
140
0.0
140
0.0
140
0.0
140
0.0
140
0.0
140
0.0
140
0.0
140
0.0
140
0.0
140
0.0
140
0.0
140
0.0
140
0.0
140
0.0
140
0.0
140
0.0
140
0.0
140
0.0
140
0.0
140
0.0
140
0.0
140
0.0
140
0.0
140
0.0
140
0.0
140
0.0
140
0.0
140
0.0
140
0.0
140
0.0
140
0.0
140
0.0
140
0.0
140
0.0
140
0.0
140
0.0
140
0.0
140
0.0
140
0.0
140
0.0
140
0.0
140
0.0
140
0.0
140
0.0
140
0.0
140
0.0
140
0.0
140
0.0
140
0.0
140
0.0
140
0.0
140
0.0
140
0.0
140
0.0
140
0.0
140
0.0
140
0.0
140
0.0
140
0.0
140
0.0
140
0.0
140
0.0
140
0.0
140
0.0
140
0.0
140
0.0
140
0.0
140
0.0
140
0.0
140
0.0
140
0.0
140
0.0
140
0.0
140
0.0
140
0.0
140
0.0
140
0.0
140
0.0
140
0.0
140
0.0
140
0.0
140
0.0
140
0.0
140
0.0
140
0.0
140
0.0
140
0.0
140
0.0
140
0.0
140
0.0
140
0.0
140
0.0
140
0.0
140
0.0
140
0.0
140
0.0
140
0.0
140
0.0
140
0.0
140
0.0
140
0.0
140
0.0
140
0.0
140
0.0
140
0.0
140
0.0
140
0.0
140
0.0
140
0.0
140
0.0
140
0.0
140
0.0
140
0.0
140
0.0
140
0.0
140
0.0
140
0.0
140
0.0
140
0.0
140
0.0
140
0.0
140
0.0
140
0.0
140
0.0
140
0.0
140
0.0
140
0.0
140
0.0
140
0.0
140
0.0
140
0.0
140
0.0
140
0.0
140
0.0
140
0.0
140
0.0
140
0.0
140
0.0
140
0.0
140
0.0
140
0.0
140
0.0
140
0.0
140
0.0
140
0.0
140
0.0
140
0.0
140
0.0
140
0.0
140
0.0
140
0.0
140
0.0
140
0.0
140
0.0
140
0.0
140
0.0
140
0.0
140
0.0
140
0.0
140
0.0
140
0.0
140
0.0
140
0.0
140
0.0
140
0.0
140
0.0
140
0.0
140
0.0
140
0.0
140
0.0
140
0.0
140
0.0
140
0.0
140
0.0
140
0.0
140
0.0
140
0.0
140
0.0
140
0.0
140
0.0
140
0.0
140
0.0
140
0.0
140
0.0
140
0.0
140
0.0
140
0.0
140
0.0
140
0.0
140
0.0
140
0.0
140
0.0
140
0.0
140
0.0
140
0.0
140
0.0
140
0.0
140
0.0
140
0.0
140
0.0
140
0.0
140
0.0
140
0.0
140
0.0
140
0.0
140
0.0
140
0.0
140
0.0
140
0.0
140
0.0
140
0.0
140
0.0
140
0.0
140
0.0
140
0.0
140
0.0
140
0.0
140
0.0
140
0.0
140
0.0
140
0.0
140
0.0
140
0.0
140
0.0
140
0.0
140
0.0
140
0.0
140
0.0
140
0.0
140
0.0
140
0.0
140
0.0
140
0.0
140
0.0
140
0.0
140
0.0
140
0.0
140
0.0
140
0.0
140
0.0
140
0.0
140
0.0
140
0.0
140
0.0
140
0.0
140
0.0
140
0.0
140
0.0
140
0.0
140
0.0
140
0.0
140
0.0
140
0.0
140
0.0
140
0.0
140
0.0
140
0.0
140
0.0
140
0.0
140
0.0
140
0.0
140
0.0
140
0.0
140
0.0
140
0.0
140
0.0
140
0.0
140
0.0
140
0.0
140
0.0
140
0.0
140
0.0
140
0.0
140
0.0
140
0.0
140
0.0
140
0.0
140
0.0
140
0.0
140
0.0
 90
        0
  0
POLYLINE
  5
FA
330
1F
100
AcDbEntity
  8
OracDecor_panel_moldings
 62
    16
420
  8848902
100
AcDb3dPolyline
 66
     1
 10
0.0
 20
0.0
 30
0.0
 70
     9
  0
VERTEX
  5
FB
330
FA
100
AcDbEntity
  8
OracDecor_panel_moldings
 62
    16
420
  8848902
100
AcDbVertex
100
AcDb3dPolylineVertex
 10
0.0000038146970383
 20
-0.0000038146972656
 30
0.0000114440917969
 70
    32
  0
VERTEX
  5
FC
330
FA
100
AcDbEntity
  8
OracDecor_panel_moldings
 62
    16
420
  8848902
100
AcDbVertex
100
AcDb3dPolylineVertex
 10
0.0000038146972656
 20
-0.0000028610229492
 30
35.0000114440918
 70
    32
  0
VERTEX
  5
FD
330
FA
100
AcDbEntity
  8
OracDecor_panel_moldings
 62
    16
420
  8848902
100
AcDbVertex
100
AcDb3dPolylineVertex
 10
0.0000038146970383
 20
4.599997520446777
 30
35.0000114440918
 70
    32
  0
VERTEX
  5
FE
330
FA
100
AcDbEntity
  8
OracDecor_panel_moldings
 62
    16
420
  8848902
100
AcDbVertex
100
AcDb3dPolylineVertex
 10
0.0000038146972656
 20
4.830897331237792
 30
34.95642471313477
 70
    32
  0
VERTEX
  5
FF
330
FA
100
AcDbEntity
  8
OracDecor_panel_moldings
 62
    16
420
  8848902
100
AcDbVertex
100
AcDb3dPolylineVertex
 10
0.0000038146972656
 20
4.990265846252441
 30
34.82565689086914
 70
    32
  0
VERTEX
  5
100
330
FA
100
AcDbEntity
  8
OracDecor_panel_moldings
 62
    16
420
  8848902
100
AcDbVertex
100
AcDb3dPolylineVertex
 10
0.0000038146972656
 20
5.078101158142089
 30
34.60770797729492
 70
    32
  0
VERTEX
  5
101
330
FA
100
AcDbEntity
  8
OracDecor_panel_moldings
 62
    16
420
  8848902
100
AcDbVertex
100
AcDb3dPolylineVertex
 10
0.0000038146970383
 20
5.141729354858398
 30
34.28811264038086
 70
    32
  0
VERTEX
  5
102
330
FA
100
AcDbEntity
  8
OracDecor_panel_moldings
 62
    16
420
  8848902
100
AcDbVertex
100
AcDb3dPolylineVertex
 10
0.0000038146972656
 20
5.329468727111816
 30
33.83507919311524
 70
    32
  0
VERTEX
  5
103
330
FA
100
AcDbEntity
  8
OracDecor_panel_moldings
 62
    16
420
  8848902
100
AcDbVertex
100
AcDb3dPolylineVertex
 10
0.0
 20
5.593410491943359
 30
33.4401969909668
 70
    32
  0
VERTEX
  5
104
330
FA
100
AcDbEntity
  8
OracDecor_panel_moldings
 62
    16
420
  8848902
100
AcDbVertex
100
AcDb3dPolylineVertex
 10
0.0
 20
5.940180778503417
 30
33.09342575073242
 70
    32
  0
VERTEX
  5
105
330
FA
100
AcDbEntity
  8
OracDecor_panel_moldings
 62
    16
420
  8848902
100
AcDbVertex
100
AcDb3dPolylineVertex
 10
0.0
 20
6.335065841674804
 30
32.8294792175293
 70
    32
  0
VERTEX
  5
106
330
FA
100
AcDbEntity
  8
OracDecor_panel_moldings
 62
    16
420
  8848902
100
AcDbVertex
100
AcDb3dPolylineVertex
 10
0.0
 20
6.788099288940429
 30
32.64174270629883
 70
    32
  0
VERTEX
  5
107
330
FA
100
AcDbEntity
  8
OracDecor_panel_moldings
 62
    16
420
  8848902
100
AcDbVertex
100
AcDb3dPolylineVertex
 10
0.0
 20
7.499998092651367
 30
32.5000114440918
 70
    32
  0
VERTEX
  5
108
330
FA
100
AcDbEntity
  8
OracDecor_panel_moldings
 62
    16
420
  8848902
100
AcDbVertex
100
AcDb3dPolylineVertex
 10
-0.0000019073486328
 20
12.10000038146972
 30
32.5000114440918
 70
    32
  0
VERTEX
  5
109
330
FA
100
AcDbEntity
  8
OracDecor_panel_moldings
 62
    16
420
  8848902
100
AcDbVertex
100
AcDb3dPolylineVertex
 10
-0.0000019073486328
 20
12.33090019226074
 30
32.45641708374023
 70
    32
  0
VERTEX
  5
10A
330
FA
100
AcDbEntity
  8
OracDecor_panel_moldings
 62
    16
420
  8848902
100
AcDbVertex
100
AcDb3dPolylineVertex
 10
-0.0000019073488602
 20
12.49026870727539
 30
32.32565689086914
 70
    32
  0
VERTEX
  5
10B
330
FA
100
AcDbEntity
  8
OracDecor_panel_moldings
 62
    16
420
  8848902
100
AcDbVertex
100
AcDb3dPolylineVertex
 10
-0.0000019073485191
 20
12.5781021118164
 30
32.10770797729492
 70
    32
  0
VERTEX
  5
10C
330
FA
100
AcDbEntity
  8
OracDecor_panel_moldings
 62
    16
420
  8848902
100
AcDbVertex
100
AcDb3dPolylineVertex
 10
-0.0000019073486328
 20
12.64173126220703
 30
31.78811073303223
 70
    32
  0
VERTEX
  5
10D
330
FA
100
AcDbEntity
  8
OracDecor_panel_moldings
 62
    16
420
  8848902
100
AcDbVertex
100
AcDb3dPolylineVertex
 10
-0.0000019073488602
 20
12.82946968078613
 30
31.3350772857666
 70
    32
  0
VERTEX
  5
10E
330
FA
100
AcDbEntity
  8
OracDecor_panel_moldings
 62
    16
420
  8848902
100
AcDbVertex
100
AcDb3dPolylineVertex
 10
-0.0000019073485191
 20
13.09341049194336
 30
30.9401912689209
 70
    32
  0
VERTEX
  5
10F
330
FA
100
AcDbEntity
  8
OracDecor_panel_moldings
 62
    16
420
  8848902
100
AcDbVertex
100
AcDb3dPolylineVertex
 10
-0.0000019073486328
 20
13.44018173217773
 30
30.59342384338379
 70
    32
  0
VERTEX
  5
110
330
FA
100
AcDbEntity
  8
OracDecor_panel_moldings
 62
    16
420
  8848902
100
AcDbVertex
100
AcDb3dPolylineVertex
 10
-0.0000019073490876
 20
13.83506774902343
 30
30.32948112487793
 70
    32
  0
VERTEX
  5
111
330
FA
100
AcDbEntity
  8
OracDecor_panel_moldings
 62
    16
420
  8848902
100
AcDbVertex
100
AcDb3dPolylineVertex
 10
-0.0000019073486328
 20
14.28810119628906
 30
30.1417407989502
 70
    32
  0
VERTEX
  5
112
330
FA
100
AcDbEntity
  8
OracDecor_panel_moldings
 62
    16
420
  8848902
100
AcDbVertex
100
AcDb3dPolylineVertex
 10
-0.0000019073484054
 20
14.60769653320312
 30
30.07811164855957
 70
    32
  0
VERTEX
  5
113
330
FA
100
AcDbEntity
  8
OracDecor_panel_moldings
 62
    16
420
  8848902
100
AcDbVertex
100
AcDb3dPolylineVertex
 10
-0.0000019073486328
 20
14.82564163208008
 30
29.99027442932129
 70
    32
  0
VERTEX
  5
114
330
FA
100
AcDbEntity
  8
OracDecor_panel_moldings
 62
    16
420
  8848902
100
AcDbVertex
100
AcDb3dPolylineVertex
 10
-0.0000019073486328
 20
14.95640754699707
 30
29.83090782165528
 70
    32
  0
VERTEX
  5
115
330
FA
100
AcDbEntity
  8
OracDecor_panel_moldings
 62
    16
420
  8848902
100
AcDbVertex
100
AcDb3dPolylineVertex
 10
-0.0000019073484054
 20
14.99999618530273
 30
29.60000801086426
 70
    32
  0
VERTEX
  5
116
330
FA
100
AcDbEntity
  8
OracDecor_panel_moldings
 62
    16
420
  8848902
100
AcDbVertex
100
AcDb3dPolylineVertex
 10
-0.0000019073482918
 20
14.99999618530273
 30
24.40001106262207
 70
    32
  0
VERTEX
  5
117
330
FA
100
AcDbEntity
  8
OracDecor_panel_moldings
 62
    16
420
  8848902
100
AcDbVertex
100
AcDb3dPolylineVertex
 10
-0.0000019073486328
 20
14.95799827575683
 30
24.16324806213379
 70
    32
  0
VERTEX
  5
118
330
FA
100
AcDbEntity
  8
OracDecor_panel_moldings
 62
    16
420
  8848902
100
AcDbVertex
100
AcDb3dPolylineVertex
 10
-0.0000019073486328
 20
14.83200073242187
 30
23.98629570007324
 70
    32
  0
VERTEX
  5
119
330
FA
100
AcDbEntity
  8
OracDecor_panel_moldings
 62
    16
420
  8848902
100
AcDbVertex
100
AcDb3dPolylineVertex
 10
-0.0000019073488602
 20
14.62200736999512
 30
23.86915016174317
 70
    32
  0
VERTEX
  5
11A
330
FA
100
AcDbEntity
  8
OracDecor_panel_moldings
 62
    16
420
  8848902
100
AcDbVertex
100
AcDb3dPolylineVertex
 10
-0.0000019073486328
 20
14.27581214904785
 30
23.74930000305176
 70
    32
  0
VERTEX
  5
11B
330
FA
100
AcDbEntity
  8
OracDecor_panel_moldings
 62
    16
420
  8848902
100
AcDbVertex
100
AcDb3dPolylineVertex
 10
-0.0000019073486328
 20
13.25716590881347
 30
23.27610588073731
 70
    32
  0
VERTEX
  5
11C
330
FA
100
AcDbEntity
  8
OracDecor_panel_moldings
 62
    16
420
  8848902
100
AcDbVertex
100
AcDb3dPolylineVertex
 10
-0.0000019073486328
 20
12.42388820648193
 30
22.71747016906738
 70
    32
  0
VERTEX
  5
11D
330
FA
100
AcDbEntity
  8
OracDecor_panel_moldings
 62
    16
420
  8848902
100
AcDbVertex
100
AcDb3dPolylineVertex
 10
-0.0000019073485191
 20
11.75843620300293
 30
22.08386611938477
 70
    32
  0
VERTEX
  5
11E
330
FA
100
AcDbEntity
  8
OracDecor_panel_moldings
 62
    16
420
  8848902
100
AcDbVertex
100
AcDb3dPolylineVertex
 10
-0.0000019073488602
 20
11.22215175628662
 30
21.35622406005859
 70
    32
  0
VERTEX
  5
11F
330
FA
100
AcDbEntity
  8
OracDecor_panel_moldings
 62
    16
420
  8848902
100
AcDbVertex
100
AcDb3dPolylineVertex
 10
0.0
 20
10.80742263793945
 30
20.5390453338623
 70
    32
  0
VERTEX
  5
120
330
FA
100
AcDbEntity
  8
OracDecor_panel_moldings
 62
    16
420
  8848902
100
AcDbVertex
100
AcDb3dPolylineVertex
 10
0.0
 20
10.5134334564209
 30
19.65694427490234
 70
    32
  0
VERTEX
  5
121
330
FA
100
AcDbEntity
  8
OracDecor_panel_moldings
 62
    16
420
  8848902
100
AcDbVertex
100
AcDb3dPolylineVertex
 10
0.0
 20
10.31898880004883
 30
18.73597908020019
 70
    32
  0
VERTEX
  5
122
330
FA
100
AcDbEntity
  8
OracDecor_panel_moldings
 62
    16
420
  8848902
100
AcDbVertex
100
AcDb3dPolylineVertex
 10
0.0
 20
10.2100830078125
 30
17.85781860351562
 70
    32
  0
VERTEX
  5
123
330
FA
100
AcDbEntity
  8
OracDecor_panel_moldings
 62
    16
420
  8848902
100
AcDbVertex
100
AcDb3dPolylineVertex
 10
0.0
 20
10.14852333068847
 30
16.91010093688965
 70
    32
  0
VERTEX
  5
124
330
FA
100
AcDbEntity
  8
OracDecor_panel_moldings
 62
    16
420
  8848902
100
AcDbVertex
100
AcDb3dPolylineVertex
 10
0.0
 20
10.11756134033203
 30
15.96919250488281
 70
    32
  0
VERTEX
  5
125
330
FA
100
AcDbEntity
  8
OracDecor_panel_moldings
 62
    16
420
  8848902
100
AcDbVertex
100
AcDb3dPolylineVertex
 10
0.0
 20
10.10315418243408
 30
14.99882698059082
 70
    32
  0
VERTEX
  5
126
330
FA
100
AcDbEntity
  8
OracDecor_panel_moldings
 62
    16
420
  8848902
100
AcDbVertex
100
AcDb3dPolylineVertex
 10
0.0
 20
10.07826519012451
 30
14.01774978637695
 70
    32
  0
VERTEX
  5
127
330
FA
100
AcDbEntity
  8
OracDecor_panel_moldings
 62
    16
420
  8848902
100
AcDbVertex
100
AcDb3dPolylineVertex
 10
0.0
 20
10.0277738571167
 30
12.99390411376953
 70
    32
  0
VERTEX
  5
128
330
FA
100
AcDbEntity
  8
OracDecor_panel_moldings
 62
    16
420
  8848902
100
AcDbVertex
100
AcDb3dPolylineVertex
 10
0.0
 20
9.929615974426269
 30
12.03292846679687
 70
    32
  0
VERTEX
  5
129
330
FA
100
AcDbEntity
  8
OracDecor_panel_moldings
 62
    16
420
  8848902
100
AcDbVertex
100
AcDb3dPolylineVertex
 10
0.0
 20
9.761039733886718
 30
11.08845424652099
 70
    32
  0
VERTEX
  5
12A
330
FA
100
AcDbEntity
  8
OracDecor_panel_moldings
 62
    16
420
  8848902
100
AcDbVertex
100
AcDb3dPolylineVertex
 10
0.0
 20
9.51106834411621
 30
10.20441436767578
 70
    32
  0
VERTEX
  5
12B
330
FA
100
AcDbEntity
  8
OracDecor_panel_moldings
 62
    16
420
  8848902
100
AcDbVertex
100
AcDb3dPolylineVertex
 10
0.0
 20
9.171446800231933
 30
9.396503448486328
 70
    32
  0
VERTEX
  5
12C
330
FA
100
AcDbEntity
  8
OracDecor_panel_moldings
 62
    16
420
  8848902
100
AcDbVertex
100
AcDb3dPolylineVertex
 10
0.0
 20
8.722334861755371
 30
8.63820457458496
 70
    32
  0
VERTEX
  5
12D
330
FA
100
AcDbEntity
  8
OracDecor_panel_moldings
 62
    16
420
  8848902
100
AcDbVertex
100
AcDb3dPolylineVertex
 10
0.0
 20
8.1401948928833
 30
7.932439804077148
 70
    32
  0
VERTEX
  5
12E
330
FA
100
AcDbEntity
  8
OracDecor_panel_moldings
 62
    16
420
  8848902
100
AcDbVertex
100
AcDb3dPolylineVertex
 10
0.0
 20
7.350943088531494
 30
7.236734390258789
 70
    32
  0
VERTEX
  5
12F
330
FA
100
AcDbEntity
  8
OracDecor_panel_moldings
 62
    16
420
  8848902
100
AcDbVertex
100
AcDb3dPolylineVertex
 10
0.0
 20
6.359046936035156
 30
6.608194351196289
 70
    32
  0
VERTEX
  5
130
330
FA
100
AcDbEntity
  8
OracDecor_panel_moldings
 62
    16
420
  8848902
100
AcDbVertex
100
AcDb3dPolylineVertex
 10
0.0000038146972656
 20
5.365104675292968
 30
6.163398742675781
 70
    32
  0
VERTEX
  5
131
330
FA
100
AcDbEntity
  8
OracDecor_panel_moldings
 62
    16
420
  8848902
100
AcDbVertex
100
AcDb3dPolylineVertex
 10
0.0000038146972656
 20
5.162266731262207
 30
6.028182983398437
 70
    32
  0
VERTEX
  5
132
330
FA
100
AcDbEntity
  8
OracDecor_panel_moldings
 62
    16
420
  8848902
100
AcDbVertex
100
AcDb3dPolylineVertex
 10
0.0000038146972656
 20
5.040563583374023
 30
5.840387344360351
 70
    32
  0
VERTEX
  5
133
330
FA
100
AcDbEntity
  8
OracDecor_panel_moldings
 62
    16
420
  8848902
100
AcDbVertex
100
AcDb3dPolylineVertex
 10
0.0000038146972656
 20
4.999996662139892
 30
5.60000991821289
 70
    32
  0
VERTEX
  5
134
330
FA
100
AcDbEntity
  8
OracDecor_panel_moldings
 62
    16
420
  8848902
100
AcDbVertex
100
AcDb3dPolylineVertex
 10
0.0000038146972656
 20
4.99999713897705
 30
5.400009155273437
 70
    32
  0
VERTEX
  5
135
330
FA
100
AcDbEntity
  8
OracDecor_panel_moldings
 62
    16
420
  8848902
100
AcDbVertex
100
AcDb3dPolylineVertex
 10
0.0000038146972656
 20
5.044161796569824
 30
5.172807693481445
 70
    32
  0
VERTEX
  5
136
330
FA
100
AcDbEntity
  8
OracDecor_panel_moldings
 62
    16
420
  8848902
100
AcDbVertex
100
AcDb3dPolylineVertex
 10
0.0000038146972656
 20
5.176655769348144
 30
5.0245361328125
 70
    32
  0
VERTEX
  5
137
330
FA
100
AcDbEntity
  8
OracDecor_panel_moldings
 62
    16
420
  8848902
100
AcDbVertex
100
AcDb3dPolylineVertex
 10
0.0000038146972656
 20
5.397478103637695
 30
4.955194473266601
 70
    32
  0
VERTEX
  5
138
330
FA
100
AcDbEntity
  8
OracDecor_panel_moldings
 62
    16
420
  8848902
100
AcDbVertex
100
AcDb3dPolylineVertex
 10
0.0
 20
5.868044853210449
 30
4.801771163940429
 70
    32
  0
VERTEX
  5
139
330
FA
100
AcDbEntity
  8
OracDecor_panel_moldings
 62
    16
420
  8848902
100
AcDbVertex
100
AcDb3dPolylineVertex
 10
0.0
 20
6.24721622467041
 30
4.563390731811523
 70
    32
  0
VERTEX
  5
13A
330
FA
100
AcDbEntity
  8
OracDecor_panel_moldings
 62
    16
420
  8848902
100
AcDbVertex
100
AcDb3dPolylineVertex
 10
0.0
 20
6.563782691955566
 30
4.246665954589843
 70
    32
  0
VERTEX
  5
13B
330
FA
100
AcDbEntity
  8
OracDecor_panel_moldings
 62
    16
420
  8848902
100
AcDbVertex
100
AcDb3dPolylineVertex
 10
0.0
 20
6.801921844482421
 30
3.867496490478515
 70
    32
  0
VERTEX
  5
13C
330
FA
100
AcDbEntity
  8
OracDecor_panel_moldings
 62
    16
420
  8848902
100
AcDbVertex
100
AcDb3dPolylineVertex
 10
0.0
 20
6.949732780456542
 30
3.444889068603515
 70
    32
  0
VERTEX
  5
13D
330
FA
100
AcDbEntity
  8
OracDecor_panel_moldings
 62
    16
420
  8848902
100
AcDbVertex
100
AcDb3dPolylineVertex
 10
0.0
 20
6.99983787536621
 30
3.000011444091796
 70
    32
  0
VERTEX
  5
13E
330
FA
100
AcDbEntity
  8
OracDecor_panel_moldings
 62
    16
420
  8848902
100
AcDbVertex
100
AcDb3dPolylineVertex
 10
0.0
 20
6.949731826782226
 30
2.555131912231445
 70
    32
  0
VERTEX
  5
13F
330
FA
100
AcDbEntity
  8
OracDecor_panel_moldings
 62
    16
420
  8848902
100
AcDbVertex
100
AcDb3dPolylineVertex
 10
0.0
 20
6.801920890808105
 30
2.132524490356445
 70
    32
  0
VERTEX
  5
140
330
FA
100
AcDbEntity
  8
OracDecor_panel_moldings
 62
    16
420
  8848902
100
AcDbVertex
100
AcDb3dPolylineVertex
 10
0.0
 20
6.563780784606933
 30
1.753355026245117
 70
    32
  0
VERTEX
  5
141
330
FA
100
AcDbEntity
  8
OracDecor_panel_moldings
 62
    16
420
  8848902
100
AcDbVertex
100
AcDb3dPolylineVertex
 10
0.0
 20
6.247215270996093
 30
1.43663215637207
 70
    32
  0
VERTEX
  5
142
330
FA
100
AcDbEntity
  8
OracDecor_panel_moldings
 62
    16
420
  8848902
100
AcDbVertex
100
AcDb3dPolylineVertex
 10
0.0
 20
5.868043899536132
 30
1.198247909545898
 70
    32
  0
VERTEX
  5
143
330
FA
100
AcDbEntity
  8
OracDecor_panel_moldings
 62
    16
420
  8848902
100
AcDbVertex
100
AcDb3dPolylineVertex
 10
0.0000038146972656
 20
5.397476196289062
 30
1.044828414916992
 70
    32
  0
VERTEX
  5
144
330
FA
100
AcDbEntity
  8
OracDecor_panel_moldings
 62
    16
420
  8848902
100
AcDbVertex
100
AcDb3dPolylineVertex
 10
0.0000038146972656
 20
5.176653861999511
 30
0.9754848480224609
 70
    32
  0
VERTEX
  5
145
330
FA
100
AcDbEntity
  8
OracDecor_panel_moldings
 62
    16
420
  8848902
100
AcDbVertex
100
AcDb3dPolylineVertex
 10
0.0000038146972656
 20
5.044159889221191
 30
0.8272113800048828
 70
    32
  0
VERTEX
  5
146
330
FA
100
AcDbEntity
  8
OracDecor_panel_moldings
 62
    16
420
  8848902
100
AcDbVertex
100
AcDb3dPolylineVertex
 10
0.0000038146972656
 20
4.999995231628417
 30
0.6000099182128907
 70
    32
  0
VERTEX
  5
147
330
FA
100
AcDbEntity
  8
OracDecor_panel_moldings
 62
    16
420
  8848902
100
AcDbVertex
100
AcDb3dPolylineVertex
 10
0.0000038146972656
 20
4.999995231628417
 30
0.4000091552734375
 70
    32
  0
VERTEX
  5
148
330
FA
100
AcDbEntity
  8
OracDecor_panel_moldings
 62
    16
420
  8848902
100
AcDbVertex
100
AcDb3dPolylineVertex
 10
0.0000038146972656
 20
4.955551147460937
 30
0.1777877807617187
 70
    32
  0
VERTEX
  5
149
330
FA
100
AcDbEntity
  8
OracDecor_panel_moldings
 62
    16
420
  8848902
100
AcDbVertex
100
AcDb3dPolylineVertex
 10
0.0000038146972656
 20
4.822217941284179
 30
0.0444545745849609
 70
    32
  0
VERTEX
  5
14A
330
FA
100
AcDbEntity
  8
OracDecor_panel_moldings
 62
    16
420
  8848902
100
AcDbVertex
100
AcDb3dPolylineVertex
 10
0.0000038146972656
 20
4.599995613098144
 30
0.0000095367431641
 70
    32
  0
SEQEND
  5
14B
330
FA
100
AcDbEntity
  8
OracDecor_panel_moldings
 62
    16
420
  8848902
  0
ENDSEC
  0
SECTION
  2
OBJECTS
  0
DICTIONARY
  5
C
330
0
100
AcDbDictionary
281
     1
  3
ACAD_COLOR
350
DC
  3
ACAD_DETAILVIEWSTYLE
350
F5
  3
ACAD_GROUP
350
D
  3
ACAD_LAYOUT
350
1A
  3
ACAD_MATERIAL
350
AA
  3
ACAD_MLEADERSTYLE
350
F1
  3
ACAD_MLINESTYLE
350
17
  3
ACAD_PLOTSETTINGS
350
19
  3
ACAD_PLOTSTYLENAME
350
E
  3
ACAD_SCALELIST
350
DF
  3
ACAD_SECTIONVIEWSTYLE
350
F3
  3
ACAD_TABLESTYLE
350
DD
  3
ACAD_VISUALSTYLE
350
C3
  3
ACDB_RECOMPOSE_DATA
350
158
  3
AcDbVariableDictionary
350
14C
  0
DICTIONARY
  5
DC
102
{ACAD_REACTORS
330
C
102
}
330
C
100
AcDbDictionary
281
     1
  0
DICTIONARY
  5
F5
102
{ACAD_REACTORS
330
C
102
}
330
C
100
AcDbDictionary
281
     1
  3
Imperial24
350
F6
  0
DICTIONARY
  5
D
102
{ACAD_REACTORS
330
C
102
}
330
C
100
AcDbDictionary
281
     1
  0
DICTIONARY
  5
1A
102
{ACAD_REACTORS
330
C
102
}
330
C
100
AcDbDictionary
281
     1
  3
Layout1
350
1E
  3
Layout2
350
26
  3
Model
350
22
  0
DICTIONARY
  5
AA
102
{ACAD_REACTORS
330
C
102
}
330
C
100
AcDbDictionary
281
     1
  3
ByBlock
350
B3
  3
ByLayer
350
AB
  3
Global
350
BB
  0
DICTIONARY
  5
F1
102
{ACAD_REACTORS
330
C
102
}
330
C
100
AcDbDictionary
281
     1
  3
Standard
350
F2
  0
DICTIONARY
  5
17
102
{ACAD_REACTORS
330
C
102
}
330
C
100
AcDbDictionary
281
     1
  3
Standard
350
18
  0
DICTIONARY
  5
19
102
{ACAD_REACTORS
330
C
102
}
330
C
100
AcDbDictionary
281
     1
  0
ACDBDICTIONARYWDFLT
  5
E
102
{ACAD_REACTORS
330
C
102
}
330
C
100
AcDbDictionary
281
     1
  3
ByLayer
350
2D
  3
Normal
350
F
100
AcDbDictionaryWithDefault
340
F
  0
DICTIONARY
  5
DF
102
{ACAD_REACTORS
330
C
102
}
330
C
100
AcDbDictionary
281
     1
  3
A0
350
E0
  3
A1
350
E1
  3
A2
350
E2
  3
A3
350
E3
  3
A4
350
E4
  3
A5
350
E5
  3
A6
350
E6
  3
A7
350
E7
  3
A8
350
E8
  3
A9
350
E9
  3
B0
350
EA
  3
B1
350
EB
  3
B2
350
EC
  3
B3
350
ED
  3
B4
350
EE
  3
B5
350
EF
  3
B6
350
F0
  0
DICTIONARY
  5
F3
102
{ACAD_REACTORS
330
C
102
}
330
C
100
AcDbDictionary
281
     1
  3
Imperial24
350
F4
  0
DICTIONARY
  5
DD
102
{ACAD_REACTORS
330
C
102
}
330
C
100
AcDbDictionary
281
     1
  3
Standard
350
DE
  0
DICTIONARY
  5
C3
102
{ACAD_REACTORS
330
C
102
}
330
C
100
AcDbDictionary
281
     1
  3
2dWireframe
350
C9
  3
Basic
350
C8
  3
Brighten
350
CF
  3
ColorChange
350
D3
  3
Conceptual
350
CC
  3
Dim
350
CE
  3
EdgeColorOff
350
DB
  3
Facepattern
350
D2
  3
Flat
350
C4
  3
FlatWithEdges
350
C5
  3
Gouraud
350
C6
  3
GouraudWithEdges
350
C7
  3
Hidden
350
CB
  3
JitterOff
350
D9
  3
Linepattern
350
D1
  3
OverhangOff
350
DA
  3
Realistic
350
CD
  3
Shaded
350
D8
  3
Shaded with edges
350
D7
  3
Shades of Gray
350
D4
  3
Sketchy
350
D5
  3
Thicken
350
D0
  3
Wireframe
350
CA
  3
X-Ray
350
D6
  0
XRECORD
  5
158
102
{ACAD_REACTORS
330
C
102
}
330
C
100
AcDbXrecord
280
     1
 90
        1
330
DE
  0
DICTIONARY
  5
14C
102
{ACAD_REACTORS
330
C
102
}
330
C
100
AcDbDictionary
281
     1
  3
CANNOSCALE
350
152
  3
CMLEADERSTYLE
350
14E
  3
CTABLESTYLE
350
14D
  3
CVIEWDETAILSTYLE
350
14F
  3
CVIEWSECTIONSTYLE
350
150
  3
LAYEREVAL
350
154
  3
LAYERNOTIFY
350
155
  3
LIGHTINGUNITS
350
153
  3
MSLTSCALE
350
151
  0
ACDBDETAILVIEWSTYLE
  5
F6
102
{ACAD_XDICTIONARY
360
18D
102
}
102
{ACAD_REACTORS
330
F5
102
}
330
F5
100
AcDbModelDocViewStyle
 70
     0
  3
Imperial24
290
     0
100
AcDbDetailViewStyle
 70
     0
 71
     0
 90
        3
 71
     1
340
11
 62
   256
 40
0.24
340
0
 62
   256
 40
0.24
300

 40
0.36
280
     3
 71
     2
340
16
 90
       25
 62
   256
 71
     3
340
11
 62
   256
 40
0.24
 90
        1
 40
0.75
 90
        1
300
%<\AcVar ViewType \f "%tc1">% %<\AcVar ViewDetailId>%\PSCALE %<\AcVar ViewScale \f "%sn">%
 71
     4
340
16
 90
       25
 62
   256
340
16
 90
       25
 62
   256
280
     0
  0
LAYOUT
  5
1E
102
{ACAD_REACTORS
330
1A
102
}
330
1A
100
AcDbPlotSettings
  1

  2
\\KTXNTBDC\CASF2PN1
  4

  6

 40
0.0
 41
0.0
 42
0.0
 43
0.0
 44
0.0
 45
0.0
 46
0.0
 47
0.0
 48
0.0
 49
0.0
140
0.0
141
0.0
142
1.0
143
1.0
 70
   688
 72
     0
 73
     0
 74
     5
  7

 75
    16
147
1.0
 76
     0
 77
     2
 78
   300
148
0.0
149
0.0
100
AcDbLayout
  1
Layout1
 70
     1
 71
     1
 10
0.0
 20
0.0
 11
12.0
 21
9.0
 12
0.0
 22
0.0
 32
0.0
 14
1.000000000000000E+20
 24
1.000000000000000E+20
 34
1.000000000000000E+20
 15
-1.000000000000000E+20
 25
-1.000000000000000E+20
 35
-1.000000000000000E+20
146
0.0
 13
0.0
 23
0.0
 33
0.0
 16
1.0
 26
0.0
 36
0.0
 17
0.0
 27
1.0
 37
0.0
 76
     0
330
1B
  0
LAYOUT
  5
26
102
{ACAD_REACTORS
330
1A
102
}
330
1A
100
AcDbPlotSettings
  1

  2
\\KTXNTBDC\CASF2PN1
  4

  6

 40
0.0
 41
0.0
 42
0.0
 43
0.0
 44
0.0
 45
0.0
 46
0.0
 47
0.0
 48
0.0
 49
0.0
140
0.0
141
0.0
142
1.0
143
1.0
 70
   688
 72
     0
 73
     0
 74
     5
  7

 75
    16
147
1.0
 76
     0
 77
     2
 78
   300
148
0.0
149
0.0
100
AcDbLayout
  1
Layout2
 70
     1
 71
     2
 10
0.0
 20
0.0
 11
12.0
 21
9.0
 12
0.0
 22
0.0
 32
0.0
 14
0.0
 24
0.0
 34
0.0
 15
0.0
 25
0.0
 35
0.0
146
0.0
 13
0.0
 23
0.0
 33
0.0
 16
1.0
 26
0.0
 36
0.0
 17
0.0
 27
1.0
 37
0.0
 76
     0
330
23
  0
LAYOUT
  5
22
102
{ACAD_REACTORS
330
1A
102
}
330
1A
100
AcDbPlotSettings
  1

  2
\\KTXNTBDC\CASF2PN1
  4

  6

 40
0.0
 41
0.0
 42
0.0
 43
0.0
 44
0.0
 45
0.0
 46
0.0
 47
0.0
 48
0.0
 49
0.0
140
0.0
141
0.0
142
1.0
143
1.0
 70
  1712
 72
     0
 73
     0
 74
     0
  7

 75
     0
147
1.0
 76
     0
 77
     2
 78
   300
148
0.0
149
0.0
100
AcDbLayout
  1
Model
 70
     1
 71
     0
 10
0.0
 20
0.0
 11
12.0
 21
9.0
 12
0.0
 22
0.0
 32
0.0
 14
0.0
 24
0.0
 34
0.0
 15
0.0
 25
0.0
 35
0.0
146
0.0
 13
0.0
 23
0.0
 33
0.0
 16
1.0
 26
0.0
 36
0.0
 17
0.0
 27
1.0
 37
0.0
 76
     0
330
1F
  0
MATERIAL
  5
B3
102
{ACAD_XDICTIONARY
360
B4
102
}
102
{ACAD_REACTORS
330
AA
102
}
330
AA
100
AcDbMaterial
  1
ByBlock
 72
     0
 43
0.0208333333333333
 43
0.0
 43
0.0
 43
0.0
 43
0.0
 43
0.0208333333333333
 43
0.0
 43
0.0
 43
0.0
 43
0.0
 43
1.0
 43
0.0
 43
0.0
 43
0.0
 43
0.0
 43
1.0
 77
     0
 47
0.0208333333333333
 47
0.0
 47
0.0
 47
0.0
 47
0.0
 47
0.0208333333333333
 47
0.0
 47
0.0
 47
0.0
 47
0.0
 47
1.0
 47
0.0
 47
0.0
 47
0.0
 47
0.0
 47
1.0
171
     0
 49
0.0208333333333333
 49
0.0
 49
0.0
 49
0.0
 49
0.0
 49
0.0208333333333333
 49
0.0
 49
0.0
 49
0.0
 49
0.0
 49
1.0
 49
0.0
 49
0.0
 49
0.0
 49
0.0
 49
1.0
175
     0
142
0.0208333333333333
142
0.0
142
0.0
142
0.0
142
0.0
142
0.0208333333333333
142
0.0
142
0.0
142
0.0
142
0.0
142
1.0
142
0.0
142
0.0
142
0.0
142
0.0
142
1.0
179
     0
144
0.0208333333333333
144
0.0
144
0.0
144
0.0
144
0.0
144
0.0208333333333333
144
0.0
144
0.0
144
0.0
144
0.0
144
1.0
144
0.0
144
0.0
144
0.0
144
0.0
144
1.0
147
0.0208333333333333
147
0.0
147
0.0
147
0.0
147
0.0
147
0.0208333333333333
147
0.0
147
0.0
147
0.0
147
0.0
147
1.0
147
0.0
147
0.0
147
0.0
147
0.0
147
1.0
  0
MATERIAL
  5
AB
102
{ACAD_XDICTIONARY
360
AC
102
}
102
{ACAD_REACTORS
330
AA
102
}
330
AA
100
AcDbMaterial
  1
ByLayer
 72
     0
 43
0.0208333333333333
 43
0.0
 43
0.0
 43
0.0
 43
0.0
 43
0.0208333333333333
 43
0.0
 43
0.0
 43
0.0
 43
0.0
 43
1.0
 43
0.0
 43
0.0
 43
0.0
 43
0.0
 43
1.0
 77
     0
 47
0.0208333333333333
 47
0.0
 47
0.0
 47
0.0
 47
0.0
 47
0.0208333333333333
 47
0.0
 47
0.0
 47
0.0
 47
0.0
 47
1.0
 47
0.0
 47
0.0
 47
0.0
 47
0.0
 47
1.0
171
     0
 49
0.0208333333333333
 49
0.0
 49
0.0
 49
0.0
 49
0.0
 49
0.0208333333333333
 49
0.0
 49
0.0
 49
0.0
 49
0.0
 49
1.0
 49
0.0
 49
0.0
 49
0.0
 49
0.0
 49
1.0
175
     0
142
0.0208333333333333
142
0.0
142
0.0
142
0.0
142
0.0
142
0.0208333333333333
142
0.0
142
0.0
142
0.0
142
0.0
142
1.0
142
0.0
142
0.0
142
0.0
142
0.0
142
1.0
179
     0
144
0.0208333333333333
144
0.0
144
0.0
144
0.0
144
0.0
144
0.0208333333333333
144
0.0
144
0.0
144
0.0
144
0.0
144
1.0
144
0.0
144
0.0
144
0.0
144
0.0
144
1.0
147
0.0208333333333333
147
0.0
147
0.0
147
0.0
147
0.0
147
0.0208333333333333
147
0.0
147
0.0
147
0.0
147
0.0
147
1.0
147
0.0
147
0.0
147
0.0
147
0.0
147
1.0
  0
MATERIAL
  5
BB
102
{ACAD_XDICTIONARY
360
BC
102
}
102
{ACAD_REACTORS
330
AA
102
}
330
AA
100
AcDbMaterial
  1
Global
 72
     0
 43
0.0208333333333333
 43
0.0
 43
0.0
 43
0.0
 43
0.0
 43
0.0208333333333333
 43
0.0
 43
0.0
 43
0.0
 43
0.0
 43
1.0
 43
0.0
 43
0.0
 43
0.0
 43
0.0
 43
1.0
 77
     0
 47
0.0208333333333333
 47
0.0
 47
0.0
 47
0.0
 47
0.0
 47
0.0208333333333333
 47
0.0
 47
0.0
 47
0.0
 47
0.0
 47
1.0
 47
0.0
 47
0.0
 47
0.0
 47
0.0
 47
1.0
171
     0
 49
0.0208333333333333
 49
0.0
 49
0.0
 49
0.0
 49
0.0
 49
0.0208333333333333
 49
0.0
 49
0.0
 49
0.0
 49
0.0
 49
1.0
 49
0.0
 49
0.0
 49
0.0
 49
0.0
 49
1.0
175
     0
142
0.0208333333333333
142
0.0
142
0.0
142
0.0
142
0.0
142
0.0208333333333333
142
0.0
142
0.0
142
0.0
142
0.0
142
1.0
142
0.0
142
0.0
142
0.0
142
0.0
142
1.0
179
     0
144
0.0208333333333333
144
0.0
144
0.0
144
0.0
144
0.0
144
0.0208333333333333
144
0.0
144
0.0
144
0.0
144
0.0
144
1.0
144
0.0
144
0.0
144
0.0
144
0.0
144
1.0
147
0.0208333333333333
147
0.0
147
0.0
147
0.0
147
0.0
147
0.0208333333333333
147
0.0
147
0.0
147
0.0
147
0.0
147
1.0
147
0.0
147
0.0
147
0.0
147
0.0
147
1.0
  0
MLEADERSTYLE
  5
F2
102
{ACAD_XDICTIONARY
360
189
102
}
102
{ACAD_REACTORS
330
F1
102
}
330
F1
100
AcDbMLeaderStyle
179
     2
170
     2
171
     1
172
     0
 90
        2
 40
0.0
 41
0.0
173
     1
 91
-1056964608
340
14
 92
       -2
290
     1
 42
0.09
291
     1
 43
0.36
  3
Standard
 44
0.18
300

342
11
174
     1
178
     6
175
     1
176
     0
 93
-1056964608
 45
0.18
292
     0
297
     0
 46
0.18
 94
-1056964608
 47
1.0
 49
1.0
140
1.0
293
     1
141
0.0
294
     1
177
     0
142
1.0
295
     0
296
     0
143
0.125
271
     0
272
     9
273
     9
  0
MLINESTYLE
  5
18
102
{ACAD_REACTORS
330
17
102
}
330
17
100
AcDbMlineStyle
  2
STANDARD
 70
     0
  3

 62
   256
 51
90.0
 52
90.0
 71
     2
 49
0.5
 62
   256
  6
BYLAYER
 49
-0.5
 62
   256
  6
BYLAYER
  0
ACDBPLACEHOLDER
  5
2D
102
{ACAD_REACTORS
330
E
102
}
330
E
  0
ACDBPLACEHOLDER
  5
F
102
{ACAD_REACTORS
330
E
102
}
330
E
  0
SCALE
  5
E0
102
{ACAD_REACTORS
330
DF
102
}
330
DF
100
AcDbScale
 70
     0
300
1:1
140
1.0
141
1.0
290
     1
  0
SCALE
  5
E1
102
{ACAD_REACTORS
330
DF
102
}
330
DF
100
AcDbScale
 70
     0
300
1/128" = 1'-0"
140
0.0078125
141
12.0
290
     0
  0
SCALE
  5
E2
102
{ACAD_REACTORS
330
DF
102
}
330
DF
100
AcDbScale
 70
     0
300
1/64" = 1'-0"
140
0.015625
141
12.0
290
     0
  0
SCALE
  5
E3
102
{ACAD_REACTORS
330
DF
102
}
330
DF
100
AcDbScale
 70
     0
300
1/32" = 1'-0"
140
0.03125
141
12.0
290
     0
  0
SCALE
  5
E4
102
{ACAD_REACTORS
330
DF
102
}
330
DF
100
AcDbScale
 70
     0
300
1/16" = 1'-0"
140
0.0625
141
12.0
290
     0
  0
SCALE
  5
E5
102
{ACAD_REACTORS
330
DF
102
}
330
DF
100
AcDbScale
 70
     0
300
3/32" = 1'-0"
140
0.09375
141
12.0
290
     0
  0
SCALE
  5
E6
102
{ACAD_REACTORS
330
DF
102
}
330
DF
100
AcDbScale
 70
     0
300
1/8" = 1'-0"
140
0.125
141
12.0
290
     0
  0
SCALE
  5
E7
102
{ACAD_REACTORS
330
DF
102
}
330
DF
100
AcDbScale
 70
     0
300
3/16" = 1'-0"
140
0.1875
141
12.0
290
     0
  0
SCALE
  5
E8
102
{ACAD_REACTORS
330
DF
102
}
330
DF
100
AcDbScale
 70
     0
300
1/4" = 1'-0"
140
0.25
141
12.0
290
     0
  0
SCALE
  5
E9
102
{ACAD_REACTORS
330
DF
102
}
330
DF
100
AcDbScale
 70
     0
300
3/8" = 1'-0"
140
0.375
141
12.0
290
     0
  0
SCALE
  5
EA
102
{ACAD_REACTORS
330
DF
102
}
330
DF
100
AcDbScale
 70
     0
300
1/2" = 1'-0"
140
0.5
141
12.0
290
     0
  0
SCALE
  5
EB
102
{ACAD_REACTORS
330
DF
102
}
330
DF
100
AcDbScale
 70
     0
300
3/4" = 1'-0"
140
0.75
141
12.0
290
     0
  0
SCALE
  5
EC
102
{ACAD_REACTORS
330
DF
102
}
330
DF
100
AcDbScale
 70
     0
300
1" = 1'-0"
140
1.0
141
12.0
290
     0
  0
SCALE
  5
ED
102
{ACAD_REACTORS
330
DF
102
}
330
DF
100
AcDbScale
 70
     0
300
1-1/2" = 1'-0"
140
1.5
141
12.0
290
     0
  0
SCALE
  5
EE
102
{ACAD_REACTORS
330
DF
102
}
330
DF
100
AcDbScale
 70
     0
300
3" = 1'-0"
140
3.0
141
12.0
290
     0
  0
SCALE
  5
EF
102
{ACAD_REACTORS
330
DF
102
}
330
DF
100
AcDbScale
 70
     0
300
6" = 1'-0"
140
6.0
141
12.0
290
     0
  0
SCALE
  5
F0
102
{ACAD_REACTORS
330
DF
102
}
330
DF
100
AcDbScale
 70
     0
300
1'-0" = 1'-0"
140
12.0
141
12.0
290
     0
  0
ACDBSECTIONVIEWSTYLE
  5
F4
102
{ACAD_XDICTIONARY
360
18B
102
}
102
{ACAD_REACTORS
330
F3
102
}
330
F3
100
AcDbModelDocViewStyle
 70
     0
  3
Imperial24
290
     0
100
AcDbSectionViewStyle
 70
     0
 71
     0
 90
       78
 71
     1
340
11
 62
   256
 40
0.24
340
0
340
0
 62
   256
 40
0.24
300
I, O, Q, S, X, Z
 40
0.48
 90
        3
 40
0.18
 90
        1
 71
     2
340
16
 90
       25
 62
   256
340
16
 90
       50
 62
   256
 40
0.24
 40
0.0
 40
0.24
 71
     3
340
11
 62
   256
 40
0.24
 90
        1
 40
0.75
 90
        1
300
%<\AcVar ViewType \f "%tc1">% %<\AcVar ViewSectionStartId>%-%<\AcVar ViewSectionEndId>%\PSCALE %<\AcVar ViewScale \f "%sn">%
 71
     4
 62
   256
 62
   257
300
ANSI31
 40
1.0
 90
        0
290
     0
290
     0
 90
        6
 40
0.0
 40
1.570796326794896
 40
0.2617993877991494
 40
1.308996938995747
 40
-0.2617993877991494
 40
1.832595714594046
  0
TABLESTYLE
  5
DE
102
{ACAD_XDICTIONARY
360
156
102
}
102
{ACAD_REACTORS
330
DD
102
}
330
DD
100
AcDbTableStyle
280
     0
  3
Standard
 70
     0
 71
     0
 40
0.06
 41
0.06
280
     0
281
     0
  7
Standard
140
0.18
170
     2
 62
     0
 63
     7
283
     0
 90
      512
 91
        0
  1

274
    -2
284
     1
 64
     0
275
    -2
285
     1
 65
     0
276
    -2
286
     1
 66
     0
277
    -2
287
     1
 67
     0
278
    -2
288
     1
 68
     0
279
    -2
289
     1
 69
     0
  7
Standard
140
0.25
170
     5
 62
     0
 63
     7
283
     0
 90
      512
 91
        0
  1

274
    -2
284
     1
 64
     0
275
    -2
285
     1
 65
     0
276
    -2
286
     1
 66
     0
277
    -2
287
     1
 67
     0
278
    -2
288
     1
 68
     0
279
    -2
289
     1
 69
     0
  7
Standard
140
0.18
170
     5
 62
     0
 63
     7
283
     0
 90
      512
 91
        0
  1

274
    -2
284
     1
 64
     0
275
    -2
285
     1
 65
     0
276
    -2
286
     1
 66
     0
277
    -2
287
     1
 67
     0
278
    -2
288
     1
 68
     0
279
    -2
289
     1
 69
     0
  0
VISUALSTYLE
  5
C9
102
{ACAD_XDICTIONARY
360
163
102
}
102
{ACAD_REACTORS
330
C3
102
}
330
C3
100
AcDbVisualStyle
  2
2dWireframe
 70
     4
177
     2
291
     0
 71
     0
176
     1
 72
     2
176
     1
 73
     0
176
     1
 90
        0
176
     1
 40
0.6
176
     1
 41
30.0
176
     1
 63
     7
421
 16777215
176
     1
 74
     1
176
     1
 91
        4
176
     1
 64
     7
176
     1
 65
   257
176
     1
 75
     1
176
     1
175
     1
176
     1
 42
1.0
176
     1
 92
        0
176
     1
 66
   257
176
     1
 43
1.0
176
     1
 76
     1
176
     1
 77
     6
176
     1
 78
     2
176
     1
 67
     7
176
     1
 79
     5
176
     1
170
     0
176
     1
171
     0
176
     1
290
     0
176
     1
 93
        1
176
     1
 44
0.0
176
     1
173
     0
176
     1
1001
ACAD
1000
AcDbSavedByObjectVersion
1070
     0
  0
VISUALSTYLE
  5
C8
102
{ACAD_XDICTIONARY
360
161
102
}
102
{ACAD_REACTORS
330
C3
102
}
330
C3
100
AcDbVisualStyle
  2
Basic
 70
     7
177
     2
291
     1
 71
     1
176
     1
 72
     0
176
     1
 73
     1
176
     1
 90
        0
176
     1
 40
0.6
176
     1
 41
30.0
176
     1
 63
     7
421
 16777215
176
     1
 74
     0
176
     1
 91
        4
176
     1
 64
     7
176
     1
 65
   257
176
     1
 75
     1
176
     1
175
     1
176
     1
 42
1.0
176
     1
 92
        8
176
     1
 66
     7
176
     1
 43
1.0
176
     1
 76
     1
176
     1
 77
     6
176
     1
 78
     2
176
     1
 67
     7
176
     1
 79
     5
176
     1
170
     0
176
     1
171
     0
176
     1
290
     0
176
     1
 93
        1
176
     1
 44
0.0
176
     1
173
     0
176
     1
1001
ACAD
1000
AcDbSavedByObjectVersion
1070
     0
  0
VISUALSTYLE
  5
CF
102
{ACAD_XDICTIONARY
360
16F
102
}
102
{ACAD_REACTORS
330
C3
102
}
330
C3
100
AcDbVisualStyle
  2
Brighten
 70
    12
177
     2
291
     1
 71
     2
176
     1
 72
     2
176
     1
 73
     0
176
     1
 90
        0
176
     1
 40
0.6
176
     1
 41
30.0
176
     1
 63
     7
421
 16777215
176
     1
 74
     1
176
     1
 91
        4
176
     1
 64
     7
176
     1
 65
   257
176
     1
 75
     1
176
     1
175
     1
176
     1
 42
1.0
176
     1
 92
        8
176
     1
 66
     7
176
     1
 43
1.0
176
     1
 76
     1
176
     1
 77
     6
176
     1
 78
     2
176
     1
 67
     7
176
     1
 79
     5
176
     1
170
     0
176
     1
171
     0
176
     1
290
     0
176
     1
 93
        1
176
     1
 44
50.0
176
     1
173
     0
176
     1
1001
ACAD
1000
AcDbSavedByObjectVersion
1070
     0
  0
VISUALSTYLE
  5
D3
102
{ACAD_XDICTIONARY
360
177
102
}
102
{ACAD_REACTORS
330
C3
102
}
330
C3
100
AcDbVisualStyle
  2
ColorChange
 70
    16
177
     2
291
     1
 71
     2
176
     1
 72
     2
176
     1
 73
     3
176
     1
 90
        0
176
     1
 40
0.6
176
     1
 41
30.0
176
     1
 63
     8
421
  8421504
176
     1
 74
     1
176
     1
 91
        4
176
     1
 64
     7
176
     1
 65
   257
176
     1
 75
     1
176
     1
175
     1
176
     1
 42
1.0
176
     1
 92
        8
176
     1
 66
     8
424
  8421504
176
     1
 43
1.0
176
     1
 76
     1
176
     1
 77
     6
176
     1
 78
     2
176
     1
 67
     7
176
     1
 79
     5
176
     1
170
     0
176
     1
171
     0
176
     1
290
     0
176
     1
 93
        1
176
     1
 44
0.0
176
     1
173
     0
176
     1
1001
ACAD
1000
AcDbSavedByObjectVersion
1070
     0
  0
VISUALSTYLE
  5
CC
102
{ACAD_XDICTIONARY
360
169
102
}
102
{ACAD_REACTORS
330
C3
102
}
330
C3
100
AcDbVisualStyle
  2
Conceptual
 70
     9
177
     2
291
     0
 71
     3
176
     1
 72
     2
176
     1
 73
     0
176
     1
 90
        0
176
     1
 40
0.6
176
     1
 41
30.0
176
     1
 63
     7
421
 16777215
176
     1
 74
     2
176
     1
 91
        2
176
     1
 64
     7
176
     1
 65
   257
176
     1
 75
     1
176
     1
175
     1
176
     1
 42
179.0
176
     1
 92
        8
176
     1
 66
     7
176
     1
 43
1.0
176
     1
 76
     1
176
     1
 77
     6
176
     1
 78
     2
176
     1
 67
     7
176
     1
 79
     3
176
     1
170
     0
176
     1
171
     0
176
     1
290
     0
176
     1
 93
        1
176
     1
 44
0.0
176
     1
173
     0
176
     1
1001
ACAD
1000
AcDbSavedByObjectVersion
1070
     0
  0
VISUALSTYLE
  5
CE
102
{ACAD_XDICTIONARY
360
16D
102
}
102
{ACAD_REACTORS
330
C3
102
}
330
C3
100
AcDbVisualStyle
  2
Dim
 70
    11
177
     2
291
     1
 71
     2
176
     1
 72
     2
176
     1
 73
     0
176
     1
 90
        0
176
     1
 40
0.6
176
     1
 41
30.0
176
     1
 63
     7
421
 16777215
176
     1
 74
     1
176
     1
 91
        4
176
     1
 64
     7
176
     1
 65
   257
176
     1
 75
     1
176
     1
175
     1
176
     1
 42
1.0
176
     1
 92
        8
176
     1
 66
     7
176
     1
 43
1.0
176
     1
 76
     1
176
     1
 77
     6
176
     1
 78
     2
176
     1
 67
     7
176
     1
 79
     5
176
     1
170
     0
176
     1
171
     0
176
     1
290
     0
176
     1
 93
        1
176
     1
 44
-50.0
176
     1
173
     0
176
     1
1001
ACAD
1000
AcDbSavedByObjectVersion
1070
     0
  0
VISUALSTYLE
  5
DB
102
{ACAD_XDICTIONARY
360
187
102
}
102
{ACAD_REACTORS
330
C3
102
}
330
C3
100
AcDbVisualStyle
  2
EdgeColorOff
 70
    22
177
     2
291
     1
 71
     2
176
     0
 72
     2
176
     0
 73
     0
176
     0
 90
        0
176
     0
 40
0.6
176
     0
 41
30.0
176
     0
 63
     7
421
 16777215
176
     0
 74
     1
176
     0
 91
        4
176
     0
 64
     7
176
     0
 65
   257
176
     0
 75
     1
176
     0
175
     1
176
     0
 42
1.0
176
     0
 92
        8
176
     2
 66
     7
176
     0
 43
1.0
176
     0
 76
     1
176
     0
 77
     6
176
     0
 78
     2
176
     0
 67
     7
176
     0
 79
     5
176
     0
170
     0
176
     0
171
     0
176
     0
290
     0
176
     0
 93
        1
176
     0
 44
0.0
176
     0
173
     0
176
     0
1001
ACAD
1000
AcDbSavedByObjectVersion
1070
     0
  0
VISUALSTYLE
  5
D2
102
{ACAD_XDICTIONARY
360
175
102
}
102
{ACAD_REACTORS
330
C3
102
}
330
C3
100
AcDbVisualStyle
  2
Facepattern
 70
    15
177
     2
291
     1
 71
     2
176
     1
 72
     2
176
     1
 73
     0
176
     1
 90
        0
176
     1
 40
0.6
176
     1
 41
30.0
176
     1
 63
     7
421
 16777215
176
     1
 74
     1
176
     1
 91
        4
176
     1
 64
     7
176
     1
 65
   257
176
     1
 75
     1
176
     1
175
     1
176
     1
 42
1.0
176
     1
 92
        8
176
     1
 66
     7
176
     1
 43
1.0
176
     1
 76
     1
176
     1
 77
     6
176
     1
 78
     2
176
     1
 67
     7
176
     1
 79
     5
176
     1
170
     0
176
     1
171
     0
176
     1
290
     0
176
     1
 93
        1
176
     1
 44
0.0
176
     1
173
     0
176
     1
1001
ACAD
1000
AcDbSavedByObjectVersion
1070
     0
  0
VISUALSTYLE
  5
C4
102
{ACAD_XDICTIONARY
360
159
102
}
102
{ACAD_REACTORS
330
C3
102
}
330
C3
100
AcDbVisualStyle
  2
Flat
 70
     0
177
     2
291
     1
 71
     2
176
     1
 72
     1
176
     1
 73
     1
176
     1
 90
        2
176
     1
 40
0.6
176
     1
 41
30.0
176
     1
 63
     7
421
 16777215
176
     1
 74
     0
176
     1
 91
        0
176
     1
 64
     7
176
     1
 65
   257
176
     1
 75
     1
176
     1
175
     1
176
     1
 42
1.0
176
     1
 92
        8
176
     1
 66
     7
176
     1
 43
1.0
176
     1
 76
     1
176
     1
 77
     6
176
     1
 78
     2
176
     1
 67
     7
176
     1
 79
     5
176
     1
170
     0
176
     1
171
     0
176
     1
290
     0
176
     1
 93
       13
176
     1
 44
0.0
176
     1
173
     0
176
     1
1001
ACAD
1000
AcDbSavedByObjectVersion
1070
     0
  0
VISUALSTYLE
  5
C5
102
{ACAD_XDICTIONARY
360
15B
102
}
102
{ACAD_REACTORS
330
C3
102
}
330
C3
100
AcDbVisualStyle
  2
FlatWithEdges
 70
     1
177
     2
291
     1
 71
     2
176
     1
 72
     1
176
     1
 73
     1
176
     1
 90
        2
176
     1
 40
0.6
176
     1
 41
30.0
176
     1
 63
     7
421
 16777215
176
     1
 74
     1
176
     1
 91
        0
176
     1
 64
     7
176
     1
 65
   257
176
     1
 75
     1
176
     1
175
     1
176
     1
 42
1.0
176
     1
 92
        0
176
     1
 66
   257
176
     1
 43
1.0
176
     1
 76
     1
176
     1
 77
     6
176
     1
 78
     2
176
     1
 67
     7
176
     1
 79
     5
176
     1
170
     0
176
     1
171
     0
176
     1
290
     0
176
     1
 93
       13
176
     1
 44
0.0
176
     1
173
     0
176
     1
1001
ACAD
1000
AcDbSavedByObjectVersion
1070
     0
  0
VISUALSTYLE
  5
C6
102
{ACAD_XDICTIONARY
360
15D
102
}
102
{ACAD_REACTORS
330
C3
102
}
330
C3
100
AcDbVisualStyle
  2
Gouraud
 70
     2
177
     2
291
     1
 71
     2
176
     1
 72
     2
176
     1
 73
     1
176
     1
 90
        2
176
     1
 40
0.6
176
     1
 41
30.0
176
     1
 63
     7
421
 16777215
176
     1
 74
     0
176
     1
 91
        0
176
     1
 64
     7
176
     1
 65
   257
176
     1
 75
     1
176
     1
175
     1
176
     1
 42
1.0
176
     1
 92
        0
176
     1
 66
     7
176
     1
 43
1.0
176
     1
 76
     1
176
     1
 77
     6
176
     1
 78
     2
176
     1
 67
     7
176
     1
 79
     5
176
     1
170
     0
176
     1
171
     0
176
     1
290
     0
176
     1
 93
       13
176
     1
 44
0.0
176
     1
173
     0
176
     1
1001
ACAD
1000
AcDbSavedByObjectVersion
1070
     0
  0
VISUALSTYLE
  5
C7
102
{ACAD_XDICTIONARY
360
15F
102
}
102
{ACAD_REACTORS
330
C3
102
}
330
C3
100
AcDbVisualStyle
  2
GouraudWithEdges
 70
     3
177
     2
291
     1
 71
     2
176
     1
 72
     2
176
     1
 73
     1
176
     1
 90
        2
176
     1
 40
0.6
176
     1
 41
30.0
176
     1
 63
     7
421
 16777215
176
     1
 74
     1
176
     1
 91
        0
176
     1
 64
     7
176
     1
 65
   257
176
     1
 75
     1
176
     1
175
     1
176
     1
 42
1.0
176
     1
 92
        0
176
     1
 66
   257
176
     1
 43
1.0
176
     1
 76
     1
176
     1
 77
     6
176
     1
 78
     2
176
     1
 67
     7
176
     1
 79
     5
176
     1
170
     0
176
     1
171
     0
176
     1
290
     0
176
     1
 93
       13
176
     1
 44
0.0
176
     1
173
     0
176
     1
1001
ACAD
1000
AcDbSavedByObjectVersion
1070
     0
  0
VISUALSTYLE
  5
CB
102
{ACAD_XDICTIONARY
360
167
102
}
102
{ACAD_REACTORS
330
C3
102
}
330
C3
100
AcDbVisualStyle
  2
Hidden
 70
     6
177
     2
291
     0
 71
     1
176
     1
 72
     2
176
     1
 73
     2
176
     1
 90
        0
176
     1
 40
0.6
176
     1
 41
30.0
176
     1
 63
     7
421
 16777215
176
     1
 74
     2
176
     1
 91
        2
176
     1
 64
     7
176
     1
 65
   257
176
     1
 75
     2
176
     1
175
     1
176
     1
 42
40.0
176
     1
 92
        0
176
     1
 66
   257
176
     1
 43
1.0
176
     1
 76
     1
176
     1
 77
     6
176
     1
 78
     2
176
     1
 67
     7
176
     1
 79
     3
176
     1
170
     0
176
     1
171
     0
176
     1
290
     0
176
     1
 93
        1
176
     1
 44
0.0
176
     1
173
     0
176
     1
1001
ACAD
1000
AcDbSavedByObjectVersion
1070
     0
  0
VISUALSTYLE
  5
D9
102
{ACAD_XDICTIONARY
360
183
102
}
102
{ACAD_REACTORS
330
C3
102
}
330
C3
100
AcDbVisualStyle
  2
JitterOff
 70
    20
177
     2
291
     1
 71
     2
176
     0
 72
     2
176
     0
 73
     0
176
     0
 90
        0
176
     0
 40
0.6
176
     0
 41
30.0
176
     0
 63
     7
421
 16777215
176
     0
 74
     1
176
     0
 91
        4
176
     0
 64
     7
176
     0
 65
   257
176
     0
 75
     1
176
     0
175
     1
176
     0
 42
1.0
176
     0
 92
       10
176
     2
 66
     7
176
     0
 43
1.0
176
     0
 76
     1
176
     0
 77
     6
176
     0
 78
     2
176
     0
 67
     7
176
     0
 79
     5
176
     0
170
     0
176
     0
171
     0
176
     0
290
     0
176
     0
 93
        1
176
     0
 44
0.0
176
     0
173
     0
176
     0
1001
ACAD
1000
AcDbSavedByObjectVersion
1070
     0
  0
VISUALSTYLE
  5
D1
102
{ACAD_XDICTIONARY
360
173
102
}
102
{ACAD_REACTORS
330
C3
102
}
330
C3
100
AcDbVisualStyle
  2
Linepattern
 70
    14
177
     2
291
     1
 71
     2
176
     1
 72
     2
176
     1
 73
     0
176
     1
 90
        0
176
     1
 40
0.6
176
     1
 41
30.0
176
     1
 63
     7
421
 16777215
176
     1
 74
     1
176
     1
 91
        4
176
     1
 64
     7
176
     1
 65
   257
176
     1
 75
     7
176
     1
175
     7
176
     1
 42
1.0
176
     1
 92
        8
176
     1
 66
     7
176
     1
 43
1.0
176
     1
 76
     1
176
     1
 77
     6
176
     1
 78
     2
176
     1
 67
     7
176
     1
 79
     5
176
     1
170
     0
176
     1
171
     0
176
     1
290
     0
176
     1
 93
        1
176
     1
 44
0.0
176
     1
173
     0
176
     1
1001
ACAD
1000
AcDbSavedByObjectVersion
1070
     0
  0
VISUALSTYLE
  5
DA
102
{ACAD_XDICTIONARY
360
185
102
}
102
{ACAD_REACTORS
330
C3
102
}
330
C3
100
AcDbVisualStyle
  2
OverhangOff
 70
    21
177
     2
291
     1
 71
     2
176
     0
 72
     2
176
     0
 73
     0
176
     0
 90
        0
176
     0
 40
0.6
176
     0
 41
30.0
176
     0
 63
     7
421
 16777215
176
     0
 74
     1
176
     0
 91
        4
176
     0
 64
     7
176
     0
 65
   257
176
     0
 75
     1
176
     0
175
     1
176
     0
 42
1.0
176
     0
 92
        9
176
     2
 66
     7
176
     0
 43
1.0
176
     0
 76
     1
176
     0
 77
     6
176
     0
 78
     2
176
     0
 67
     7
176
     0
 79
     5
176
     0
170
     0
176
     0
171
     0
176
     0
290
     0
176
     0
 93
        1
176
     0
 44
0.0
176
     0
173
     0
176
     0
1001
ACAD
1000
AcDbSavedByObjectVersion
1070
     0
  0
VISUALSTYLE
  5
CD
102
{ACAD_XDICTIONARY
360
16B
102
}
102
{ACAD_REACTORS
330
C3
102
}
330
C3
100
AcDbVisualStyle
  2
Realistic
 70
     8
177
     2
291
     0
 71
     2
176
     1
 72
     3
176
     1
 73
     0
176
     1
 90
        2
176
     1
 40
0.6
176
     1
 41
30.0
176
     1
 63
     7
421
 16777215
176
     1
 74
     0
176
     1
 91
        0
176
     1
 64
     7
176
     1
 65
   257
176
     1
 75
     1
176
     1
175
     1
176
     1
 42
1.0
176
     1
 92
        8
176
     1
 66
   257
176
     1
 43
1.0
176
     1
 76
     1
176
     1
 77
     6
176
     1
 78
     2
176
     1
 67
     7
176
     1
 79
     3
176
     1
170
     0
176
     1
171
     0
176
     1
290
     0
176
     1
 93
       13
176
     1
 44
0.0
176
     1
173
     0
176
     1
1001
ACAD
1000
AcDbSavedByObjectVersion
1070
     0
  0
VISUALSTYLE
  5
D8
102
{ACAD_XDICTIONARY
360
181
102
}
102
{ACAD_REACTORS
330
C3
102
}
330
C3
100
AcDbVisualStyle
  2
Shaded
 70
    27
177
     2
291
     0
 71
     2
176
     1
 72
     2
176
     1
 73
     1
176
     1
 90
        2
176
     1
 40
0.6
176
     1
 41
30.0
176
     1
 63
     7
421
 16777215
176
     1
 74
     0
176
     1
 91
        4
176
     1
 64
     7
176
     1
 65
   257
176
     1
 75
     1
176
     1
175
     1
176
     1
 42
1.0
176
     1
 92
        8
176
     1
 66
   257
176
     1
 43
1.0
176
     1
 76
     1
176
     1
 77
     6
176
     1
 78
     2
176
     1
 67
     8
425
  7895160
176
     1
 79
     3
176
     1
170
     0
176
     1
171
     0
176
     1
290
     0
176
     1
 93
        5
176
     1
 44
0.0
176
     1
173
     0
176
     1
1001
ACAD
1000
AcDbSavedByObjectVersion
1070
     0
  0
VISUALSTYLE
  5
D7
102
{ACAD_XDICTIONARY
360
17F
102
}
102
{ACAD_REACTORS
330
C3
102
}
330
C3
100
AcDbVisualStyle
  2
Shaded with edges
 70
    26
177
     2
291
     0
 71
     2
176
     1
 72
     2
176
     1
 73
     1
176
     1
 90
        2
176
     1
 40
0.6
176
     1
 41
30.0
176
     1
 63
     7
421
 16777215
176
     1
 74
     1
176
     1
 91
       10
176
     1
 64
     7
176
     1
 65
   257
176
     1
 75
     2
176
     1
175
     1
176
     1
 42
1.0
176
     1
 92
        8
176
     1
 66
   257
176
     1
 43
1.0
176
     1
 76
     1
176
     1
 77
     6
176
     1
 78
     2
176
     1
 67
     7
176
     1
 79
     3
176
     1
170
     0
176
     1
171
     0
176
     1
290
     0
176
     1
 93
        5
176
     1
 44
0.0
176
     1
173
     0
176
     1
1001
ACAD
1000
AcDbSavedByObjectVersion
1070
     0
  0
VISUALSTYLE
  5
D4
102
{ACAD_XDICTIONARY
360
179
102
}
102
{ACAD_REACTORS
330
C3
102
}
330
C3
100
AcDbVisualStyle
  2
Shades of Gray
 70
    23
177
     2
291
     0
 71
     2
176
     1
 72
     2
176
     1
 73
     3
176
     1
 90
        0
176
     1
 40
0.6
176
     1
 41
30.0
176
     1
 63
     7
421
 16777215
176
     1
 74
     2
176
     1
 91
        2
176
     1
 64
     7
176
     1
 65
     7
176
     1
 75
     1
176
     1
175
     1
176
     1
 42
40.0
176
     1
 92
        8
176
     1
 66
     7
176
     1
 43
1.0
176
     1
 76
     1
176
     1
 77
     6
176
     1
 78
     2
176
     1
 67
     7
176
     1
 79
     3
176
     1
170
     0
176
     1
171
     0
176
     1
290
     0
176
     1
 93
        1
176
     1
 44
0.0
176
     1
173
     0
176
     1
1001
ACAD
1000
AcDbSavedByObjectVersion
1070
     0
  0
VISUALSTYLE
  5
D5
102
{ACAD_XDICTIONARY
360
17B
102
}
102
{ACAD_REACTORS
330
C3
102
}
330
C3
100
AcDbVisualStyle
  2
Sketchy
 70
    24
177
     2
291
     0
 71
     1
176
     1
 72
     2
176
     1
 73
     2
176
     1
 90
        0
176
     1
 40
0.6
176
     1
 41
30.0
176
     1
 63
     7
421
 16777215
176
     1
 74
     2
176
     1
 91
        2
176
     1
 64
     7
176
     1
 65
     7
176
     1
 75
     1
176
     1
175
     1
176
     1
 42
40.0
176
     1
 92
       11
176
     1
 66
     7
176
     1
 43
1.0
176
     1
 76
     1
176
     1
 77
     6
176
     1
 78
     2
176
     1
 67
     7
176
     1
 79
     6
176
     1
170
     0
176
     1
171
     0
176
     1
290
     0
176
     1
 93
        1
176
     1
 44
0.0
176
     1
173
     0
176
     1
1001
ACAD
1000
AcDbSavedByObjectVersion
1070
     0
  0
VISUALSTYLE
  5
D0
102
{ACAD_XDICTIONARY
360
171
102
}
102
{ACAD_REACTORS
330
C3
102
}
330
C3
100
AcDbVisualStyle
  2
Thicken
 70
    13
177
     2
291
     1
 71
     2
176
     1
 72
     2
176
     1
 73
     0
176
     1
 90
        0
176
     1
 40
0.6
176
     1
 41
30.0
176
     1
 63
     7
421
 16777215
176
     1
 74
     1
176
     1
 91
        4
176
     1
 64
     7
176
     1
 65
   257
176
     1
 75
     1
176
     1
175
     1
176
     1
 42
1.0
176
     1
 92
       12
176
     1
 66
     7
176
     1
 43
1.0
176
     1
 76
     1
176
     1
 77
     6
176
     1
 78
     2
176
     1
 67
     7
176
     1
 79
     5
176
     1
170
     0
176
     1
171
     0
176
     1
290
     0
176
     1
 93
        1
176
     1
 44
0.0
176
     1
173
     0
176
     1
1001
ACAD
1000
AcDbSavedByObjectVersion
1070
     0
  0
VISUALSTYLE
  5
CA
102
{ACAD_XDICTIONARY
360
165
102
}
102
{ACAD_REACTORS
330
C3
102
}
330
C3
100
AcDbVisualStyle
  2
Wireframe
 70
     5
177
     2
291
     0
 71
     0
176
     1
 72
     2
176
     1
 73
     0
176
     1
 90
        0
176
     1
 40
0.6
176
     1
 41
30.0
176
     1
 63
     7
421
 16777215
176
     1
 74
     1
176
     1
 91
        4
176
     1
 64
     7
176
     1
 65
   257
176
     1
 75
     1
176
     1
175
     1
176
     1
 42
1.0
176
     1
 92
        0
176
     1
 66
   257
176
     1
 43
1.0
176
     1
 76
     1
176
     1
 77
     6
176
     1
 78
     2
176
     1
 67
     7
176
     1
 79
     3
176
     1
170
     0
176
     1
171
     0
176
     1
290
     0
176
     1
 93
        1
176
     1
 44
0.0
176
     1
173
     0
176
     1
1001
ACAD
1000
AcDbSavedByObjectVersion
1070
     0
  0
VISUALSTYLE
  5
D6
102
{ACAD_XDICTIONARY
360
17D
102
}
102
{ACAD_REACTORS
330
C3
102
}
330
C3
100
AcDbVisualStyle
  2
X-Ray
 70
    25
177
     2
291
     0
 71
     2
176
     1
 72
     2
176
     1
 73
     1
176
     1
 90
        1
176
     1
 40
0.5
176
     1
 41
30.0
176
     1
 63
     7
421
 16777215
176
     1
 74
     1
176
     1
 91
        0
176
     1
 64
     7
176
     1
 65
   257
176
     1
 75
     1
176
     1
175
     1
176
     1
 42
1.0
176
     1
 92
        8
176
     1
 66
     7
176
     1
 43
1.0
176
     1
 76
     1
176
     1
 77
     6
176
     1
 78
     2
176
     1
 67
     7
176
     1
 79
     3
176
     1
170
     0
176
     1
171
     0
176
     1
290
     0
176
     1
 93
       13
176
     1
 44
0.0
176
     1
173
     0
176
     1
1001
ACAD
1000
AcDbSavedByObjectVersion
1070
     0
  0
DICTIONARYVAR
  5
152
102
{ACAD_REACTORS
330
14C
102
}
330
14C
100
DictionaryVariables
280
     0
  1
1:1
  0
DICTIONARYVAR
  5
14E
102
{ACAD_REACTORS
330
14C
102
}
330
14C
100
DictionaryVariables
280
     0
  1
STANDARD
  0
DICTIONARYVAR
  5
14D
102
{ACAD_REACTORS
330
14C
102
}
330
14C
100
DictionaryVariables
280
     0
  1
STANDARD
  0
DICTIONARYVAR
  5
14F
102
{ACAD_REACTORS
330
14C
102
}
330
14C
100
DictionaryVariables
280
     0
  1
Imperial24
  0
DICTIONARYVAR
  5
150
102
{ACAD_REACTORS
330
14C
102
}
330
14C
100
DictionaryVariables
280
     0
  1
Imperial24
  0
DICTIONARYVAR
  5
154
102
{ACAD_REACTORS
330
14C
102
}
330
14C
100
DictionaryVariables
280
     0
  1
1
  0
DICTIONARYVAR
  5
155
102
{ACAD_REACTORS
330
14C
102
}
330
14C
100
DictionaryVariables
280
     0
  1
15
  0
DICTIONARYVAR
  5
153
102
{ACAD_REACTORS
330
14C
102
}
330
14C
100
DictionaryVariables
280
     0
  1
0
  0
DICTIONARYVAR
  5
151
102
{ACAD_REACTORS
330
14C
102
}
330
14C
100
DictionaryVariables
280
     0
  1
0
  0
DICTIONARY
  5
18D
330
F6
100
AcDbDictionary
280
     1
281
     1
  3
ACAD_XREC_ROUNDTRIP
360
18E
  0
DICTIONARY
  5
B4
330
B3
100
AcDbDictionary
280
     1
281
     1
  3
BUMPTILE
360
B6
  3
DIFFUSETILE
360
B5
  3
OPACITYTILE
360
B9
  3
REFLECTIONTILE
360
B8
  3
REFRACTIONTILE
360
BA
  3
SPECULARTILE
360
B7
  0
DICTIONARY
  5
AC
330
AB
100
AcDbDictionary
280
     1
281
     1
  3
BUMPTILE
360
AE
  3
DIFFUSETILE
360
AD
  3
OPACITYTILE
360
B1
  3
REFLECTIONTILE
360
B0
  3
REFRACTIONTILE
360
B2
  3
SPECULARTILE
360
AF
  0
DICTIONARY
  5
BC
330
BB
100
AcDbDictionary
280
     1
281
     1
  3
BUMPTILE
360
BE
  3
DIFFUSETILE
360
BD
  3
OPACITYTILE
360
C1
  3
REFLECTIONTILE
360
C0
  3
REFRACTIONTILE
360
C2
  3
SPECULARTILE
360
BF
  0
DICTIONARY
  5
189
330
F2
100
AcDbDictionary
280
     1
281
     1
  3
ACAD_XREC_ROUNDTRIP
360
18A
  0
DICTIONARY
  5
18B
330
F4
100
AcDbDictionary
280
     1
281
     1
  3
ACAD_XREC_ROUNDTRIP
360
18C
  0
DICTIONARY
  5
156
330
DE
100
AcDbDictionary
280
     1
281
     1
  3
ACAD_ROUNDTRIP_2008_TABLESTYLE_CELLSTYLEMAP
360
157
  0
DICTIONARY
  5
163
330
C9
100
AcDbDictionary
280
     1
281
     1
  3
ACAD_XREC_ROUNDTRIP
360
164
  0
DICTIONARY
  5
161
330
C8
100
AcDbDictionary
280
     1
281
     1
  3
ACAD_XREC_ROUNDTRIP
360
162
  0
DICTIONARY
  5
16F
330
CF
100
AcDbDictionary
280
     1
281
     1
  3
ACAD_XREC_ROUNDTRIP
360
170
  0
DICTIONARY
  5
177
330
D3
100
AcDbDictionary
280
     1
281
     1
  3
ACAD_XREC_ROUNDTRIP
360
178
  0
DICTIONARY
  5
169
330
CC
100
AcDbDictionary
280
     1
281
     1
  3
ACAD_XREC_ROUNDTRIP
360
16A
  0
DICTIONARY
  5
16D
330
CE
100
AcDbDictionary
280
     1
281
     1
  3
ACAD_XREC_ROUNDTRIP
360
16E
  0
DICTIONARY
  5
187
330
DB
100
AcDbDictionary
280
     1
281
     1
  3
ACAD_XREC_ROUNDTRIP
360
188
  0
DICTIONARY
  5
175
330
D2
100
AcDbDictionary
280
     1
281
     1
  3
ACAD_XREC_ROUNDTRIP
360
176
  0
DICTIONARY
  5
159
330
C4
100
AcDbDictionary
280
     1
281
     1
  3
ACAD_XREC_ROUNDTRIP
360
15A
  0
DICTIONARY
  5
15B
330
C5
100
AcDbDictionary
280
     1
281
     1
  3
ACAD_XREC_ROUNDTRIP
360
15C
  0
DICTIONARY
  5
15D
330
C6
100
AcDbDictionary
280
     1
281
     1
  3
ACAD_XREC_ROUNDTRIP
360
15E
  0
DICTIONARY
  5
15F
330
C7
100
AcDbDictionary
280
     1
281
     1
  3
ACAD_XREC_ROUNDTRIP
360
160
  0
DICTIONARY
  5
167
330
CB
100
AcDbDictionary
280
     1
281
     1
  3
ACAD_XREC_ROUNDTRIP
360
168
  0
DICTIONARY
  5
183
330
D9
100
AcDbDictionary
280
     1
281
     1
  3
ACAD_XREC_ROUNDTRIP
360
184
  0
DICTIONARY
  5
173
330
D1
100
AcDbDictionary
280
     1
281
     1
  3
ACAD_XREC_ROUNDTRIP
360
174
  0
DICTIONARY
  5
185
330
DA
100
AcDbDictionary
280
     1
281
     1
  3
ACAD_XREC_ROUNDTRIP
360
186
  0
DICTIONARY
  5
16B
330
CD
100
AcDbDictionary
280
     1
281
     1
  3
ACAD_XREC_ROUNDTRIP
360
16C
  0
DICTIONARY
  5
181
330
D8
100
AcDbDictionary
280
     1
281
     1
  3
ACAD_XREC_ROUNDTRIP
360
182
  0
DICTIONARY
  5
17F
330
D7
100
AcDbDictionary
280
     1
281
     1
  3
ACAD_XREC_ROUNDTRIP
360
180
  0
DICTIONARY
  5
179
330
D4
100
AcDbDictionary
280
     1
281
     1
  3
ACAD_XREC_ROUNDTRIP
360
17A
  0
DICTIONARY
  5
17B
330
D5
100
AcDbDictionary
280
     1
281
     1
  3
ACAD_XREC_ROUNDTRIP
360
17C
  0
DICTIONARY
  5
171
330
D0
100
AcDbDictionary
280
     1
281
     1
  3
ACAD_XREC_ROUNDTRIP
360
172
  0
DICTIONARY
  5
165
330
CA
100
AcDbDictionary
280
     1
281
     1
  3
ACAD_XREC_ROUNDTRIP
360
166
  0
DICTIONARY
  5
17D
330
D6
100
AcDbDictionary
280
     1
281
     1
  3
ACAD_XREC_ROUNDTRIP
360
17E
  0
XRECORD
  5
18E
102
{ACAD_REACTORS
330
18D
102
}
330
18D
100
AcDbXrecord
280
     1
102
DISPLAYNAME
  1
Imperial24
102
FLAGS
 90
        0
  0
XRECORD
  5
B6
102
{ACAD_REACTORS
330
B4
102
}
330
B4
100
AcDbXrecord
280
     1
270
     1
271
     1
  0
XRECORD
  5
B5
102
{ACAD_REACTORS
330
B4
102
}
330
B4
100
AcDbXrecord
280
     1
270
     1
271
     1
  0
XRECORD
  5
B9
102
{ACAD_REACTORS
330
B4
102
}
330
B4
100
AcDbXrecord
280
     1
270
     1
271
     1
  0
XRECORD
  5
B8
102
{ACAD_REACTORS
330
B4
102
}
330
B4
100
AcDbXrecord
280
     1
270
     1
271
     1
  0
XRECORD
  5
BA
102
{ACAD_REACTORS
330
B4
102
}
330
B4
100
AcDbXrecord
280
     1
270
     1
271
     1
  0
XRECORD
  5
B7
102
{ACAD_REACTORS
330
B4
102
}
330
B4
100
AcDbXrecord
280
     1
270
     1
271
     1
  0
XRECORD
  5
AE
102
{ACAD_REACTORS
330
AC
102
}
330
AC
100
AcDbXrecord
280
     1
270
     1
271
     1
  0
XRECORD
  5
AD
102
{ACAD_REACTORS
330
AC
102
}
330
AC
100
AcDbXrecord
280
     1
270
     1
271
     1
  0
XRECORD
  5
B1
102
{ACAD_REACTORS
330
AC
102
}
330
AC
100
AcDbXrecord
280
     1
270
     1
271
     1
  0
XRECORD
  5
B0
102
{ACAD_REACTORS
330
AC
102
}
330
AC
100
AcDbXrecord
280
     1
270
     1
271
     1
  0
XRECORD
  5
B2
102
{ACAD_REACTORS
330
AC
102
}
330
AC
100
AcDbXrecord
280
     1
270
     1
271
     1
  0
XRECORD
  5
AF
102
{ACAD_REACTORS
330
AC
102
}
330
AC
100
AcDbXrecord
280
     1
270
     1
271
     1
  0
XRECORD
  5
BE
102
{ACAD_REACTORS
330
BC
102
}
330
BC
100
AcDbXrecord
280
     1
270
     1
271
     1
  0
XRECORD
  5
BD
102
{ACAD_REACTORS
330
BC
102
}
330
BC
100
AcDbXrecord
280
     1
270
     1
271
     1
  0
XRECORD
  5
C1
102
{ACAD_REACTORS
330
BC
102
}
330
BC
100
AcDbXrecord
280
     1
270
     1
271
     1
  0
XRECORD
  5
C0
102
{ACAD_REACTORS
330
BC
102
}
330
BC
100
AcDbXrecord
280
     1
270
     1
271
     1
  0
XRECORD
  5
C2
102
{ACAD_REACTORS
330
BC
102
}
330
BC
100
AcDbXrecord
280
     1
270
     1
271
     1
  0
XRECORD
  5
BF
102
{ACAD_REACTORS
330
BC
102
}
330
BC
100
AcDbXrecord
280
     1
270
     1
271
     1
  0
XRECORD
  5
18A
102
{ACAD_REACTORS
330
189
102
}
330
189
100
AcDbXrecord
280
     1
102
ACAD_ROUNDTRIP_2012_MLEADER_STYLE
298
     1
  0
XRECORD
  5
18C
102
{ACAD_REACTORS
330
18B
102
}
330
18B
100
AcDbXrecord
280
     1
102
DISPLAYNAME
  1
Imperial24
102
FLAGS
 90
        0
  0
CELLSTYLEMAP
  5
157
102
{ACAD_REACTORS
330
156
102
}
330
156
100
AcDbCellStyleMap
 90
        3
300
CELLSTYLE
  1
TABLEFORMAT_BEGIN
 90
        5
170
     1
 91
        0
 92
    32768
 62
   257
 93
        1
300
CONTENTFORMAT
  1
CONTENTFORMAT_BEGIN
 90
        0
 91
        0
 92
      512
 93
        0
300

 40
0.0
140
1.0
 94
        5
 62
     0
340
11
144
0.25
309
CONTENTFORMAT_END
171
     0
 94
        0
309
TABLEFORMAT_END
  1
CELLSTYLE_BEGIN
 90
        1
 91
        1
300
_TITLE
309
CELLSTYLE_END
300
CELLSTYLE
  1
TABLEFORMAT_BEGIN
 90
        5
170
     1
 91
        0
 92
        0
 62
   257
 93
        1
300
CONTENTFORMAT
  1
CONTENTFORMAT_BEGIN
 90
        0
 91
        0
 92
      512
 93
        0
300

 40
0.0
140
1.0
 94
        5
 62
     0
340
11
144
0.18
309
CONTENTFORMAT_END
171
     0
 94
        0
309
TABLEFORMAT_END
  1
CELLSTYLE_BEGIN
 90
        2
 91
        1
300
_HEADER
309
CELLSTYLE_END
300
CELLSTYLE
  1
TABLEFORMAT_BEGIN
 90
        5
170
     1
 91
        0
 92
        0
 62
   257
 93
        1
300
CONTENTFORMAT
  1
CONTENTFORMAT_BEGIN
 90
        0
 91
        0
 92
      512
 93
        0
300

 40
0.0
140
1.0
 94
        2
 62
     0
340
11
144
0.18
309
CONTENTFORMAT_END
171
     0
 94
        0
309
TABLEFORMAT_END
  1
CELLSTYLE_BEGIN
 90
        3
 91
        2
300
_DATA
309
CELLSTYLE_END
  0
XRECORD
  5
164
102
{ACAD_REACTORS
330
163
102
}
330
163
100
AcDbXrecord
280
     1
102
RTVSPost2010Prop28
280
     1
102
RTVSPost2010PropOp28
 70
     1
102
RTVSPost2010Prop29
280
     1
102
RTVSPost2010PropOp29
 70
     1
102
RTVSPost2010Prop30
280
     0
102
RTVSPost2010PropOp30
 70
     1
102
RTVSPost2010Prop31
280
     0
102
RTVSPost2010PropOp31
 70
     1
102
RTVSPost2010Prop32
280
     0
102
RTVSPost2010PropOp32
 70
     1
102
RTVSPost2010Prop33
280
     0
102
RTVSPost2010PropOp33
 70
     1
102
RTVSPost2010Prop34
280
     0
102
RTVSPost2010PropOp34
 70
     1
102
RTVSPost2010Prop35
280
     0
102
RTVSPost2010PropOp35
 70
     1
102
RTVSPost2010Prop36
280
     0
102
RTVSPost2010PropOp36
 70
     1
102
RTVSPost2010Prop37
 90
       50
102
RTVSPost2010PropOp37
 70
     1
102
RTVSPost2010Prop38
140
0.0
102
RTVSPost2010PropOp38
 70
     1
102
RTVSPost2010Prop39
140
1.0
102
RTVSPost2010PropOp39
 70
     1
102
RTVSPost2010Prop40
 90
        0
102
RTVSPost2010PropOp40
 70
     1
102
RTVSPost2010Prop41ColorIndex
 90
       18
102
RTVSPost2010Prop41ColorRGB
 90
        0
102
RTVSPost2010PropOp41
 70
     1
102
RTVSPost2010Prop42
 90
       50
102
RTVSPost2010PropOp42
 70
     1
102
RTVSPost2010Prop43
 90
        3
102
RTVSPost2010PropOp43
 70
     1
102
RTVSPost2010Prop44ColorIndex
 90
        5
102
RTVSPost2010Prop44ColorRGB
 90
      255
102
RTVSPost2010PropOp44
 70
     1
102
RTVSPost2010Prop45
280
     0
102
RTVSPost2010PropOp45
 70
     1
102
RTVSPost2010Prop46
 90
       50
102
RTVSPost2010PropOp46
 70
     1
102
RTVSPost2010Prop47
 90
       50
102
RTVSPost2010PropOp47
 70
     1
102
RTVSPost2010Prop48
 90
       50
102
RTVSPost2010PropOp48
 70
     1
102
RTVSPost2010Prop49
280
     0
102
RTVSPost2010PropOp49
 70
     1
102
RTVSPost2010Prop50
 90
       50
102
RTVSPost2010PropOp50
 70
     1
102
RTVSPost2010Prop51ColorIndex
 90
      256
102
RTVSPost2010Prop51ColorRGB
 90
-16777216
102
RTVSPost2010PropOp51
 70
     0
102
RTVSPost2010Prop52
140
1.0
102
RTVSPost2010PropOp52
 70
     0
102
RTVSPost2010Prop53
 90
        2
102
RTVSPost2010PropOp53
 70
     1
102
RTVSPost2010Prop54
  1
strokes_ogs.tif
102
RTVSPost2010PropOp54
 70
     1
102
RTVSPost2010Prop55
280
     0
102
RTVSPost2010PropOp55
 70
     1
102
RTVSPost2010Prop56
140
1.0
102
RTVSPost2010PropOp56
 70
     1
102
RTVSPost2010Prop57
140
1.0
102
RTVSPost2010PropOp57
 70
     1
  0
XRECORD
  5
162
102
{ACAD_REACTORS
330
161
102
}
330
161
100
AcDbXrecord
280
     1
102
RTVSPost2010Prop28
280
     0
102
RTVSPost2010PropOp28
 70
     1
102
RTVSPost2010Prop29
280
     1
102
RTVSPost2010PropOp29
 70
     1
102
RTVSPost2010Prop30
280
     1
102
RTVSPost2010PropOp30
 70
     1
102
RTVSPost2010Prop31
280
     0
102
RTVSPost2010PropOp31
 70
     1
102
RTVSPost2010Prop32
280
     0
102
RTVSPost2010PropOp32
 70
     1
102
RTVSPost2010Prop33
280
     0
102
RTVSPost2010PropOp33
 70
     1
102
RTVSPost2010Prop34
280
     0
102
RTVSPost2010PropOp34
 70
     1
102
RTVSPost2010Prop35
280
     0
102
RTVSPost2010PropOp35
 70
     1
102
RTVSPost2010Prop36
280
     0
102
RTVSPost2010PropOp36
 70
     1
102
RTVSPost2010Prop37
 90
       50
102
RTVSPost2010PropOp37
 70
     1
102
RTVSPost2010Prop38
140
0.0
102
RTVSPost2010PropOp38
 70
     1
102
RTVSPost2010Prop39
140
1.0
102
RTVSPost2010PropOp39
 70
     1
102
RTVSPost2010Prop40
 90
        0
102
RTVSPost2010PropOp40
 70
     1
102
RTVSPost2010Prop41ColorIndex
 90
       18
102
RTVSPost2010Prop41ColorRGB
 90
        0
102
RTVSPost2010PropOp41
 70
     1
102
RTVSPost2010Prop42
 90
       50
102
RTVSPost2010PropOp42
 70
     1
102
RTVSPost2010Prop43
 90
        3
102
RTVSPost2010PropOp43
 70
     1
102
RTVSPost2010Prop44ColorIndex
 90
        5
102
RTVSPost2010Prop44ColorRGB
 90
      255
102
RTVSPost2010PropOp44
 70
     1
102
RTVSPost2010Prop45
280
     0
102
RTVSPost2010PropOp45
 70
     1
102
RTVSPost2010Prop46
 90
       50
102
RTVSPost2010PropOp46
 70
     1
102
RTVSPost2010Prop47
 90
       50
102
RTVSPost2010PropOp47
 70
     1
102
RTVSPost2010Prop48
 90
       50
102
RTVSPost2010PropOp48
 70
     1
102
RTVSPost2010Prop49
280
     0
102
RTVSPost2010PropOp49
 70
     1
102
RTVSPost2010Prop50
 90
       50
102
RTVSPost2010PropOp50
 70
     1
102
RTVSPost2010Prop51ColorIndex
 90
      256
102
RTVSPost2010Prop51ColorRGB
 90
-16777216
102
RTVSPost2010PropOp51
 70
     0
102
RTVSPost2010Prop52
140
1.0
102
RTVSPost2010PropOp52
 70
     0
102
RTVSPost2010Prop53
 90
        2
102
RTVSPost2010PropOp53
 70
     1
102
RTVSPost2010Prop54
  1
strokes_ogs.tif
102
RTVSPost2010PropOp54
 70
     1
102
RTVSPost2010Prop55
280
     0
102
RTVSPost2010PropOp55
 70
     1
102
RTVSPost2010Prop56
140
1.0
102
RTVSPost2010PropOp56
 70
     1
102
RTVSPost2010Prop57
140
1.0
102
RTVSPost2010PropOp57
 70
     1
  0
XRECORD
  5
170
102
{ACAD_REACTORS
330
16F
102
}
330
16F
100
AcDbXrecord
280
     1
102
RTVSPost2010Prop28
280
     0
102
RTVSPost2010PropOp28
 70
     1
102
RTVSPost2010Prop29
280
     1
102
RTVSPost2010PropOp29
 70
     1
102
RTVSPost2010Prop30
280
     1
102
RTVSPost2010PropOp30
 70
     1
102
RTVSPost2010Prop31
280
     0
102
RTVSPost2010PropOp31
 70
     1
102
RTVSPost2010Prop32
280
     0
102
RTVSPost2010PropOp32
 70
     1
102
RTVSPost2010Prop33
280
     0
102
RTVSPost2010PropOp33
 70
     1
102
RTVSPost2010Prop34
280
     0
102
RTVSPost2010PropOp34
 70
     1
102
RTVSPost2010Prop35
280
     0
102
RTVSPost2010PropOp35
 70
     1
102
RTVSPost2010Prop36
280
     0
102
RTVSPost2010PropOp36
 70
     1
102
RTVSPost2010Prop37
 90
       50
102
RTVSPost2010PropOp37
 70
     1
102
RTVSPost2010Prop38
140
0.0
102
RTVSPost2010PropOp38
 70
     1
102
RTVSPost2010Prop39
140
1.0
102
RTVSPost2010PropOp39
 70
     1
102
RTVSPost2010Prop40
 90
        0
102
RTVSPost2010PropOp40
 70
     1
102
RTVSPost2010Prop41ColorIndex
 90
       18
102
RTVSPost2010Prop41ColorRGB
 90
        0
102
RTVSPost2010PropOp41
 70
     1
102
RTVSPost2010Prop42
 90
       50
102
RTVSPost2010PropOp42
 70
     1
102
RTVSPost2010Prop43
 90
        3
102
RTVSPost2010PropOp43
 70
     1
102
RTVSPost2010Prop44ColorIndex
 90
        5
102
RTVSPost2010Prop44ColorRGB
 90
      255
102
RTVSPost2010PropOp44
 70
     1
102
RTVSPost2010Prop45
280
     0
102
RTVSPost2010PropOp45
 70
     1
102
RTVSPost2010Prop46
 90
       50
102
RTVSPost2010PropOp46
 70
     1
102
RTVSPost2010Prop47
 90
       50
102
RTVSPost2010PropOp47
 70
     1
102
RTVSPost2010Prop48
 90
       50
102
RTVSPost2010PropOp48
 70
     1
102
RTVSPost2010Prop49
280
     0
102
RTVSPost2010PropOp49
 70
     1
102
RTVSPost2010Prop50
 90
       50
102
RTVSPost2010PropOp50
 70
     1
102
RTVSPost2010Prop51ColorIndex
 90
      256
102
RTVSPost2010Prop51ColorRGB
 90
-16777216
102
RTVSPost2010PropOp51
 70
     0
102
RTVSPost2010Prop52
140
1.0
102
RTVSPost2010PropOp52
 70
     0
102
RTVSPost2010Prop53
 90
        2
102
RTVSPost2010PropOp53
 70
     1
102
RTVSPost2010Prop54
  1
strokes_ogs.tif
102
RTVSPost2010PropOp54
 70
     1
102
RTVSPost2010Prop55
280
     0
102
RTVSPost2010PropOp55
 70
     1
102
RTVSPost2010Prop56
140
1.0
102
RTVSPost2010PropOp56
 70
     1
102
RTVSPost2010Prop57
140
1.0
102
RTVSPost2010PropOp57
 70
     1
  0
XRECORD
  5
178
102
{ACAD_REACTORS
330
177
102
}
330
177
100
AcDbXrecord
280
     1
102
RTVSPost2010Prop28
280
     0
102
RTVSPost2010PropOp28
 70
     1
102
RTVSPost2010Prop29
280
     1
102
RTVSPost2010PropOp29
 70
     1
102
RTVSPost2010Prop30
280
     1
102
RTVSPost2010PropOp30
 70
     1
102
RTVSPost2010Prop31
280
     0
102
RTVSPost2010PropOp31
 70
     1
102
RTVSPost2010Prop32
280
     0
102
RTVSPost2010PropOp32
 70
     1
102
RTVSPost2010Prop33
280
     0
102
RTVSPost2010PropOp33
 70
     1
102
RTVSPost2010Prop34
280
     0
102
RTVSPost2010PropOp34
 70
     1
102
RTVSPost2010Prop35
280
     0
102
RTVSPost2010PropOp35
 70
     1
102
RTVSPost2010Prop36
280
     0
102
RTVSPost2010PropOp36
 70
     1
102
RTVSPost2010Prop37
 90
       50
102
RTVSPost2010PropOp37
 70
     1
102
RTVSPost2010Prop38
140
0.0
102
RTVSPost2010PropOp38
 70
     1
102
RTVSPost2010Prop39
140
1.0
102
RTVSPost2010PropOp39
 70
     1
102
RTVSPost2010Prop40
 90
        0
102
RTVSPost2010PropOp40
 70
     1
102
RTVSPost2010Prop41ColorIndex
 90
       18
102
RTVSPost2010Prop41ColorRGB
 90
        0
102
RTVSPost2010PropOp41
 70
     1
102
RTVSPost2010Prop42
 90
       50
102
RTVSPost2010PropOp42
 70
     1
102
RTVSPost2010Prop43
 90
        3
102
RTVSPost2010PropOp43
 70
     1
102
RTVSPost2010Prop44ColorIndex
 90
        5
102
RTVSPost2010Prop44ColorRGB
 90
      255
102
RTVSPost2010PropOp44
 70
     1
102
RTVSPost2010Prop45
280
     0
102
RTVSPost2010PropOp45
 70
     1
102
RTVSPost2010Prop46
 90
       50
102
RTVSPost2010PropOp46
 70
     1
102
RTVSPost2010Prop47
 90
       50
102
RTVSPost2010PropOp47
 70
     1
102
RTVSPost2010Prop48
 90
       50
102
RTVSPost2010PropOp48
 70
     1
102
RTVSPost2010Prop49
280
     0
102
RTVSPost2010PropOp49
 70
     1
102
RTVSPost2010Prop50
 90
       50
102
RTVSPost2010PropOp50
 70
     1
102
RTVSPost2010Prop51ColorIndex
 90
      256
102
RTVSPost2010Prop51ColorRGB
 90
-16777216
102
RTVSPost2010PropOp51
 70
     0
102
RTVSPost2010Prop52
140
1.0
102
RTVSPost2010PropOp52
 70
     0
102
RTVSPost2010Prop53
 90
        2
102
RTVSPost2010PropOp53
 70
     1
102
RTVSPost2010Prop54
  1
strokes_ogs.tif
102
RTVSPost2010PropOp54
 70
     1
102
RTVSPost2010Prop55
280
     0
102
RTVSPost2010PropOp55
 70
     1
102
RTVSPost2010Prop56
140
1.0
102
RTVSPost2010PropOp56
 70
     1
102
RTVSPost2010Prop57
140
1.0
102
RTVSPost2010PropOp57
 70
     1
  0
XRECORD
  5
16A
102
{ACAD_REACTORS
330
169
102
}
330
169
100
AcDbXrecord
280
     1
102
RTVSPost2010Prop28
280
     0
102
RTVSPost2010PropOp28
 70
     1
102
RTVSPost2010Prop29
280
     1
102
RTVSPost2010PropOp29
 70
     1
102
RTVSPost2010Prop30
280
     1
102
RTVSPost2010PropOp30
 70
     1
102
RTVSPost2010Prop31
280
     0
102
RTVSPost2010PropOp31
 70
     1
102
RTVSPost2010Prop32
280
     0
102
RTVSPost2010PropOp32
 70
     1
102
RTVSPost2010Prop33
280
     0
102
RTVSPost2010PropOp33
 70
     1
102
RTVSPost2010Prop34
280
     0
102
RTVSPost2010PropOp34
 70
     1
102
RTVSPost2010Prop35
280
     0
102
RTVSPost2010PropOp35
 70
     1
102
RTVSPost2010Prop36
280
     0
102
RTVSPost2010PropOp36
 70
     1
102
RTVSPost2010Prop37
 90
       50
102
RTVSPost2010PropOp37
 70
     1
102
RTVSPost2010Prop38
140
0.0
102
RTVSPost2010PropOp38
 70
     1
102
RTVSPost2010Prop39
140
1.0
102
RTVSPost2010PropOp39
 70
     1
102
RTVSPost2010Prop40
 90
        0
102
RTVSPost2010PropOp40
 70
     1
102
RTVSPost2010Prop41ColorIndex
 90
       18
102
RTVSPost2010Prop41ColorRGB
 90
        0
102
RTVSPost2010PropOp41
 70
     1
102
RTVSPost2010Prop42
 90
       50
102
RTVSPost2010PropOp42
 70
     1
102
RTVSPost2010Prop43
 90
        3
102
RTVSPost2010PropOp43
 70
     1
102
RTVSPost2010Prop44ColorIndex
 90
        5
102
RTVSPost2010Prop44ColorRGB
 90
      255
102
RTVSPost2010PropOp44
 70
     1
102
RTVSPost2010Prop45
280
     0
102
RTVSPost2010PropOp45
 70
     1
102
RTVSPost2010Prop46
 90
       50
102
RTVSPost2010PropOp46
 70
     1
102
RTVSPost2010Prop47
 90
       50
102
RTVSPost2010PropOp47
 70
     1
102
RTVSPost2010Prop48
 90
       50
102
RTVSPost2010PropOp48
 70
     1
102
RTVSPost2010Prop49
280
     0
102
RTVSPost2010PropOp49
 70
     1
102
RTVSPost2010Prop50
 90
       50
102
RTVSPost2010PropOp50
 70
     1
102
RTVSPost2010Prop51ColorIndex
 90
      256
102
RTVSPost2010Prop51ColorRGB
 90
-16777216
102
RTVSPost2010PropOp51
 70
     0
102
RTVSPost2010Prop52
140
1.0
102
RTVSPost2010PropOp52
 70
     0
102
RTVSPost2010Prop53
 90
        2
102
RTVSPost2010PropOp53
 70
     1
102
RTVSPost2010Prop54
  1
strokes_ogs.tif
102
RTVSPost2010PropOp54
 70
     1
102
RTVSPost2010Prop55
280
     0
102
RTVSPost2010PropOp55
 70
     1
102
RTVSPost2010Prop56
140
1.0
102
RTVSPost2010PropOp56
 70
     1
102
RTVSPost2010Prop57
140
1.0
102
RTVSPost2010PropOp57
 70
     1
  0
XRECORD
  5
16E
102
{ACAD_REACTORS
330
16D
102
}
330
16D
100
AcDbXrecord
280
     1
102
RTVSPost2010Prop28
280
     0
102
RTVSPost2010PropOp28
 70
     1
102
RTVSPost2010Prop29
280
     1
102
RTVSPost2010PropOp29
 70
     1
102
RTVSPost2010Prop30
280
     1
102
RTVSPost2010PropOp30
 70
     1
102
RTVSPost2010Prop31
280
     0
102
RTVSPost2010PropOp31
 70
     1
102
RTVSPost2010Prop32
280
     0
102
RTVSPost2010PropOp32
 70
     1
102
RTVSPost2010Prop33
280
     0
102
RTVSPost2010PropOp33
 70
     1
102
RTVSPost2010Prop34
280
     0
102
RTVSPost2010PropOp34
 70
     1
102
RTVSPost2010Prop35
280
     0
102
RTVSPost2010PropOp35
 70
     1
102
RTVSPost2010Prop36
280
     0
102
RTVSPost2010PropOp36
 70
     1
102
RTVSPost2010Prop37
 90
       50
102
RTVSPost2010PropOp37
 70
     1
102
RTVSPost2010Prop38
140
0.0
102
RTVSPost2010PropOp38
 70
     1
102
RTVSPost2010Prop39
140
1.0
102
RTVSPost2010PropOp39
 70
     1
102
RTVSPost2010Prop40
 90
        0
102
RTVSPost2010PropOp40
 70
     1
102
RTVSPost2010Prop41ColorIndex
 90
       18
102
RTVSPost2010Prop41ColorRGB
 90
        0
102
RTVSPost2010PropOp41
 70
     1
102
RTVSPost2010Prop42
 90
       50
102
RTVSPost2010PropOp42
 70
     1
102
RTVSPost2010Prop43
 90
        3
102
RTVSPost2010PropOp43
 70
     1
102
RTVSPost2010Prop44ColorIndex
 90
        5
102
RTVSPost2010Prop44ColorRGB
 90
      255
102
RTVSPost2010PropOp44
 70
     1
102
RTVSPost2010Prop45
280
     0
102
RTVSPost2010PropOp45
 70
     1
102
RTVSPost2010Prop46
 90
       50
102
RTVSPost2010PropOp46
 70
     1
102
RTVSPost2010Prop47
 90
       50
102
RTVSPost2010PropOp47
 70
     1
102
RTVSPost2010Prop48
 90
       50
102
RTVSPost2010PropOp48
 70
     1
102
RTVSPost2010Prop49
280
     0
102
RTVSPost2010PropOp49
 70
     1
102
RTVSPost2010Prop50
 90
       50
102
RTVSPost2010PropOp50
 70
     1
102
RTVSPost2010Prop51ColorIndex
 90
      256
102
RTVSPost2010Prop51ColorRGB
 90
-16777216
102
RTVSPost2010PropOp51
 70
     0
102
RTVSPost2010Prop52
140
1.0
102
RTVSPost2010PropOp52
 70
     0
102
RTVSPost2010Prop53
 90
        2
102
RTVSPost2010PropOp53
 70
     1
102
RTVSPost2010Prop54
  1
strokes_ogs.tif
102
RTVSPost2010PropOp54
 70
     1
102
RTVSPost2010Prop55
280
     0
102
RTVSPost2010PropOp55
 70
     1
102
RTVSPost2010Prop56
140
1.0
102
RTVSPost2010PropOp56
 70
     1
102
RTVSPost2010Prop57
140
1.0
102
RTVSPost2010PropOp57
 70
     1
  0
XRECORD
  5
188
102
{ACAD_REACTORS
330
187
102
}
330
187
100
AcDbXrecord
280
     1
102
RTVSPost2010Prop28
280
     0
102
RTVSPost2010PropOp28
 70
     0
102
RTVSPost2010Prop29
280
     1
102
RTVSPost2010PropOp29
 70
     0
102
RTVSPost2010Prop30
280
     1
102
RTVSPost2010PropOp30
 70
     0
102
RTVSPost2010Prop31
280
     0
102
RTVSPost2010PropOp31
 70
     0
102
RTVSPost2010Prop32
280
     0
102
RTVSPost2010PropOp32
 70
     0
102
RTVSPost2010Prop33
280
     0
102
RTVSPost2010PropOp33
 70
     0
102
RTVSPost2010Prop34
280
     0
102
RTVSPost2010PropOp34
 70
     0
102
RTVSPost2010Prop35
280
     0
102
RTVSPost2010PropOp35
 70
     0
102
RTVSPost2010Prop36
280
     0
102
RTVSPost2010PropOp36
 70
     0
102
RTVSPost2010Prop37
 90
       50
102
RTVSPost2010PropOp37
 70
     0
102
RTVSPost2010Prop38
140
0.0
102
RTVSPost2010PropOp38
 70
     0
102
RTVSPost2010Prop39
140
1.0
102
RTVSPost2010PropOp39
 70
     0
102
RTVSPost2010Prop40
 90
        0
102
RTVSPost2010PropOp40
 70
     0
102
RTVSPost2010Prop41ColorIndex
 90
       18
102
RTVSPost2010Prop41ColorRGB
 90
        0
102
RTVSPost2010PropOp41
 70
     0
102
RTVSPost2010Prop42
 90
       50
102
RTVSPost2010PropOp42
 70
     0
102
RTVSPost2010Prop43
 90
        3
102
RTVSPost2010PropOp43
 70
     0
102
RTVSPost2010Prop44ColorIndex
 90
        5
102
RTVSPost2010Prop44ColorRGB
 90
      255
102
RTVSPost2010PropOp44
 70
     0
102
RTVSPost2010Prop45
280
     0
102
RTVSPost2010PropOp45
 70
     0
102
RTVSPost2010Prop46
 90
       50
102
RTVSPost2010PropOp46
 70
     0
102
RTVSPost2010Prop47
 90
       50
102
RTVSPost2010PropOp47
 70
     0
102
RTVSPost2010Prop48
 90
       50
102
RTVSPost2010PropOp48
 70
     0
102
RTVSPost2010Prop49
280
     0
102
RTVSPost2010PropOp49
 70
     0
102
RTVSPost2010Prop50
 90
       50
102
RTVSPost2010PropOp50
 70
     0
102
RTVSPost2010Prop51ColorIndex
 90
      256
102
RTVSPost2010Prop51ColorRGB
 90
-16777216
102
RTVSPost2010PropOp51
 70
     0
102
RTVSPost2010Prop52
140
1.0
102
RTVSPost2010PropOp52
 70
     0
102
RTVSPost2010Prop53
 90
        2
102
RTVSPost2010PropOp53
 70
     0
102
RTVSPost2010Prop54
  1
strokes_ogs.tif
102
RTVSPost2010PropOp54
 70
     0
102
RTVSPost2010Prop55
280
     0
102
RTVSPost2010PropOp55
 70
     0
102
RTVSPost2010Prop56
140
1.0
102
RTVSPost2010PropOp56
 70
     0
102
RTVSPost2010Prop57
140
1.0
102
RTVSPost2010PropOp57
 70
     0
  0
XRECORD
  5
176
102
{ACAD_REACTORS
330
175
102
}
330
175
100
AcDbXrecord
280
     1
102
RTVSPost2010Prop28
280
     0
102
RTVSPost2010PropOp28
 70
     1
102
RTVSPost2010Prop29
280
     1
102
RTVSPost2010PropOp29
 70
     1
102
RTVSPost2010Prop30
280
     1
102
RTVSPost2010PropOp30
 70
     1
102
RTVSPost2010Prop31
280
     0
102
RTVSPost2010PropOp31
 70
     1
102
RTVSPost2010Prop32
280
     0
102
RTVSPost2010PropOp32
 70
     1
102
RTVSPost2010Prop33
280
     0
102
RTVSPost2010PropOp33
 70
     1
102
RTVSPost2010Prop34
280
     0
102
RTVSPost2010PropOp34
 70
     1
102
RTVSPost2010Prop35
280
     0
102
RTVSPost2010PropOp35
 70
     1
102
RTVSPost2010Prop36
280
     0
102
RTVSPost2010PropOp36
 70
     1
102
RTVSPost2010Prop37
 90
       50
102
RTVSPost2010PropOp37
 70
     1
102
RTVSPost2010Prop38
140
0.0
102
RTVSPost2010PropOp38
 70
     1
102
RTVSPost2010Prop39
140
1.0
102
RTVSPost2010PropOp39
 70
     1
102
RTVSPost2010Prop40
 90
        0
102
RTVSPost2010PropOp40
 70
     1
102
RTVSPost2010Prop41ColorIndex
 90
       18
102
RTVSPost2010Prop41ColorRGB
 90
        0
102
RTVSPost2010PropOp41
 70
     1
102
RTVSPost2010Prop42
 90
       50
102
RTVSPost2010PropOp42
 70
     1
102
RTVSPost2010Prop43
 90
        3
102
RTVSPost2010PropOp43
 70
     1
102
RTVSPost2010Prop44ColorIndex
 90
        5
102
RTVSPost2010Prop44ColorRGB
 90
      255
102
RTVSPost2010PropOp44
 70
     1
102
RTVSPost2010Prop45
280
     0
102
RTVSPost2010PropOp45
 70
     1
102
RTVSPost2010Prop46
 90
       50
102
RTVSPost2010PropOp46
 70
     1
102
RTVSPost2010Prop47
 90
       50
102
RTVSPost2010PropOp47
 70
     1
102
RTVSPost2010Prop48
 90
       50
102
RTVSPost2010PropOp48
 70
     1
102
RTVSPost2010Prop49
280
     0
102
RTVSPost2010PropOp49
 70
     1
102
RTVSPost2010Prop50
 90
       50
102
RTVSPost2010PropOp50
 70
     1
102
RTVSPost2010Prop51ColorIndex
 90
      256
102
RTVSPost2010Prop51ColorRGB
 90
-16777216
102
RTVSPost2010PropOp51
 70
     0
102
RTVSPost2010Prop52
140
1.0
102
RTVSPost2010PropOp52
 70
     0
102
RTVSPost2010Prop53
 90
        2
102
RTVSPost2010PropOp53
 70
     1
102
RTVSPost2010Prop54
  1
strokes_ogs.tif
102
RTVSPost2010PropOp54
 70
     1
102
RTVSPost2010Prop55
280
     0
102
RTVSPost2010PropOp55
 70
     1
102
RTVSPost2010Prop56
140
1.0
102
RTVSPost2010PropOp56
 70
     1
102
RTVSPost2010Prop57
140
1.0
102
RTVSPost2010PropOp57
 70
     1
  0
XRECORD
  5
15A
102
{ACAD_REACTORS
330
159
102
}
330
159
100
AcDbXrecord
280
     1
102
RTVSPost2010Prop28
280
     0
102
RTVSPost2010PropOp28
 70
     1
102
RTVSPost2010Prop29
280
     1
102
RTVSPost2010PropOp29
 70
     1
102
RTVSPost2010Prop30
280
     1
102
RTVSPost2010PropOp30
 70
     1
102
RTVSPost2010Prop31
280
     0
102
RTVSPost2010PropOp31
 70
     1
102
RTVSPost2010Prop32
280
     0
102
RTVSPost2010PropOp32
 70
     1
102
RTVSPost2010Prop33
280
     0
102
RTVSPost2010PropOp33
 70
     1
102
RTVSPost2010Prop34
280
     0
102
RTVSPost2010PropOp34
 70
     1
102
RTVSPost2010Prop35
280
     0
102
RTVSPost2010PropOp35
 70
     1
102
RTVSPost2010Prop36
280
     0
102
RTVSPost2010PropOp36
 70
     1
102
RTVSPost2010Prop37
 90
       50
102
RTVSPost2010PropOp37
 70
     1
102
RTVSPost2010Prop38
140
0.0
102
RTVSPost2010PropOp38
 70
     1
102
RTVSPost2010Prop39
140
1.0
102
RTVSPost2010PropOp39
 70
     1
102
RTVSPost2010Prop40
 90
        0
102
RTVSPost2010PropOp40
 70
     1
102
RTVSPost2010Prop41ColorIndex
 90
       18
102
RTVSPost2010Prop41ColorRGB
 90
        0
102
RTVSPost2010PropOp41
 70
     1
102
RTVSPost2010Prop42
 90
       50
102
RTVSPost2010PropOp42
 70
     1
102
RTVSPost2010Prop43
 90
        3
102
RTVSPost2010PropOp43
 70
     1
102
RTVSPost2010Prop44ColorIndex
 90
        5
102
RTVSPost2010Prop44ColorRGB
 90
      255
102
RTVSPost2010PropOp44
 70
     1
102
RTVSPost2010Prop45
280
     0
102
RTVSPost2010PropOp45
 70
     1
102
RTVSPost2010Prop46
 90
       50
102
RTVSPost2010PropOp46
 70
     1
102
RTVSPost2010Prop47
 90
       50
102
RTVSPost2010PropOp47
 70
     1
102
RTVSPost2010Prop48
 90
       50
102
RTVSPost2010PropOp48
 70
     1
102
RTVSPost2010Prop49
280
     0
102
RTVSPost2010PropOp49
 70
     1
102
RTVSPost2010Prop50
 90
       50
102
RTVSPost2010PropOp50
 70
     1
102
RTVSPost2010Prop51ColorIndex
 90
      256
102
RTVSPost2010Prop51ColorRGB
 90
-16777216
102
RTVSPost2010PropOp51
 70
     0
102
RTVSPost2010Prop52
140
1.0
102
RTVSPost2010PropOp52
 70
     0
102
RTVSPost2010Prop53
 90
        2
102
RTVSPost2010PropOp53
 70
     1
102
RTVSPost2010Prop54
  1
strokes_ogs.tif
102
RTVSPost2010PropOp54
 70
     1
102
RTVSPost2010Prop55
280
     0
102
RTVSPost2010PropOp55
 70
     1
102
RTVSPost2010Prop56
140
1.0
102
RTVSPost2010PropOp56
 70
     1
102
RTVSPost2010Prop57
140
1.0
102
RTVSPost2010PropOp57
 70
     1
  0
XRECORD
  5
15C
102
{ACAD_REACTORS
330
15B
102
}
330
15B
100
AcDbXrecord
280
     1
102
RTVSPost2010Prop28
280
     0
102
RTVSPost2010PropOp28
 70
     1
102
RTVSPost2010Prop29
280
     1
102
RTVSPost2010PropOp29
 70
     1
102
RTVSPost2010Prop30
280
     1
102
RTVSPost2010PropOp30
 70
     1
102
RTVSPost2010Prop31
280
     0
102
RTVSPost2010PropOp31
 70
     1
102
RTVSPost2010Prop32
280
     0
102
RTVSPost2010PropOp32
 70
     1
102
RTVSPost2010Prop33
280
     0
102
RTVSPost2010PropOp33
 70
     1
102
RTVSPost2010Prop34
280
     0
102
RTVSPost2010PropOp34
 70
     1
102
RTVSPost2010Prop35
280
     0
102
RTVSPost2010PropOp35
 70
     1
102
RTVSPost2010Prop36
280
     0
102
RTVSPost2010PropOp36
 70
     1
102
RTVSPost2010Prop37
 90
       50
102
RTVSPost2010PropOp37
 70
     1
102
RTVSPost2010Prop38
140
0.0
102
RTVSPost2010PropOp38
 70
     1
102
RTVSPost2010Prop39
140
1.0
102
RTVSPost2010PropOp39
 70
     1
102
RTVSPost2010Prop40
 90
        0
102
RTVSPost2010PropOp40
 70
     1
102
RTVSPost2010Prop41ColorIndex
 90
       18
102
RTVSPost2010Prop41ColorRGB
 90
        0
102
RTVSPost2010PropOp41
 70
     1
102
RTVSPost2010Prop42
 90
       50
102
RTVSPost2010PropOp42
 70
     1
102
RTVSPost2010Prop43
 90
        3
102
RTVSPost2010PropOp43
 70
     1
102
RTVSPost2010Prop44ColorIndex
 90
        5
102
RTVSPost2010Prop44ColorRGB
 90
      255
102
RTVSPost2010PropOp44
 70
     1
102
RTVSPost2010Prop45
280
     0
102
RTVSPost2010PropOp45
 70
     1
102
RTVSPost2010Prop46
 90
       50
102
RTVSPost2010PropOp46
 70
     1
102
RTVSPost2010Prop47
 90
       50
102
RTVSPost2010PropOp47
 70
     1
102
RTVSPost2010Prop48
 90
       50
102
RTVSPost2010PropOp48
 70
     1
102
RTVSPost2010Prop49
280
     0
102
RTVSPost2010PropOp49
 70
     1
102
RTVSPost2010Prop50
 90
       50
102
RTVSPost2010PropOp50
 70
     1
102
RTVSPost2010Prop51ColorIndex
 90
      256
102
RTVSPost2010Prop51ColorRGB
 90
-16777216
102
RTVSPost2010PropOp51
 70
     0
102
RTVSPost2010Prop52
140
1.0
102
RTVSPost2010PropOp52
 70
     0
102
RTVSPost2010Prop53
 90
        2
102
RTVSPost2010PropOp53
 70
     1
102
RTVSPost2010Prop54
  1
strokes_ogs.tif
102
RTVSPost2010PropOp54
 70
     1
102
RTVSPost2010Prop55
280
     0
102
RTVSPost2010PropOp55
 70
     1
102
RTVSPost2010Prop56
140
1.0
102
RTVSPost2010PropOp56
 70
     1
102
RTVSPost2010Prop57
140
1.0
102
RTVSPost2010PropOp57
 70
     1
  0
XRECORD
  5
15E
102
{ACAD_REACTORS
330
15D
102
}
330
15D
100
AcDbXrecord
280
     1
102
RTVSPost2010Prop28
280
     0
102
RTVSPost2010PropOp28
 70
     1
102
RTVSPost2010Prop29
280
     1
102
RTVSPost2010PropOp29
 70
     1
102
RTVSPost2010Prop30
280
     1
102
RTVSPost2010PropOp30
 70
     1
102
RTVSPost2010Prop31
280
     0
102
RTVSPost2010PropOp31
 70
     1
102
RTVSPost2010Prop32
280
     0
102
RTVSPost2010PropOp32
 70
     1
102
RTVSPost2010Prop33
280
     0
102
RTVSPost2010PropOp33
 70
     1
102
RTVSPost2010Prop34
280
     0
102
RTVSPost2010PropOp34
 70
     1
102
RTVSPost2010Prop35
280
     0
102
RTVSPost2010PropOp35
 70
     1
102
RTVSPost2010Prop36
280
     0
102
RTVSPost2010PropOp36
 70
     1
102
RTVSPost2010Prop37
 90
       50
102
RTVSPost2010PropOp37
 70
     1
102
RTVSPost2010Prop38
140
0.0
102
RTVSPost2010PropOp38
 70
     1
102
RTVSPost2010Prop39
140
1.0
102
RTVSPost2010PropOp39
 70
     1
102
RTVSPost2010Prop40
 90
        0
102
RTVSPost2010PropOp40
 70
     1
102
RTVSPost2010Prop41ColorIndex
 90
       18
102
RTVSPost2010Prop41ColorRGB
 90
        0
102
RTVSPost2010PropOp41
 70
     1
102
RTVSPost2010Prop42
 90
       50
102
RTVSPost2010PropOp42
 70
     1
102
RTVSPost2010Prop43
 90
        3
102
RTVSPost2010PropOp43
 70
     1
102
RTVSPost2010Prop44ColorIndex
 90
        5
102
RTVSPost2010Prop44ColorRGB
 90
      255
102
RTVSPost2010PropOp44
 70
     1
102
RTVSPost2010Prop45
280
     0
102
RTVSPost2010PropOp45
 70
     1
102
RTVSPost2010Prop46
 90
       50
102
RTVSPost2010PropOp46
 70
     1
102
RTVSPost2010Prop47
 90
       50
102
RTVSPost2010PropOp47
 70
     1
102
RTVSPost2010Prop48
 90
       50
102
RTVSPost2010PropOp48
 70
     1
102
RTVSPost2010Prop49
280
     0
102
RTVSPost2010PropOp49
 70
     1
102
RTVSPost2010Prop50
 90
       50
102
RTVSPost2010PropOp50
 70
     1
102
RTVSPost2010Prop51ColorIndex
 90
      256
102
RTVSPost2010Prop51ColorRGB
 90
-16777216
102
RTVSPost2010PropOp51
 70
     0
102
RTVSPost2010Prop52
140
1.0
102
RTVSPost2010PropOp52
 70
     0
102
RTVSPost2010Prop53
 90
        2
102
RTVSPost2010PropOp53
 70
     1
102
RTVSPost2010Prop54
  1
strokes_ogs.tif
102
RTVSPost2010PropOp54
 70
     1
102
RTVSPost2010Prop55
280
     0
102
RTVSPost2010PropOp55
 70
     1
102
RTVSPost2010Prop56
140
1.0
102
RTVSPost2010PropOp56
 70
     1
102
RTVSPost2010Prop57
140
1.0
102
RTVSPost2010PropOp57
 70
     1
  0
XRECORD
  5
160
102
{ACAD_REACTORS
330
15F
102
}
330
15F
100
AcDbXrecord
280
     1
102
RTVSPost2010Prop28
280
     0
102
RTVSPost2010PropOp28
 70
     1
102
RTVSPost2010Prop29
280
     1
102
RTVSPost2010PropOp29
 70
     1
102
RTVSPost2010Prop30
280
     1
102
RTVSPost2010PropOp30
 70
     1
102
RTVSPost2010Prop31
280
     0
102
RTVSPost2010PropOp31
 70
     1
102
RTVSPost2010Prop32
280
     0
102
RTVSPost2010PropOp32
 70
     1
102
RTVSPost2010Prop33
280
     0
102
RTVSPost2010PropOp33
 70
     1
102
RTVSPost2010Prop34
280
     0
102
RTVSPost2010PropOp34
 70
     1
102
RTVSPost2010Prop35
280
     0
102
RTVSPost2010PropOp35
 70
     1
102
RTVSPost2010Prop36
280
     0
102
RTVSPost2010PropOp36
 70
     1
102
RTVSPost2010Prop37
 90
       50
102
RTVSPost2010PropOp37
 70
     1
102
RTVSPost2010Prop38
140
0.0
102
RTVSPost2010PropOp38
 70
     1
102
RTVSPost2010Prop39
140
1.0
102
RTVSPost2010PropOp39
 70
     1
102
RTVSPost2010Prop40
 90
        0
102
RTVSPost2010PropOp40
 70
     1
102
RTVSPost2010Prop41ColorIndex
 90
       18
102
RTVSPost2010Prop41ColorRGB
 90
        0
102
RTVSPost2010PropOp41
 70
     1
102
RTVSPost2010Prop42
 90
       50
102
RTVSPost2010PropOp42
 70
     1
102
RTVSPost2010Prop43
 90
        3
102
RTVSPost2010PropOp43
 70
     1
102
RTVSPost2010Prop44ColorIndex
 90
        5
102
RTVSPost2010Prop44ColorRGB
 90
      255
102
RTVSPost2010PropOp44
 70
     1
102
RTVSPost2010Prop45
280
     0
102
RTVSPost2010PropOp45
 70
     1
102
RTVSPost2010Prop46
 90
       50
102
RTVSPost2010PropOp46
 70
     1
102
RTVSPost2010Prop47
 90
       50
102
RTVSPost2010PropOp47
 70
     1
102
RTVSPost2010Prop48
 90
       50
102
RTVSPost2010PropOp48
 70
     1
102
RTVSPost2010Prop49
280
     0
102
RTVSPost2010PropOp49
 70
     1
102
RTVSPost2010Prop50
 90
       50
102
RTVSPost2010PropOp50
 70
     1
102
RTVSPost2010Prop51ColorIndex
 90
      256
102
RTVSPost2010Prop51ColorRGB
 90
-16777216
102
RTVSPost2010PropOp51
 70
     0
102
RTVSPost2010Prop52
140
1.0
102
RTVSPost2010PropOp52
 70
     0
102
RTVSPost2010Prop53
 90
        2
102
RTVSPost2010PropOp53
 70
     1
102
RTVSPost2010Prop54
  1
strokes_ogs.tif
102
RTVSPost2010PropOp54
 70
     1
102
RTVSPost2010Prop55
280
     0
102
RTVSPost2010PropOp55
 70
     1
102
RTVSPost2010Prop56
140
1.0
102
RTVSPost2010PropOp56
 70
     1
102
RTVSPost2010Prop57
140
1.0
102
RTVSPost2010PropOp57
 70
     1
  0
XRECORD
  5
168
102
{ACAD_REACTORS
330
167
102
}
330
167
100
AcDbXrecord
280
     1
102
RTVSPost2010Prop28
280
     0
102
RTVSPost2010PropOp28
 70
     1
102
RTVSPost2010Prop29
280
     1
102
RTVSPost2010PropOp29
 70
     1
102
RTVSPost2010Prop30
280
     1
102
RTVSPost2010PropOp30
 70
     1
102
RTVSPost2010Prop31
280
     0
102
RTVSPost2010PropOp31
 70
     1
102
RTVSPost2010Prop32
280
     0
102
RTVSPost2010PropOp32
 70
     1
102
RTVSPost2010Prop33
280
     0
102
RTVSPost2010PropOp33
 70
     1
102
RTVSPost2010Prop34
280
     0
102
RTVSPost2010PropOp34
 70
     1
102
RTVSPost2010Prop35
280
     0
102
RTVSPost2010PropOp35
 70
     1
102
RTVSPost2010Prop36
280
     0
102
RTVSPost2010PropOp36
 70
     1
102
RTVSPost2010Prop37
 90
       50
102
RTVSPost2010PropOp37
 70
     1
102
RTVSPost2010Prop38
140
0.0
102
RTVSPost2010PropOp38
 70
     1
102
RTVSPost2010Prop39
140
1.0
102
RTVSPost2010PropOp39
 70
     1
102
RTVSPost2010Prop40
 90
        0
102
RTVSPost2010PropOp40
 70
     1
102
RTVSPost2010Prop41ColorIndex
 90
       18
102
RTVSPost2010Prop41ColorRGB
 90
        0
102
RTVSPost2010PropOp41
 70
     1
102
RTVSPost2010Prop42
 90
       50
102
RTVSPost2010PropOp42
 70
     1
102
RTVSPost2010Prop43
 90
        3
102
RTVSPost2010PropOp43
 70
     1
102
RTVSPost2010Prop44ColorIndex
 90
        5
102
RTVSPost2010Prop44ColorRGB
 90
      255
102
RTVSPost2010PropOp44
 70
     1
102
RTVSPost2010Prop45
280
     0
102
RTVSPost2010PropOp45
 70
     1
102
RTVSPost2010Prop46
 90
       50
102
RTVSPost2010PropOp46
 70
     1
102
RTVSPost2010Prop47
 90
       50
102
RTVSPost2010PropOp47
 70
     1
102
RTVSPost2010Prop48
 90
       50
102
RTVSPost2010PropOp48
 70
     1
102
RTVSPost2010Prop49
280
     0
102
RTVSPost2010PropOp49
 70
     1
102
RTVSPost2010Prop50
 90
       50
102
RTVSPost2010PropOp50
 70
     1
102
RTVSPost2010Prop51ColorIndex
 90
      256
102
RTVSPost2010Prop51ColorRGB
 90
-16777216
102
RTVSPost2010PropOp51
 70
     0
102
RTVSPost2010Prop52
140
1.0
102
RTVSPost2010PropOp52
 70
     0
102
RTVSPost2010Prop53
 90
        2
102
RTVSPost2010PropOp53
 70
     1
102
RTVSPost2010Prop54
  1
strokes_ogs.tif
102
RTVSPost2010PropOp54
 70
     1
102
RTVSPost2010Prop55
280
     0
102
RTVSPost2010PropOp55
 70
     1
102
RTVSPost2010Prop56
140
1.0
102
RTVSPost2010PropOp56
 70
     1
102
RTVSPost2010Prop57
140
1.0
102
RTVSPost2010PropOp57
 70
     1
  0
XRECORD
  5
184
102
{ACAD_REACTORS
330
183
102
}
330
183
100
AcDbXrecord
280
     1
102
RTVSPost2010Prop28
280
     0
102
RTVSPost2010PropOp28
 70
     0
102
RTVSPost2010Prop29
280
     1
102
RTVSPost2010PropOp29
 70
     0
102
RTVSPost2010Prop30
280
     1
102
RTVSPost2010PropOp30
 70
     0
102
RTVSPost2010Prop31
280
     0
102
RTVSPost2010PropOp31
 70
     0
102
RTVSPost2010Prop32
280
     0
102
RTVSPost2010PropOp32
 70
     0
102
RTVSPost2010Prop33
280
     0
102
RTVSPost2010PropOp33
 70
     0
102
RTVSPost2010Prop34
280
     0
102
RTVSPost2010PropOp34
 70
     0
102
RTVSPost2010Prop35
280
     0
102
RTVSPost2010PropOp35
 70
     0
102
RTVSPost2010Prop36
280
     0
102
RTVSPost2010PropOp36
 70
     0
102
RTVSPost2010Prop37
 90
       50
102
RTVSPost2010PropOp37
 70
     0
102
RTVSPost2010Prop38
140
0.0
102
RTVSPost2010PropOp38
 70
     0
102
RTVSPost2010Prop39
140
1.0
102
RTVSPost2010PropOp39
 70
     0
102
RTVSPost2010Prop40
 90
        0
102
RTVSPost2010PropOp40
 70
     0
102
RTVSPost2010Prop41ColorIndex
 90
       18
102
RTVSPost2010Prop41ColorRGB
 90
        0
102
RTVSPost2010PropOp41
 70
     0
102
RTVSPost2010Prop42
 90
       50
102
RTVSPost2010PropOp42
 70
     0
102
RTVSPost2010Prop43
 90
        3
102
RTVSPost2010PropOp43
 70
     0
102
RTVSPost2010Prop44ColorIndex
 90
        5
102
RTVSPost2010Prop44ColorRGB
 90
      255
102
RTVSPost2010PropOp44
 70
     0
102
RTVSPost2010Prop45
280
     0
102
RTVSPost2010PropOp45
 70
     0
102
RTVSPost2010Prop46
 90
       50
102
RTVSPost2010PropOp46
 70
     0
102
RTVSPost2010Prop47
 90
       50
102
RTVSPost2010PropOp47
 70
     0
102
RTVSPost2010Prop48
 90
       50
102
RTVSPost2010PropOp48
 70
     0
102
RTVSPost2010Prop49
280
     0
102
RTVSPost2010PropOp49
 70
     0
102
RTVSPost2010Prop50
 90
       50
102
RTVSPost2010PropOp50
 70
     0
102
RTVSPost2010Prop51ColorIndex
 90
      256
102
RTVSPost2010Prop51ColorRGB
 90
-16777216
102
RTVSPost2010PropOp51
 70
     0
102
RTVSPost2010Prop52
140
1.0
102
RTVSPost2010PropOp52
 70
     0
102
RTVSPost2010Prop53
 90
        2
102
RTVSPost2010PropOp53
 70
     0
102
RTVSPost2010Prop54
  1
strokes_ogs.tif
102
RTVSPost2010PropOp54
 70
     0
102
RTVSPost2010Prop55
280
     0
102
RTVSPost2010PropOp55
 70
     0
102
RTVSPost2010Prop56
140
1.0
102
RTVSPost2010PropOp56
 70
     0
102
RTVSPost2010Prop57
140
1.0
102
RTVSPost2010PropOp57
 70
     0
  0
XRECORD
  5
174
102
{ACAD_REACTORS
330
173
102
}
330
173
100
AcDbXrecord
280
     1
102
RTVSPost2010Prop28
280
     0
102
RTVSPost2010PropOp28
 70
     1
102
RTVSPost2010Prop29
280
     1
102
RTVSPost2010PropOp29
 70
     1
102
RTVSPost2010Prop30
280
     1
102
RTVSPost2010PropOp30
 70
     1
102
RTVSPost2010Prop31
280
     0
102
RTVSPost2010PropOp31
 70
     1
102
RTVSPost2010Prop32
280
     0
102
RTVSPost2010PropOp32
 70
     1
102
RTVSPost2010Prop33
280
     0
102
RTVSPost2010PropOp33
 70
     1
102
RTVSPost2010Prop34
280
     0
102
RTVSPost2010PropOp34
 70
     1
102
RTVSPost2010Prop35
280
     0
102
RTVSPost2010PropOp35
 70
     1
102
RTVSPost2010Prop36
280
     0
102
RTVSPost2010PropOp36
 70
     1
102
RTVSPost2010Prop37
 90
       50
102
RTVSPost2010PropOp37
 70
     1
102
RTVSPost2010Prop38
140
0.0
102
RTVSPost2010PropOp38
 70
     1
102
RTVSPost2010Prop39
140
1.0
102
RTVSPost2010PropOp39
 70
     1
102
RTVSPost2010Prop40
 90
        0
102
RTVSPost2010PropOp40
 70
     1
102
RTVSPost2010Prop41ColorIndex
 90
       18
102
RTVSPost2010Prop41ColorRGB
 90
        0
102
RTVSPost2010PropOp41
 70
     1
102
RTVSPost2010Prop42
 90
       50
102
RTVSPost2010PropOp42
 70
     1
102
RTVSPost2010Prop43
 90
        3
102
RTVSPost2010PropOp43
 70
     1
102
RTVSPost2010Prop44ColorIndex
 90
        5
102
RTVSPost2010Prop44ColorRGB
 90
      255
102
RTVSPost2010PropOp44
 70
     1
102
RTVSPost2010Prop45
280
     0
102
RTVSPost2010PropOp45
 70
     1
102
RTVSPost2010Prop46
 90
       50
102
RTVSPost2010PropOp46
 70
     1
102
RTVSPost2010Prop47
 90
       50
102
RTVSPost2010PropOp47
 70
     1
102
RTVSPost2010Prop48
 90
       50
102
RTVSPost2010PropOp48
 70
     1
102
RTVSPost2010Prop49
280
     0
102
RTVSPost2010PropOp49
 70
     1
102
RTVSPost2010Prop50
 90
       50
102
RTVSPost2010PropOp50
 70
     1
102
RTVSPost2010Prop51ColorIndex
 90
      256
102
RTVSPost2010Prop51ColorRGB
 90
-16777216
102
RTVSPost2010PropOp51
 70
     0
102
RTVSPost2010Prop52
140
1.0
102
RTVSPost2010PropOp52
 70
     0
102
RTVSPost2010Prop53
 90
        2
102
RTVSPost2010PropOp53
 70
     1
102
RTVSPost2010Prop54
  1
strokes_ogs.tif
102
RTVSPost2010PropOp54
 70
     1
102
RTVSPost2010Prop55
280
     0
102
RTVSPost2010PropOp55
 70
     1
102
RTVSPost2010Prop56
140
1.0
102
RTVSPost2010PropOp56
 70
     1
102
RTVSPost2010Prop57
140
1.0
102
RTVSPost2010PropOp57
 70
     1
  0
XRECORD
  5
186
102
{ACAD_REACTORS
330
185
102
}
330
185
100
AcDbXrecord
280
     1
102
RTVSPost2010Prop28
280
     0
102
RTVSPost2010PropOp28
 70
     0
102
RTVSPost2010Prop29
280
     1
102
RTVSPost2010PropOp29
 70
     0
102
RTVSPost2010Prop30
280
     1
102
RTVSPost2010PropOp30
 70
     0
102
RTVSPost2010Prop31
280
     0
102
RTVSPost2010PropOp31
 70
     0
102
RTVSPost2010Prop32
280
     0
102
RTVSPost2010PropOp32
 70
     0
102
RTVSPost2010Prop33
280
     0
102
RTVSPost2010PropOp33
 70
     0
102
RTVSPost2010Prop34
280
     0
102
RTVSPost2010PropOp34
 70
     0
102
RTVSPost2010Prop35
280
     0
102
RTVSPost2010PropOp35
 70
     0
102
RTVSPost2010Prop36
280
     0
102
RTVSPost2010PropOp36
 70
     0
102
RTVSPost2010Prop37
 90
       50
102
RTVSPost2010PropOp37
 70
     0
102
RTVSPost2010Prop38
140
0.0
102
RTVSPost2010PropOp38
 70
     0
102
RTVSPost2010Prop39
140
1.0
102
RTVSPost2010PropOp39
 70
     0
102
RTVSPost2010Prop40
 90
        0
102
RTVSPost2010PropOp40
 70
     0
102
RTVSPost2010Prop41ColorIndex
 90
       18
102
RTVSPost2010Prop41ColorRGB
 90
        0
102
RTVSPost2010PropOp41
 70
     0
102
RTVSPost2010Prop42
 90
       50
102
RTVSPost2010PropOp42
 70
     0
102
RTVSPost2010Prop43
 90
        3
102
RTVSPost2010PropOp43
 70
     0
102
RTVSPost2010Prop44ColorIndex
 90
        5
102
RTVSPost2010Prop44ColorRGB
 90
      255
102
RTVSPost2010PropOp44
 70
     0
102
RTVSPost2010Prop45
280
     0
102
RTVSPost2010PropOp45
 70
     0
102
RTVSPost2010Prop46
 90
       50
102
RTVSPost2010PropOp46
 70
     0
102
RTVSPost2010Prop47
 90
       50
102
RTVSPost2010PropOp47
 70
     0
102
RTVSPost2010Prop48
 90
       50
102
RTVSPost2010PropOp48
 70
     0
102
RTVSPost2010Prop49
280
     0
102
RTVSPost2010PropOp49
 70
     0
102
RTVSPost2010Prop50
 90
       50
102
RTVSPost2010PropOp50
 70
     0
102
RTVSPost2010Prop51ColorIndex
 90
      256
102
RTVSPost2010Prop51ColorRGB
 90
-16777216
102
RTVSPost2010PropOp51
 70
     0
102
RTVSPost2010Prop52
140
1.0
102
RTVSPost2010PropOp52
 70
     0
102
RTVSPost2010Prop53
 90
        2
102
RTVSPost2010PropOp53
 70
     0
102
RTVSPost2010Prop54
  1
strokes_ogs.tif
102
RTVSPost2010PropOp54
 70
     0
102
RTVSPost2010Prop55
280
     0
102
RTVSPost2010PropOp55
 70
     0
102
RTVSPost2010Prop56
140
1.0
102
RTVSPost2010PropOp56
 70
     0
102
RTVSPost2010Prop57
140
1.0
102
RTVSPost2010PropOp57
 70
     0
  0
XRECORD
  5
16C
102
{ACAD_REACTORS
330
16B
102
}
330
16B
100
AcDbXrecord
280
     1
102
RTVSPost2010Prop28
280
     0
102
RTVSPost2010PropOp28
 70
     1
102
RTVSPost2010Prop29
280
     1
102
RTVSPost2010PropOp29
 70
     1
102
RTVSPost2010Prop30
280
     1
102
RTVSPost2010PropOp30
 70
     1
102
RTVSPost2010Prop31
280
     0
102
RTVSPost2010PropOp31
 70
     1
102
RTVSPost2010Prop32
280
     0
102
RTVSPost2010PropOp32
 70
     1
102
RTVSPost2010Prop33
280
     0
102
RTVSPost2010PropOp33
 70
     1
102
RTVSPost2010Prop34
280
     0
102
RTVSPost2010PropOp34
 70
     1
102
RTVSPost2010Prop35
280
     0
102
RTVSPost2010PropOp35
 70
     1
102
RTVSPost2010Prop36
280
     0
102
RTVSPost2010PropOp36
 70
     1
102
RTVSPost2010Prop37
 90
       50
102
RTVSPost2010PropOp37
 70
     1
102
RTVSPost2010Prop38
140
0.0
102
RTVSPost2010PropOp38
 70
     1
102
RTVSPost2010Prop39
140
1.0
102
RTVSPost2010PropOp39
 70
     1
102
RTVSPost2010Prop40
 90
        0
102
RTVSPost2010PropOp40
 70
     1
102
RTVSPost2010Prop41ColorIndex
 90
       18
102
RTVSPost2010Prop41ColorRGB
 90
        0
102
RTVSPost2010PropOp41
 70
     1
102
RTVSPost2010Prop42
 90
       50
102
RTVSPost2010PropOp42
 70
     1
102
RTVSPost2010Prop43
 90
        3
102
RTVSPost2010PropOp43
 70
     1
102
RTVSPost2010Prop44ColorIndex
 90
        5
102
RTVSPost2010Prop44ColorRGB
 90
      255
102
RTVSPost2010PropOp44
 70
     1
102
RTVSPost2010Prop45
280
     0
102
RTVSPost2010PropOp45
 70
     1
102
RTVSPost2010Prop46
 90
       50
102
RTVSPost2010PropOp46
 70
     1
102
RTVSPost2010Prop47
 90
       50
102
RTVSPost2010PropOp47
 70
     1
102
RTVSPost2010Prop48
 90
       50
102
RTVSPost2010PropOp48
 70
     1
102
RTVSPost2010Prop49
280
     0
102
RTVSPost2010PropOp49
 70
     1
102
RTVSPost2010Prop50
 90
       50
102
RTVSPost2010PropOp50
 70
     1
102
RTVSPost2010Prop51ColorIndex
 90
      256
102
RTVSPost2010Prop51ColorRGB
 90
-16777216
102
RTVSPost2010PropOp51
 70
     0
102
RTVSPost2010Prop52
140
1.0
102
RTVSPost2010PropOp52
 70
     0
102
RTVSPost2010Prop53
 90
        2
102
RTVSPost2010PropOp53
 70
     1
102
RTVSPost2010Prop54
  1
strokes_ogs.tif
102
RTVSPost2010PropOp54
 70
     1
102
RTVSPost2010Prop55
280
     0
102
RTVSPost2010PropOp55
 70
     1
102
RTVSPost2010Prop56
140
1.0
102
RTVSPost2010PropOp56
 70
     1
102
RTVSPost2010Prop57
140
1.0
102
RTVSPost2010PropOp57
 70
     1
  0
XRECORD
  5
182
102
{ACAD_REACTORS
330
181
102
}
330
181
100
AcDbXrecord
280
     1
102
RTVSPost2010Prop28
280
     0
102
RTVSPost2010PropOp28
 70
     1
102
RTVSPost2010Prop29
280
     1
102
RTVSPost2010PropOp29
 70
     1
102
RTVSPost2010Prop30
280
     1
102
RTVSPost2010PropOp30
 70
     1
102
RTVSPost2010Prop31
280
     0
102
RTVSPost2010PropOp31
 70
     1
102
RTVSPost2010Prop32
280
     0
102
RTVSPost2010PropOp32
 70
     1
102
RTVSPost2010Prop33
280
     0
102
RTVSPost2010PropOp33
 70
     1
102
RTVSPost2010Prop34
280
     0
102
RTVSPost2010PropOp34
 70
     1
102
RTVSPost2010Prop35
280
     0
102
RTVSPost2010PropOp35
 70
     1
102
RTVSPost2010Prop36
280
     0
102
RTVSPost2010PropOp36
 70
     1
102
RTVSPost2010Prop37
 90
       50
102
RTVSPost2010PropOp37
 70
     1
102
RTVSPost2010Prop38
140
0.0
102
RTVSPost2010PropOp38
 70
     1
102
RTVSPost2010Prop39
140
1.0
102
RTVSPost2010PropOp39
 70
     1
102
RTVSPost2010Prop40
 90
        0
102
RTVSPost2010PropOp40
 70
     1
102
RTVSPost2010Prop41ColorIndex
 90
       18
102
RTVSPost2010Prop41ColorRGB
 90
        0
102
RTVSPost2010PropOp41
 70
     1
102
RTVSPost2010Prop42
 90
       50
102
RTVSPost2010PropOp42
 70
     1
102
RTVSPost2010Prop43
 90
        3
102
RTVSPost2010PropOp43
 70
     1
102
RTVSPost2010Prop44ColorIndex
 90
        5
102
RTVSPost2010Prop44ColorRGB
 90
      255
102
RTVSPost2010PropOp44
 70
     1
102
RTVSPost2010Prop45
280
     0
102
RTVSPost2010PropOp45
 70
     1
102
RTVSPost2010Prop46
 90
       50
102
RTVSPost2010PropOp46
 70
     1
102
RTVSPost2010Prop47
 90
       50
102
RTVSPost2010PropOp47
 70
     1
102
RTVSPost2010Prop48
 90
       50
102
RTVSPost2010PropOp48
 70
     1
102
RTVSPost2010Prop49
280
     0
102
RTVSPost2010PropOp49
 70
     1
102
RTVSPost2010Prop50
 90
       50
102
RTVSPost2010PropOp50
 70
     1
102
RTVSPost2010Prop51ColorIndex
 90
      256
102
RTVSPost2010Prop51ColorRGB
 90
-16777216
102
RTVSPost2010PropOp51
 70
     0
102
RTVSPost2010Prop52
140
1.0
102
RTVSPost2010PropOp52
 70
     0
102
RTVSPost2010Prop53
 90
        2
102
RTVSPost2010PropOp53
 70
     1
102
RTVSPost2010Prop54
  1
strokes_ogs.tif
102
RTVSPost2010PropOp54
 70
     1
102
RTVSPost2010Prop55
280
     0
102
RTVSPost2010PropOp55
 70
     1
102
RTVSPost2010Prop56
140
1.0
102
RTVSPost2010PropOp56
 70
     1
102
RTVSPost2010Prop57
140
1.0
102
RTVSPost2010PropOp57
 70
     1
  0
XRECORD
  5
180
102
{ACAD_REACTORS
330
17F
102
}
330
17F
100
AcDbXrecord
280
     1
102
RTVSPost2010Prop28
280
     0
102
RTVSPost2010PropOp28
 70
     1
102
RTVSPost2010Prop29
280
     1
102
RTVSPost2010PropOp29
 70
     1
102
RTVSPost2010Prop30
280
     1
102
RTVSPost2010PropOp30
 70
     1
102
RTVSPost2010Prop31
280
     0
102
RTVSPost2010PropOp31
 70
     1
102
RTVSPost2010Prop32
280
     0
102
RTVSPost2010PropOp32
 70
     1
102
RTVSPost2010Prop33
280
     0
102
RTVSPost2010PropOp33
 70
     1
102
RTVSPost2010Prop34
280
     0
102
RTVSPost2010PropOp34
 70
     1
102
RTVSPost2010Prop35
280
     0
102
RTVSPost2010PropOp35
 70
     1
102
RTVSPost2010Prop36
280
     0
102
RTVSPost2010PropOp36
 70
     1
102
RTVSPost2010Prop37
 90
       50
102
RTVSPost2010PropOp37
 70
     1
102
RTVSPost2010Prop38
140
0.0
102
RTVSPost2010PropOp38
 70
     1
102
RTVSPost2010Prop39
140
1.0
102
RTVSPost2010PropOp39
 70
     1
102
RTVSPost2010Prop40
 90
        0
102
RTVSPost2010PropOp40
 70
     1
102
RTVSPost2010Prop41ColorIndex
 90
       18
102
RTVSPost2010Prop41ColorRGB
 90
        0
102
RTVSPost2010PropOp41
 70
     1
102
RTVSPost2010Prop42
 90
       50
102
RTVSPost2010PropOp42
 70
     1
102
RTVSPost2010Prop43
 90
        3
102
RTVSPost2010PropOp43
 70
     1
102
RTVSPost2010Prop44ColorIndex
 90
        5
102
RTVSPost2010Prop44ColorRGB
 90
      255
102
RTVSPost2010PropOp44
 70
     1
102
RTVSPost2010Prop45
280
     0
102
RTVSPost2010PropOp45
 70
     1
102
RTVSPost2010Prop46
 90
       50
102
RTVSPost2010PropOp46
 70
     1
102
RTVSPost2010Prop47
 90
       50
102
RTVSPost2010PropOp47
 70
     1
102
RTVSPost2010Prop48
 90
       50
102
RTVSPost2010PropOp48
 70
     1
102
RTVSPost2010Prop49
280
     0
102
RTVSPost2010PropOp49
 70
     1
102
RTVSPost2010Prop50
 90
       50
102
RTVSPost2010PropOp50
 70
     1
102
RTVSPost2010Prop51ColorIndex
 90
      256
102
RTVSPost2010Prop51ColorRGB
 90
-16777216
102
RTVSPost2010PropOp51
 70
     0
102
RTVSPost2010Prop52
140
1.0
102
RTVSPost2010PropOp52
 70
     0
102
RTVSPost2010Prop53
 90
        2
102
RTVSPost2010PropOp53
 70
     1
102
RTVSPost2010Prop54
  1
strokes_ogs.tif
102
RTVSPost2010PropOp54
 70
     1
102
RTVSPost2010Prop55
280
     0
102
RTVSPost2010PropOp55
 70
     1
102
RTVSPost2010Prop56
140
1.0
102
RTVSPost2010PropOp56
 70
     1
102
RTVSPost2010Prop57
140
1.0
102
RTVSPost2010PropOp57
 70
     1
  0
XRECORD
  5
17A
102
{ACAD_REACTORS
330
179
102
}
330
179
100
AcDbXrecord
280
     1
102
RTVSPost2010Prop28
280
     0
102
RTVSPost2010PropOp28
 70
     1
102
RTVSPost2010Prop29
280
     1
102
RTVSPost2010PropOp29
 70
     1
102
RTVSPost2010Prop30
280
     1
102
RTVSPost2010PropOp30
 70
     1
102
RTVSPost2010Prop31
280
     0
102
RTVSPost2010PropOp31
 70
     1
102
RTVSPost2010Prop32
280
     0
102
RTVSPost2010PropOp32
 70
     1
102
RTVSPost2010Prop33
280
     0
102
RTVSPost2010PropOp33
 70
     1
102
RTVSPost2010Prop34
280
     0
102
RTVSPost2010PropOp34
 70
     1
102
RTVSPost2010Prop35
280
     0
102
RTVSPost2010PropOp35
 70
     1
102
RTVSPost2010Prop36
280
     0
102
RTVSPost2010PropOp36
 70
     1
102
RTVSPost2010Prop37
 90
       50
102
RTVSPost2010PropOp37
 70
     1
102
RTVSPost2010Prop38
140
0.0
102
RTVSPost2010PropOp38
 70
     1
102
RTVSPost2010Prop39
140
1.0
102
RTVSPost2010PropOp39
 70
     1
102
RTVSPost2010Prop40
 90
        0
102
RTVSPost2010PropOp40
 70
     1
102
RTVSPost2010Prop41ColorIndex
 90
       18
102
RTVSPost2010Prop41ColorRGB
 90
        0
102
RTVSPost2010PropOp41
 70
     1
102
RTVSPost2010Prop42
 90
       50
102
RTVSPost2010PropOp42
 70
     1
102
RTVSPost2010Prop43
 90
        3
102
RTVSPost2010PropOp43
 70
     1
102
RTVSPost2010Prop44ColorIndex
 90
        5
102
RTVSPost2010Prop44ColorRGB
 90
      255
102
RTVSPost2010PropOp44
 70
     1
102
RTVSPost2010Prop45
280
     0
102
RTVSPost2010PropOp45
 70
     1
102
RTVSPost2010Prop46
 90
       50
102
RTVSPost2010PropOp46
 70
     1
102
RTVSPost2010Prop47
 90
       50
102
RTVSPost2010PropOp47
 70
     1
102
RTVSPost2010Prop48
 90
       50
102
RTVSPost2010PropOp48
 70
     1
102
RTVSPost2010Prop49
280
     0
102
RTVSPost2010PropOp49
 70
     1
102
RTVSPost2010Prop50
 90
       50
102
RTVSPost2010PropOp50
 70
     1
102
RTVSPost2010Prop51ColorIndex
 90
      256
102
RTVSPost2010Prop51ColorRGB
 90
-16777216
102
RTVSPost2010PropOp51
 70
     0
102
RTVSPost2010Prop52
140
1.0
102
RTVSPost2010PropOp52
 70
     0
102
RTVSPost2010Prop53
 90
        2
102
RTVSPost2010PropOp53
 70
     1
102
RTVSPost2010Prop54
  1
strokes_ogs.tif
102
RTVSPost2010PropOp54
 70
     1
102
RTVSPost2010Prop55
280
     0
102
RTVSPost2010PropOp55
 70
     1
102
RTVSPost2010Prop56
140
1.0
102
RTVSPost2010PropOp56
 70
     1
102
RTVSPost2010Prop57
140
1.0
102
RTVSPost2010PropOp57
 70
     1
  0
XRECORD
  5
17C
102
{ACAD_REACTORS
330
17B
102
}
330
17B
100
AcDbXrecord
280
     1
102
RTVSPost2010Prop28
280
     0
102
RTVSPost2010PropOp28
 70
     1
102
RTVSPost2010Prop29
280
     1
102
RTVSPost2010PropOp29
 70
     1
102
RTVSPost2010Prop30
280
     1
102
RTVSPost2010PropOp30
 70
     1
102
RTVSPost2010Prop31
280
     0
102
RTVSPost2010PropOp31
 70
     1
102
RTVSPost2010Prop32
280
     0
102
RTVSPost2010PropOp32
 70
     1
102
RTVSPost2010Prop33
280
     0
102
RTVSPost2010PropOp33
 70
     1
102
RTVSPost2010Prop34
280
     0
102
RTVSPost2010PropOp34
 70
     1
102
RTVSPost2010Prop35
280
     0
102
RTVSPost2010PropOp35
 70
     1
102
RTVSPost2010Prop36
280
     0
102
RTVSPost2010PropOp36
 70
     1
102
RTVSPost2010Prop37
 90
       50
102
RTVSPost2010PropOp37
 70
     1
102
RTVSPost2010Prop38
140
0.0
102
RTVSPost2010PropOp38
 70
     1
102
RTVSPost2010Prop39
140
1.0
102
RTVSPost2010PropOp39
 70
     1
102
RTVSPost2010Prop40
 90
        0
102
RTVSPost2010PropOp40
 70
     1
102
RTVSPost2010Prop41ColorIndex
 90
       18
102
RTVSPost2010Prop41ColorRGB
 90
        0
102
RTVSPost2010PropOp41
 70
     1
102
RTVSPost2010Prop42
 90
       50
102
RTVSPost2010PropOp42
 70
     1
102
RTVSPost2010Prop43
 90
        3
102
RTVSPost2010PropOp43
 70
     1
102
RTVSPost2010Prop44ColorIndex
 90
        5
102
RTVSPost2010Prop44ColorRGB
 90
      255
102
RTVSPost2010PropOp44
 70
     1
102
RTVSPost2010Prop45
280
     0
102
RTVSPost2010PropOp45
 70
     1
102
RTVSPost2010Prop46
 90
       50
102
RTVSPost2010PropOp46
 70
     1
102
RTVSPost2010Prop47
 90
       50
102
RTVSPost2010PropOp47
 70
     1
102
RTVSPost2010Prop48
 90
       50
102
RTVSPost2010PropOp48
 70
     1
102
RTVSPost2010Prop49
280
     0
102
RTVSPost2010PropOp49
 70
     1
102
RTVSPost2010Prop50
 90
       50
102
RTVSPost2010PropOp50
 70
     1
102
RTVSPost2010Prop51ColorIndex
 90
      256
102
RTVSPost2010Prop51ColorRGB
 90
-16777216
102
RTVSPost2010PropOp51
 70
     0
102
RTVSPost2010Prop52
140
1.0
102
RTVSPost2010PropOp52
 70
     0
102
RTVSPost2010Prop53
 90
        2
102
RTVSPost2010PropOp53
 70
     1
102
RTVSPost2010Prop54
  1
strokes_ogs.tif
102
RTVSPost2010PropOp54
 70
     1
102
RTVSPost2010Prop55
280
     0
102
RTVSPost2010PropOp55
 70
     1
102
RTVSPost2010Prop56
140
1.0
102
RTVSPost2010PropOp56
 70
     1
102
RTVSPost2010Prop57
140
1.0
102
RTVSPost2010PropOp57
 70
     1
  0
XRECORD
  5
172
102
{ACAD_REACTORS
330
171
102
}
330
171
100
AcDbXrecord
280
     1
102
RTVSPost2010Prop28
280
     0
102
RTVSPost2010PropOp28
 70
     1
102
RTVSPost2010Prop29
280
     1
102
RTVSPost2010PropOp29
 70
     1
102
RTVSPost2010Prop30
280
     1
102
RTVSPost2010PropOp30
 70
     1
102
RTVSPost2010Prop31
280
     0
102
RTVSPost2010PropOp31
 70
     1
102
RTVSPost2010Prop32
280
     0
102
RTVSPost2010PropOp32
 70
     1
102
RTVSPost2010Prop33
280
     0
102
RTVSPost2010PropOp33
 70
     1
102
RTVSPost2010Prop34
280
     0
102
RTVSPost2010PropOp34
 70
     1
102
RTVSPost2010Prop35
280
     0
102
RTVSPost2010PropOp35
 70
     1
102
RTVSPost2010Prop36
280
     0
102
RTVSPost2010PropOp36
 70
     1
102
RTVSPost2010Prop37
 90
       50
102
RTVSPost2010PropOp37
 70
     1
102
RTVSPost2010Prop38
140
0.0
102
RTVSPost2010PropOp38
 70
     1
102
RTVSPost2010Prop39
140
1.0
102
RTVSPost2010PropOp39
 70
     1
102
RTVSPost2010Prop40
 90
        0
102
RTVSPost2010PropOp40
 70
     1
102
RTVSPost2010Prop41ColorIndex
 90
       18
102
RTVSPost2010Prop41ColorRGB
 90
        0
102
RTVSPost2010PropOp41
 70
     1
102
RTVSPost2010Prop42
 90
       50
102
RTVSPost2010PropOp42
 70
     1
102
RTVSPost2010Prop43
 90
        3
102
RTVSPost2010PropOp43
 70
     1
102
RTVSPost2010Prop44ColorIndex
 90
        5
102
RTVSPost2010Prop44ColorRGB
 90
      255
102
RTVSPost2010PropOp44
 70
     1
102
RTVSPost2010Prop45
280
     0
102
RTVSPost2010PropOp45
 70
     1
102
RTVSPost2010Prop46
 90
       50
102
RTVSPost2010PropOp46
 70
     1
102
RTVSPost2010Prop47
 90
       50
102
RTVSPost2010PropOp47
 70
     1
102
RTVSPost2010Prop48
 90
       50
102
RTVSPost2010PropOp48
 70
     1
102
RTVSPost2010Prop49
280
     0
102
RTVSPost2010PropOp49
 70
     1
102
RTVSPost2010Prop50
 90
       50
102
RTVSPost2010PropOp50
 70
     1
102
RTVSPost2010Prop51ColorIndex
 90
      256
102
RTVSPost2010Prop51ColorRGB
 90
-16777216
102
RTVSPost2010PropOp51
 70
     0
102
RTVSPost2010Prop52
140
1.0
102
RTVSPost2010PropOp52
 70
     0
102
RTVSPost2010Prop53
 90
        2
102
RTVSPost2010PropOp53
 70
     1
102
RTVSPost2010Prop54
  1
strokes_ogs.tif
102
RTVSPost2010PropOp54
 70
     1
102
RTVSPost2010Prop55
280
     0
102
RTVSPost2010PropOp55
 70
     1
102
RTVSPost2010Prop56
140
1.0
102
RTVSPost2010PropOp56
 70
     1
102
RTVSPost2010Prop57
140
1.0
102
RTVSPost2010PropOp57
 70
     1
  0
XRECORD
  5
166
102
{ACAD_REACTORS
330
165
102
}
330
165
100
AcDbXrecord
280
     1
102
RTVSPost2010Prop28
280
     0
102
RTVSPost2010PropOp28
 70
     1
102
RTVSPost2010Prop29
280
     1
102
RTVSPost2010PropOp29
 70
     1
102
RTVSPost2010Prop30
280
     1
102
RTVSPost2010PropOp30
 70
     1
102
RTVSPost2010Prop31
280
     0
102
RTVSPost2010PropOp31
 70
     1
102
RTVSPost2010Prop32
280
     0
102
RTVSPost2010PropOp32
 70
     1
102
RTVSPost2010Prop33
280
     0
102
RTVSPost2010PropOp33
 70
     1
102
RTVSPost2010Prop34
280
     0
102
RTVSPost2010PropOp34
 70
     1
102
RTVSPost2010Prop35
280
     0
102
RTVSPost2010PropOp35
 70
     1
102
RTVSPost2010Prop36
280
     0
102
RTVSPost2010PropOp36
 70
     1
102
RTVSPost2010Prop37
 90
       50
102
RTVSPost2010PropOp37
 70
     1
102
RTVSPost2010Prop38
140
0.0
102
RTVSPost2010PropOp38
 70
     1
102
RTVSPost2010Prop39
140
1.0
102
RTVSPost2010PropOp39
 70
     1
102
RTVSPost2010Prop40
 90
        0
102
RTVSPost2010PropOp40
 70
     1
102
RTVSPost2010Prop41ColorIndex
 90
       18
102
RTVSPost2010Prop41ColorRGB
 90
        0
102
RTVSPost2010PropOp41
 70
     1
102
RTVSPost2010Prop42
 90
       50
102
RTVSPost2010PropOp42
 70
     1
102
RTVSPost2010Prop43
 90
        3
102
RTVSPost2010PropOp43
 70
     1
102
RTVSPost2010Prop44ColorIndex
 90
        5
102
RTVSPost2010Prop44ColorRGB
 90
      255
102
RTVSPost2010PropOp44
 70
     1
102
RTVSPost2010Prop45
280
     0
102
RTVSPost2010PropOp45
 70
     1
102
RTVSPost2010Prop46
 90
       50
102
RTVSPost2010PropOp46
 70
     1
102
RTVSPost2010Prop47
 90
       50
102
RTVSPost2010PropOp47
 70
     1
102
RTVSPost2010Prop48
 90
       50
102
RTVSPost2010PropOp48
 70
     1
102
RTVSPost2010Prop49
280
     0
102
RTVSPost2010PropOp49
 70
     1
102
RTVSPost2010Prop50
 90
       50
102
RTVSPost2010PropOp50
 70
     1
102
RTVSPost2010Prop51ColorIndex
 90
      256
102
RTVSPost2010Prop51ColorRGB
 90
-16777216
102
RTVSPost2010PropOp51
 70
     0
102
RTVSPost2010Prop52
140
1.0
102
RTVSPost2010PropOp52
 70
     0
102
RTVSPost2010Prop53
 90
        2
102
RTVSPost2010PropOp53
 70
     1
102
RTVSPost2010Prop54
  1
strokes_ogs.tif
102
RTVSPost2010PropOp54
 70
     1
102
RTVSPost2010Prop55
280
     0
102
RTVSPost2010PropOp55
 70
     1
102
RTVSPost2010Prop56
140
1.0
102
RTVSPost2010PropOp56
 70
     1
102
RTVSPost2010Prop57
140
1.0
102
RTVSPost2010PropOp57
 70
     1
  0
XRECORD
  5
17E
102
{ACAD_REACTORS
330
17D
102
}
330
17D
100
AcDbXrecord
280
     1
102
RTVSPost2010Prop28
280
     0
102
RTVSPost2010PropOp28
 70
     1
102
RTVSPost2010Prop29
280
     1
102
RTVSPost2010PropOp29
 70
     1
102
RTVSPost2010Prop30
280
     1
102
RTVSPost2010PropOp30
 70
     1
102
RTVSPost2010Prop31
280
     0
102
RTVSPost2010PropOp31
 70
     1
102
RTVSPost2010Prop32
280
     0
102
RTVSPost2010PropOp32
 70
     1
102
RTVSPost2010Prop33
280
     0
102
RTVSPost2010PropOp33
 70
     1
102
RTVSPost2010Prop34
280
     0
102
RTVSPost2010PropOp34
 70
     1
102
RTVSPost2010Prop35
280
     0
102
RTVSPost2010PropOp35
 70
     1
102
RTVSPost2010Prop36
280
     0
102
RTVSPost2010PropOp36
 70
     1
102
RTVSPost2010Prop37
 90
       50
102
RTVSPost2010PropOp37
 70
     1
102
RTVSPost2010Prop38
140
0.0
102
RTVSPost2010PropOp38
 70
     1
102
RTVSPost2010Prop39
140
1.0
102
RTVSPost2010PropOp39
 70
     1
102
RTVSPost2010Prop40
 90
        0
102
RTVSPost2010PropOp40
 70
     1
102
RTVSPost2010Prop41ColorIndex
 90
       18
102
RTVSPost2010Prop41ColorRGB
 90
        0
102
RTVSPost2010PropOp41
 70
     1
102
RTVSPost2010Prop42
 90
       50
102
RTVSPost2010PropOp42
 70
     1
102
RTVSPost2010Prop43
 90
        3
102
RTVSPost2010PropOp43
 70
     1
102
RTVSPost2010Prop44ColorIndex
 90
        5
102
RTVSPost2010Prop44ColorRGB
 90
      255
102
RTVSPost2010PropOp44
 70
     1
102
RTVSPost2010Prop45
280
     0
102
RTVSPost2010PropOp45
 70
     1
102
RTVSPost2010Prop46
 90
       50
102
RTVSPost2010PropOp46
 70
     1
102
RTVSPost2010Prop47
 90
       50
102
RTVSPost2010PropOp47
 70
     1
102
RTVSPost2010Prop48
 90
       50
102
RTVSPost2010PropOp48
 70
     1
102
RTVSPost2010Prop49
280
     0
102
RTVSPost2010PropOp49
 70
     1
102
RTVSPost2010Prop50
 90
       50
102
RTVSPost2010PropOp50
 70
     1
102
RTVSPost2010Prop51ColorIndex
 90
      256
102
RTVSPost2010Prop51ColorRGB
 90
-16777216
102
RTVSPost2010PropOp51
 70
     0
102
RTVSPost2010Prop52
140
1.0
102
RTVSPost2010PropOp52
 70
     0
102
RTVSPost2010Prop53
 90
        2
102
RTVSPost2010PropOp53
 70
     1
102
RTVSPost2010Prop54
  1
strokes_ogs.tif
102
RTVSPost2010PropOp54
 70
     1
102
RTVSPost2010Prop55
280
     0
102
RTVSPost2010PropOp55
 70
     1
102
RTVSPost2010Prop56
140
1.0
102
RTVSPost2010PropOp56
 70
     1
102
RTVSPost2010Prop57
140
1.0
102
RTVSPost2010PropOp57
 70
     1
  0
ENDSEC
  0
EOF
