  0
SECTION
  2
HEADER
  9
$ACADVER
  1
AC1024
  9
$ACADMAINTVER
 70
   205
  9
$DWGCODEPAGE
  3
ANSI_1251
  9
$INSBASE
 10
0.0
 20
0.0
 30
0.0
  9
$EXTMIN
 10
1.000000000000000E+20
 20
1.000000000000000E+20
 30
1.000000000000000E+20
  9
$EXTMAX
 10
-1.000000000000000E+20
 20
-1.000000000000000E+20
 30
-1.000000000000000E+20
  9
$LIMMIN
 10
0.0
 20
0.0
  9
$LIMMAX
 10
12.0
 20
9.0
  9
$ORTHOMODE
 70
     0
  9
$REGENMODE
 70
     1
  9
$FILLMODE
 70
     1
  9
$QTEXTMODE
 70
     0
  9
$MIRRTEXT
 70
     1
  9
$LTSCALE
 40
1.0
  9
$ATTMODE
 70
     1
  9
$TEXTSIZE
 40
0.2
  9
$TRACEWID
 40
0.05
  9
$TEXTSTYLE
  7
Standard
  9
$CLAYER
  8
OracDecor_cornice_mouldings
  9
$CELTYPE
  6
ByLayer
  9
$CECOLOR
 62
   256
  9
$CELTSCALE
 40
1.0
  9
$DISPSILH
 70
     0
  9
$DIMSCALE
 40
1.0
  9
$DIMASZ
 40
0.18
  9
$DIMEXO
 40
0.0625
  9
$DIMDLI
 40
0.38
  9
$DIMRND
 40
0.0
  9
$DIMDLE
 40
0.0
  9
$DIMEXE
 40
0.18
  9
$DIMTP
 40
0.0
  9
$DIMTM
 40
0.0
  9
$DIMTXT
 40
0.18
  9
$DIMCEN
 40
0.09
  9
$DIMTSZ
 40
0.0
  9
$DIMTOL
 70
     0
  9
$DIMLIM
 70
     0
  9
$DIMTIH
 70
     1
  9
$DIMTOH
 70
     1
  9
$DIMSE1
 70
     0
  9
$DIMSE2
 70
     0
  9
$DIMTAD
 70
     0
  9
$DIMZIN
 70
     0
  9
$DIMBLK
  1

  9
$DIMASO
 70
     1
  9
$DIMSHO
 70
     1
  9
$DIMPOST
  1

  9
$DIMAPOST
  1

  9
$DIMALT
 70
     0
  9
$DIMALTD
 70
     2
  9
$DIMALTF
 40
25.4
  9
$DIMLFAC
 40
1.0
  9
$DIMTOFL
 70
     0
  9
$DIMTVP
 40
0.0
  9
$DIMTIX
 70
     0
  9
$DIMSOXD
 70
     0
  9
$DIMSAH
 70
     0
  9
$DIMBLK1
  1

  9
$DIMBLK2
  1

  9
$DIMSTYLE
  2
Standard
  9
$DIMCLRD
 70
     0
  9
$DIMCLRE
 70
     0
  9
$DIMCLRT
 70
     0
  9
$DIMTFAC
 40
1.0
  9
$DIMGAP
 40
0.09
  9
$DIMJUST
 70
     0
  9
$DIMSD1
 70
     0
  9
$DIMSD2
 70
     0
  9
$DIMTOLJ
 70
     1
  9
$DIMTZIN
 70
     0
  9
$DIMALTZ
 70
     0
  9
$DIMALTTZ
 70
     0
  9
$DIMUPT
 70
     0
  9
$DIMDEC
 70
     4
  9
$DIMTDEC
 70
     4
  9
$DIMALTU
 70
     2
  9
$DIMALTTD
 70
     2
  9
$DIMTXSTY
  7
Standard
  9
$DIMAUNIT
 70
     0
  9
$DIMADEC
 70
     0
  9
$DIMALTRND
 40
0.0
  9
$DIMAZIN
 70
     0
  9
$DIMDSEP
 70
    46
  9
$DIMATFIT
 70
     3
  9
$DIMFRAC
 70
     0
  9
$DIMLDRBLK
  1

  9
$DIMLUNIT
 70
     2
  9
$DIMLWD
 70
    -2
  9
$DIMLWE
 70
    -2
  9
$DIMTMOVE
 70
     0
  9
$DIMFXL
 40
1.0
  9
$DIMFXLON
 70
     0
  9
$DIMJOGANG
 40
0.7853981633974483
  9
$DIMTFILL
 70
     0
  9
$DIMTFILLCLR
 70
     0
  9
$DIMARCSYM
 70
     0
  9
$DIMLTYPE
  6

  9
$DIMLTEX1
  6

  9
$DIMLTEX2
  6

  9
$DIMTXTDIRECTION
 70
     0
  9
$LUNITS
 70
     2
  9
$LUPREC
 70
     4
  9
$SKETCHINC
 40
0.1
  9
$FILLETRAD
 40
0.5
  9
$AUNITS
 70
     0
  9
$AUPREC
 70
     0
  9
$MENU
  1
.
  9
$ELEVATION
 40
0.0
  9
$PELEVATION
 40
0.0
  9
$THICKNESS
 40
0.0
  9
$LIMCHECK
 70
     0
  9
$CHAMFERA
 40
0.5
  9
$CHAMFERB
 40
0.5
  9
$CHAMFERC
 40
1.0
  9
$CHAMFERD
 40
0.0
  9
$SKPOLY
 70
     0
  9
$TDCREATE
 40
2451380.930432396
  9
$TDUCREATE
 40
2451380.805432396
  9
$TDUPDATE
 40
2451380.966180555
  9
$TDUUPDATE
 40
2451380.841180556
  9
$TDINDWG
 40
0.0075615394
  9
$TDUSRTIMER
 40
0.0075525000
  9
$USRTIMER
 70
     1
  9
$ANGBASE
 50
0.0
  9
$ANGDIR
 70
     0
  9
$PDMODE
 70
     0
  9
$PDSIZE
 40
0.0
  9
$PLINEWID
 40
0.0
  9
$SPLFRAME
 70
     0
  9
$SPLINETYPE
 70
     6
  9
$SPLINESEGS
 70
     8
  9
$HANDSEED
  5
195
  9
$SURFTAB1
 70
     6
  9
$SURFTAB2
 70
     6
  9
$SURFTYPE
 70
     6
  9
$SURFU
 70
     6
  9
$SURFV
 70
     6
  9
$UCSBASE
  2

  9
$UCSNAME
  2

  9
$UCSORG
 10
0.0
 20
0.0
 30
0.0
  9
$UCSXDIR
 10
1.0
 20
0.0
 30
0.0
  9
$UCSYDIR
 10
0.0
 20
1.0
 30
0.0
  9
$UCSORTHOREF
  2

  9
$UCSORTHOVIEW
 70
     0
  9
$UCSORGTOP
 10
0.0
 20
0.0
 30
0.0
  9
$UCSORGBOTTOM
 10
0.0
 20
0.0
 30
0.0
  9
$UCSORGLEFT
 10
0.0
 20
0.0
 30
0.0
  9
$UCSORGRIGHT
 10
0.0
 20
0.0
 30
0.0
  9
$UCSORGFRONT
 10
0.0
 20
0.0
 30
0.0
  9
$UCSORGBACK
 10
0.0
 20
0.0
 30
0.0
  9
$PUCSBASE
  2

  9
$PUCSNAME
  2

  9
$PUCSORG
 10
0.0
 20
0.0
 30
0.0
  9
$PUCSXDIR
 10
1.0
 20
0.0
 30
0.0
  9
$PUCSYDIR
 10
0.0
 20
1.0
 30
0.0
  9
$PUCSORTHOREF
  2

  9
$PUCSORTHOVIEW
 70
     0
  9
$PUCSORGTOP
 10
0.0
 20
0.0
 30
0.0
  9
$PUCSORGBOTTOM
 10
0.0
 20
0.0
 30
0.0
  9
$PUCSORGLEFT
 10
0.0
 20
0.0
 30
0.0
  9
$PUCSORGRIGHT
 10
0.0
 20
0.0
 30
0.0
  9
$PUCSORGFRONT
 10
0.0
 20
0.0
 30
0.0
  9
$PUCSORGBACK
 10
0.0
 20
0.0
 30
0.0
  9
$USERI1
 70
     0
  9
$USERI2
 70
     0
  9
$USERI3
 70
     0
  9
$USERI4
 70
     0
  9
$USERI5
 70
     0
  9
$USERR1
 40
0.0
  9
$USERR2
 40
0.0
  9
$USERR3
 40
0.0
  9
$USERR4
 40
0.0
  9
$USERR5
 40
0.0
  9
$WORLDVIEW
 70
     1
  9
$SHADEDGE
 70
     3
  9
$SHADEDIF
 70
    70
  9
$TILEMODE
 70
     1
  9
$MAXACTVP
 70
    64
  9
$PINSBASE
 10
0.0
 20
0.0
 30
0.0
  9
$PLIMCHECK
 70
     0
  9
$PEXTMIN
 10
1.000000000000000E+20
 20
1.000000000000000E+20
 30
1.000000000000000E+20
  9
$PEXTMAX
 10
-1.000000000000000E+20
 20
-1.000000000000000E+20
 30
-1.000000000000000E+20
  9
$PLIMMIN
 10
0.0
 20
0.0
  9
$PLIMMAX
 10
12.0
 20
9.0
  9
$UNITMODE
 70
     0
  9
$VISRETAIN
 70
     1
  9
$PLINEGEN
 70
     0
  9
$PSLTSCALE
 70
     1
  9
$TREEDEPTH
 70
  3020
  9
$CMLSTYLE
  2
Standard
  9
$CMLJUST
 70
     0
  9
$CMLSCALE
 40
1.0
  9
$PROXYGRAPHICS
 70
     1
  9
$MEASUREMENT
 70
     1
  9
$CELWEIGHT
370
    -1
  9
$ENDCAPS
280
     0
  9
$JOINSTYLE
280
     0
  9
$LWDISPLAY
290
     0
  9
$INSUNITS
 70
     4
  9
$HYPERLINKBASE
  1

  9
$STYLESHEET
  1

  9
$XEDIT
290
     1
  9
$CEPSNTYPE
380
     0
  9
$PSTYLEMODE
290
     1
  9
$FINGERPRINTGUID
  2
{12F50282-3ED8-11D3-A8B7-0060B0F84BC6}
  9
$VERSIONGUID
  2
{12F50293-3ED8-11D3-A8B7-0060B0F84BC6}
  9
$EXTNAMES
290
     1
  9
$PSVPSCALE
 40
0.0
  9
$OLESTARTUP
290
     0
  9
$SORTENTS
280
   127
  9
$INDEXCTL
280
     0
  9
$HIDETEXT
280
     0
  9
$XCLIPFRAME
280
     2
  9
$HALOGAP
280
     0
  9
$OBSCOLOR
 70
   257
  9
$OBSLTYPE
280
     0
  9
$INTERSECTIONDISPLAY
280
     0
  9
$INTERSECTIONCOLOR
 70
   257
  9
$DIMASSOC
280
     1
  9
$PROJECTNAME
  1

  9
$CAMERADISPLAY
290
     0
  9
$LENSLENGTH
 40
50.0
  9
$CAMERAHEIGHT
 40
0.0
  9
$STEPSPERSEC
 40
2.0
  9
$STEPSIZE
 40
6.0
  9
$3DDWFPREC
 40
2.0
  9
$PSOLWIDTH
 40
0.25
  9
$PSOLHEIGHT
 40
4.0
  9
$LOFTANG1
 40
1.570796326794896
  9
$LOFTANG2
 40
1.570796326794896
  9
$LOFTMAG1
 40
0.0
  9
$LOFTMAG2
 40
0.0
  9
$LOFTPARAM
 70
     7
  9
$LOFTNORMALS
280
     1
  9
$LATITUDE
 40
37.795
  9
$LONGITUDE
 40
-122.394
  9
$NORTHDIRECTION
 40
0.0
  9
$TIMEZONE
 70
 -8000
  9
$LIGHTGLYPHDISPLAY
280
     1
  9
$TILEMODELIGHTSYNCH
280
     1
  9
$CMATERIAL
347
AB
  9
$SOLIDHIST
280
     0
  9
$SHOWHIST
280
     1
  9
$DWFFRAME
280
     2
  9
$DGNFRAME
280
     0
  9
$REALWORLDSCALE
290
     1
  9
$INTERFERECOLOR
 62
     1
  9
$INTERFEREOBJVS
345
CD
  9
$INTERFEREVPVS
346
CA
  9
$CSHADOW
280
     0
  9
$SHADOWPLANELOCATION
 40
0.0
  0
ENDSEC
  0
SECTION
  2
CLASSES
  0
CLASS
  1
ACDBDICTIONARYWDFLT
  2
AcDbDictionaryWithDefault
  3
ObjectDBX Classes
 90
        0
 91
        1
280
     0
281
     0
  0
CLASS
  1
ACDBPLACEHOLDER
  2
AcDbPlaceHolder
  3
ObjectDBX Classes
 90
        0
 91
        2
280
     0
281
     0
  0
CLASS
  1
LAYOUT
  2
AcDbLayout
  3
ObjectDBX Classes
 90
        0
 91
        3
280
     0
281
     0
  0
CLASS
  1
MATERIAL
  2
AcDbMaterial
  3
ObjectDBX Classes
 90
     1153
 91
        3
280
     0
281
     0
  0
CLASS
  1
VISUALSTYLE
  2
AcDbVisualStyle
  3
ObjectDBX Classes
 90
     4095
 91
       24
280
     0
281
     0
  0
CLASS
  1
TABLESTYLE
  2
AcDbTableStyle
  3
ObjectDBX Classes
 90
     4095
 91
        1
280
     0
281
     0
  0
CLASS
  1
SCALE
  2
AcDbScale
  3
ObjectDBX Classes
 90
     1153
 91
       17
280
     0
281
     0
  0
CLASS
  1
MLEADERSTYLE
  2
AcDbMLeaderStyle
  3
ACDB_MLEADERSTYLE_CLASS
 90
     4095
 91
        1
280
     0
281
     0
  0
CLASS
  1
ACDBSECTIONVIEWSTYLE
  2
AcDbSectionViewStyle
  3
ObjectDBX Classes
 90
     1025
 91
        1
280
     0
281
     0
  0
CLASS
  1
ACDBDETAILVIEWSTYLE
  2
AcDbDetailViewStyle
  3
ObjectDBX Classes
 90
     1025
 91
        1
280
     0
281
     0
  0
CLASS
  1
MESH
  2
AcDbSubDMesh
  3
ObjectDBX Classes
 90
        0
 91
        1
280
     0
281
     1
  0
CLASS
  1
DICTIONARYVAR
  2
AcDbDictionaryVar
  3
ObjectDBX Classes
 90
        0
 91
        9
280
     0
281
     0
  0
CLASS
  1
CELLSTYLEMAP
  2
AcDbCellStyleMap
  3
ObjectDBX Classes
 90
     1152
 91
        1
280
     0
281
     0
  0
ENDSEC
  0
SECTION
  2
TABLES
  0
TABLE
  2
VPORT
  5
8
330
0
100
AcDbSymbolTable
 70
     1
  0
VPORT
  5
A8
330
8
100
AcDbSymbolTableRecord
100
AcDbViewportTableRecord
  2
*Active
 70
     0
 10
0.0
 20
0.0
 11
1.0
 21
1.0
 12
0.0000755271612434
 22
-8.981449127197265
 13
0.0
 23
0.0
 14
0.5
 24
0.5
 15
0.5
 25
0.5
 16
-1.0
 26
-1.0
 36
1.0
 17
0.0
 27
0.0
 37
0.0
 40
1222.000057427772
 41
1.700868121926796
 42
50.0
 43
0.0
 44
0.0
 50
0.0
 51
0.0
 71
     0
 72
   100
 73
     1
 74
     3
 75
     0
 76
     0
 77
     0
 78
     0
281
     0
 65
     1
110
0.0
120
0.0
130
0.0
111
1.0
121
0.0
131
0.0
112
0.0
122
1.0
132
0.0
 79
     0
146
0.0
348
C9
 60
     3
 61
     5
292
     1
282
     1
141
0.0
142
0.0
 63
   250
421
  3355443
  0
ENDTAB
  0
TABLE
  2
LTYPE
  5
5
330
0
100
AcDbSymbolTable
 70
     1
  0
LTYPE
  5
14
330
5
100
AcDbSymbolTableRecord
100
AcDbLinetypeTableRecord
  2
ByBlock
 70
     0
  3

 72
    65
 73
     0
 40
0.0
  0
LTYPE
  5
15
330
5
100
AcDbSymbolTableRecord
100
AcDbLinetypeTableRecord
  2
ByLayer
 70
     0
  3

 72
    65
 73
     0
 40
0.0
  0
LTYPE
  5
16
330
5
100
AcDbSymbolTableRecord
100
AcDbLinetypeTableRecord
  2
Continuous
 70
     0
  3
Solid line
 72
    65
 73
     0
 40
0.0
  0
ENDTAB
  0
TABLE
  2
LAYER
  5
2
330
0
100
AcDbSymbolTable
 70
     3
  0
LAYER
  5
10
330
2
100
AcDbSymbolTableRecord
100
AcDbLayerTableRecord
  2
0
 70
     0
 62
     7
  6
Continuous
370
    -3
390
F
347
BB
  0
LAYER
  5
2B
330
2
100
AcDbSymbolTableRecord
100
AcDbLayerTableRecord
  2
ASHADE
 70
     4
 62
     7
  6
Continuous
370
    -3
390
2D
347
BB
  0
LAYER
  5
F8
330
2
100
AcDbSymbolTableRecord
100
AcDbLayerTableRecord
  2
OracDecor_cornice_mouldings
 70
     0
 62
    54
420
  9744667
  6
Continuous
370
    -3
390
F
347
BB
  0
ENDTAB
  0
TABLE
  2
STYLE
  5
3
330
0
100
AcDbSymbolTable
 70
     2
  0
STYLE
  5
11
330
3
100
AcDbSymbolTableRecord
100
AcDbTextStyleTableRecord
  2
Standard
 70
     0
 40
0.0
 41
1.0
 50
0.0
 71
     0
 42
0.2
  3
txt
  4

  0
STYLE
  5
2C
330
3
100
AcDbSymbolTableRecord
100
AcDbTextStyleTableRecord
  2
ASHADE
 70
     0
 40
0.2
 41
1.0
 50
0.0
 71
     0
 42
0.2
  3
simplex
  4

  0
ENDTAB
  0
TABLE
  2
VIEW
  5
6
330
0
100
AcDbSymbolTable
 70
     0
  0
ENDTAB
  0
TABLE
  2
UCS
  5
7
330
0
100
AcDbSymbolTable
 70
     0
  0
ENDTAB
  0
TABLE
  2
APPID
  5
9
330
0
100
AcDbSymbolTable
 70
     6
  0
APPID
  5
12
330
9
100
AcDbSymbolTableRecord
100
AcDbRegAppTableRecord
  2
ACAD
 70
     0
  0
APPID
  5
8F
330
9
100
AcDbSymbolTableRecord
100
AcDbRegAppTableRecord
  2
AVE_RENDER
 70
     0
  0
APPID
  5
90
330
9
100
AcDbSymbolTableRecord
100
AcDbRegAppTableRecord
  2
AVE_ENTITY_MATERIAL
 70
     0
  0
APPID
  5
9C
330
9
100
AcDbSymbolTableRecord
100
AcDbRegAppTableRecord
  2
AVE_FINISH
 70
     0
  0
APPID
  5
9D
330
9
100
AcDbSymbolTableRecord
100
AcDbRegAppTableRecord
  2
AVE_MATERIAL
 70
     0
  0
APPID
  5
9E
330
9
100
AcDbSymbolTableRecord
100
AcDbRegAppTableRecord
  2
AVE_GLOBAL
 70
     0
  0
ENDTAB
  0
TABLE
  2
DIMSTYLE
  5
A
330
0
100
AcDbSymbolTable
 70
     1
100
AcDbDimStyleTable
 71
     0
  0
DIMSTYLE
105
27
330
A
100
AcDbSymbolTableRecord
100
AcDbDimStyleTableRecord
  2
Standard
 70
     0
340
11
  0
ENDTAB
  0
TABLE
  2
BLOCK_RECORD
  5
1
330
0
100
AcDbSymbolTable
 70
     6
  0
BLOCK_RECORD
  5
1F
330
1
100
AcDbSymbolTableRecord
100
AcDbBlockTableRecord
  2
*Model_Space
340
22
 70
     0
280
     1
281
     0
  0
BLOCK_RECORD
  5
1B
330
1
100
AcDbSymbolTableRecord
100
AcDbBlockTableRecord
  2
*Paper_Space
340
1E
 70
     0
280
     1
281
     0
  0
BLOCK_RECORD
  5
23
330
1
100
AcDbSymbolTableRecord
100
AcDbBlockTableRecord
  2
*Paper_Space0
340
26
 70
     0
280
     1
281
     0
  0
BLOCK_RECORD
  5
2E
330
1
100
AcDbSymbolTableRecord
100
AcDbBlockTableRecord
  2
direct
340
0
 70
     0
280
     1
281
     0
  0
BLOCK_RECORD
  5
42
330
1
100
AcDbSymbolTableRecord
100
AcDbBlockTableRecord
  2
overhead
340
0
 70
     0
280
     1
281
     0
  0
BLOCK_RECORD
  5
5F
330
1
100
AcDbSymbolTableRecord
100
AcDbBlockTableRecord
  2
sh_spot
340
0
 70
     0
280
     1
281
     0
  0
BLOCK_RECORD
  5
91
330
1
100
AcDbSymbolTableRecord
100
AcDbBlockTableRecord
  2
AVE_RENDER
340
0
102
{BLKREFS
331
94
331
95
331
96
331
97
331
98
331
99
331
9A
331
9B
102
}
 70
     0
280
     1
281
     0
  0
BLOCK_RECORD
  5
9F
330
1
100
AcDbSymbolTableRecord
100
AcDbBlockTableRecord
  2
AVE_GLOBAL
340
0
102
{BLKREFS
331
A2
102
}
 70
     0
280
     1
281
     0
  0
ENDTAB
  0
ENDSEC
  0
SECTION
  2
BLOCKS
  0
BLOCK
  5
20
330
1F
100
AcDbEntity
  8
0
100
AcDbBlockBegin
  2
*Model_Space
 70
     0
 10
0.0
 20
0.0
 30
0.0
  3
*Model_Space
  1

  0
ENDBLK
  5
21
330
1F
100
AcDbEntity
  8
0
100
AcDbBlockEnd
  0
BLOCK
  5
1C
330
1B
100
AcDbEntity
 67
     1
  8
0
100
AcDbBlockBegin
  2
*Paper_Space
 70
     0
 10
0.0
 20
0.0
 30
0.0
  3
*Paper_Space
  1

  0
ENDBLK
  5
1D
330
1B
100
AcDbEntity
 67
     1
  8
0
100
AcDbBlockEnd
  0
BLOCK
  5
24
330
23
100
AcDbEntity
 67
     1
  8
0
100
AcDbBlockBegin
  2
*Paper_Space0
 70
     0
 10
0.0
 20
0.0
 30
0.0
  3
*Paper_Space0
  1

  0
ENDBLK
  5
25
330
23
100
AcDbEntity
 67
     1
  8
0
100
AcDbBlockEnd
  0
BLOCK
  5
40
330
2E
100
AcDbEntity
  8
0
100
AcDbBlockBegin
  2
direct
 70
     2
 10
0.0
 20
0.0
 30
0.0
  3
direct
  1

  0
ATTDEF
  5
2F
330
2E
100
AcDbEntity
  8
ASHADE
  6
Continuous
 62
     1
100
AcDbText
 10
0.0
 20
-0.1
 30
0.0
 40
0.2
  1

  7
ASHADE
 72
     1
 11
0.0
 21
-0.1
 31
0.0
100
AcDbAttributeDefinition
280
     0
  3
Light Name
  2
SNAME
 70
     0
280
     0
  0
ARC
  5
30
330
2E
100
AcDbEntity
  8
ASHADE
  6
Continuous
 62
     7
100
AcDbCircle
 10
0.0
 20
0.0
 30
0.0
 40
0.3
100
AcDbArc
 50
205.6792886194569
 51
334.3207113805431
  0
ARC
  5
31
330
2E
100
AcDbEntity
  8
ASHADE
  6
Continuous
 62
     7
100
AcDbCircle
 10
0.0
 20
0.0
 30
0.0
 40
0.3
100
AcDbArc
 50
25.67928861945685
 51
154.3207113805431
  0
LINE
  5
32
330
2E
100
AcDbEntity
  8
ASHADE
  6
Continuous
 62
     7
100
AcDbLine
 10
-0.21
 20
0.2142428528562855
 30
0.0
 11
-0.21
 21
0.5
 31
0.0
  0
LINE
  5
33
330
2E
100
AcDbEntity
  8
ASHADE
  6
Continuous
 62
     7
100
AcDbLine
 10
-0.11
 20
0.2791057147390572
 30
0.0
 11
-0.11
 21
0.5
 31
0.0
  0
LINE
  5
34
330
2E
100
AcDbEntity
  8
ASHADE
  6
Continuous
 62
     7
100
AcDbLine
 10
0.21
 20
0.2142428528562855
 30
0.0
 11
0.21
 21
0.5
 31
0.0
  0
ATTDEF
  5
35
330
2E
100
AcDbEntity
  8
ASHADE
  6
Continuous
 62
     7
100
AcDbText
 10
0.0
 20
0.25
 30
0.0
 40
0.01
  1

100
AcDbAttributeDefinition
280
     0
  3
Look-at Y
  2
LAY
 70
     1
280
     0
  0
ATTDEF
  5
36
330
2E
100
AcDbEntity
  8
ASHADE
  6
Continuous
 62
     7
100
AcDbText
 10
0.0
 20
0.22
 30
0.0
 40
0.01
  1
1
100
AcDbAttributeDefinition
280
     0
  3
Light Intensity
  2
INTENSITY
 70
     1
280
     0
  0
ATTDEF
  5
37
330
2E
100
AcDbEntity
  8
ASHADE
  6
Continuous
 62
     7
100
AcDbText
 10
0.0
 20
0.16
 30
0.0
 40
0.01
  1
-1
100
AcDbAttributeDefinition
280
     0
  3
*not used*
  2
BEAMD
 70
     1
280
     0
  0
ATTDEF
  5
38
330
2E
100
AcDbEntity
  8
ASHADE
  6
Continuous
 62
     7
100
AcDbText
 10
0.0
 20
0.175
 30
0.0
 40
0.01
  1
-1
100
AcDbAttributeDefinition
280
     0
  3
*not used*
  2
CONED
 70
     1
280
     0
  0
ATTDEF
  5
39
330
2E
100
AcDbEntity
  8
ASHADE
  6
Continuous
 62
     7
100
AcDbText
 10
0.0
 20
0.19
 30
0.0
 40
0.01
  1
0
100
AcDbAttributeDefinition
280
     0
  3
Depth Map Size
  2
CONEA
 70
     1
280
     0
  0
ATTDEF
  5
3A
330
2E
100
AcDbEntity
  8
ASHADE
  6
Continuous
 62
     7
100
AcDbText
 10
0.0
 20
0.2050000000000001
 30
0.0
 40
0.01
  1
1,1,1
100
AcDbAttributeDefinition
280
     0
  3
Light Color (RGB)
  2
COLOR
 70
     1
280
     0
  0
ATTDEF
  5
3B
330
2E
100
AcDbEntity
  8
ASHADE
  6
Continuous
 62
     7
100
AcDbText
 10
0.0
 20
0.235
 30
0.0
 40
0.01
  1

100
AcDbAttributeDefinition
280
     0
  3
Look-at Z
  2
LAZ
 70
     1
280
     0
  0
LINE
  5
3C
330
2E
100
AcDbEntity
  8
ASHADE
  6
Continuous
 62
     7
100
AcDbLine
 10
0.0
 20
0.3
 30
0.0
 11
0.0
 21
0.5
 31
0.0
  0
LINE
  5
3D
330
2E
100
AcDbEntity
  8
ASHADE
  6
Continuous
 62
     7
100
AcDbLine
 10
0.11
 20
0.2791057147390572
 30
0.0
 11
0.11
 21
0.5
 31
0.0
  0
ATTDEF
  5
3E
330
2E
100
AcDbEntity
  8
ASHADE
  6
Continuous
 62
     7
100
AcDbText
 10
0.0
 20
0.265
 30
0.0
 40
0.01
  1

100
AcDbAttributeDefinition
280
     0
  3
Look-at X
  2
LAX
 70
     1
280
     0
  0
ATTDEF
  5
3F
330
2E
100
AcDbEntity
  8
ASHADE
  6
Continuous
 62
     7
100
AcDbText
 10
0.0
 20
0.28
 30
0.0
 40
0.01
  1

100
AcDbAttributeDefinition
280
     0
  3

  2
GNAME
 70
     1
280
     0
  0
ENDBLK
  5
41
330
2E
100
AcDbEntity
  8
0
100
AcDbBlockEnd
  0
BLOCK
  5
5D
330
42
100
AcDbEntity
  8
0
100
AcDbBlockBegin
  2
overhead
 70
     2
 10
0.0
 20
0.0
 30
0.0
  3
overhead
  1

  0
ATTDEF
  5
43
330
42
100
AcDbEntity
  8
ASHADE
  6
Continuous
 62
     1
100
AcDbText
 10
0.0
 20
-0.1
 30
0.0
 40
0.2
  1

  7
ASHADE
 72
     1
 11
0.0
 21
-0.1
 31
0.0
100
AcDbAttributeDefinition
280
     0
  3
Light Name
  2
SNAME
 70
     0
280
     0
  0
ARC
  5
44
330
42
100
AcDbEntity
  8
ASHADE
  6
Continuous
 62
     7
100
AcDbCircle
 10
0.0
 20
0.0
 30
0.0
 40
0.3
100
AcDbArc
 50
205.6792886194569
 51
334.3207113805431
  0
LINE
  5
45
330
42
100
AcDbEntity
  8
ASHADE
  6
Continuous
 62
     7
100
AcDbLine
 10
-0.2041413561583015
 20
-0.2198324514393848
 30
0.0
 11
-0.2721884748777353
 21
-0.2931099352525131
 31
0.0
  0
LINE
  5
46
330
42
100
AcDbEntity
  8
ASHADE
  6
Continuous
 62
     7
100
AcDbLine
 10
-0.1096591641591904
 20
-0.2792398032442862
 30
0.0
 11
-0.1279356915190555
 21
-0.3257797704516673
 31
0.0
  0
LINE
  5
47
330
42
100
AcDbEntity
  8
ASHADE
  6
Continuous
 62
     7
100
AcDbLine
 10
0.0
 20
-0.2999999999999999
 30
0.0
 11
0.0
 21
-0.4
 31
0.0
  0
LINE
  5
48
330
42
100
AcDbEntity
  8
ASHADE
  6
Continuous
 62
     7
100
AcDbLine
 10
0.1096591641591904
 20
-0.2792398032442862
 30
0.0
 11
0.1279356915190555
 21
-0.3257797704516673
 31
0.0
  0
LINE
  5
49
330
42
100
AcDbEntity
  8
ASHADE
  6
Continuous
 62
     7
100
AcDbLine
 10
0.2041413561583015
 20
-0.2198324514393848
 30
0.0
 11
0.2721884748777353
 21
-0.2931099352525131
 31
0.0
  0
ARC
  5
4A
330
42
100
AcDbEntity
  8
ASHADE
  6
Continuous
 62
     7
100
AcDbCircle
 10
0.0
 20
0.0
 30
0.0
 40
0.3
100
AcDbArc
 50
25.67928861945685
 51
154.3207113805431
  0
LINE
  5
4B
330
42
100
AcDbEntity
  8
ASHADE
  6
Continuous
 62
     7
100
AcDbLine
 10
-0.2703701166919155
 20
0.13
 30
0.0
 11
-0.3154318028072347
 21
0.1516666666666666
 31
0.0
  0
LINE
  5
4C
330
42
100
AcDbEntity
  8
ASHADE
  6
Continuous
 62
     7
100
AcDbLine
 10
-0.2703701166919155
 20
-0.13
 30
0.0
 11
-0.3154318028072347
 21
-0.1516666666666666
 31
0.0
  0
LINE
  5
4D
330
42
100
AcDbEntity
  8
ASHADE
  6
Continuous
 62
     7
100
AcDbLine
 10
-0.2041413561583015
 20
0.2198324514393849
 30
0.0
 11
-0.2721884748777353
 21
0.2931099352525131
 31
0.0
  0
LINE
  5
4E
330
42
100
AcDbEntity
  8
ASHADE
  6
Continuous
 62
     7
100
AcDbLine
 10
-0.1096591641591904
 20
0.2792398032442862
 30
0.0
 11
-0.1279356915190555
 21
0.3257797704516674
 31
0.0
  0
LINE
  5
4F
330
42
100
AcDbEntity
  8
ASHADE
  6
Continuous
 62
     7
100
AcDbLine
 10
0.2703701166919155
 20
-0.13
 30
0.0
 11
0.3154318028072347
 21
-0.1516666666666666
 31
0.0
  0
LINE
  5
50
330
42
100
AcDbEntity
  8
ASHADE
  6
Continuous
 62
     7
100
AcDbLine
 10
0.2703701166919155
 20
0.13
 30
0.0
 11
0.3154318028072347
 21
0.1516666666666666
 31
0.0
  0
LINE
  5
51
330
42
100
AcDbEntity
  8
ASHADE
  6
Continuous
 62
     7
100
AcDbLine
 10
0.0
 20
0.3
 30
0.0
 11
0.0
 21
0.4
 31
0.0
  0
ATTDEF
  5
52
330
42
100
AcDbEntity
  8
ASHADE
  6
Continuous
 62
     7
100
AcDbText
 10
0.0
 20
0.22
 30
0.0
 40
0.01
  1
1
100
AcDbAttributeDefinition
280
     0
  3
Light Intensity
  2
INTENSITY
 70
     1
280
     0
  0
ATTDEF
  5
53
330
42
100
AcDbEntity
  8
ASHADE
  6
Continuous
 62
     7
100
AcDbText
 10
0.0
 20
0.16
 30
0.0
 40
0.01
  1
-1
100
AcDbAttributeDefinition
280
     0
  3
*not used*
  2
BEAMD
 70
     1
280
     0
  0
ATTDEF
  5
54
330
42
100
AcDbEntity
  8
ASHADE
  6
Continuous
 62
     7
100
AcDbText
 10
0.0
 20
0.175
 30
0.0
 40
0.01
  1
-1
100
AcDbAttributeDefinition
280
     0
  3
*not used*
  2
CONED
 70
     1
280
     0
  0
ATTDEF
  5
55
330
42
100
AcDbEntity
  8
ASHADE
  6
Continuous
 62
     7
100
AcDbText
 10
0.0
 20
0.19
 30
0.0
 40
0.01
  1
0
100
AcDbAttributeDefinition
280
     0
  3
Depth Map Size
  2
CONEA
 70
     1
280
     0
  0
ATTDEF
  5
56
330
42
100
AcDbEntity
  8
ASHADE
  6
Continuous
 62
     7
100
AcDbText
 10
0.0
 20
0.2050000000000001
 30
0.0
 40
0.01
  1
1,1,1
100
AcDbAttributeDefinition
280
     0
  3
Light Color (RGB)
  2
COLOR
 70
     1
280
     0
  0
ATTDEF
  5
57
330
42
100
AcDbEntity
  8
ASHADE
  6
Continuous
 62
     7
100
AcDbText
 10
0.0
 20
0.235
 30
0.0
 40
0.01
  1

100
AcDbAttributeDefinition
280
     0
  3
Look-at Z
  2
LAZ
 70
     1
280
     0
  0
ATTDEF
  5
58
330
42
100
AcDbEntity
  8
ASHADE
  6
Continuous
 62
     7
100
AcDbText
 10
0.0
 20
0.25
 30
0.0
 40
0.01
  1

100
AcDbAttributeDefinition
280
     0
  3
Look-at Y
  2
LAY
 70
     1
280
     0
  0
ATTDEF
  5
59
330
42
100
AcDbEntity
  8
ASHADE
  6
Continuous
 62
     7
100
AcDbText
 10
0.0
 20
0.265
 30
0.0
 40
0.01
  1

100
AcDbAttributeDefinition
280
     0
  3
Look-at X
  2
LAX
 70
     1
280
     0
  0
ATTDEF
  5
5A
330
42
100
AcDbEntity
  8
ASHADE
  6
Continuous
 62
     7
100
AcDbText
 10
0.0
 20
0.28
 30
0.0
 40
0.01
  1

100
AcDbAttributeDefinition
280
     0
  3

  2
GNAME
 70
     1
280
     0
  0
LINE
  5
5B
330
42
100
AcDbEntity
  8
ASHADE
  6
Continuous
 62
     7
100
AcDbLine
 10
0.1096591641591904
 20
0.2792398032442862
 30
0.0
 11
0.1279356915190555
 21
0.3257797704516674
 31
0.0
  0
LINE
  5
5C
330
42
100
AcDbEntity
  8
ASHADE
  6
Continuous
 62
     7
100
AcDbLine
 10
0.2041413561583015
 20
0.2198324514393849
 30
0.0
 11
0.2721884748777353
 21
0.2931099352525131
 31
0.0
  0
ENDBLK
  5
5E
330
42
100
AcDbEntity
  8
0
100
AcDbBlockEnd
  0
BLOCK
  5
85
330
5F
100
AcDbEntity
  8
0
100
AcDbBlockBegin
  2
sh_spot
 70
     2
 10
0.0
 20
0.0
 30
0.0
  3
sh_spot
  1

  0
LINE
  5
60
330
5F
100
AcDbEntity
  8
ASHADE
  6
Continuous
 62
     7
100
AcDbLine
 10
0.25
 20
0.26
 30
0.0
 11
-0.25
 21
0.26
 31
0.0
  0
LINE
  5
61
330
5F
100
AcDbEntity
  8
ASHADE
  6
Continuous
 62
     7
100
AcDbLine
 10
-0.25
 20
-0.3399999999999999
 30
0.0
 11
0.25
 21
-0.3399999999999999
 31
0.0
  0
ATTDEF
  5
62
330
5F
100
AcDbEntity
  8
ASHADE
  6
Continuous
 62
     1
100
AcDbText
 10
0.0
 20
-0.1
 30
0.0
 40
0.2
  1

  7
ASHADE
 72
     1
 11
0.0
 21
-0.1
 31
0.0
100
AcDbAttributeDefinition
280
     0
  3
Light Name
  2
SNAME
 70
     0
280
     0
  0
LINE
  5
63
330
5F
100
AcDbEntity
  8
ASHADE
  6
Continuous
 62
     7
100
AcDbLine
 10
-0.25
 20
-0.13
 30
0.0
 11
-0.25
 21
-0.3399999999999999
 31
0.0
  0
LINE
  5
64
330
5F
100
AcDbEntity
  8
ASHADE
  6
Continuous
 62
     7
100
AcDbLine
 10
-0.25
 20
-0.18
 30
0.0
 11
-0.29
 21
-0.18
 31
0.0
  0
LINE
  5
65
330
5F
100
AcDbEntity
  8
ASHADE
  6
Continuous
 62
     7
100
AcDbLine
 10
-0.29
 20
-0.22
 30
0.0
 11
-0.25
 21
-0.22
 31
0.0
  0
LINE
  5
66
330
5F
100
AcDbEntity
  8
ASHADE
  6
Continuous
 62
     7
100
AcDbLine
 10
-0.29
 20
-0.18
 30
0.0
 11
-0.29
 21
-0.22
 31
0.0
  0
LINE
  5
67
330
5F
100
AcDbEntity
  8
ASHADE
  6
Continuous
 62
     7
100
AcDbLine
 10
-0.1045454545454545
 20
0.26
 30
0.0
 11
-0.15
 21
0.46
 31
0.0
  0
LINE
  5
68
330
5F
100
AcDbEntity
  8
ASHADE
  6
Continuous
 62
     7
100
AcDbLine
 10
-0.21
 20
0.26
 30
0.0
 11
-0.301304347826087
 21
0.46
 31
0.0
  0
LINE
  5
69
330
5F
100
AcDbEntity
  8
ASHADE
  6
Continuous
 62
     7
100
AcDbLine
 10
-0.25
 20
0.26
 30
0.0
 11
-0.25
 21
0.13
 31
0.0
  0
LINE
  5
6A
330
5F
100
AcDbEntity
  8
ASHADE
  6
Continuous
 62
     7
100
AcDbLine
 10
-0.25
 20
0.22
 30
0.0
 11
-0.29
 21
0.22
 31
0.0
  0
LINE
  5
6B
330
5F
100
AcDbEntity
  8
ASHADE
  6
Continuous
 62
     7
100
AcDbLine
 10
-0.29
 20
0.1799999999999999
 30
0.0
 11
-0.25
 21
0.1799999999999999
 31
0.0
  0
LINE
  5
6C
330
5F
100
AcDbEntity
  8
ASHADE
  6
Continuous
 62
     7
100
AcDbLine
 10
-0.29
 20
0.22
 30
0.0
 11
-0.29
 21
0.1799999999999999
 31
0.0
  0
ATTDEF
  5
6D
330
5F
100
AcDbEntity
  8
ASHADE
  6
Continuous
 62
     7
100
AcDbText
 10
0.0
 20
-0.24
 30
0.0
 40
0.01
  1
0
100
AcDbAttributeDefinition
280
     0
  3
Depth Map Size
  2
ZSIZE
 70
     1
280
     0
  0
ATTDEF
  5
6E
330
5F
100
AcDbEntity
  8
ASHADE
  6
Continuous
 62
     7
100
AcDbText
 10
0.0
 20
-0.3300000000000001
 30
0.0
 40
0.01
  1
0,0,0
100
AcDbAttributeDefinition
280
     0
  3
Look-from XYZ
  2
LFXYZ
 70
     1
280
     0
  0
ATTDEF
  5
6F
330
5F
100
AcDbEntity
  8
ASHADE
  6
Continuous
 62
     7
100
AcDbText
 10
0.0
 20
-0.315
 30
0.0
 40
0.01
  1
0.0
100
AcDbAttributeDefinition
280
     0
  3
Beam Distribution
  2
BEAMDI
 70
     1
280
     0
  0
ATTDEF
  5
70
330
5F
100
AcDbEntity
  8
ASHADE
  6
Continuous
 62
     7
100
AcDbText
 10
0.0
 20
-0.3
 30
0.0
 40
0.01
  1
0.0
100
AcDbAttributeDefinition
280
     0
  3
Cone Delta
  2
CONEDE
 70
     1
280
     0
  0
ATTDEF
  5
71
330
5F
100
AcDbEntity
  8
ASHADE
  6
Continuous
 62
     7
100
AcDbText
 10
0.0
 20
-0.2850000000000001
 30
0.0
 40
0.01
  1
10.0
100
AcDbAttributeDefinition
280
     0
  3
Cone Angle
  2
CONEAN
 70
     1
280
     0
  0
ATTDEF
  5
72
330
5F
100
AcDbEntity
  8
ASHADE
  6
Continuous
 62
     7
100
AcDbText
 10
0.0
 20
-0.27
 30
0.0
 40
0.01
  1
-1
100
AcDbAttributeDefinition
280
     0
  3
*not used*
  2
BIASMAX
 70
     1
280
     0
  0
ATTDEF
  5
73
330
5F
100
AcDbEntity
  8
ASHADE
  6
Continuous
 62
     7
100
AcDbText
 10
0.0
 20
-0.255
 30
0.0
 40
0.01
  1
-1
100
AcDbAttributeDefinition
280
     0
  3
*not used*
  2
BIASMIN
 70
     1
280
     0
  0
ATTDEF
  5
74
330
5F
100
AcDbEntity
  8
ASHADE
  6
Continuous
 62
     7
100
AcDbText
 10
0.0
 20
-0.225
 30
0.0
 40
0.01
  1
1,1,1
100
AcDbAttributeDefinition
280
     0
  3
Light Color (RGB)
  2
COLOR
 70
     1
280
     0
  0
ATTDEF
  5
75
330
5F
100
AcDbEntity
  8
ASHADE
  6
Continuous
 62
     7
100
AcDbText
 10
0.0
 20
-0.21
 30
0.0
 40
0.01
  1
1
100
AcDbAttributeDefinition
280
     0
  3
Light Intensity
  2
INTENSITY
 70
     1
280
     0
  0
ATTDEF
  5
76
330
5F
100
AcDbEntity
  8
ASHADE
  6
Continuous
 62
     7
100
AcDbText
 10
0.0
 20
-0.15
 30
0.0
 40
0.01
  1

100
AcDbAttributeDefinition
280
     0
  3

  2
GNAME
 70
     1
280
     0
  0
ATTDEF
  5
77
330
5F
100
AcDbEntity
  8
ASHADE
  6
Continuous
 62
     7
100
AcDbText
 10
0.0
 20
-0.195
 30
0.0
 40
0.01
  1

100
AcDbAttributeDefinition
280
     0
  3
Look-at Z
  2
LAZ
 70
     1
280
     0
  0
ATTDEF
  5
78
330
5F
100
AcDbEntity
  8
ASHADE
  6
Continuous
 62
     7
100
AcDbText
 10
0.0
 20
-0.18
 30
0.0
 40
0.01
  1

100
AcDbAttributeDefinition
280
     0
  3
Look-at Y
  2
LAY
 70
     1
280
     0
  0
ATTDEF
  5
79
330
5F
100
AcDbEntity
  8
ASHADE
  6
Continuous
 62
     7
100
AcDbText
 10
0.0
 20
-0.165
 30
0.0
 40
0.01
  1

100
AcDbAttributeDefinition
280
     0
  3
Look-at X
  2
LAX
 70
     1
280
     0
  0
LINE
  5
7A
330
5F
100
AcDbEntity
  8
ASHADE
  6
Continuous
 62
     7
100
AcDbLine
 10
0.25
 20
-0.3399999999999999
 30
0.0
 11
0.25
 21
-0.13
 31
0.0
  0
LINE
  5
7B
330
5F
100
AcDbEntity
  8
ASHADE
  6
Continuous
 62
     7
100
AcDbLine
 10
0.25
 20
-0.18
 30
0.0
 11
0.29
 21
-0.18
 31
0.0
  0
LINE
  5
7C
330
5F
100
AcDbEntity
  8
ASHADE
  6
Continuous
 62
     7
100
AcDbLine
 10
0.29
 20
-0.22
 30
0.0
 11
0.25
 21
-0.22
 31
0.0
  0
LINE
  5
7D
330
5F
100
AcDbEntity
  8
ASHADE
  6
Continuous
 62
     7
100
AcDbLine
 10
0.29
 20
-0.18
 30
0.0
 11
0.29
 21
-0.22
 31
0.0
  0
LINE
  5
7E
330
5F
100
AcDbEntity
  8
ASHADE
  6
Continuous
 62
     7
100
AcDbLine
 10
0.21
 20
0.26
 30
0.0
 11
0.301304347826087
 21
0.46
 31
0.0
  0
LINE
  5
7F
330
5F
100
AcDbEntity
  8
ASHADE
  6
Continuous
 62
     7
100
AcDbLine
 10
0.1045454545454545
 20
0.26
 30
0.0
 11
0.15
 21
0.46
 31
0.0
  0
LINE
  5
80
330
5F
100
AcDbEntity
  8
ASHADE
  6
Continuous
 62
     7
100
AcDbLine
 10
0.0
 20
0.26
 30
0.0
 11
0.0
 21
0.46
 31
0.0
  0
LINE
  5
81
330
5F
100
AcDbEntity
  8
ASHADE
  6
Continuous
 62
     7
100
AcDbLine
 10
0.25
 20
0.13
 30
0.0
 11
0.25
 21
0.26
 31
0.0
  0
LINE
  5
82
330
5F
100
AcDbEntity
  8
ASHADE
  6
Continuous
 62
     7
100
AcDbLine
 10
0.25
 20
0.22
 30
0.0
 11
0.29
 21
0.22
 31
0.0
  0
LINE
  5
83
330
5F
100
AcDbEntity
  8
ASHADE
  6
Continuous
 62
     7
100
AcDbLine
 10
0.29
 20
0.1799999999999999
 30
0.0
 11
0.25
 21
0.1799999999999999
 31
0.0
  0
LINE
  5
84
330
5F
100
AcDbEntity
  8
ASHADE
  6
Continuous
 62
     7
100
AcDbLine
 10
0.29
 20
0.22
 30
0.0
 11
0.29
 21
0.1799999999999999
 31
0.0
  0
ENDBLK
  5
86
330
5F
100
AcDbEntity
  8
0
100
AcDbBlockEnd
  0
BLOCK
  5
92
330
91
100
AcDbEntity
  8
ASHADE
100
AcDbBlockBegin
  2
AVE_RENDER
 70
     0
 10
0.0
 20
0.0
 30
0.0
  3
AVE_RENDER
  1
AVE_RENDER
  0
ENDBLK
  5
93
330
91
100
AcDbEntity
  8
0
100
AcDbBlockEnd
  0
BLOCK
  5
A0
330
9F
100
AcDbEntity
  8
ASHADE
100
AcDbBlockBegin
  2
AVE_GLOBAL
 70
     0
 10
0.0
 20
0.0
 30
0.0
  3
AVE_GLOBAL
  1
AVE_GLOBAL
  0
ENDBLK
  5
A1
330
9F
100
AcDbEntity
  8
0
100
AcDbBlockEnd
  0
ENDSEC
  0
SECTION
  2
ENTITIES
  0
INSERT
  5
94
330
1F
100
AcDbEntity
  8
ASHADE
 62
     1
100
AcDbBlockReference
  2
AVE_RENDER
 10
0.0
 20
0.0
 30
0.0
1001
AVE_RENDER
1002
{
1070
     7
1000
Pref
1070
    30
1070
    20
1070
     1
1070
     0
1000

1070
    10
1070
     1
1070
    10
1040
1.0
1070
     1
1040
0.3
1040
0.7
1040
0.0
1040
10.0
1010
-1.0
1020
-1.0
1030
-1.0
1040
0.3
1070
    49
1070
     0
1070
     0
1010
1.0
1020
1.0
1030
1.0
1040
45.0
1070
     1
1070
     0
1000
WCS
1040
0.0
1070
     0
1040
10.0
1002
}
  0
INSERT
  5
95
330
1F
100
AcDbEntity
  8
ASHADE
 62
     3
100
AcDbBlockReference
  2
AVE_RENDER
 10
0.0
 20
0.0
 30
0.0
1001
AVE_RENDER
1002
{
1070
     0
1000
Full Opt
1070
     0
1070
     1
1070
     1
1070
     1
1070
     0
1070
     0
1070
     0
1070
     1
1070
     1
1040
0.0001
1040
0.0001
1002
}
  0
INSERT
  5
96
330
1F
100
AcDbEntity
  8
ASHADE
 62
     4
100
AcDbBlockReference
  2
AVE_RENDER
 10
0.0
 20
0.0
 30
0.0
1001
AVE_RENDER
1002
{
1070
     0
1000
Quick Opt
1070
     0
1070
     1
1070
     1
1070
     1
1070
     0
1070
     0
1070
     1
1002
}
  0
INSERT
  5
97
330
1F
100
AcDbEntity
  8
ASHADE
 62
     5
100
AcDbBlockReference
  2
AVE_RENDER
 10
0.0
 20
0.0
 30
0.0
1001
AVE_RENDER
1002
{
1070
     1
1000
Scanl Opt
1070
     2
1070
     0
1070
     2
1040
2.0
1040
4.0
1070
     0
1070
     1
1070
     0
1040
0.03
1002
}
  0
INSERT
  5
98
330
1F
100
AcDbEntity
  8
ASHADE
 62
     6
100
AcDbBlockReference
  2
AVE_RENDER
 10
0.0
 20
0.0
 30
0.0
1001
AVE_RENDER
1002
{
1070
     2
1000
Raytr Opt
1070
     2
1070
     0
1070
     2
1040
2.0
1040
4.0
1070
     0
1070
     1
1070
     1
1040
0.03
1070
     3
1040
0.03
1002
}
  0
INSERT
  5
99
330
1F
100
AcDbEntity
  8
ASHADE
 62
     7
100
AcDbBlockReference
  2
AVE_RENDER
 10
0.0
 20
0.0
 30
0.0
1001
AVE_RENDER
1002
{
1070
     0
1000
RFile Opt
1070
     1
1070
   640
1070
   480
1070
 10000
1070
     1
1070
     8
1070
     8
1070
     0
1070
     0
1070
     0
1070
     0
1070
     0
1070
     0
1070
     0
1002
}
  0
INSERT
  5
9A
330
1F
100
AcDbEntity
  8
ASHADE
 62
     8
100
AcDbBlockReference
  2
AVE_RENDER
 10
0.0
 20
0.0
 30
0.0
1001
AVE_RENDER
1002
{
1070
     0
1000
Fog Opt
1070
     0
1070
     0
1040
0.0
1040
1.0
1040
0.0
1040
1.0
1010
0.5
1020
0.5
1030
0.5
1002
}
  0
INSERT
  5
9B
330
1F
100
AcDbEntity
  8
ASHADE
 62
     9
100
AcDbBlockReference
  2
AVE_RENDER
 10
0.0
 20
0.0
 30
0.0
1001
AVE_RENDER
1002
{
1070
     0
1000
BG Opt
1070
     0
1070
     1
1010
0.0
1020
0.0
1030
0.0
1010
1.0
1020
0.0
1030
0.0
1010
0.0
1020
1.0
1030
0.0
1010
0.0
1020
0.0
1030
1.0
1040
0.5
1040
0.33
1040
0.0
1000

1070
     1
1000

1070
     1
1070
     1
1040
1.0
1040
1.0
1040
0.0
1040
0.0
1070
     0
1002
}
  0
INSERT
  5
A2
330
1F
100
AcDbEntity
  8
ASHADE
 62
     1
100
AcDbBlockReference
  2
AVE_GLOBAL
 10
0.0
 20
0.0
 30
0.0
1001
AVE_MATERIAL
1002
{
1000
*GLOBAL*
1000
2
1000
Global finish.
1002
{
1002
}
1002
{
1070
    63
1002
{
1002
{
1010
-1.0
1020
-1.0
1030
-1.0
1002
}
1040
0.1000000014901161
1000

1040
0.0
1002
{
1002
}
1040
0.0
1002
{
1002
}
1040
0.0
1002
}
1002
{
1002
{
1010
-1.0
1020
-1.0
1030
-1.0
1002
}
1040
0.6999999880790711
1000

1040
0.0
1002
{
1002
}
1040
0.0
1002
{
1002
}
1040
0.0
1002
}
1002
{
1002
{
1010
-1.0
1020
-1.0
1030
-1.0
1002
}
1040
0.2000000029802322
1000

1040
0.0
1002
{
1002
}
1040
0.0
1002
{
1002
}
1040
0.0
1002
}
1002
{
1070
     0
1002
{
1070
     1
1002
{
1040
1.0
1040
1.0
1000

1040
0.0
1002
{
1002
}
1040
0.0
1002
{
1002
}
1040
0.0
1002
}
1002
}
1040
1.0
1040
0.0
1040
0.0
1002
}
1002
{
1040
1.0
1040
1.0
1000

1040
0.0
1002
{
1002
}
1040
0.0
1002
{
1002
}
1040
0.0
1002
}
1002
{
1040
0.5
1040
1.0
1000

1040
0.0
1002
{
1002
}
1040
0.0
1002
{
1002
}
1040
0.0
1002
}
1002
{
1070
     0
1040
0.0
1002
{
1002
}
1040
1.0
1002
{
1002
}
1040
0.0
1002
}
1002
{
1040
0.0
1002
{
1002
{
1010
0.0
1020
0.0
1030
0.0
1002
}
1040
1.0
1000

1040
0.0
1002
{
1002
}
1040
0.0
1002
{
1002
}
1040
0.0
1002
}
1002
}
1002
{
1002
{
1070
     1
1002
{
1040
0.0
1040
1.0
1000

1040
0.0
1002
{
1002
}
1040
0.0
1002
{
1002
}
1040
0.0
1002
}
1002
}
1040
0.0
1002
{
1002
}
1010
1.0
1020
0.0
1030
0.0
1010
0.0
1020
1.0
1030
0.0
1010
0.0
1020
0.0
1030
1.0
1070
     0
1002
}
1002
{
1002
{
1040
1.0
1040
1.0
1002
{
1070
     1
1002
{
1040
1.0
1040
1.0
1000

1040
0.0
1002
{
1002
}
1040
0.0
1002
{
1002
}
1040
0.0
1002
}
1002
}
1002
}
1070
     0
1040
0.0
1002
{
1002
}
1002
}
1002
{
1002
}
1002
}
1002
{
1071
        3
1070
     3
1070
     0
1002
{
1070
     2
1070
     0
1070
     0
1040
0.0
1002
}
1070
     0
1070
     2
1002
{
1002
}
1002
}
1002
{
1040
8030.0
1040
190.3000030517578
1040
0.3050000071525574
1040
228.0
1040
545.0
1040
14.0
1040
17.39999961853027
1040
0.4560000002384186
1002
}
1002
}
  0
MESH
  5
F9
330
1F
100
AcDbEntity
  8
OracDecor_cornice_mouldings
 62
    61
420
 14083225
160
             26792
310
A8680000E80200000C00000013000000020000003C00000006000000020000000000002000408F4000000040000069C000000020FCFF1FC00000002000408F4000000000F83D68C0000000000080E03E0C000000130000000A0000003C00000006000000020000000000002000408F4000000040000069C0000000000040F0
310
3E0000002000408F4000000000F83D68C0000000000080E03E0C00000013000000120000003C00000006000000020000000000002000408F4000000040000069C000000020FCFF1FC00000002000408F4000000040000069C0000000000040F03E0C000000130000001A0000003C0000000600000002000000000000200040
310
8F4000000000000000BF00000040FFFF35C00000002000408F4000000000DC1A11C000000000B84FA8BF0C00000013000000220000003C00000006000000020000000000002000408F4000000000DC1A11C000000000B84FA8BF0000002000408F400000000048CB11C000000000EE28C7BF0C000000130000002A0000003C
310
00000006000000020000000000002000408F4000000000000000BF00000040FFFF35C00000002000408F400000000048CB11C000000000EE28C7BF0C00000013000000320000003C00000006000000020000000000002000408F4000000000000000BF00000040FFFF35C00000002000408F4000000000124110C000000000
310
0080E43E0C000000130000003A0000003C00000006000000020000000000002000408F4000000000124110C0000000000080E43E0000002000408F4000000000DC1A11C000000000B84FA8BF0C00000013000000420000003C00000006000000020000000000002000408F4000000000000000BF00000040FFFF35C0000000
310
2000408F4000000000000004BF000000000080E03E0C000000130000004A0000003C00000006000000020000000000002000408F4000000000000004BF000000000080E03E0000002000408F4000000000124110C0000000000080E43E0C00000013000000520000003C00000006000000020000000000002000408F400000
310
0000D03012C000000000D7FFD7BF0000002000408F400000000048CB11C000000000EE28C7BF0C000000130000005A0000003C00000006000000020000000000002000408F4000000000000000BF00000040FFFF35C00000002000408F4000000000D03012C000000000D7FFD7BF0C00000013000000620000003C00000006
310
000000020000000000002000408F40000000007C6113C0000000808BA1EEBF0000002000408F4000000000D03012C000000000D7FFD7BF0C000000130000006A0000003C00000006000000020000000000002000408F4000000000000000BF00000040FFFF35C00000002000408F40000000007C6113C0000000808BA1EEBF
310
0C00000013000000720000003C00000006000000020000000000002000408F40000000007C6113C0000000808BA1EEBF0000002000408F40000000009A7215C0000000A02DB8F5BF0C000000130000007A0000003C00000006000000020000000000002000408F4000000000000000BF00000040FFFF35C00000002000408F
310
40000000009A7215C0000000A02DB8F5BF0C00000013000000820000003C00000006000000020000000000002000408F40000000009A7215C0000000A02DB8F5BF0000002000408F40000000000A0018C0000000E0F5FFF7BF0C000000130000008A0000003C00000006000000020000000000002000408F40000000000000
310
00BF00000040FFFF35C00000002000408F40000000000A0018C0000000E0F5FFF7BF0C00000013000000920000003C00000006000000020000000000002000408F40000000000A0018C0000000E0F5FFF7BF0000002000408F40000000007A8D1AC0000000E02DB8F5BF0C000000130000009A0000003C0000000600000002
310
0000000000002000408F40000000007A8D1AC0000000E02DB8F5BF0000002000408F4000000000050028C0000000A0FEFF25C00C00000013000000A20000003C00000006000000020000000000002000408F4000000000000000BF00000040FFFF35C00000002000408F4000000000050028C0000000A0FEFF25C00C000000
310
13000000AA0000003C00000006000000020000000000002000408F400000000051A228C000000080B25D27C00000002000408F4000000000050028C0000000A0FEFF25C00C00000013000000B20000003C00000006000000020000000000002000408F4000000000000000BF00000040FFFF35C00000002000408F40000000
310
0051A228C000000080B25D27C00C00000013000000BA0000003C00000006000000020000000000002000408F400000000005002AC000000080FEFF27C00000002000408F400000000051A228C000000080B25D27C00C00000013000000C20000003C00000006000000020000000000002000408F400000000005002AC00000
310
0080FEFF27C00000002000408F4000000000000000BF00000040FFFF35C00C00000013000000CA0000003C00000006000000020000000000002000408F40000000007A8D1AC0000000E02DB8F5BF0000002000408F4000000000989E1CC0000000808CA1EEBF0C00000013000000D20000003C000000060000000200000000
310
00002000408F4000000000989E1CC0000000808CA1EEBF0000002000408F4000000000050028C0000000A0FEFF25C00C00000013000000DA0000003C00000006000000020000000000002000408F4000000000989E1CC0000000808CA1EEBF0000002000408F400000000044CF1DC000000000D8FFD7BF0C00000013000000
310
E20000003C00000006000000020000000000002000408F400000000044CF1DC000000000D8FFD7BF0000002000408F4000000000050028C000000000D7FFDFBF0C00000013000000EA0000003C00000006000000020000000000002000408F4000000000050028C0000000A0FEFF25C00000002000408F4000000000050028
310
C000000000D7FFDFBF0C00000013000000F20000003C00000006000000020000000000002000408F400000000044CF1DC000000000D8FFD7BF0000002000408F4000000000CC341EC000000000F028C7BF0C00000013000000FA0000003C00000006000000020000000000002000408F4000000000CC341EC000000000F028
310
C7BF0000002000408F4000000000B4DD27C000000000AEFECFBF0C00000013000000020100003C00000006000000020000000000002000408F4000000000B4DD27C000000000AEFECFBF0000002000408F4000000000050028C000000000D7FFDFBF0C000000130000000A0100003C00000006000000020000000000002000
310
408F4000000000CC341EC000000000F028C7BF0000002000408F400000000038E51EC000000000C04FA8BF0C00000013000000120100003C00000006000000020000000000002000408F400000000038E51EC000000000C04FA8BF0000002000408F4000000000098027C000000000DC27B1BF0C000000130000001A010000
310
3C00000006000000020000000000002000408F4000000000098027C000000000DC27B1BF0000002000408F4000000000B4DD27C000000000AEFECFBF0C00000013000000220100003C00000006000000020000000000002000408F400000000038E51EC000000000C04FA8BF0000002000408F400000000002BF1FC0000000
310
000000E43E0C000000130000002A0100003C00000006000000020000000000002000408F400000000002BF1FC0000000000000E43E0000002000408F4000000000050027C0000000000080E43E0C00000013000000320100003C00000006000000020000000000002000408F4000000000050027C0000000000080E43E0000
310
002000408F4000000000098027C000000000DC27B1BF0C000000130000003A0100003C00000006000000020000000000002000408F400000000001C05DC000000020FFFF35C00000002000408F4000000000000000BF00000040FFFF35C00C00000013000000420100003C00000006000000020000000000002000408F4000
310
00000005002AC000000080FEFF27C00000002000408F4000000080F7AE5BC0000000C0FEFF27C00C000000130000004A0100003C00000006000000020000000000002000408F400000000001C05DC000000020FFFF35C00000002000408F4000000080F7AE5BC0000000C0FEFF27C00C00000013000000520100003C000000
310
06000000020000000000002000408F400000000001C05DC00000000033332EC00000002000408F400000000001C05DC000000020FFFF35C00C000000130000005A0100003C00000006000000020000000000002000408F4000000080F7AE5BC0000000C0FEFF27C00000002000408F40000000C0E3D85BC000000000016E27
310
C00C00000013000000620100003C00000006000000020000000000002000408F400000000001C05DC00000000033332EC00000002000408F40000000C0E3D85BC000000000016E27C00C000000130000006A0100003C00000006000000020000000000002000408F400000004067C65DC000000000FFFF2DC0000000200040
310
8F400000000001C05DC00000000033332EC00C00000013000000720100003C00000006000000020000000000002000408F40000000C0E3D85BC000000000016E27C00000002000408F4000000040B9EE5BC0000000009F2C26C00C000000130000007A0100003C00000006000000020000000000002000408F400000004067
310
C65DC000000000FFFF2DC00000002000408F4000000040B9EE5BC0000000009F2C26C00C00000013000000820100003C00000006000000020000000000002000408F400000002097405CC000000000FC79B5BF0000002000408F4000000000DB555CC0000000000080E03E0C000000130000008A0100003C00000006000000
310
020000000000002000408F4000000000DB555CC0000000000080E03E0000002000408F4000000040DEF05CC0000000000000E13E0C00000013000000920100003C00000006000000020000000000002000408F4000000040DEF05CC0000000000000E13E0000002000408F40000000007BFE5CC0000000000050A8BF0C0000
310
00130000009A0100003C00000006000000020000000000002000408F400000002097405CC000000000FC79B5BF0000002000408F40000000007BFE5CC0000000000050A8BF0C00000013000000A20100003C00000006000000020000000000002000408F40000000806D305CC000000000DF2DD4BF0000002000408F400000
310
002097405CC000000000FC79B5BF0C00000013000000AA0100003C00000006000000020000000000002000408F40000000007BFE5CC0000000000050A8BF0000002000408F400000008081095DC0000000000029C7BF0C00000013000000B20100003C00000006000000020000000000002000408F40000000806D305CC000
310
000000DF2DD4BF0000002000408F400000008081095DC0000000000029C7BF0C00000013000000BA0100003C00000006000000020000000000002000408F40000000C039295CC0000000808F72E4BF0000002000408F40000000806D305CC000000000DF2DD4BF0C00000013000000C20100003C0000000600000002000000
310
0000002000408F400000008081095DC0000000000029C7BF0000002000408F4000000000DA0F5DC000000000E0FFD7BF0C00000013000000CA0100003C00000006000000020000000000002000408F40000000C039295CC0000000808F72E4BF0000002000408F4000000000DA0F5DC000000000E0FFD7BF0C000000130000
310
00D20100003C00000006000000020000000000002000408F4000000040B9EE5BC0000000009F2C26C00000002000408F40000000C039295CC0000000808F72E4BF0C00000013000000DA0100003C00000006000000020000000000002000408F4000000000DA0F5DC000000000E0FFD7BF0000002000408F40000000C0E422
310
5DC00000000090A1EEBF0C00000013000000E20100003C00000006000000020000000000002000408F4000000040B9EE5BC0000000009F2C26C00000002000408F40000000C0E4225DC00000000090A1EEBF0C00000013000000EA0100003C00000006000000020000000000002000408F40000000C0E4225DC00000000090
310
A1EEBF0000002000408F40000000C0F6435DC0000000A02FB8F5BF0C00000013000000F20100003C00000006000000020000000000002000408F4000000040B9EE5BC0000000009F2C26C00000002000408F40000000C0F6435DC0000000A02FB8F5BF0C00000013000000FA0100003C000000060000000200000000000020
310
00408F40000000C0F6435DC0000000A02FB8F5BF0000002000408F40000000A0CD6C5DC0000000E0F7FFF7BF0C00000013000000020200003C00000006000000020000000000002000408F400000004067C65DC000000000FFFF2DC00000002000408F40000000A0CD6C5DC0000000E0F7FFF7BF0C000000130000000A0200
310
003C00000006000000020000000000002000408F400000008020DB5DC000000000F84FA8BF0000002000408F4000000020BDE85DC0000000000080E03E0C00000013000000120200003C00000006000000020000000000002000408F4000000020BDE85DC0000000000080E03E0000002000408F4000000080C0835EC00000
310
00000000E03E0C000000130000001A0200003C00000006000000020000000000002000408F4000000080C0835EC0000000000000E03E0000002000408F400000004004995EC000000000007AB5BF0C00000013000000220200003C00000006000000020000000000002000408F400000008020DB5DC000000000F84FA8BF00
310
00002000408F400000004004995EC000000000007AB5BF0C000000130000002A0200003C00000006000000020000000000002000408F40000000E019D05DC000000000FE28C7BF0000002000408F400000008020DB5DC000000000F84FA8BF0C00000013000000320200003C00000006000000020000000000002000408F40
310
0000004004995EC000000000007AB5BF0000002000408F40000000C02DA95EC000000000DE2DD4BF0C000000130000003A0200003C00000006000000020000000000002000408F40000000E019D05DC000000000FE28C7BF0000002000408F40000000C02DA95EC000000000DE2DD4BF0C00000013000000420200003C0000
310
0006000000020000000000002000408F4000000040C1C95DC000000000DFFFD7BF0000002000408F40000000E019D05DC000000000FE28C7BF0C000000130000004A0200003C00000006000000020000000000002000408F40000000C02DA95EC000000000DE2DD4BF0000002000408F40000000A061B05EC0000000008F72
310
E4BF0C00000013000000520200003C00000006000000020000000000002000408F4000000040C1C95DC000000000DFFFD7BF0000002000408F40000000A061B05EC0000000008F72E4BF0C000000130000005A0200003C00000006000000020000000000002000408F4000000080B6B65DC0000000808FA1EEBF0000002000
310
408F4000000040C1C95DC000000000DFFFD7BF0C00000013000000620200003C00000006000000020000000000002000408F4000000040E3CE5EC0000000003E5918C00000002000408F40000000A061B05EC0000000008F72E4BF0C000000130000006A0200003C00000006000000020000000000002000408F4000000080
310
B6B65DC0000000808FA1EEBF0000002000408F4000000040E3CE5EC0000000003E5918C00C00000013000000720200003C00000006000000020000000000002000408F4000000080B6B65DC0000000808FA1EEBF0000002000408F40000000A0A4955DC0000000E02FB8F5BF0C000000130000007A0200003C000000060000
310
00020000000000002000408F40000000A0A4955DC0000000E02FB8F5BF0000002000408F4000000040E3CE5EC0000000003E5918C00C00000013000000820200003C00000006000000020000000000002000408F400000004067C65DC000000000FFFF2DC00000002000408F4000000040E3CE5EC0000000003E5918C00C00
310
0000130000008A0200003C00000006000000020000000000002000408F40000000402DD95EC000000000C0321AC00000002000408F4000000040E3CE5EC0000000003E5918C00C00000013000000920200003C00000006000000020000000000002000408F400000004067C65DC000000000FFFF2DC00000002000408F4000
310
0000402DD95EC000000000C0321AC00C000000130000009A0200003C00000006000000020000000000002000408F40000000A0CD6C5DC0000000E0F7FFF7BF0000002000408F40000000A0A4955DC0000000E02FB8F5BF0C00000013000000A20200003C00000006000000020000000000002000408F40000000402DD95EC0
310
00000000C0321AC00000002000408F400000000044F05EC00000000044851BC00C00000013000000AA0200003C00000006000000020000000000002000408F400000004067C65DC000000000FFFF2DC00000002000408F400000000044F05EC00000000044851BC00C00000013000000B20200003C00000006000000020000
310
000000002000408F40000000C0A40E5FC000000000FEFF1BC00000002000408F400000000044F05EC00000000044851BC00C00000013000000BA0200003C00000006000000020000000000002000408F40000000C0A40E5FC000000000FEFF1BC00000002000408F400000004067C65DC000000000FFFF2DC00C0000001300
310
0000C20200003C00000006000000020000000000002000408F400000006000A064C0000000C0FEFF2DC00000002000408F400000004067C65DC000000000FFFF2DC00C00000013000000CA0200003C00000006000000020000000000002000408F40000000C0A40E5FC000000000FEFF1BC00000002000408F40000000A0FA
310
6B63C000000000FEFF1BC00C00000013000000D20200003C00000006000000020000000000002000408F400000006000A064C0000000C0FEFF2DC00000002000408F40000000A0FA6B63C000000000FEFF1BC00C00000013000000DA0200003C00000006000000020000000000002000408F40000000A0FA6B63C000000000
310
FEFF1BC00000002000408F4000000060DD8163C00000000082841BC00C00000013000000E20200003C00000006000000020000000000002000408F400000006000A064C0000000C0FEFF2DC00000002000408F4000000060DD8163C00000000082841BC00C00000013000000EA0200003C0000000600000002000000000000
310
2000408F4000000060DD8163C00000000082841BC00000002000408F40000000E01D9563C000000000D4201AC00C00000013000000F20200003C00000006000000020000000000002000408F400000006000A064C0000000C0FEFF2DC00000002000408F40000000E01D9563C000000000D4201AC00C00000013000000FA02
310
00003C00000006000000020000000000002000408F400000006000A064C0000000C0313320C00000002000408F400000006000A064C0000000C0FEFF2DC00C00000013000000020300003C00000006000000020000000000002000408F40000000E01D9563C000000000D4201AC00000002000408F40000000E067A363C000
310
000000E2FF17C00C000000130000000A0300003C00000006000000020000000000002000408F400000006000A064C0000000C0313320C00000002000408F40000000E067A363C000000000E2FF17C00C00000013000000120300003C00000006000000020000000000002000408F40000000A033A364C000000080FDFF1FC0
310
0000002000408F400000006000A064C0000000C0313320C00C000000130000001A0300003C00000006000000020000000000002000408F40000000E067A363C000000000E2FF17C00000002000408F40000000A001AB63C000000000A06315C00C00000013000000220300003C00000006000000020000000000002000408F
310
40000000A033A364C000000080FDFF1FC00000002000408F40000000A001AB63C000000000A06315C00C000000130000002A0300003C00000006000000020000000000002000408F40000000A001AB63C000000000A06315C00000002000408F40000000A0DFBE63C0000000A0B738FDBF0C00000013000000320300003C00
310
000006000000020000000000002000408F40000000A033A364C000000080FDFF1FC00000002000408F40000000A0DFBE63C0000000A0B738FDBF0C000000130000003A0300003C00000006000000020000000000002000408F40000000A0DFBE63C0000000A0B738FDBF0000002000408F40000000A0B8C463C0000000E0D7
310
71F6BF0C00000013000000420300003C00000006000000020000000000002000408F40000000A033A364C000000080FDFF1FC00000002000408F40000000A0B8C463C0000000E0D771F6BF0C000000130000004A0300003C00000006000000020000000000002000408F40000000A0B8C463C0000000E0D771F6BF00000020
310
00408F400000002006D063C0000000C0D7B3F1BF0C00000013000000520300003C00000006000000020000000000002000408F40000000A033A364C000000080FDFF1FC00000002000408F400000002006D063C0000000C0D7B3F1BF0C000000130000005A0300003C00000006000000020000000000002000408F40000000
310
2063DE63C000000000EFFFEFBF0000002000408F400000002006D063C0000000C0D7B3F1BF0C00000013000000620300003C00000006000000020000000000002000408F40000000A033A364C000000080FDFF1FC00000002000408F400000002063DE63C000000000EFFFEFBF0C000000130000006A0300003C0000000600
310
0000020000000000002000408F40000000C0040467C0000000005C7CB7BF0000002000408F4000000080410D67C0000000000080E43E0C00000013000000720300003C00000006000000020000000000002000408F4000000080410D67C0000000000080E43E0000002000408F400000008008C267C0000000000080E03E0C
310
000000130000007A0300003C00000006000000020000000000002000408F400000008008C267C0000000000080E03E0000002000408F4000000000D7C867C000000000F84FA8BF0C00000013000000820300003C00000006000000020000000000002000408F40000000C0040467C0000000005C7CB7BF0000002000408F40
310
00000000D7C867C000000000F84FA8BF0C000000130000008A0300003C00000006000000020000000000002000408F40000000C02BFE66C0000000003755D5BF0000002000408F40000000C0040467C0000000005C7CB7BF0C00000013000000920300003C00000006000000020000000000002000408F4000000000D7C867
310
C000000000F84FA8BF0000002000408F40000000405ACE67C000000000FE28C7BF0C000000130000009A0300003C00000006000000020000000000002000408F40000000C02BFE66C0000000003755D5BF0000002000408F40000000405ACE67C000000000FE28C7BF0C00000013000000A20300003C000000060000000200
310
00000000002000408F400000000069F766C0000000803BD1E5BF0000002000408F40000000C02BFE66C0000000003755D5BF0C00000013000000AA0300003C00000006000000020000000000002000408F400000008086D167C000000000DFFFD7BF0000002000408F40000000405ACE67C000000000FE28C7BF0C00000013
310
000000B20300003C00000006000000020000000000002000408F400000000069F766C0000000803BD1E5BF0000002000408F400000008086D167C000000000DFFFD7BF0C00000013000000BA0300003C00000006000000020000000000002000408F4000000000C5EC66C0000000806B57EDBF0000002000408F4000000000
310
69F766C0000000803BD1E5BF0C00000013000000C20300003C00000006000000020000000000002000408F40000000000CDB67C0000000808FA1EEBF0000002000408F400000008086D167C000000000DFFFD7BF0C00000013000000CA0300003C00000006000000020000000000002000408F4000000000C5EC66C0000000
310
806B57EDBF0000002000408F40000000000CDB67C0000000808FA1EEBF0C00000013000000D20300003C00000006000000020000000000002000408F400000004000E066C000000080EBFFEFBF0000002000408F4000000000C5EC66C0000000806B57EDBF0C00000013000000DA0300003C00000006000000020000000000
310
002000408F40000000C094EB67C0000000E02DB8F5BF0000002000408F40000000000CDB67C0000000808FA1EEBF0C00000013000000E20300003C00000006000000020000000000002000408F400000004000E066C000000080EBFFEFBF0000002000408F40000000C094EB67C0000000E02DB8F5BF0C00000013000000EA
310
0300003C00000006000000020000000000002000408F400000004000E066C000000080EBFFEFBF0000002000408F400000002063DE63C000000000EFFFEFBF0C00000013000000F20300003C00000006000000020000000000002000408F400000004000E066C000000080EBFFEFBF0000002000408F40000000A033A364C0
310
00000080FDFF1FC00C00000013000000FA0300003C00000006000000020000000000002000408F40000000A033A364C000000080FDFF1FC00000002000408F40000000C094EB67C0000000E02DB8F5BF0C00000013000000020400003C00000006000000020000000000002000408F40000000C094EB67C0000000E02DB8F5
310
BF0000002000408F4000000040000068C0000000E0F5FFF7BF0C000000130000000A0400003C00000006000000020000000000002000408F40000000A033A364C000000080FDFF1FC00000002000408F4000000040000068C0000000E0F5FFF7BF0C00000013000000120400003C0000000600000002000000000000200040
310
8F4000000040000069C000000020FCFF1FC00000002000408F4000000040000068C0000000E0F5FFF7BF0C000000130000001A0400003C00000006000000020000000000002000408F4000000040000068C0000000E0F5FFF7BF0000002000408F40000000C06B1468C0000000C02DB8F5BF0C00000013000000220400003C
310
00000006000000020000000000002000408F4000000040000069C000000020FCFF1FC00000002000408F40000000C06B1468C0000000C02DB8F5BF0C000000130000002A0400003C00000006000000020000000000002000408F40000000C06B1468C0000000C02DB8F5BF0000002000408F40000000C0F42468C000000080
310
8FA1EEBF0C00000013000000320400003C00000006000000020000000000002000408F4000000040000069C000000020FCFF1FC00000002000408F40000000C0F42468C0000000808FA1EEBF0C000000130000003A0400003C00000006000000020000000000002000408F4000000040000069C000000020FCFF1FC0000000
310
2000408F40000000A033A364C000000080FDFF1FC00C00000013000000420400003C00000006000000020000000000002000408F40000000C0F42468C0000000808FA1EEBF0000002000408F40000000007A2E68C000000000DFFFD7BF0C000000130000004A0400003C00000006000000020000000000002000408F400000
310
0040000069C000000020FCFF1FC00000002000408F40000000007A2E68C000000000DFFFD7BF0C00000013000000520400003C00000006000000020000000000002000408F40000000007A2E68C000000000DFFFD7BF0000002000408F4000000080A63168C000000000FE28C7BF0C000000130000005A0400003C00000006
310
000000020000000000002000408F4000000040000069C000000020FCFF1FC00000002000408F4000000080A63168C000000000FE28C7BF0C00000013000000620400003C00000006000000020000000000002000408F40000000C0293768C000000000F04FA8BF0000002000408F4000000080A63168C000000000FE28C7BF
310
0C000000130000006A0400003C00000006000000020000000000002000408F4000000040000069C000000020FCFF1FC00000002000408F40000000C0293768C000000000F04FA8BF0C00000013000000720400003C00000006000000020000000000002000408F4000000000F83D68C0000000000080E03E0000002000408F
310
40000000C0293768C000000000F04FA8BF0C000000130000007A0400003C00000006000000020000000000002000408F4000000000000000BF00000040FFFF35C0000000C0FF3F8FC0000000000000043F000000C0030036C00C00000013000000820400003C0000000600000002000000000000C0FF3F8FC0000000000000
310
043F000000C0030036C0000000C0FF3F8FC0000000000000083F0000000000E00FBF0C000000130000008A0400003C00000006000000020000000000002000408F4000000000000004BF000000000080E03E000000C0FF3F8FC0000000000000083F0000000000E00FBF0C00000013000000920400003C0000000600000002
310
0000000000002000408F400000000001C05DC000000020FFFF35C0000000C0FF3F8FC000000060FFBF5DC0000000A0030036C00C000000130000009A0400003C0000000600000002000000000000C0FF3F8FC0000000000000043F000000C0030036C0000000C0FF3F8FC000000060FFBF5DC0000000A0030036C00C000000
310
13000000A20400003C00000006000000020000000000002000408F400000000001C05DC00000000033332EC0000000C0FF3F8FC000000060FFBF5DC0000000003B332EC00C00000013000000AA0400003C0000000600000002000000000000C0FF3F8FC000000060FFBF5DC0000000A0030036C0000000C0FF3F8FC0000000
310
60FFBF5DC0000000003B332EC00C00000013000000B20400003C00000006000000020000000000002000408F400000004067C65DC000000000FFFF2DC0000000C0FF3F8FC0000000C065C65DC00000000008002EC00C00000013000000BA0400003C0000000600000002000000000000C0FF3F8FC000000060FFBF5DC00000
310
00003B332EC0000000C0FF3F8FC0000000C065C65DC00000000008002EC00C00000013000000C20400003C00000006000000020000000000002000408F400000006000A064C0000000C0FEFF2DC0000000C0FF3F8FC0000000E0FF9F64C0000000C007002EC00C00000013000000CA0400003C000000060000000200000000
310
0000C0FF3F8FC0000000C065C65DC00000000008002EC0000000C0FF3F8FC0000000E0FF9F64C0000000C007002EC00C00000013000000D20400003C00000006000000020000000000002000408F400000006000A064C0000000C0313320C0000000C0FF3F8FC0000000E0FF9F64C0000000C03A3320C00C00000013000000
310
DA0400003C0000000600000002000000000000C0FF3F8FC0000000E0FF9F64C0000000C007002EC0000000C0FF3F8FC0000000E0FF9F64C0000000C03A3320C00C00000013000000E20400003C00000006000000020000000000002000408F40000000A033A364C000000080FDFF1FC0000000C0FF3F8FC00000002033A364
310
C0000000C0070020C00C00000013000000EA0400003C0000000600000002000000000000C0FF3F8FC0000000E0FF9F64C0000000C03A3320C0000000C0FF3F8FC00000002033A364C0000000C0070020C00C00000013000000F20400003C00000006000000020000000000002000408F4000000040000069C000000020FCFF
310
1FC0000000C0FF3F8FC000000080FFFF68C000000000070020C00C00000013000000FA0400003C0000000600000002000000000000C0FF3F8FC000000080FFFF68C000000000070020C0000000C0FF3F8FC00000002033A364C0000000C0070020C00C00000013000000020500003C00000006000000020000000000002000
310
408F4000000040000069C0000000000040F03E000000C0FF3F8FC000000080FFFF68C00000000000E00BBF0C000000130000000A0500003C0000000600000002000000000000C0FF3F8FC000000080FFFF68C000000000070020C0000000C0FF3F8FC000000080FFFF68C00000000000E00BBF0C0000001300000012050000
310
3C00000006000000020000000000002000408F4000000000F83D68C0000000000080E03E000000C0FF3F8FC000000040F73D68C00000000000E00FBF0C000000130000001A0500003C0000000600000002000000000000C0FF3F8FC000000080FFFF68C00000000000E00BBF000000C0FF3F8FC000000040F73D68C0000000
310
0000E00FBF0C00000013000000220500003C00000006000000020000000000002000408F40000000C0293768C000000000F04FA8BF000000C0FF3F8FC000000000293768C000000000F058A8BF0C000000130000002A0500003C0000000600000002000000000000C0FF3F8FC000000000293768C000000000F058A8BF0000
310
00C0FF3F8FC000000040F73D68C00000000000E00FBF0C00000013000000320500003C00000006000000020000000000002000408F4000000080A63168C000000000FE28C7BF000000C0FF3F8FC0000000C0A53168C000000000FE2AC7BF0C000000130000003A0500003C0000000600000002000000000000C0FF3F8FC000
310
0000C0A53168C000000000FE2AC7BF000000C0FF3F8FC000000000293768C000000000F058A8BF0C00000013000000420500003C00000006000000020000000000002000408F40000000007A2E68C000000000DFFFD7BF000000C0FF3F8FC000000040792E68C000000000FF00D8BF0C000000130000004A0500003C000000
310
0600000002000000000000C0FF3F8FC000000040792E68C000000000FF00D8BF000000C0FF3F8FC0000000C0A53168C000000000FE2AC7BF0C00000013000000520500003C00000006000000020000000000002000408F40000000C0F42468C0000000808FA1EEBF000000C0FF3F8FC000000000F42468C0000000801FA2EE
310
BF0C000000130000005A0500003C0000000600000002000000000000C0FF3F8FC000000040792E68C000000000FF00D8BF000000C0FF3F8FC000000000F42468C0000000801FA2EEBF0C00000013000000620500003C00000006000000020000000000002000408F40000000C06B1468C0000000C02DB8F5BF000000C0FF3F
310
8FC0000000006B1468C0000000C075B8F5BF0C000000130000006A0500003C0000000600000002000000000000C0FF3F8FC0000000006B1468C0000000C075B8F5BF000000C0FF3F8FC000000000F42468C0000000801FA2EEBF0C00000013000000720500003C00000006000000020000000000002000408F400000004000
310
0068C0000000E0F5FFF7BF000000C0FF3F8FC000000080FFFF67C0000000E03D00F8BF0C000000130000007A0500003C0000000600000002000000000000C0FF3F8FC0000000006B1468C0000000C075B8F5BF000000C0FF3F8FC000000080FFFF67C0000000E03D00F8BF0C00000013000000820500003C00000006000000
310
020000000000002000408F40000000C094EB67C0000000E02DB8F5BF000000C0FF3F8FC00000000094EB67C0000000E075B8F5BF0C000000130000008A0500003C0000000600000002000000000000C0FF3F8FC00000000094EB67C0000000E075B8F5BF000000C0FF3F8FC000000080FFFF67C0000000E03D00F8BF0C0000
310
0013000000920500003C00000006000000020000000000002000408F40000000000CDB67C0000000808FA1EEBF000000C0FF3F8FC0000000400BDB67C0000000801FA2EEBF0C000000130000009A0500003C0000000600000002000000000000C0FF3F8FC0000000400BDB67C0000000801FA2EEBF000000C0FF3F8FC00000
310
000094EB67C0000000E075B8F5BF0C00000013000000A20500003C00000006000000020000000000002000408F400000008086D167C000000000DFFFD7BF000000C0FF3F8FC0000000C085D167C000000000FF00D8BF0C00000013000000AA0500003C0000000600000002000000000000C0FF3F8FC0000000C085D167C000
310
000000FF00D8BF000000C0FF3F8FC0000000400BDB67C0000000801FA2EEBF0C00000013000000B20500003C00000006000000020000000000002000408F40000000405ACE67C000000000FE28C7BF000000C0FF3F8FC00000008059CE67C000000000FE2AC7BF0C00000013000000BA0500003C0000000600000002000000
310
000000C0FF3F8FC00000008059CE67C000000000FE2AC7BF000000C0FF3F8FC0000000C085D167C000000000FF00D8BF0C00000013000000C20500003C00000006000000020000000000002000408F4000000000D7C867C000000000F84FA8BF000000C0FF3F8FC000000040D6C867C000000000F858A8BF0C000000130000
310
00CA0500003C0000000600000002000000000000C0FF3F8FC000000040D6C867C000000000F858A8BF000000C0FF3F8FC00000008059CE67C000000000FE2AC7BF0C00000013000000D20500003C00000006000000020000000000002000408F400000008008C267C0000000000080E03E000000C0FF3F8FC0000000C007C2
310
67C00000000000E00FBF0C00000013000000DA0500003C0000000600000002000000000000C0FF3F8FC0000000C007C267C00000000000E00FBF000000C0FF3F8FC000000040D6C867C000000000F858A8BF0C00000013000000E20500003C00000006000000020000000000002000408F4000000080410D67C00000000000
310
80E43E000000C0FF3F8FC0000000C0400D67C00000000000E00EBF0C00000013000000EA0500003C0000000600000002000000000000C0FF3F8FC0000000C007C267C00000000000E00FBF000000C0FF3F8FC0000000C0400D67C00000000000E00EBF0C00000013000000F20500003C000000060000000200000000000020
310
00408F40000000C0040467C0000000005C7CB7BF000000C0FF3F8FC000000000040467C000000000DC80B7BF0C00000013000000FA0500003C0000000600000002000000000000C0FF3F8FC000000000040467C000000000DC80B7BF000000C0FF3F8FC0000000C0400D67C00000000000E00EBF0C00000013000000020600
310
003C00000006000000020000000000002000408F40000000C02BFE66C0000000003755D5BF000000C0FF3F8FC0000000002BFE66C0000000005756D5BF0C000000130000000A0600003C0000000600000002000000000000C0FF3F8FC000000000040467C000000000DC80B7BF000000C0FF3F8FC0000000002BFE66C00000
310
00005756D5BF0C00000013000000120600003C00000006000000020000000000002000408F400000000069F766C0000000803BD1E5BF000000C0FF3F8FC00000004068F766C000000080CBD1E5BF0C000000130000001A0600003C0000000600000002000000000000C0FF3F8FC00000004068F766C000000080CBD1E5BF00
310
0000C0FF3F8FC0000000002BFE66C0000000005756D5BF0C00000013000000220600003C00000006000000020000000000002000408F4000000000C5EC66C0000000806B57EDBF000000C0FF3F8FC000000040C4EC66C000000080FB57EDBF0C000000130000002A0600003C0000000600000002000000000000C0FF3F8FC0
310
0000004068F766C000000080CBD1E5BF000000C0FF3F8FC000000040C4EC66C000000080FB57EDBF0C00000013000000320600003C00000006000000020000000000002000408F400000004000E066C000000080EBFFEFBF000000C0FF3F8FC000000080FFDF66C0000000C03D00F0BF0C000000130000003A0600003C0000
310
000600000002000000000000C0FF3F8FC000000040C4EC66C000000080FB57EDBF000000C0FF3F8FC000000080FFDF66C0000000C03D00F0BF0C00000013000000420600003C00000006000000020000000000002000408F400000002063DE63C000000000EFFFEFBF000000C0FF3F8FC0000000A062DE63C0000000803F00
310
F0BF0C000000130000004A0600003C0000000600000002000000000000C0FF3F8FC0000000A062DE63C0000000803F00F0BF000000C0FF3F8FC000000080FFDF66C0000000C03D00F0BF0C00000013000000520600003C00000006000000020000000000002000408F400000002006D063C0000000C0D7B3F1BF000000C0FF
310
3F8FC0000000A005D063C0000000C01FB4F1BF0C000000130000005A0600003C0000000600000002000000000000C0FF3F8FC0000000A005D063C0000000C01FB4F1BF000000C0FF3F8FC0000000A062DE63C0000000803F00F0BF0C00000013000000620600003C00000006000000020000000000002000408F40000000A0
310
B8C463C0000000E0D771F6BF000000C0FF3F8FC000000020B8C463C0000000E01F72F6BF0C000000130000006A0600003C0000000600000002000000000000C0FF3F8FC0000000A005D063C0000000C01FB4F1BF000000C0FF3F8FC000000020B8C463C0000000E01F72F6BF0C00000013000000720600003C000000060000
310
00020000000000002000408F40000000A0DFBE63C0000000A0B738FDBF000000C0FF3F8FC000000020DFBE63C0000000A0FF38FDBF0C000000130000007A0600003C0000000600000002000000000000C0FF3F8FC000000020DFBE63C0000000A0FF38FDBF000000C0FF3F8FC000000020B8C463C0000000E01F72F6BF0C00
310
000013000000820600003C00000006000000020000000000002000408F40000000A001AB63C000000000A06315C0000000C0FF3F8FC00000002001AB63C000000000B26315C00C000000130000008A0600003C0000000600000002000000000000C0FF3F8FC000000020DFBE63C0000000A0FF38FDBF000000C0FF3F8FC000
310
00002001AB63C000000000B26315C00C00000013000000920600003C00000006000000020000000000002000408F40000000E067A363C000000000E2FF17C0000000C0FF3F8FC00000006067A363C000000000F4FF17C00C000000130000009A0600003C0000000600000002000000000000C0FF3F8FC00000006067A363C0
310
00000000F4FF17C0000000C0FF3F8FC00000002001AB63C000000000B26315C00C00000013000000A20600003C00000006000000020000000000002000408F40000000E01D9563C000000000D4201AC0000000C0FF3F8FC0000000601D9563C000000000E6201AC00C00000013000000AA0600003C00000006000000020000
310
00000000C0FF3F8FC0000000601D9563C000000000E6201AC0000000C0FF3F8FC00000006067A363C000000000F4FF17C00C00000013000000B20600003C00000006000000020000000000002000408F4000000060DD8163C00000000082841BC0000000C0FF3F8FC0000000E0DC8163C00000000094841BC00C0000001300
310
0000BA0600003C0000000600000002000000000000C0FF3F8FC0000000601D9563C000000000E6201AC0000000C0FF3F8FC0000000E0DC8163C00000000094841BC00C00000013000000C20600003C00000006000000020000000000002000408F40000000A0FA6B63C000000000FEFF1BC0000000C0FF3F8FC000000020FA
310
6B63C00000000010001CC00C00000013000000CA0600003C0000000600000002000000000000C0FF3F8FC000000020FA6B63C00000000010001CC0000000C0FF3F8FC0000000E0DC8163C00000000094841BC00C00000013000000D20600003C00000006000000020000000000002000408F40000000C0A40E5FC000000000
310
FEFF1BC0000000C0FF3F8FC000000040A30E5FC00000000010001CC00C00000013000000DA0600003C0000000600000002000000000000C0FF3F8FC000000040A30E5FC00000000010001CC0000000C0FF3F8FC000000020FA6B63C00000000010001CC00C00000013000000E20600003C0000000600000002000000000000
310
2000408F400000000044F05EC00000000044851BC0000000C0FF3F8FC00000006042F05EC00000000054851BC00C00000013000000EA0600003C0000000600000002000000000000C0FF3F8FC00000006042F05EC00000000054851BC0000000C0FF3F8FC000000040A30E5FC00000000010001CC00C00000013000000F206
310
00003C00000006000000020000000000002000408F40000000402DD95EC000000000C0321AC0000000C0FF3F8FC0000000A02BD95EC000000000D0321AC00C00000013000000FA0600003C0000000600000002000000000000C0FF3F8FC00000006042F05EC00000000054851BC0000000C0FF3F8FC0000000A02BD95EC000
310
000000D0321AC00C00000013000000020700003C00000006000000020000000000002000408F4000000040E3CE5EC0000000003E5918C0000000C0FF3F8FC0000000A0E1CE5EC000000000505918C00C000000130000000A0700003C0000000600000002000000000000C0FF3F8FC0000000A0E1CE5EC000000000505918C0
310
000000C0FF3F8FC0000000A02BD95EC000000000D0321AC00C00000013000000120700003C00000006000000020000000000002000408F40000000A061B05EC0000000008F72E4BF000000C0FF3F8FC00000002060B05EC0000000001F73E4BF0C000000130000001A0700003C0000000600000002000000000000C0FF3F8F
310
C00000002060B05EC0000000001F73E4BF000000C0FF3F8FC0000000A0E1CE5EC000000000505918C00C00000013000000220700003C00000006000000020000000000002000408F40000000C02DA95EC000000000DE2DD4BF000000C0FF3F8FC0000000402CA95EC000000000FE2ED4BF0C000000130000002A0700003C00
310
00000600000002000000000000C0FF3F8FC0000000402CA95EC000000000FE2ED4BF000000C0FF3F8FC00000002060B05EC0000000001F73E4BF0C00000013000000320700003C00000006000000020000000000002000408F400000004004995EC000000000007AB5BF000000C0FF3F8FC0000000C002995EC00000000080
310
7EB5BF0C000000130000003A0700003C0000000600000002000000000000C0FF3F8FC0000000C002995EC000000000807EB5BF000000C0FF3F8FC0000000402CA95EC000000000FE2ED4BF0C00000013000000420700003C00000006000000020000000000002000408F4000000080C0835EC0000000000000E03E000000C0
310
FF3F8FC000000000BF835EC000000000000010BF0C000000130000004A0700003C0000000600000002000000000000C0FF3F8FC0000000C002995EC000000000807EB5BF000000C0FF3F8FC000000000BF835EC000000000000010BF0C00000013000000520700003C00000006000000020000000000002000408F40000000
310
20BDE85DC0000000000080E03E000000C0FF3F8FC0000000A0BBE85DC00000000000E00FBF0C000000130000005A0700003C0000000600000002000000000000C0FF3F8FC0000000A0BBE85DC00000000000E00FBF000000C0FF3F8FC000000000BF835EC000000000000010BF0C00000013000000620700003C0000000600
310
0000020000000000002000408F400000008020DB5DC000000000F84FA8BF000000C0FF3F8FC0000000001FDB5DC000000000F858A8BF0C000000130000006A0700003C0000000600000002000000000000C0FF3F8FC0000000A0BBE85DC00000000000E00FBF000000C0FF3F8FC0000000001FDB5DC000000000F858A8BF0C
310
00000013000000720700003C00000006000000020000000000002000408F40000000E019D05DC000000000FE28C7BF000000C0FF3F8FC00000006018D05DC000000000FE2AC7BF0C000000130000007A0700003C0000000600000002000000000000C0FF3F8FC0000000001FDB5DC000000000F858A8BF000000C0FF3F8FC0
310
0000006018D05DC000000000FE2AC7BF0C00000013000000820700003C00000006000000020000000000002000408F4000000040C1C95DC000000000DFFFD7BF000000C0FF3F8FC0000000C0BFC95DC000000000FF00D8BF0C000000130000008A0700003C0000000600000002000000000000C0FF3F8FC0000000C0BFC95D
310
C000000000FF00D8BF000000C0FF3F8FC00000006018D05DC000000000FE2AC7BF0C00000013000000920700003C00000006000000020000000000002000408F4000000080B6B65DC0000000808FA1EEBF000000C0FF3F8FC000000000B5B65DC0000000801FA2EEBF0C000000130000009A0700003C000000060000000200
310
0000000000C0FF3F8FC0000000C0BFC95DC000000000FF00D8BF000000C0FF3F8FC000000000B5B65DC0000000801FA2EEBF0C00000013000000A20700003C00000006000000020000000000002000408F40000000A0A4955DC0000000E02FB8F5BF000000C0FF3F8FC000000020A3955DC0000000E077B8F5BF0C00000013
310
000000AA0700003C0000000600000002000000000000C0FF3F8FC000000000B5B65DC0000000801FA2EEBF000000C0FF3F8FC000000020A3955DC0000000E077B8F5BF0C00000013000000B20700003C00000006000000020000000000002000408F40000000A0CD6C5DC0000000E0F7FFF7BF000000C0FF3F8FC000000020
310
CC6C5DC0000000E03F00F8BF0C00000013000000BA0700003C0000000600000002000000000000C0FF3F8FC000000020CC6C5DC0000000E03F00F8BF000000C0FF3F8FC000000020A3955DC0000000E077B8F5BF0C00000013000000C20700003C00000006000000020000000000002000408F40000000C0F6435DC0000000
310
A02FB8F5BF000000C0FF3F8FC000000020F5435DC0000000A077B8F5BF0C00000013000000CA0700003C0000000600000002000000000000C0FF3F8FC000000020CC6C5DC0000000E03F00F8BF000000C0FF3F8FC000000020F5435DC0000000A077B8F5BF0C00000013000000D20700003C00000006000000020000000000
310
002000408F40000000C0E4225DC00000000090A1EEBF000000C0FF3F8FC000000040E3225DC00000000020A2EEBF0C00000013000000DA0700003C0000000600000002000000000000C0FF3F8FC000000040E3225DC00000000020A2EEBF000000C0FF3F8FC000000020F5435DC0000000A077B8F5BF0C00000013000000E2
310
0700003C00000006000000020000000000002000408F4000000000DA0F5DC000000000E0FFD7BF000000C0FF3F8FC000000080D80F5DC0000000000001D8BF0C00000013000000EA0700003C0000000600000002000000000000C0FF3F8FC000000080D80F5DC0000000000001D8BF000000C0FF3F8FC000000040E3225DC0
310
0000000020A2EEBF0C00000013000000F20700003C00000006000000020000000000002000408F400000008081095DC0000000000029C7BF000000C0FF3F8FC00000000080095DC000000000002BC7BF0C00000013000000FA0700003C0000000600000002000000000000C0FF3F8FC000000080D80F5DC0000000000001D8
310
BF000000C0FF3F8FC00000000080095DC000000000002BC7BF0C00000013000000020800003C00000006000000020000000000002000408F40000000007BFE5CC0000000000050A8BF000000C0FF3F8FC00000006079FE5CC0000000000059A8BF0C000000130000000A0800003C0000000600000002000000000000C0FF3F
310
8FC00000006079FE5CC0000000000059A8BF000000C0FF3F8FC00000000080095DC000000000002BC7BF0C00000013000000120800003C00000006000000020000000000002000408F4000000040DEF05CC0000000000000E13E000000C0FF3F8FC0000000C0DCF05CC00000000000C00FBF0C000000130000001A0800003C
310
0000000600000002000000000000C0FF3F8FC0000000C0DCF05CC00000000000C00FBF000000C0FF3F8FC00000006079FE5CC0000000000059A8BF0C00000013000000220800003C00000006000000020000000000002000408F4000000000DB555CC0000000000080E03E000000C0FF3F8FC000000060D9555CC000000000
310
00E00FBF0C000000130000002A0800003C0000000600000002000000000000C0FF3F8FC000000060D9555CC00000000000E00FBF000000C0FF3F8FC0000000C0DCF05CC00000000000C00FBF0C00000013000000320800003C00000006000000020000000000002000408F400000002097405CC000000000FC79B5BF000000
310
C0FF3F8FC0000000A095405CC0000000007C7EB5BF0C000000130000003A0800003C0000000600000002000000000000C0FF3F8FC0000000A095405CC0000000007C7EB5BF000000C0FF3F8FC000000060D9555CC00000000000E00FBF0C00000013000000420800003C00000006000000020000000000002000408F400000
310
00806D305CC000000000DF2DD4BF000000C0FF3F8FC0000000006C305CC000000000FF2ED4BF0C000000130000004A0800003C0000000600000002000000000000C0FF3F8FC0000000A095405CC0000000007C7EB5BF000000C0FF3F8FC0000000006C305CC000000000FF2ED4BF0C00000013000000520800003C00000006
310
000000020000000000002000408F40000000C039295CC0000000808F72E4BF000000C0FF3F8FC00000004038295CC0000000801F73E4BF0C000000130000005A0800003C0000000600000002000000000000C0FF3F8FC0000000006C305CC000000000FF2ED4BF000000C0FF3F8FC00000004038295CC0000000801F73E4BF
310
0C00000013000000620800003C00000006000000020000000000002000408F4000000040B9EE5BC0000000009F2C26C0000000C0FF3F8FC0000000C0B7EE5BC000000000A82C26C00C000000130000006A0800003C0000000600000002000000000000C0FF3F8FC0000000C0B7EE5BC000000000A82C26C0000000C0FF3F8F
310
C00000004038295CC0000000801F73E4BF0C00000013000000720800003C00000006000000020000000000002000408F40000000C0E3D85BC000000000016E27C0000000C0FF3F8FC000000040E2D85BC000000000096E27C00C000000130000007A0800003C0000000600000002000000000000C0FF3F8FC000000040E2D8
310
5BC000000000096E27C0000000C0FF3F8FC0000000C0B7EE5BC000000000A82C26C00C00000013000000820800003C00000006000000020000000000002000408F4000000080F7AE5BC0000000C0FEFF27C0000000C0FF3F8FC000000000F6AE5BC0000000C0070028C00C000000130000008A0800003C0000000600000002
310
000000000000C0FF3F8FC000000040E2D85BC000000000096E27C0000000C0FF3F8FC000000000F6AE5BC0000000C0070028C00C00000013000000920800003C00000006000000020000000000002000408F400000000005002AC000000080FEFF27C0000000C0FF3F8FC000000000FAFF29C000000080070028C00C000000
310
130000009A0800003C0000000600000002000000000000C0FF3F8FC000000000FAFF29C000000080070028C0000000C0FF3F8FC000000000F6AE5BC0000000C0070028C00C00000013000000A20800003C00000006000000020000000000002000408F400000000051A228C000000080B25D27C0000000C0FF3F8FC0000000
310
0046A228C000000080BB5D27C00C00000013000000AA0800003C0000000600000002000000000000C0FF3F8FC000000000FAFF29C000000080070028C0000000C0FF3F8FC00000000046A228C000000080BB5D27C00C00000013000000B20800003C00000006000000020000000000002000408F4000000000050028C00000
310
00A0FEFF25C0000000C0FF3F8FC000000000FAFF27C0000000A0070026C00C00000013000000BA0800003C0000000600000002000000000000C0FF3F8FC000000000FAFF27C0000000A0070026C0000000C0FF3F8FC00000000046A228C000000080BB5D27C00C00000013000000C20800003C000000060000000200000000
310
00002000408F4000000000050028C000000000D7FFDFBF000000C0FF3F8FC000000000FAFF27C0000000807B00E0BF0C00000013000000CA0800003C0000000600000002000000000000C0FF3F8FC000000000FAFF27C0000000807B00E0BF000000C0FF3F8FC000000000FAFF27C0000000A0070026C00C00000013000000
310
D20800003C00000006000000020000000000002000408F4000000000B4DD27C000000000AEFECFBF000000C0FF3F8FC000000000A9DD27C0000000007700D0BF0C00000013000000DA0800003C0000000600000002000000000000C0FF3F8FC000000000FAFF27C0000000807B00E0BF000000C0FF3F8FC000000000A9DD27
310
C0000000007700D0BF0C00000013000000E20800003C00000006000000020000000000002000408F4000000000098027C000000000DC27B1BF000000C0FF3F8FC000000000FE7F27C0000000005C2CB1BF0C00000013000000EA0800003C0000000600000002000000000000C0FF3F8FC000000000A9DD27C0000000007700
310
D0BF000000C0FF3F8FC000000000FE7F27C0000000005C2CB1BF0C00000013000000F20800003C00000006000000020000000000002000408F4000000000050027C0000000000080E43E000000C0FF3F8FC000000000FAFF26C00000000000E00EBF0C00000013000000FA0800003C0000000600000002000000000000C0FF
310
3F8FC000000000FE7F27C0000000005C2CB1BF000000C0FF3F8FC000000000FAFF26C00000000000E00EBF0C00000013000000020900003C00000006000000020000000000002000408F400000000002BF1FC0000000000000E43E000000C0FF3F8FC000000000ECBE1FC00000000000000FBF0C000000130000000A090000
310
3C0000000600000002000000000000C0FF3F8FC000000000ECBE1FC00000000000000FBF000000C0FF3F8FC000000000FAFF26C00000000000E00EBF0C00000013000000120900003C00000006000000020000000000002000408F400000000038E51EC000000000C04FA8BF000000C0FF3F8FC00000000022E51EC0000000
310
00C058A8BF0C000000130000001A0900003C0000000600000002000000000000C0FF3F8FC00000000022E51EC000000000C058A8BF000000C0FF3F8FC000000000ECBE1FC00000000000000FBF0C00000013000000220900003C00000006000000020000000000002000408F4000000000CC341EC000000000F028C7BF0000
310
00C0FF3F8FC000000000B6341EC000000000F02AC7BF0C000000130000002A0900003C0000000600000002000000000000C0FF3F8FC000000000B6341EC000000000F02AC7BF000000C0FF3F8FC00000000022E51EC000000000C058A8BF0C00000013000000320900003C00000006000000020000000000002000408F4000
310
00000044CF1DC000000000D8FFD7BF000000C0FF3F8FC0000000002ECF1DC000000000F800D8BF0C000000130000003A0900003C0000000600000002000000000000C0FF3F8FC000000000B6341EC000000000F02AC7BF000000C0FF3F8FC0000000002ECF1DC000000000F800D8BF0C00000013000000420900003C000000
310
06000000020000000000002000408F4000000000989E1CC0000000808CA1EEBF000000C0FF3F8FC000000000829E1CC0000000801CA2EEBF0C000000130000004A0900003C0000000600000002000000000000C0FF3F8FC000000000829E1CC0000000801CA2EEBF000000C0FF3F8FC0000000002ECF1DC000000000F800D8
310
BF0C00000013000000520900003C00000006000000020000000000002000408F40000000007A8D1AC0000000E02DB8F5BF000000C0FF3F8FC000000000648D1AC0000000E075B8F5BF0C000000130000005A0900003C0000000600000002000000000000C0FF3F8FC000000000648D1AC0000000E075B8F5BF000000C0FF3F
310
8FC000000000829E1CC0000000801CA2EEBF0C00000013000000620900003C00000006000000020000000000002000408F40000000000A0018C0000000E0F5FFF7BF000000C0FF3F8FC000000000F4FF17C0000000E03D00F8BF0C000000130000006A0900003C0000000600000002000000000000C0FF3F8FC000000000F4
310
FF17C0000000E03D00F8BF000000C0FF3F8FC000000000648D1AC0000000E075B8F5BF0C00000013000000720900003C00000006000000020000000000002000408F40000000009A7215C0000000A02DB8F5BF000000C0FF3F8FC000000000847215C0000000A075B8F5BF0C000000130000007A0900003C00000006000000
310
02000000000000C0FF3F8FC000000000F4FF17C0000000E03D00F8BF000000C0FF3F8FC000000000847215C0000000A075B8F5BF0C00000013000000820900003C00000006000000020000000000002000408F40000000007C6113C0000000808BA1EEBF000000C0FF3F8FC000000000666113C0000000801BA2EEBF0C0000
310
00130000008A0900003C0000000600000002000000000000C0FF3F8FC000000000666113C0000000801BA2EEBF000000C0FF3F8FC000000000847215C0000000A075B8F5BF0C00000013000000920900003C00000006000000020000000000002000408F4000000000D03012C000000000D7FFD7BF000000C0FF3F8FC00000
310
0000BA3012C000000000F700D8BF0C000000130000009A0900003C0000000600000002000000000000C0FF3F8FC000000000BA3012C000000000F700D8BF000000C0FF3F8FC000000000666113C0000000801BA2EEBF0C00000013000000A20900003C00000006000000020000000000002000408F400000000048CB11C000
310
000000EE28C7BF000000C0FF3F8FC00000000032CB11C000000000EE2AC7BF0C00000013000000AA0900003C0000000600000002000000000000C0FF3F8FC00000000032CB11C000000000EE2AC7BF000000C0FF3F8FC000000000BA3012C000000000F700D8BF0C00000013000000B20900003C0000000600000002000000
310
0000002000408F4000000000DC1A11C000000000B84FA8BF000000C0FF3F8FC000000000C61A11C000000000B858A8BF0C00000013000000BA0900003C0000000600000002000000000000C0FF3F8FC000000000C61A11C000000000B858A8BF000000C0FF3F8FC00000000032CB11C000000000EE2AC7BF0C000000130000
310
00C20900003C00000006000000020000000000002000408F4000000000124110C0000000000080E43E000000C0FF3F8FC000000000FC4010C00000000000E00EBF0C00000013000000CA0900003C0000000600000002000000000000C0FF3F8FC000000000C61A11C000000000B858A8BF000000C0FF3F8FC000000000FC40
310
10C00000000000E00EBF0C00000013000000D20900003C0000000600000002000000000000C0FF3F8FC000000000FC4010C00000000000E00EBF000000C0FF3F8FC0000000000000083F0000000000E00FBF0C00000013000000DA0900003C0000000600000002000000000000C0FF3F8FC000000080FFFF68C00000000007
310
0020C0000000C0FF3F8FC000000040F73D68C00000000000E00FBF0C00000013000000E20900003C0000000600000002000000000000C0FF3F8FC0000000000000043F000000C0030036C0000000C0FF3F8FC00000000032CB11C000000000EE2AC7BF0C00000013000000EA0900003C0000000600000002000000000000C0
310
FF3F8FC0000000000000043F000000C0030036C0000000C0FF3F8FC000000000C61A11C000000000B858A8BF0C00000013000000F20900003C0000000600000002000000000000C0FF3F8FC0000000000000043F000000C0030036C0000000C0FF3F8FC000000000FC4010C00000000000E00EBF0C00000013000000FA0900
310
003C0000000600000002000000000000C0FF3F8FC0000000000000043F000000C0030036C0000000C0FF3F8FC000000000BA3012C000000000F700D8BF0C00000013000000020A00003C0000000600000002000000000000C0FF3F8FC0000000000000043F000000C0030036C0000000C0FF3F8FC000000000666113C00000
310
00801BA2EEBF0C000000130000000A0A00003C0000000600000002000000000000C0FF3F8FC0000000000000043F000000C0030036C0000000C0FF3F8FC000000000847215C0000000A075B8F5BF0C00000013000000120A00003C0000000600000002000000000000C0FF3F8FC0000000000000043F000000C0030036C000
310
0000C0FF3F8FC000000000F4FF17C0000000E03D00F8BF0C000000130000001A0A00003C0000000600000002000000000000C0FF3F8FC0000000000000043F000000C0030036C0000000C0FF3F8FC000000000FAFF27C0000000A0070026C00C00000013000000220A00003C0000000600000002000000000000C0FF3F8FC0
310
00000000648D1AC0000000E075B8F5BF000000C0FF3F8FC000000000FAFF27C0000000A0070026C00C000000130000002A0A00003C0000000600000002000000000000C0FF3F8FC0000000000000043F000000C0030036C0000000C0FF3F8FC00000000046A228C000000080BB5D27C00C00000013000000320A00003C0000
310
000600000002000000000000C0FF3F8FC0000000000000043F000000C0030036C0000000C0FF3F8FC000000000FAFF29C000000080070028C00C000000130000003A0A00003C0000000600000002000000000000C0FF3F8FC000000000FAFF27C0000000A0070026C0000000C0FF3F8FC000000000829E1CC0000000801CA2
310
EEBF0C00000013000000420A00003C0000000600000002000000000000C0FF3F8FC000000000FAFF27C0000000807B00E0BF000000C0FF3F8FC0000000002ECF1DC000000000F800D8BF0C000000130000004A0A00003C0000000600000002000000000000C0FF3F8FC000000000B6341EC000000000F02AC7BF000000C0FF
310
3F8FC000000000A9DD27C0000000007700D0BF0C00000013000000520A00003C0000000600000002000000000000C0FF3F8FC00000000022E51EC000000000C058A8BF000000C0FF3F8FC000000000FE7F27C0000000005C2CB1BF0C000000130000005A0A00003C0000000600000002000000000000C0FF3F8FC000000060
310
FFBF5DC0000000A0030036C0000000C0FF3F8FC000000000F6AE5BC0000000C0070028C00C00000013000000620A00003C0000000600000002000000000000C0FF3F8FC000000060FFBF5DC0000000003B332EC0000000C0FF3F8FC000000040E2D85BC000000000096E27C00C000000130000006A0A00003C000000060000
310
0002000000000000C0FF3F8FC0000000C065C65DC00000000008002EC0000000C0FF3F8FC0000000C0B7EE5BC000000000A82C26C00C00000013000000720A00003C0000000600000002000000000000C0FF3F8FC0000000A095405CC0000000007C7EB5BF000000C0FF3F8FC00000006079FE5CC0000000000059A8BF0C00
310
0000130000007A0A00003C0000000600000002000000000000C0FF3F8FC0000000006C305CC000000000FF2ED4BF000000C0FF3F8FC00000000080095DC000000000002BC7BF0C00000013000000820A00003C0000000600000002000000000000C0FF3F8FC00000004038295CC0000000801F73E4BF000000C0FF3F8FC000
310
000080D80F5DC0000000000001D8BF0C000000130000008A0A00003C0000000600000002000000000000C0FF3F8FC0000000C0B7EE5BC000000000A82C26C0000000C0FF3F8FC000000040E3225DC00000000020A2EEBF0C00000013000000920A00003C0000000600000002000000000000C0FF3F8FC0000000C0B7EE5BC0
310
00000000A82C26C0000000C0FF3F8FC000000020F5435DC0000000A077B8F5BF0C000000130000009A0A00003C0000000600000002000000000000C0FF3F8FC0000000C065C65DC00000000008002EC0000000C0FF3F8FC000000020CC6C5DC0000000E03F00F8BF0C00000013000000A20A00003C00000006000000020000
310
00000000C0FF3F8FC0000000C002995EC000000000807EB5BF000000C0FF3F8FC0000000001FDB5DC000000000F858A8BF0C00000013000000AA0A00003C0000000600000002000000000000C0FF3F8FC00000006018D05DC000000000FE2AC7BF000000C0FF3F8FC0000000402CA95EC000000000FE2ED4BF0C0000001300
310
0000B20A00003C0000000600000002000000000000C0FF3F8FC0000000C0BFC95DC000000000FF00D8BF000000C0FF3F8FC00000002060B05EC0000000001F73E4BF0C00000013000000BA0A00003C0000000600000002000000000000C0FF3F8FC000000000B5B65DC0000000801FA2EEBF000000C0FF3F8FC0000000A0E1
310
CE5EC000000000505918C00C00000013000000C20A00003C0000000600000002000000000000C0FF3F8FC0000000A0E1CE5EC000000000505918C0000000C0FF3F8FC000000020A3955DC0000000E077B8F5BF0C00000013000000CA0A00003C0000000600000002000000000000C0FF3F8FC0000000C065C65DC000000000
310
08002EC0000000C0FF3F8FC0000000A02BD95EC000000000D0321AC00C00000013000000D20A00003C0000000600000002000000000000C0FF3F8FC0000000C065C65DC00000000008002EC0000000C0FF3F8FC0000000A0E1CE5EC000000000505918C00C00000013000000DA0A00003C0000000600000002000000000000
310
C0FF3F8FC0000000C065C65DC00000000008002EC0000000C0FF3F8FC00000006042F05EC00000000054851BC00C00000013000000E20A00003C0000000600000002000000000000C0FF3F8FC0000000C065C65DC00000000008002EC0000000C0FF3F8FC000000040A30E5FC00000000010001CC00C00000013000000EA0A
310
00003C0000000600000002000000000000C0FF3F8FC0000000E0FF9F64C0000000C007002EC0000000C0FF3F8FC000000020FA6B63C00000000010001CC00C00000013000000F20A00003C0000000600000002000000000000C0FF3F8FC0000000E0FF9F64C0000000C007002EC0000000C0FF3F8FC0000000E0DC8163C000
310
00000094841BC00C00000013000000FA0A00003C0000000600000002000000000000C0FF3F8FC0000000E0FF9F64C0000000C007002EC0000000C0FF3F8FC0000000601D9563C000000000E6201AC00C00000013000000020B00003C0000000600000002000000000000C0FF3F8FC0000000E0FF9F64C0000000C03A3320C0
310
000000C0FF3F8FC00000006067A363C000000000F4FF17C00C000000130000000A0B00003C0000000600000002000000000000C0FF3F8FC00000002033A364C0000000C0070020C0000000C0FF3F8FC00000002001AB63C000000000B26315C00C00000013000000120B00003C0000000600000002000000000000C0FF3F8F
310
C000000020DFBE63C0000000A0FF38FDBF000000C0FF3F8FC00000002033A364C0000000C0070020C00C000000130000001A0B00003C0000000600000002000000000000C0FF3F8FC00000002033A364C0000000C0070020C0000000C0FF3F8FC000000020B8C463C0000000E01F72F6BF0C00000013000000220B00003C00
310
00000600000002000000000000C0FF3F8FC0000000A005D063C0000000C01FB4F1BF000000C0FF3F8FC00000002033A364C0000000C0070020C00C000000130000002A0B00003C0000000600000002000000000000C0FF3F8FC0000000A062DE63C0000000803F00F0BF000000C0FF3F8FC00000002033A364C0000000C007
310
0020C00C00000013000000320B00003C0000000600000002000000000000C0FF3F8FC000000040D6C867C000000000F858A8BF000000C0FF3F8FC000000000040467C000000000DC80B7BF0C000000130000003A0B00003C0000000600000002000000000000C0FF3F8FC00000008059CE67C000000000FE2AC7BF000000C0
310
FF3F8FC0000000002BFE66C0000000005756D5BF0C00000013000000420B00003C0000000600000002000000000000C0FF3F8FC00000004068F766C000000080CBD1E5BF000000C0FF3F8FC0000000C085D167C000000000FF00D8BF0C000000130000004A0B00003C0000000600000002000000000000C0FF3F8FC0000000
310
40C4EC66C000000080FB57EDBF000000C0FF3F8FC0000000400BDB67C0000000801FA2EEBF0C00000013000000520B00003C0000000600000002000000000000C0FF3F8FC000000080FFDF66C0000000C03D00F0BF000000C0FF3F8FC00000000094EB67C0000000E075B8F5BF0C000000130000005A0B00003C0000000600
310
000002000000000000C0FF3F8FC00000002033A364C0000000C0070020C0000000C0FF3F8FC000000080FFDF66C0000000C03D00F0BF0C00000013000000620B00003C0000000600000002000000000000C0FF3F8FC00000002033A364C0000000C0070020C0000000C0FF3F8FC00000000094EB67C0000000E075B8F5BF0C
310
000000130000006A0B00003C0000000600000002000000000000C0FF3F8FC00000002033A364C0000000C0070020C0000000C0FF3F8FC000000080FFFF67C0000000E03D00F8BF0C00000013000000720B00003C0000000600000002000000000000C0FF3F8FC000000080FFFF68C000000000070020C0000000C0FF3F8FC0
310
000000006B1468C0000000C075B8F5BF0C000000130000007A0B00003C0000000600000002000000000000C0FF3F8FC000000080FFFF68C000000000070020C0000000C0FF3F8FC000000080FFFF67C0000000E03D00F8BF0C00000013000000820B00003C0000000600000002000000000000C0FF3F8FC000000080FFFF68
310
C000000000070020C0000000C0FF3F8FC000000000F42468C0000000801FA2EEBF0C000000130000008A0B00003C0000000600000002000000000000C0FF3F8FC000000080FFFF68C000000000070020C0000000C0FF3F8FC000000040792E68C000000000FF00D8BF0C00000013000000920B00003C000000060000000200
310
0000000000C0FF3F8FC000000080FFFF68C000000000070020C0000000C0FF3F8FC0000000C0A53168C000000000FE2AC7BF0C000000130000009A0B00003C0000000600000002000000000000C0FF3F8FC000000080FFFF68C000000000070020C0000000C0FF3F8FC000000000293768C000000000F058A8BF
100
AcDbSubDMesh
 71
     2
 72
     0
 91
        0
 92
      172
 10
1000.000061035156
 20
-200.0000305175781
 30
-7.999985218048095
 10
1000.000061035156
 20
-200.0000305175781
 30
0.0000154972076416
 10
1000.000061035156
 20
-193.9365234375
 30
0.0000078678131104
 10
1000.000061035156
 20
-193.7238464355468
 30
-0.0474848747253418
 10
1000.000061035156
 20
-183.0000305175781
 30
-0.9999902248382568
 10
1000.000061035156
 20
-165.1000518798828
 30
-7.999990463256835
 10
1000.000061035156
 20
-183.3990478515625
 30
-0.9169213771820068
 10
1000.000061035156
 20
-183.7315673828125
 30
-0.6817910671234131
 10
1000.000061035156
 20
-183.9428405761718
 30
-0.3333261013031006
 10
1000.000061035156
 20
-184.1255798339844
 30
-0.0917413234710694
 10
1000.000061035156
 20
-184.4142456054687
 30
0.0000097751617432
 10
1000.000061035156
 20
-191.3619079589843
 30
-1.357465624809265
 10
1000.000061035156
 20
-192.0000305175781
 30
-1.499990344047546
 10
1000.000061035156
 20
-192.6381530761718
 30
-1.357465505599975
 10
1000.000061035156
 20
-193.1548767089843
 30
-0.9572217464447021
 10
1000.000061035156
 20
-193.452392578125
 30
-0.3749921321868896
 10
1000.000061035156
 20
-193.5515747070312
 30
-0.1809384822845459
 10
1000.000061035156
 20
-158.9496002197265
 30
-0.9999918937683105
 10
1000.000061035156
 20
-165.0000457763672
 30
-8.099988937377929
 10
1000.000061035156
 20
-165.0000457763672
 30
-14.99999046325683
 10
1000.000061035156
 20
-124.2288055419922
 30
-6.999992370605468
 10
1000.000061035156
 20
-119.1000518798828
 30
-14.99999237060547
 10
1000.000061035156
 20
-155.3743438720703
 30
-6.999992370605468
 10
1000.000061035156
 20
-156.0582733154297
 30
-6.879402160644531
 10
1000.000061035156
 20
-156.6598968505859
 30
-6.532058715820312
 10
1000.000061035156
 20
-157.1064300537109
 30
-5.999885559082031
 10
1000.000061035156
 20
-157.3439483642578
 30
-5.3472900390625
 10
1000.000061035156
 20
-157.9647979736328
 30
-1.82634699344635
 10
1000.000061035156
 20
-158.1475372314453
 30
-1.402793765068054
 10
1000.000061035156
 20
-158.500747680664
 30
-1.106406927108764
 10
1000.000061035156
 20
-118.8548889160156
 30
-0.9572217464447021
 10
1000.000061035156
 20
-119.1524200439453
 30
-0.3749921321868896
 10
1000.000061035156
 20
-123.3933868408203
 30
-6.549560546875
 10
1000.000061035156
 20
-123.754150390625
 30
-6.880142211914062
 10
1000.000061035156
 20
-119.0000610351562
 30
-15.09999847412109
 10
1000.000061035156
 20
-119.0000610351562
 30
-21.99998664855957
 10
1000.000061035156
 20
-13.00003814697265
 30
-11.9999885559082
 10
1000.000061035156
 20
-0.000030517578125
 30
-21.9999885559082
 10
1000.000061035156
 20
-110.7338562011719
 30
-11.99999046325683
 10
1000.000061035156
 20
-111.3889007568359
 30
-11.71485137939453
 10
1000.000061035156
 20
-111.7300567626953
 30
-11.08715057373047
 10
1000.000061035156
 20
-112.6441497802734
 30
-0.6389844417572022
 10
1000.000061035156
 20
-112.7566833496093
 30
-0.3152997493743896
 10
1000.000061035156
 20
-113.0092239379883
 30
-0.0838925838470459
 10
1000.000061035156
 20
-113.3414916992187
 30
0.0000078678131104
 10
1000.000061035156
 20
-115.7635650634765
 30
0.0000081062316895
 10
1000.000061035156
 20
-115.9762573242187
 30
-0.0474853515625
 10
1000.000061035156
 20
-116.1485290527344
 30
-0.180938720703125
 10
1000.000061035156
 20
-116.2476806640625
 30
-0.3749923706054687
 10
1000.000061035156
 20
-116.5452117919922
 30
-0.9572219848632812
 10
1000.000061035156
 20
-117.0619354248047
 30
-1.357467293739318
 10
1000.000061035156
 20
-117.7000503540039
 30
-1.499992251396179
 10
1000.000061035156
 20
-118.3381729125976
 30
-1.357467532157897
 10
1000.000061035156
 20
-0.0000381469726563
 30
0.0000078678131104
 10
1000.000061035156
 20
-12.31702423095703
 30
-11.68300247192383
 10
1000.000061035156
 20
-4.063545227050781
 30
0.0000097751617432
 10
1000.000061035156
 20
-4.845199584960937
 30
-0.9572198390960693
 10
1000.000061035156
 20
-4.276229858398437
 30
-0.0474832057952881
 10
1000.000061035156
 20
-4.54766845703125
 30
-0.3749902248382568
 10
1000.000061035156
 20
-4.448516845703125
 30
-0.1809365749359131
 10
1000.000061035156
 20
-5.361915588378906
 30
-1.357465386390686
 10
1000.000061035156
 20
-6.000038146972656
 30
-1.499990344047546
 10
1000.000061035156
 20
-6.638160705566406
 30
-1.357465624809265
 10
1000.000061035156
 20
-7.154876708984375
 30
-0.9572203159332275
 10
1000.000061035156
 20
-7.452407836914062
 30
-0.3749904632568359
 10
1000.000061035156
 20
-7.551559448242187
 30
-0.1809368133544922
 10
1000.000061035156
 20
-7.723846435546875
 30
-0.0474834442138672
 10
1000.000061035156
 20
-7.936531066894531
 30
0.0000095367431641
 10
1000.000061035156
 20
-12.00003814697266
 30
-10.99998950958252
 10
1000.000061035156
 20
-11.50003814697265
 30
0.0000097751617432
 10
1000.000061035156
 20
-11.75006866455078
 30
-0.0670144557952881
 10
1000.000061035156
 20
-11.93301391601562
 30
-0.2499597072601318
 10
1000.000061035156
 20
-12.00003814697266
 30
-0.4999902248382569
 10
1000.000061035156
 20
-119.2515792846679
 30
-0.1809384822845459
 10
1000.000061035156
 20
-119.4238586425781
 30
-0.0474851131439209
 10
1000.000061035156
 20
-119.6365432739258
 30
0.0000078678131104
 10
1000.000061035156
 20
-123.2326202392578
 30
-6.087150573730468
 10
1000.000061035156
 20
-122.0586242675781
 30
0.0000076293945313
 10
1000.000061035156
 20
-122.390884399414
 30
-0.083892822265625
 10
1000.000061035156
 20
-122.6434173583984
 30
-0.3152995109558105
 10
1000.000061035156
 20
-122.7559585571289
 30
-0.6389842033386231
 10
1000.000061035156
 20
-190.84521484375
 30
-0.9572217464447021
 10
1000.000061035156
 20
-190.0635375976562
 30
0.0000078678131104
 10
1000.000061035156
 20
-190.2762451171875
 30
-0.0474851131439209
 10
1000.000061035156
 20
-190.5476684570312
 30
-0.3749921321868896
 10
1000.000061035156
 20
-190.4485168457031
 30
-0.1809384822845459
 10
-999.9998779296875
 20
-199.9999389648437
 30
-8.000053405761718
 10
-999.9998779296875
 20
-199.9999389648437
 30
-0.0000531673431396
 10
-999.9998779296875
 20
0.0000381469726563
 30
-22.00005722045899
 10
-999.9998779296875
 20
-4.276145935058593
 30
-0.0475518703460693
 10
-999.9998779296875
 20
-4.448432922363281
 30
-0.1809976100921631
 10
-999.9998779296875
 20
-4.063461303710937
 30
-0.0000588893890381
 10
-999.9998779296875
 20
0.0000457763671875
 30
-0.0000607967376709
 10
-999.9998779296875
 20
-5.999954223632812
 30
-1.500059008598327
 10
-999.9998779296875
 20
-12.99995422363281
 30
-12.00005722045898
 10
-999.9998779296875
 20
-11.99995422363281
 30
-0.5000588893890381
 10
-999.9998779296875
 20
-7.551475524902343
 30
-0.1809978485107422
 10
-999.9998779296875
 20
-11.93292999267578
 30
-0.2500283718109131
 10
-999.9998779296875
 20
-7.723762512207031
 30
-0.0475521087646484
 10
-999.9998779296875
 20
-11.74998474121093
 30
-0.0670831203460693
 10
-999.9998779296875
 20
-118.9999618530273
 30
-22.00005531311035
 10
-999.9998779296875
 20
-118.9999618530273
 30
-15.10005950927734
 10
-999.9998779296875
 20
-111.3888092041015
 30
-11.71491241455078
 10
-999.9998779296875
 20
-119.0999603271484
 30
-15.00006103515625
 10
-999.9998779296875
 20
-111.7299652099609
 30
-11.08721923828125
 10
-999.9998779296875
 20
-113.0091323852539
 30
-0.0839612483978272
 10
-999.9998779296875
 20
-113.3413925170898
 30
-0.0000607967376709
 10
-999.9998779296875
 20
-115.7634735107422
 30
-0.0000605583190918
 10
-999.9998779296875
 20
-115.9761581420898
 30
-0.0475540161132813
 10
-999.9998779296875
 20
-112.756591796875
 30
-0.3153684139251709
 10
-999.9998779296875
 20
-112.644058227539
 30
-0.6390531063079834
 10
-999.9998779296875
 20
-116.2475891113281
 30
-0.37506103515625
 10
-999.9998779296875
 20
-117.6999588012695
 30
-1.50006091594696
 10
-999.9998779296875
 20
-119.6364517211914
 30
-0.0000607967376709
 10
-999.9998779296875
 20
-122.3907928466797
 30
-0.0839614868164063
 10
-999.9998779296875
 20
-119.1523284912109
 30
-0.3750607967376709
 10
-999.9998779296875
 20
-118.8547973632812
 30
-0.9572904109954833
 10
-999.9998779296875
 20
-123.7540512084961
 30
-6.880203247070312
 10
-999.9998779296875
 20
-164.9999847412109
 30
-15.00005912780762
 10
-999.9998779296875
 20
-156.6598358154297
 30
-6.532127380371093
 10
-999.9998779296875
 20
-157.9647369384765
 30
-1.826415657997131
 10
-999.9998779296875
 20
-158.5006866455078
 30
-1.106475591659545
 10
-999.9998779296875
 20
-158.9495391845703
 30
-1.000060558319091
 10
-999.9998779296875
 20
-190.0634460449218
 30
-0.0000607967376709
 10
-999.9998779296875
 20
-190.2761535644531
 30
-0.0475537776947022
 10
-999.9998779296875
 20
-190.4484252929687
 30
-0.1809995174407959
 10
-999.9998779296875
 20
-183.7314758300781
 30
-0.6818597316741944
 10
-999.9998779296875
 20
-190.5475769042969
 30
-0.3750607967376709
 10
-999.9998779296875
 20
-192.6380615234375
 30
-1.357534170150756
 10
-999.9998779296875
 20
-193.4523010253906
 30
-0.3750607967376709
 10
-999.9998779296875
 20
-193.5514831542969
 30
-0.1809995174407959
 10
-999.9998779296875
 20
-193.7237548828125
 30
-0.0475535392761231
 10
-999.9998779296875
 20
-193.9364318847656
 30
-0.0000607967376709
 10
-999.9998779296875
 20
-4.547584533691406
 30
-0.3750588893890381
 10
-999.9998779296875
 20
-4.845115661621093
 30
-0.9572885036468505
 10
-999.9998779296875
 20
-5.361831665039062
 30
-1.357534050941467
 10
-999.9998779296875
 20
-6.638076782226562
 30
-1.357534289360046
 10
-999.9998779296875
 20
-11.99995422363281
 30
-11.0000581741333
 10
-999.9998779296875
 20
-12.31694030761719
 30
-11.68307113647461
 10
-999.9998779296875
 20
-7.154792785644531
 30
-0.9572889804840087
 10
-999.9998779296875
 20
-7.452323913574218
 30
-0.3750591278076172
 10
-999.9998779296875
 20
-7.936447143554687
 30
-0.0000591278076172
 10
-999.9998779296875
 20
-11.49995422363281
 30
-0.0000588893890381
 10
-999.9998779296875
 20
-110.7337646484375
 30
-12.00005912780762
 10
-999.9998779296875
 20
-116.1484375
 30
-0.180999755859375
 10
-999.9998779296875
 20
-116.5451202392578
 30
-0.9572906494140625
 10
-999.9998779296875
 20
-117.0618362426758
 30
-1.3575359582901
 10
-999.9998779296875
 20
-119.4237670898437
 30
-0.0475537776947022
 10
-999.9998779296875
 20
-122.0585327148437
 30
-0.00006103515625
 10
-999.9998779296875
 20
-119.2514877319336
 30
-0.1809995174407959
 10
-999.9998779296875
 20
-122.643325805664
 30
-0.3153681755065918
 10
-999.9998779296875
 20
-122.7558670043945
 30
-0.6390528678894043
 10
-999.9998779296875
 20
-123.2325210571289
 30
-6.08721923828125
 10
-999.9998779296875
 20
-118.3380813598633
 30
-1.357536196708679
 10
-999.9998779296875
 20
-123.3932876586914
 30
-6.54962158203125
 10
-999.9998779296875
 20
-124.2287139892578
 30
-7.00006103515625
 10
-999.9998779296875
 20
-155.374282836914
 30
-7.00006103515625
 10
-999.9998779296875
 20
-156.0582122802734
 30
-6.879470825195312
 10
-999.9998779296875
 20
-164.9999847412109
 30
-8.10005760192871
 10
-999.9998779296875
 20
-157.1063690185547
 30
-5.999954223632812
 10
-999.9998779296875
 20
-165.0999908447265
 30
-8.000059127807617
 10
-999.9998779296875
 20
-157.3438873291015
 30
-5.347358703613281
 10
-999.9998779296875
 20
-158.147476196289
 30
-1.402862429618835
 10
-999.9998779296875
 20
-184.12548828125
 30
-0.0918099880218506
 10
-999.9998779296875
 20
-184.4141540527344
 30
-0.0000588893890381
 10
-999.9998779296875
 20
-183.9427490234375
 30
-0.3333947658538818
 10
-999.9998779296875
 20
-183.3989562988281
 30
-0.916990041732788
 10
-999.9998779296875
 20
-190.8451232910156
 30
-0.9572904109954833
 10
-999.9998779296875
 20
-182.9999389648437
 30
-1.000058889389038
 10
-999.9998779296875
 20
-191.36181640625
 30
-1.357534289360046
 10
-999.9998779296875
 20
-191.9999389648437
 30
-1.500059008598327
 10
-999.9998779296875
 20
-193.15478515625
 30
-0.9572904109954833
 93
      946
 90
        3
 90
        0
 90
        2
 90
        1
 90
        3
 90
       37
 90
       57
 90
       59
 90
        3
 90
       37
 90
       55
 90
       57
 90
        3
 90
       37
 90
       53
 90
       55
 90
        3
 90
       37
 90
       59
 90
       58
 90
        3
 90
       37
 90
       58
 90
       56
 90
        3
 90
       37
 90
       56
 90
       60
 90
        3
 90
       37
 90
       60
 90
       61
 90
        4
 90
       37
 90
       61
 90
       62
 90
       68
 90
        3
 90
       37
 90
       68
 90
       54
 90
        3
 90
       37
 90
       54
 90
       36
 90
        3
 90
       62
 90
       63
 90
       68
 90
        4
 90
       63
 90
       64
 90
       72
 90
       68
 90
        4
 90
       64
 90
       65
 90
       71
 90
       72
 90
        4
 90
       65
 90
       66
 90
       70
 90
       71
 90
        4
 90
       66
 90
       67
 90
       69
 90
       70
 90
        4
 90
       35
 90
       37
 90
       36
 90
       38
 90
        4
 90
       34
 90
       35
 90
       38
 90
       39
 90
        4
 90
       21
 90
       34
 90
       39
 90
       40
 90
        4
 90
       43
 90
       44
 90
       45
 90
       46
 90
        4
 90
       42
 90
       43
 90
       46
 90
       47
 90
        4
 90
       41
 90
       42
 90
       47
 90
       48
 90
        4
 90
       40
 90
       41
 90
       48
 90
       49
 90
        3
 90
       40
 90
       49
 90
       50
 90
        4
 90
       21
 90
       40
 90
       50
 90
       51
 90
        4
 90
       74
 90
       75
 90
       77
 90
       78
 90
        4
 90
       73
 90
       74
 90
       78
 90
       79
 90
        4
 90
       31
 90
       73
 90
       79
 90
       80
 90
        4
 90
       30
 90
       31
 90
       80
 90
       76
 90
        3
 90
       52
 90
       30
 90
       76
 90
        3
 90
       21
 90
       76
 90
       32
 90
        4
 90
       21
 90
       51
 90
       52
 90
       76
 90
        3
 90
       21
 90
       32
 90
       33
 90
        3
 90
       21
 90
       33
 90
       20
 90
        4
 90
       19
 90
       21
 90
       20
 90
       22
 90
        3
 90
       19
 90
       22
 90
       23
 90
        3
 90
       19
 90
       23
 90
       24
 90
        4
 90
       18
 90
       19
 90
       24
 90
       25
 90
        4
 90
        5
 90
       18
 90
       25
 90
       26
 90
        3
 90
        5
 90
       26
 90
       27
 90
        3
 90
        5
 90
       27
 90
       28
 90
        3
 90
        5
 90
       28
 90
       29
 90
        3
 90
        5
 90
       29
 90
       17
 90
        4
 90
        9
 90
       10
 90
       82
 90
       83
 90
        4
 90
        8
 90
        9
 90
       83
 90
       85
 90
        4
 90
        7
 90
        8
 90
       85
 90
       84
 90
        4
 90
        6
 90
        7
 90
       84
 90
       81
 90
        4
 90
        4
 90
        6
 90
       81
 90
       11
 90
        3
 90
        5
 90
       17
 90
        4
 90
        3
 90
        5
 90
        4
 90
       11
 90
        3
 90
        5
 90
       11
 90
       12
 90
        3
 90
        0
 90
       12
 90
       13
 90
        3
 90
        0
 90
       13
 90
       14
 90
        3
 90
        0
 90
        5
 90
       12
 90
        3
 90
        0
 90
       14
 90
       15
 90
        3
 90
        0
 90
       15
 90
       16
 90
        3
 90
        0
 90
       16
 90
        3
 90
        3
 90
        0
 90
        3
 90
        2
 90
        4
 90
       53
 90
       37
 90
       88
 90
       92
 90
        4
 90
       37
 90
       35
 90
      100
 90
       88
 90
        4
 90
       35
 90
       34
 90
      101
 90
      100
 90
        4
 90
       34
 90
       21
 90
      103
 90
      101
 90
        4
 90
       21
 90
       19
 90
      118
 90
      103
 90
        4
 90
       19
 90
       18
 90
      158
 90
      118
 90
        4
 90
       18
 90
        5
 90
      160
 90
      158
 90
        4
 90
        5
 90
        0
 90
       86
 90
      160
 90
        4
 90
        0
 90
        1
 90
       87
 90
       86
 90
        4
 90
        1
 90
        2
 90
      132
 90
       87
 90
        4
 90
        2
 90
        3
 90
      131
 90
      132
 90
        4
 90
        3
 90
       16
 90
      130
 90
      131
 90
        4
 90
       16
 90
       15
 90
      129
 90
      130
 90
        4
 90
       15
 90
       14
 90
      171
 90
      129
 90
        4
 90
       14
 90
       13
 90
      128
 90
      171
 90
        4
 90
       13
 90
       12
 90
      170
 90
      128
 90
        4
 90
       12
 90
       11
 90
      169
 90
      170
 90
        4
 90
       11
 90
       81
 90
      167
 90
      169
 90
        4
 90
       81
 90
       84
 90
      127
 90
      167
 90
        4
 90
       84
 90
       85
 90
      125
 90
      127
 90
        4
 90
       85
 90
       83
 90
      124
 90
      125
 90
        4
 90
       83
 90
       82
 90
      123
 90
      124
 90
        4
 90
       82
 90
       10
 90
      164
 90
      123
 90
        4
 90
       10
 90
        9
 90
      163
 90
      164
 90
        4
 90
        9
 90
        8
 90
      165
 90
      163
 90
        4
 90
        8
 90
        7
 90
      126
 90
      165
 90
        4
 90
        7
 90
        6
 90
      166
 90
      126
 90
        4
 90
        6
 90
        4
 90
      168
 90
      166
 90
        4
 90
        4
 90
       17
 90
      122
 90
      168
 90
        4
 90
       17
 90
       29
 90
      121
 90
      122
 90
        4
 90
       29
 90
       28
 90
      162
 90
      121
 90
        4
 90
       28
 90
       27
 90
      120
 90
      162
 90
        4
 90
       27
 90
       26
 90
      161
 90
      120
 90
        4
 90
       26
 90
       25
 90
      159
 90
      161
 90
        4
 90
       25
 90
       24
 90
      119
 90
      159
 90
        4
 90
       24
 90
       23
 90
      157
 90
      119
 90
        4
 90
       23
 90
       22
 90
      156
 90
      157
 90
        4
 90
       22
 90
       20
 90
      155
 90
      156
 90
        4
 90
       20
 90
       33
 90
      117
 90
      155
 90
        4
 90
       33
 90
       32
 90
      154
 90
      117
 90
        4
 90
       32
 90
       76
 90
      152
 90
      154
 90
        4
 90
       76
 90
       80
 90
      151
 90
      152
 90
        4
 90
       80
 90
       79
 90
      150
 90
      151
 90
        4
 90
       79
 90
       78
 90
      114
 90
      150
 90
        4
 90
       78
 90
       77
 90
      148
 90
      114
 90
        4
 90
       77
 90
       75
 90
      113
 90
      148
 90
        4
 90
       75
 90
       74
 90
      147
 90
      113
 90
        4
 90
       74
 90
       73
 90
      149
 90
      147
 90
        4
 90
       73
 90
       31
 90
      115
 90
      149
 90
        4
 90
       31
 90
       30
 90
      116
 90
      115
 90
        4
 90
       30
 90
       52
 90
      153
 90
      116
 90
        4
 90
       52
 90
       51
 90
      112
 90
      153
 90
        4
 90
       51
 90
       50
 90
      146
 90
      112
 90
        4
 90
       50
 90
       49
 90
      145
 90
      146
 90
        4
 90
       49
 90
       48
 90
      111
 90
      145
 90
        4
 90
       48
 90
       47
 90
      144
 90
      111
 90
        4
 90
       47
 90
       46
 90
      108
 90
      144
 90
        4
 90
       46
 90
       45
 90
      107
 90
      108
 90
        4
 90
       45
 90
       44
 90
      106
 90
      107
 90
        4
 90
       44
 90
       43
 90
      105
 90
      106
 90
        4
 90
       43
 90
       42
 90
      109
 90
      105
 90
        4
 90
       42
 90
       41
 90
      110
 90
      109
 90
        4
 90
       41
 90
       40
 90
      104
 90
      110
 90
        4
 90
       40
 90
       39
 90
      102
 90
      104
 90
        4
 90
       39
 90
       38
 90
      143
 90
      102
 90
        4
 90
       38
 90
       36
 90
       94
 90
      143
 90
        4
 90
       36
 90
       54
 90
      138
 90
       94
 90
        4
 90
       54
 90
       68
 90
      137
 90
      138
 90
        4
 90
       68
 90
       72
 90
       95
 90
      137
 90
        4
 90
       72
 90
       71
 90
       97
 90
       95
 90
        4
 90
       71
 90
       70
 90
       99
 90
       97
 90
        4
 90
       70
 90
       69
 90
      142
 90
       99
 90
        4
 90
       69
 90
       67
 90
      141
 90
      142
 90
        4
 90
       67
 90
       66
 90
       98
 90
      141
 90
        4
 90
       66
 90
       65
 90
       96
 90
       98
 90
        4
 90
       65
 90
       64
 90
      140
 90
       96
 90
        4
 90
       64
 90
       63
 90
      139
 90
      140
 90
        4
 90
       63
 90
       62
 90
      136
 90
      139
 90
        4
 90
       62
 90
       61
 90
       93
 90
      136
 90
        4
 90
       61
 90
       60
 90
      135
 90
       93
 90
        4
 90
       60
 90
       56
 90
      134
 90
      135
 90
        4
 90
       56
 90
       58
 90
      133
 90
      134
 90
        4
 90
       58
 90
       59
 90
       90
 90
      133
 90
        4
 90
       59
 90
       57
 90
       89
 90
       90
 90
        4
 90
       57
 90
       55
 90
       91
 90
       89
 90
        4
 90
       55
 90
       53
 90
       92
 90
       91
 90
        3
 90
       86
 90
       87
 90
      132
 90
        3
 90
       88
 90
       90
 90
       89
 90
        3
 90
       88
 90
       89
 90
       91
 90
        3
 90
       88
 90
       91
 90
       92
 90
        3
 90
       88
 90
      133
 90
       90
 90
        3
 90
       88
 90
      134
 90
      133
 90
        3
 90
       88
 90
      135
 90
      134
 90
        3
 90
       88
 90
       93
 90
      135
 90
        4
 90
       88
 90
      137
 90
      136
 90
       93
 90
        3
 90
       88
 90
      138
 90
      137
 90
        3
 90
       88
 90
       94
 90
      138
 90
        3
 90
      136
 90
      137
 90
      139
 90
        4
 90
      139
 90
      137
 90
       95
 90
      140
 90
        4
 90
      140
 90
       95
 90
       97
 90
       96
 90
        4
 90
       96
 90
       97
 90
       99
 90
       98
 90
        4
 90
       98
 90
       99
 90
      142
 90
      141
 90
        4
 90
      100
 90
      143
 90
       94
 90
       88
 90
        4
 90
      101
 90
      102
 90
      143
 90
      100
 90
        4
 90
      103
 90
      104
 90
      102
 90
      101
 90
        4
 90
      105
 90
      108
 90
      107
 90
      106
 90
        4
 90
      109
 90
      144
 90
      108
 90
      105
 90
        4
 90
      110
 90
      111
 90
      144
 90
      109
 90
        4
 90
      104
 90
      145
 90
      111
 90
      110
 90
        3
 90
      104
 90
      146
 90
      145
 90
        4
 90
      103
 90
      112
 90
      146
 90
      104
 90
        4
 90
      147
 90
      114
 90
      148
 90
      113
 90
        4
 90
      149
 90
      150
 90
      114
 90
      147
 90
        4
 90
      115
 90
      151
 90
      150
 90
      149
 90
        4
 90
      116
 90
      152
 90
      151
 90
      115
 90
        3
 90
      153
 90
      152
 90
      116
 90
        3
 90
      103
 90
      154
 90
      152
 90
        4
 90
      103
 90
      152
 90
      153
 90
      112
 90
        3
 90
      103
 90
      117
 90
      154
 90
        3
 90
      103
 90
      155
 90
      117
 90
        4
 90
      118
 90
      156
 90
      155
 90
      103
 90
        3
 90
      118
 90
      157
 90
      156
 90
        3
 90
      118
 90
      119
 90
      157
 90
        4
 90
      158
 90
      159
 90
      119
 90
      118
 90
        4
 90
      160
 90
      161
 90
      159
 90
      158
 90
        3
 90
      160
 90
      120
 90
      161
 90
        3
 90
      160
 90
      162
 90
      120
 90
        3
 90
      160
 90
      121
 90
      162
 90
        3
 90
      160
 90
      122
 90
      121
 90
        4
 90
      163
 90
      124
 90
      123
 90
      164
 90
        4
 90
      165
 90
      125
 90
      124
 90
      163
 90
        4
 90
      126
 90
      127
 90
      125
 90
      165
 90
        4
 90
      166
 90
      167
 90
      127
 90
      126
 90
        4
 90
      168
 90
      169
 90
      167
 90
      166
 90
        3
 90
      160
 90
      168
 90
      122
 90
        3
 90
      160
 90
      169
 90
      168
 90
        3
 90
      160
 90
      170
 90
      169
 90
        3
 90
       86
 90
      128
 90
      170
 90
        3
 90
       86
 90
      171
 90
      128
 90
        3
 90
       86
 90
      170
 90
      160
 90
        3
 90
       86
 90
      129
 90
      171
 90
        3
 90
       86
 90
      130
 90
      129
 90
        3
 90
       86
 90
      131
 90
      130
 90
        3
 90
       86
 90
      132
 90
      131
 94
      372
 90
        0
 90
        2
 90
        1
 90
        2
 90
        0
 90
        1
 90
       37
 90
       57
 90
       57
 90
       59
 90
       37
 90
       59
 90
       37
 90
       55
 90
       55
 90
       57
 90
       37
 90
       53
 90
       53
 90
       55
 90
       58
 90
       59
 90
       37
 90
       58
 90
       56
 90
       58
 90
       37
 90
       56
 90
       56
 90
       60
 90
       37
 90
       60
 90
       60
 90
       61
 90
       37
 90
       61
 90
       61
 90
       62
 90
       62
 90
       68
 90
       37
 90
       68
 90
       54
 90
       68
 90
       37
 90
       54
 90
       36
 90
       54
 90
       36
 90
       37
 90
       62
 90
       63
 90
       63
 90
       68
 90
       63
 90
       64
 90
       64
 90
       72
 90
       68
 90
       72
 90
       64
 90
       65
 90
       65
 90
       71
 90
       71
 90
       72
 90
       65
 90
       66
 90
       66
 90
       70
 90
       70
 90
       71
 90
       66
 90
       67
 90
       67
 90
       69
 90
       69
 90
       70
 90
       35
 90
       37
 90
       36
 90
       38
 90
       35
 90
       38
 90
       34
 90
       35
 90
       38
 90
       39
 90
       34
 90
       39
 90
       21
 90
       34
 90
       39
 90
       40
 90
       21
 90
       40
 90
       43
 90
       44
 90
       44
 90
       45
 90
       45
 90
       46
 90
       43
 90
       46
 90
       42
 90
       43
 90
       46
 90
       47
 90
       42
 90
       47
 90
       41
 90
       42
 90
       47
 90
       48
 90
       41
 90
       48
 90
       40
 90
       41
 90
       48
 90
       49
 90
       40
 90
       49
 90
       49
 90
       50
 90
       40
 90
       50
 90
       50
 90
       51
 90
       21
 90
       51
 90
       74
 90
       75
 90
       75
 90
       77
 90
       77
 90
       78
 90
       74
 90
       78
 90
       73
 90
       74
 90
       78
 90
       79
 90
       73
 90
       79
 90
       31
 90
       73
 90
       79
 90
       80
 90
       31
 90
       80
 90
       30
 90
       31
 90
       76
 90
       80
 90
       30
 90
       76
 90
       30
 90
       52
 90
       52
 90
       76
 90
       21
 90
       76
 90
       32
 90
       76
 90
       21
 90
       32
 90
       51
 90
       52
 90
       32
 90
       33
 90
       21
 90
       33
 90
       20
 90
       33
 90
       20
 90
       21
 90
       19
 90
       21
 90
       20
 90
       22
 90
       19
 90
       22
 90
       22
 90
       23
 90
       19
 90
       23
 90
       23
 90
       24
 90
       19
 90
       24
 90
       18
 90
       19
 90
       24
 90
       25
 90
       18
 90
       25
 90
        5
 90
       18
 90
       25
 90
       26
 90
        5
 90
       26
 90
       26
 90
       27
 90
        5
 90
       27
 90
       27
 90
       28
 90
        5
 90
       28
 90
       28
 90
       29
 90
        5
 90
       29
 90
       17
 90
       29
 90
        5
 90
       17
 90
        9
 90
       10
 90
       10
 90
       82
 90
       82
 90
       83
 90
        9
 90
       83
 90
        8
 90
        9
 90
       83
 90
       85
 90
        8
 90
       85
 90
        7
 90
        8
 90
       84
 90
       85
 90
        7
 90
       84
 90
        6
 90
        7
 90
       81
 90
       84
 90
        6
 90
       81
 90
        4
 90
        6
 90
       11
 90
       81
 90
        4
 90
       11
 90
        4
 90
       17
 90
        4
 90
        5
 90
        5
 90
       11
 90
       11
 90
       12
 90
        5
 90
       12
 90
        0
 90
       12
 90
       12
 90
       13
 90
        0
 90
       13
 90
       13
 90
       14
 90
        0
 90
       14
 90
        0
 90
        5
 90
       14
 90
       15
 90
        0
 90
       15
 90
       15
 90
       16
 90
        0
 90
       16
 90
        3
 90
       16
 90
        0
 90
        3
 90
        2
 90
        3
 90
       37
 90
       88
 90
       88
 90
       92
 90
       53
 90
       92
 90
       35
 90
      100
 90
       88
 90
      100
 90
       34
 90
      101
 90
      100
 90
      101
 90
       21
 90
      103
 90
      101
 90
      103
 90
       19
 90
      118
 90
      103
 90
      118
 90
       18
 90
      158
 90
      118
 90
      158
 90
        5
 90
      160
 90
      158
 90
      160
 90
        0
 90
       86
 90
       86
 90
      160
 90
        1
 90
       87
 90
       86
 90
       87
 90
        2
 90
      132
 90
       87
 90
      132
 90
        3
 90
      131
 90
      131
 90
      132
 90
       16
 90
      130
 90
      130
 90
      131
 90
       15
 90
      129
 90
      129
 90
      130
 90
       14
 90
      171
 90
      129
 90
      171
 90
       13
 90
      128
 90
      128
 90
      171
 90
       12
 90
      170
 90
      128
 90
      170
 90
       11
 90
      169
 90
      169
 90
      170
 90
       81
 90
      167
 90
      167
 90
      169
 90
       84
 90
      127
 90
      127
 90
      167
 90
       85
 90
      125
 90
      125
 90
      127
 90
       83
 90
      124
 90
      124
 90
      125
 90
       82
 90
      123
 90
      123
 90
      124
 90
       10
 90
      164
 90
      123
 90
      164
 90
        9
 90
      163
 90
      163
 90
      164
 90
        8
 90
      165
 90
      163
 90
      165
 90
        7
 90
      126
 90
      126
 90
      165
 90
        6
 90
      166
 90
      126
 90
      166
 90
        4
 90
      168
 90
      166
 90
      168
 90
       17
 90
      122
 90
      122
 90
      168
 90
       29
 90
      121
 90
      121
 90
      122
 90
       28
 90
      162
 90
      121
 90
      162
 90
       27
 90
      120
 90
      120
 90
      162
 90
       26
 90
      161
 90
      120
 90
      161
 90
       25
 90
      159
 90
      159
 90
      161
 90
       24
 90
      119
 90
      119
 90
      159
 90
       23
 90
      157
 90
      119
 90
      157
 90
       22
 90
      156
 90
      156
 90
      157
 90
       20
 90
      155
 90
      155
 90
      156
 90
       33
 90
      117
 90
      117
 90
      155
 90
       32
 90
      154
 90
      117
 90
      154
 90
       76
 90
      152
 90
      152
 90
      154
 90
       80
 90
      151
 90
      151
 90
      152
 90
       79
 90
      150
 90
      150
 90
      151
 90
       78
 90
      114
 90
      114
 90
      150
 90
       77
 90
      148
 90
      114
 90
      148
 90
       75
 90
      113
 90
      113
 90
      148
 90
       74
 90
      147
 90
      113
 90
      147
 90
       73
 90
      149
 90
      147
 90
      149
 90
       31
 90
      115
 90
      115
 90
      149
 90
       30
 90
      116
 90
      115
 90
      116
 90
       52
 90
      153
 90
      116
 90
      153
 90
       51
 90
      112
 90
      112
 90
      153
 90
       50
 90
      146
 90
      112
 90
      146
 90
       49
 90
      145
 90
      145
 90
      146
 90
       48
 90
      111
 90
      111
 90
      145
 90
       47
 90
      144
 90
      111
 90
      144
 90
       46
 90
      108
 90
      108
 90
      144
 90
       45
 90
      107
 90
      107
 90
      108
 90
       44
 90
      106
 90
      106
 90
      107
 90
       43
 90
      105
 90
      105
 90
      106
 90
       42
 90
      109
 90
      105
 90
      109
 90
       41
 90
      110
 90
      109
 90
      110
 90
       40
 90
      104
 90
      104
 90
      110
 90
       39
 90
      102
 90
      102
 90
      104
 90
       38
 90
      143
 90
      102
 90
      143
 90
       36
 90
       94
 90
       94
 90
      143
 90
       54
 90
      138
 90
       94
 90
      138
 90
       68
 90
      137
 90
      137
 90
      138
 90
       72
 90
       95
 90
       95
 90
      137
 90
       71
 90
       97
 90
       95
 90
       97
 90
       70
 90
       99
 90
       97
 90
       99
 90
       69
 90
      142
 90
       99
 90
      142
 90
       67
 90
      141
 90
      141
 90
      142
 90
       66
 90
       98
 90
       98
 90
      141
 90
       65
 90
       96
 90
       96
 90
       98
 90
       64
 90
      140
 90
       96
 90
      140
 90
       63
 90
      139
 90
      139
 90
      140
 90
       62
 90
      136
 90
      136
 90
      139
 90
       61
 90
       93
 90
       93
 90
      136
 90
       60
 90
      135
 90
       93
 90
      135
 90
       56
 90
      134
 90
      134
 90
      135
 90
       58
 90
      133
 90
      133
 90
      134
 90
       59
 90
       90
 90
       90
 90
      133
 90
       57
 90
       89
 90
       89
 90
       90
 90
       55
 90
       91
 90
       89
 90
       91
 90
       91
 90
       92
 90
       86
 90
      132
 90
       88
 90
       90
 90
       88
 90
       89
 90
       88
 90
       91
 90
       88
 90
      133
 90
       88
 90
      134
 90
       88
 90
      135
 90
       88
 90
       93
 90
       88
 90
      137
 90
      136
 90
      137
 90
       88
 90
      138
 90
       88
 90
       94
 90
      137
 90
      139
 90
       95
 90
      140
 90
       96
 90
       97
 90
       98
 90
       99
 90
      100
 90
      143
 90
      101
 90
      102
 90
      103
 90
      104
 90
      105
 90
      108
 90
      109
 90
      144
 90
      110
 90
      111
 90
      104
 90
      145
 90
      104
 90
      146
 90
      103
 90
      112
 90
      114
 90
      147
 90
      149
 90
      150
 90
      115
 90
      151
 90
      116
 90
      152
 90
      152
 90
      153
 90
      103
 90
      154
 90
      103
 90
      152
 90
      103
 90
      117
 90
      103
 90
      155
 90
      118
 90
      156
 90
      118
 90
      157
 90
      118
 90
      119
 90
      158
 90
      159
 90
      160
 90
      161
 90
      120
 90
      160
 90
      160
 90
      162
 90
      121
 90
      160
 90
      122
 90
      160
 90
      124
 90
      163
 90
      125
 90
      165
 90
      126
 90
      127
 90
      166
 90
      167
 90
      168
 90
      169
 90
      160
 90
      168
 90
      160
 90
      169
 90
      160
 90
      170
 90
       86
 90
      128
 90
       86
 90
      170
 90
       86
 90
      171
 90
       86
 90
      129
 90
       86
 90
      130
 90
       86
 90
      131
 95
      372
140
0.0
140
0.0
140
0.0
140
0.0
140
0.0
140
0.0
140
0.0
140
0.0
140
0.0
140
0.0
140
0.0
140
0.0
140
0.0
140
0.0
140
0.0
140
0.0
140
0.0
140
0.0
140
0.0
140
0.0
140
0.0
140
0.0
140
0.0
140
0.0
140
0.0
140
0.0
140
0.0
140
0.0
140
0.0
140
0.0
140
0.0
140
0.0
140
0.0
140
0.0
140
0.0
140
0.0
140
0.0
140
0.0
140
0.0
140
0.0
140
0.0
140
0.0
140
0.0
140
0.0
140
0.0
140
0.0
140
0.0
140
0.0
140
0.0
140
0.0
140
0.0
140
0.0
140
0.0
140
0.0
140
0.0
140
0.0
140
0.0
140
0.0
140
0.0
140
0.0
140
0.0
140
0.0
140
0.0
140
0.0
140
0.0
140
0.0
140
0.0
140
0.0
140
0.0
140
0.0
140
0.0
140
0.0
140
0.0
140
0.0
140
0.0
140
0.0
140
0.0
140
0.0
140
0.0
140
0.0
140
0.0
140
0.0
140
0.0
140
0.0
140
0.0
140
0.0
140
0.0
140
0.0
140
0.0
140
0.0
140
0.0
140
0.0
140
0.0
140
0.0
140
0.0
140
0.0
140
0.0
140
0.0
140
0.0
140
0.0
140
0.0
140
0.0
140
0.0
140
0.0
140
0.0
140
0.0
140
0.0
140
0.0
140
0.0
140
0.0
140
0.0
140
0.0
140
0.0
140
0.0
140
0.0
140
0.0
140
0.0
140
0.0
140
0.0
140
0.0
140
0.0
140
0.0
140
0.0
140
0.0
140
0.0
140
0.0
140
0.0
140
0.0
140
0.0
140
0.0
140
0.0
140
0.0
140
0.0
140
0.0
140
0.0
140
0.0
140
0.0
140
0.0
140
0.0
140
0.0
140
0.0
140
0.0
140
0.0
140
0.0
140
0.0
140
0.0
140
0.0
140
0.0
140
0.0
140
0.0
140
0.0
140
0.0
140
0.0
140
0.0
140
0.0
140
0.0
140
0.0
140
0.0
140
0.0
140
0.0
140
0.0
140
0.0
140
0.0
140
0.0
140
0.0
140
0.0
140
0.0
140
0.0
140
0.0
140
0.0
140
0.0
140
0.0
140
0.0
140
0.0
140
0.0
140
0.0
140
0.0
140
0.0
140
0.0
140
0.0
140
0.0
140
0.0
140
0.0
140
0.0
140
0.0
140
0.0
140
0.0
140
0.0
140
0.0
140
0.0
140
0.0
140
0.0
140
0.0
140
0.0
140
0.0
140
0.0
140
0.0
140
0.0
140
0.0
140
0.0
140
0.0
140
0.0
140
0.0
140
0.0
140
0.0
140
0.0
140
0.0
140
0.0
140
0.0
140
0.0
140
0.0
140
0.0
140
0.0
140
0.0
140
0.0
140
0.0
140
0.0
140
0.0
140
0.0
140
0.0
140
0.0
140
0.0
140
0.0
140
0.0
140
0.0
140
0.0
140
0.0
140
0.0
140
0.0
140
0.0
140
0.0
140
0.0
140
0.0
140
0.0
140
0.0
140
0.0
140
0.0
140
0.0
140
0.0
140
0.0
140
0.0
140
0.0
140
0.0
140
0.0
140
0.0
140
0.0
140
0.0
140
0.0
140
0.0
140
0.0
140
0.0
140
0.0
140
0.0
140
0.0
140
0.0
140
0.0
140
0.0
140
0.0
140
0.0
140
0.0
140
0.0
140
0.0
140
0.0
140
0.0
140
0.0
140
0.0
140
0.0
140
0.0
140
0.0
140
0.0
140
0.0
140
0.0
140
0.0
140
0.0
140
0.0
140
0.0
140
0.0
140
0.0
140
0.0
140
0.0
140
0.0
140
0.0
140
0.0
140
0.0
140
0.0
140
0.0
140
0.0
140
0.0
140
0.0
140
0.0
140
0.0
140
0.0
140
0.0
140
0.0
140
0.0
140
0.0
140
0.0
140
0.0
140
0.0
140
0.0
140
0.0
140
0.0
140
0.0
140
0.0
140
0.0
140
0.0
140
0.0
140
0.0
140
0.0
140
0.0
140
0.0
140
0.0
140
0.0
140
0.0
140
0.0
140
0.0
140
0.0
140
0.0
140
0.0
140
0.0
140
0.0
140
0.0
140
0.0
140
0.0
140
0.0
140
0.0
140
0.0
140
0.0
140
0.0
140
0.0
140
0.0
140
0.0
140
0.0
140
0.0
140
0.0
140
0.0
140
0.0
140
0.0
140
0.0
140
0.0
140
0.0
140
0.0
140
0.0
140
0.0
140
0.0
140
0.0
140
0.0
140
0.0
140
0.0
140
0.0
140
0.0
140
0.0
140
0.0
140
0.0
140
0.0
140
0.0
140
0.0
140
0.0
140
0.0
140
0.0
140
0.0
140
0.0
140
0.0
140
0.0
140
0.0
140
0.0
140
0.0
140
0.0
140
0.0
140
0.0
140
0.0
140
0.0
 90
        0
  0
POLYLINE
  5
FA
330
1F
100
AcDbEntity
  8
OracDecor_cornice_mouldings
 62
   183
420
  9197793
100
AcDb3dPolyline
 66
     1
 10
0.0
 20
0.0
 30
0.0
 70
     9
  0
VERTEX
  5
FB
330
FA
100
AcDbEntity
  8
OracDecor_cornice_mouldings
 62
   183
420
  9197793
100
AcDbVertex
100
AcDb3dPolylineVertex
 10
0.0000000004511094
 20
193.9364929199219
 30
-0.0000182394742296
 70
    32
  0
VERTEX
  5
FC
330
FA
100
AcDbEntity
  8
OracDecor_cornice_mouldings
 62
   183
420
  9197793
100
AcDbVertex
100
AcDb3dPolylineVertex
 10
0.0000000004474714
 20
200.0
 30
-0.0000182394742296
 70
    32
  0
VERTEX
  5
FD
330
FA
100
AcDbEntity
  8
OracDecor_cornice_mouldings
 62
   183
420
  9197793
100
AcDbVertex
100
AcDb3dPolylineVertex
 10
0.0000009541254258
 20
200.0
 30
-8.000018119812011
 70
    32
  0
VERTEX
  5
FE
330
FA
100
AcDbEntity
  8
OracDecor_cornice_mouldings
 62
   183
420
  9197793
100
AcDbVertex
100
AcDb3dPolylineVertex
 10
0.0000009541217878
 20
165.1000061035156
 30
-8.000018119812011
 70
    32
  0
VERTEX
  5
FF
330
FA
100
AcDbEntity
  8
OracDecor_cornice_mouldings
 62
   183
420
  9197793
100
AcDbVertex
100
AcDb3dPolylineVertex
 10
0.0000009660434444
 20
165.0
 30
-8.100016593933105
 70
    32
  0
VERTEX
  5
100
330
FA
100
AcDbEntity
  8
OracDecor_cornice_mouldings
 62
   183
420
  9197793
100
AcDbVertex
100
AcDb3dPolylineVertex
 10
0.0000017885886336
 20
165.0
 30
-15.00001811981201
 70
    32
  0
VERTEX
  5
101
330
FA
100
AcDbEntity
  8
OracDecor_cornice_mouldings
 62
   183
420
  9197793
100
AcDbVertex
100
AcDb3dPolylineVertex
 10
0.0000017885868147
 20
119.0999984741211
 30
-15.00002574920654
 70
    32
  0
VERTEX
  5
102
330
FA
100
AcDbEntity
  8
OracDecor_cornice_mouldings
 62
   183
420
  9197793
100
AcDbVertex
100
AcDb3dPolylineVertex
 10
0.0000018005084712
 20
119.0000076293945
 30
-15.10002422332763
 70
    32
  0
VERTEX
  5
103
330
FA
100
AcDbEntity
  8
OracDecor_cornice_mouldings
 62
   183
420
  9197793
100
AcDbVertex
100
AcDb3dPolylineVertex
 10
0.0000026230536605
 20
119.0000076293945
 30
-22.00002670288086
 70
    32
  0
VERTEX
  5
104
330
FA
100
AcDbEntity
  8
OracDecor_cornice_mouldings
 62
   183
420
  9197793
100
AcDbVertex
100
AcDb3dPolylineVertex
 10
-0.000005006340416
 20
-0.0000057220449889
 30
-22.00003433227539
 70
    32
  0
VERTEX
  5
105
330
FA
100
AcDbEntity
  8
OracDecor_cornice_mouldings
 62
   183
420
  9197793
100
AcDbVertex
100
AcDb3dPolylineVertex
 10
-0.0000076289466051
 20
-0.0000057220445342
 30
-0.0000334982614731
 70
    32
  0
VERTEX
  5
106
330
FA
100
AcDbEntity
  8
OracDecor_cornice_mouldings
 62
   183
420
  9197793
100
AcDbVertex
100
AcDb3dPolylineVertex
 10
-0.0000076289466051
 20
4.063501358032226
 30
-0.0000334982614731
 70
    32
  0
VERTEX
  5
107
330
FA
100
AcDbEntity
  8
OracDecor_cornice_mouldings
 62
   183
420
  9197793
100
AcDbVertex
100
AcDb3dPolylineVertex
 10
-0.0000076232854553
 20
4.276185989379882
 30
-0.047526478767395
 70
    32
  0
VERTEX
  5
108
330
FA
100
AcDbEntity
  8
OracDecor_cornice_mouldings
 62
   183
420
  9197793
100
AcDbVertex
100
AcDb3dPolylineVertex
 10
-0.0000076073756645
 20
4.44847297668457
 30
-0.1809722185134888
 70
    32
  0
VERTEX
  5
109
330
FA
100
AcDbEntity
  8
OracDecor_cornice_mouldings
 62
   183
420
  9197793
100
AcDbVertex
100
AcDb3dPolylineVertex
 10
-0.0000075842426668
 20
4.547624588012695
 30
-0.3750334978103638
 70
    32
  0
VERTEX
  5
10A
330
FA
100
AcDbEntity
  8
OracDecor_cornice_mouldings
 62
   183
420
  9197793
100
AcDbVertex
100
AcDb3dPolylineVertex
 10
-0.0000075148359429
 20
4.845155715942382
 30
-0.9572631120681762
 70
    32
  0
VERTEX
  5
10B
330
FA
100
AcDbEntity
  8
OracDecor_cornice_mouldings
 62
   183
420
  9197793
100
AcDbVertex
100
AcDb3dPolylineVertex
 10
-0.0000074671229413
 20
5.361871719360351
 30
-1.357508778572082
 70
    32
  0
VERTEX
  5
10C
330
FA
100
AcDbEntity
  8
OracDecor_cornice_mouldings
 62
   183
420
  9197793
100
AcDbVertex
100
AcDb3dPolylineVertex
 10
-0.0000074501326708
 20
5.999994277954101
 30
-1.500033497810363
 70
    32
  0
VERTEX
  5
10D
330
FA
100
AcDbEntity
  8
OracDecor_cornice_mouldings
 62
   183
420
  9197793
100
AcDbVertex
100
AcDb3dPolylineVertex
 10
-0.0000074671229413
 20
6.638116836547851
 30
-1.357508778572082
 70
    32
  0
VERTEX
  5
10E
330
FA
100
AcDbEntity
  8
OracDecor_cornice_mouldings
 62
   183
420
  9197793
100
AcDbVertex
100
AcDb3dPolylineVertex
 10
-0.0000075148363976
 20
7.15483283996582
 30
-0.9572631120681762
 70
    32
  0
VERTEX
  5
10F
330
FA
100
AcDbEntity
  8
OracDecor_cornice_mouldings
 62
   183
420
  9197793
100
AcDbVertex
100
AcDb3dPolylineVertex
 10
-0.0000075842426668
 20
7.452363967895507
 30
-0.3750334978103638
 70
    32
  0
VERTEX
  5
110
330
FA
100
AcDbEntity
  8
OracDecor_cornice_mouldings
 62
   183
420
  9197793
100
AcDbVertex
100
AcDb3dPolylineVertex
 10
-0.0000076073756645
 20
7.551515579223632
 30
-0.1809722185134888
 70
    32
  0
VERTEX
  5
111
330
FA
100
AcDbEntity
  8
OracDecor_cornice_mouldings
 62
   183
420
  9197793
100
AcDbVertex
100
AcDb3dPolylineVertex
 10
-0.0000076232850006
 20
7.72380256652832
 30
-0.047526478767395
 70
    32
  0
VERTEX
  5
112
330
FA
100
AcDbEntity
  8
OracDecor_cornice_mouldings
 62
   183
420
  9197793
100
AcDbVertex
100
AcDb3dPolylineVertex
 10
-0.0000076289461504
 20
7.936487197875976
 30
-0.0000334982614731
 70
    32
  0
VERTEX
  5
113
330
FA
100
AcDbEntity
  8
OracDecor_cornice_mouldings
 62
   183
420
  9197793
100
AcDbVertex
100
AcDb3dPolylineVertex
 10
-0.0000076289461504
 20
11.4999942779541
 30
-0.0000334982614731
 70
    32
  0
VERTEX
  5
114
330
FA
100
AcDbEntity
  8
OracDecor_cornice_mouldings
 62
   183
420
  9197793
100
AcDbVertex
100
AcDb3dPolylineVertex
 10
-0.0000076209562394
 20
11.75002479553223
 30
-0.067057728767395
 70
    32
  0
VERTEX
  5
115
330
FA
100
AcDbEntity
  8
OracDecor_cornice_mouldings
 62
   183
420
  9197793
100
AcDbVertex
100
AcDb3dPolylineVertex
 10
-0.0000075991483754
 20
11.93297004699707
 30
-0.2499953508377075
 70
    32
  0
VERTEX
  5
116
330
FA
100
AcDbEntity
  8
OracDecor_cornice_mouldings
 62
   183
420
  9197793
100
AcDbVertex
100
AcDb3dPolylineVertex
 10
-0.0000075693419603
 20
11.9999942779541
 30
-0.5000334978103638
 70
    32
  0
VERTEX
  5
117
330
FA
100
AcDbEntity
  8
OracDecor_cornice_mouldings
 62
   183
420
  9197793
100
AcDbVertex
100
AcDb3dPolylineVertex
 10
-0.0000063176439653
 20
11.9999942779541
 30
-11.00003337860107
 70
    32
  0
VERTEX
  5
118
330
FA
100
AcDbEntity
  8
OracDecor_cornice_mouldings
 62
   183
420
  9197793
100
AcDbVertex
100
AcDb3dPolylineVertex
 10
-0.0000062362232711
 20
12.31698036193847
 30
-11.6830472946167
 70
    32
  0
VERTEX
  5
119
330
FA
100
AcDbEntity
  8
OracDecor_cornice_mouldings
 62
   183
420
  9197793
100
AcDbVertex
100
AcDb3dPolylineVertex
 10
-0.0000061984346758
 20
12.9999942779541
 30
-12.00003337860107
 70
    32
  0
VERTEX
  5
11A
330
FA
100
AcDbEntity
  8
OracDecor_cornice_mouldings
 62
   183
420
  9197793
100
AcDbVertex
100
AcDb3dPolylineVertex
 10
0.000001430962584
 20
110.7338027954101
 30
-12.00002574920654
 70
    32
  0
VERTEX
  5
11B
330
FA
100
AcDbEntity
  8
OracDecor_cornice_mouldings
 62
   183
420
  9197793
100
AcDbVertex
100
AcDb3dPolylineVertex
 10
0.000001396967491
 20
111.3888473510742
 30
-11.71487712860107
 70
    32
  0
VERTEX
  5
11C
330
FA
100
AcDbEntity
  8
OracDecor_cornice_mouldings
 62
   183
420
  9197793
100
AcDbVertex
100
AcDb3dPolylineVertex
 10
0.0000013221397239
 20
111.7300033569336
 30
-11.08718395233154
 70
    32
  0
VERTEX
  5
11D
330
FA
100
AcDbEntity
  8
OracDecor_cornice_mouldings
 62
   183
420
  9197793
100
AcDbVertex
100
AcDb3dPolylineVertex
 10
0.0000000766231096
 20
112.6440963745117
 30
-0.6390181779861451
 70
    32
  0
VERTEX
  5
11E
330
FA
100
AcDbEntity
  8
OracDecor_cornice_mouldings
 62
   183
420
  9197793
100
AcDbVertex
100
AcDb3dPolylineVertex
 10
0.0000000380368874
 20
112.7566299438476
 30
-0.3153334856033325
 70
    32
  0
VERTEX
  5
11F
330
FA
100
AcDbEntity
  8
OracDecor_cornice_mouldings
 62
   183
420
  9197793
100
AcDbVertex
100
AcDb3dPolylineVertex
 10
0.0000000104500941
 20
113.009162902832
 30
-0.0839186906814575
 70
    32
  0
VERTEX
  5
120
330
FA
100
AcDbEntity
  8
OracDecor_cornice_mouldings
 62
   183
420
  9197793
100
AcDbVertex
100
AcDb3dPolylineVertex
 10
0.0000000004474714
 20
113.3414230346679
 30
-0.0000258688669419
 70
    32
  0
VERTEX
  5
121
330
FA
100
AcDbEntity
  8
OracDecor_cornice_mouldings
 62
   183
420
  9197793
100
AcDbVertex
100
AcDb3dPolylineVertex
 10
0.0000000004474714
 20
115.7635040283203
 30
-0.0000258688669419
 70
    32
  0
VERTEX
  5
122
330
FA
100
AcDbEntity
  8
OracDecor_cornice_mouldings
 62
   183
420
  9197793
100
AcDbVertex
100
AcDb3dPolylineVertex
 10
0.0000000061081664
 20
115.9761886596679
 30
-0.0475112199783325
 70
    32
  0
VERTEX
  5
123
330
FA
100
AcDbEntity
  8
OracDecor_cornice_mouldings
 62
   183
420
  9197793
100
AcDbVertex
100
AcDb3dPolylineVertex
 10
0.0000000220206857
 20
116.1484756469726
 30
-0.1809645891189575
 70
    32
  0
VERTEX
  5
124
330
FA
100
AcDbEntity
  8
OracDecor_cornice_mouldings
 62
   183
420
  9197793
100
AcDbVertex
100
AcDb3dPolylineVertex
 10
0.000000045150955
 20
116.2476272583008
 30
-0.3750258684158325
 70
    32
  0
VERTEX
  5
125
330
FA
100
AcDbEntity
  8
OracDecor_cornice_mouldings
 62
   183
420
  9197793
100
AcDbVertex
100
AcDb3dPolylineVertex
 10
0.0000001145599526
 20
116.5451583862304
 30
-0.957255482673645
 70
    32
  0
VERTEX
  5
126
330
FA
100
AcDbEntity
  8
OracDecor_cornice_mouldings
 62
   183
420
  9197793
100
AcDbVertex
100
AcDb3dPolylineVertex
 10
0.0000001622738637
 20
117.0618667602539
 30
-1.357501149177551
 70
    32
  0
VERTEX
  5
127
330
FA
100
AcDbEntity
  8
OracDecor_cornice_mouldings
 62
   183
420
  9197793
100
AcDbVertex
100
AcDb3dPolylineVertex
 10
0.0000001792614057
 20
117.6999893188476
 30
-1.500025868415832
 70
    32
  0
VERTEX
  5
128
330
FA
100
AcDbEntity
  8
OracDecor_cornice_mouldings
 62
   183
420
  9197793
100
AcDbVertex
100
AcDb3dPolylineVertex
 10
0.0000001622720447
 20
118.3381118774414
 30
-1.357501149177551
 70
    32
  0
VERTEX
  5
129
330
FA
100
AcDbEntity
  8
OracDecor_cornice_mouldings
 62
   183
420
  9197793
100
AcDbVertex
100
AcDb3dPolylineVertex
 10
0.0000001145599526
 20
118.8548355102539
 30
-0.957255482673645
 70
    32
  0
VERTEX
  5
12A
330
FA
100
AcDbEntity
  8
OracDecor_cornice_mouldings
 62
   183
420
  9197793
100
AcDbVertex
100
AcDb3dPolylineVertex
 10
0.000000045154593
 20
119.1523666381836
 30
-0.3750258684158325
 70
    32
  0
VERTEX
  5
12B
330
FA
100
AcDbEntity
  8
OracDecor_cornice_mouldings
 62
   183
420
  9197793
100
AcDbVertex
100
AcDb3dPolylineVertex
 10
0.0000000220188667
 20
119.2515182495117
 30
-0.1809645891189575
 70
    32
  0
VERTEX
  5
12C
330
FA
100
AcDbEntity
  8
OracDecor_cornice_mouldings
 62
   183
420
  9197793
100
AcDbVertex
100
AcDb3dPolylineVertex
 10
0.0000000061099854
 20
119.4238052368164
 30
-0.0475112199783325
 70
    32
  0
VERTEX
  5
12D
330
FA
100
AcDbEntity
  8
OracDecor_cornice_mouldings
 62
   183
420
  9197793
100
AcDbVertex
100
AcDb3dPolylineVertex
 10
0.0000000004492904
 20
119.6364822387695
 30
-0.0000258688669419
 70
    32
  0
VERTEX
  5
12E
330
FA
100
AcDbEntity
  8
OracDecor_cornice_mouldings
 62
   183
420
  9197793
100
AcDbVertex
100
AcDb3dPolylineVertex
 10
0.0000000004492904
 20
122.0585708618164
 30
-0.0000258688669419
 70
    32
  0
VERTEX
  5
12F
330
FA
100
AcDbEntity
  8
OracDecor_cornice_mouldings
 62
   183
420
  9197793
100
AcDbVertex
100
AcDb3dPolylineVertex
 10
0.0000000104537321
 20
122.3908309936523
 30
-0.0839186906814575
 70
    32
  0
VERTEX
  5
130
330
FA
100
AcDbEntity
  8
OracDecor_cornice_mouldings
 62
   183
420
  9197793
100
AcDbVertex
100
AcDb3dPolylineVertex
 10
0.0000000380368874
 20
122.6433639526367
 30
-0.3153258562088013
 70
    32
  0
VERTEX
  5
131
330
FA
100
AcDbEntity
  8
OracDecor_cornice_mouldings
 62
   183
420
  9197793
100
AcDbVertex
100
AcDb3dPolylineVertex
 10
0.0000000766231096
 20
122.7558975219726
 30
-0.6390105485916138
 70
    32
  0
VERTEX
  5
132
330
FA
100
AcDbEntity
  8
OracDecor_cornice_mouldings
 62
   183
420
  9197793
100
AcDbVertex
100
AcDb3dPolylineVertex
 10
0.0000007260932762
 20
123.232551574707
 30
-6.087176322937011
 70
    32
  0
VERTEX
  5
133
330
FA
100
AcDbEntity
  8
OracDecor_cornice_mouldings
 62
   183
420
  9197793
100
AcDbVertex
100
AcDb3dPolylineVertex
 10
0.0000007812141121
 20
123.3933181762695
 30
-6.549586296081542
 70
    32
  0
VERTEX
  5
134
330
FA
100
AcDbEntity
  8
OracDecor_cornice_mouldings
 62
   183
420
  9197793
100
AcDbVertex
100
AcDb3dPolylineVertex
 10
0.0000008206261555
 20
123.7540817260742
 30
-6.880167961120605
 70
    32
  0
VERTEX
  5
135
330
FA
100
AcDbEntity
  8
OracDecor_cornice_mouldings
 62
   183
420
  9197793
100
AcDbVertex
100
AcDb3dPolylineVertex
 10
0.0000008349143172
 20
124.2287521362305
 30
-7.000025749206542
 70
    32
  0
VERTEX
  5
136
330
FA
100
AcDbEntity
  8
OracDecor_cornice_mouldings
 62
   183
420
  9197793
100
AcDbVertex
100
AcDb3dPolylineVertex
 10
0.0000008349143172
 20
155.3743133544922
 30
-7.000018119812011
 70
    32
  0
VERTEX
  5
137
330
FA
100
AcDbEntity
  8
OracDecor_cornice_mouldings
 62
   183
420
  9197793
100
AcDbVertex
100
AcDb3dPolylineVertex
 10
0.000000820540663
 20
156.0582275390625
 30
-6.879427909851074
 70
    32
  0
VERTEX
  5
138
330
FA
100
AcDbEntity
  8
OracDecor_cornice_mouldings
 62
   183
420
  9197793
100
AcDbVertex
100
AcDb3dPolylineVertex
 10
0.0000007791331882
 20
156.6598663330078
 30
-6.532084465026855
 70
    32
  0
VERTEX
  5
139
330
FA
100
AcDbEntity
  8
OracDecor_cornice_mouldings
 62
   183
420
  9197793
100
AcDbVertex
100
AcDb3dPolylineVertex
 10
0.0000007156922948
 20
157.1063995361328
 30
-5.999911308288574
 70
    32
  0
VERTEX
  5
13A
330
FA
100
AcDbEntity
  8
OracDecor_cornice_mouldings
 62
   183
420
  9197793
100
AcDbVertex
100
AcDb3dPolylineVertex
 10
0.000000637897756
 20
157.3439178466797
 30
-5.347315788269042
 70
    32
  0
VERTEX
  5
13B
330
FA
100
AcDbEntity
  8
OracDecor_cornice_mouldings
 62
   183
420
  9197793
100
AcDbVertex
100
AcDb3dPolylineVertex
 10
0.0000002181677701
 20
157.9647674560547
 30
-1.826373219490051
 70
    32
  0
VERTEX
  5
13C
330
FA
100
AcDbEntity
  8
OracDecor_cornice_mouldings
 62
   183
420
  9197793
100
AcDbVertex
100
AcDb3dPolylineVertex
 10
0.0000001676762622
 20
158.1474914550781
 30
-1.402819752693176
 70
    32
  0
VERTEX
  5
13D
330
FA
100
AcDbEntity
  8
OracDecor_cornice_mouldings
 62
   183
420
  9197793
100
AcDbVertex
100
AcDb3dPolylineVertex
 10
0.000000132344212
 20
158.5007171630859
 30
-1.106433033943176
 70
    32
  0
VERTEX
  5
13E
330
FA
100
AcDbEntity
  8
OracDecor_cornice_mouldings
 62
   183
420
  9197793
100
AcDbVertex
100
AcDb3dPolylineVertex
 10
0.0000001196585799
 20
158.9495697021484
 30
-1.000018239021301
 70
    32
  0
VERTEX
  5
13F
330
FA
100
AcDbEntity
  8
OracDecor_cornice_mouldings
 62
   183
420
  9197793
100
AcDbVertex
100
AcDb3dPolylineVertex
 10
0.0000001196567609
 20
183.0
 30
-1.000018239021301
 70
    32
  0
VERTEX
  5
140
330
FA
100
AcDbEntity
  8
OracDecor_cornice_mouldings
 62
   183
420
  9197793
100
AcDbVertex
100
AcDb3dPolylineVertex
 10
0.0000001097541826
 20
183.3990173339843
 30
-0.9169493913650512
 70
    32
  0
VERTEX
  5
141
330
FA
100
AcDbEntity
  8
OracDecor_cornice_mouldings
 62
   183
420
  9197793
100
AcDbVertex
100
AcDb3dPolylineVertex
 10
0.0000000817271939
 20
183.7315216064453
 30
-0.6818190813064576
 70
    32
  0
VERTEX
  5
142
330
FA
100
AcDbEntity
  8
OracDecor_cornice_mouldings
 62
   183
420
  9197793
100
AcDbVertex
100
AcDb3dPolylineVertex
 10
0.0000000401851139
 20
183.9428100585937
 30
-0.333354115486145
 70
    32
  0
VERTEX
  5
143
330
FA
100
AcDbEntity
  8
OracDecor_cornice_mouldings
 62
   183
420
  9197793
100
AcDbVertex
100
AcDb3dPolylineVertex
 10
0.0000000113868737
 20
184.1255340576172
 30
-0.0917693376541138
 70
    32
  0
VERTEX
  5
144
330
FA
100
AcDbEntity
  8
OracDecor_cornice_mouldings
 62
   183
420
  9197793
100
AcDbVertex
100
AcDb3dPolylineVertex
 10
0.0000000004492904
 20
184.4142150878906
 30
-0.0000182394742296
 70
    32
  0
VERTEX
  5
145
330
FA
100
AcDbEntity
  8
OracDecor_cornice_mouldings
 62
   183
420
  9197793
100
AcDbVertex
100
AcDb3dPolylineVertex
 10
0.0000000004438334
 20
190.0635070800781
 30
-0.0000182394742296
 70
    32
  0
VERTEX
  5
146
330
FA
100
AcDbEntity
  8
OracDecor_cornice_mouldings
 62
   183
420
  9197793
100
AcDbVertex
100
AcDb3dPolylineVertex
 10
0.0000000061154424
 20
190.2761993408203
 30
-0.0475112199783325
 70
    32
  0
VERTEX
  5
147
330
FA
100
AcDbEntity
  8
OracDecor_cornice_mouldings
 62
   183
420
  9197793
100
AcDbVertex
100
AcDb3dPolylineVertex
 10
0.0000000220170477
 20
190.4484710693359
 30
-0.1809569597244263
 70
    32
  0
VERTEX
  5
148
330
FA
100
AcDbEntity
  8
OracDecor_cornice_mouldings
 62
   183
420
  9197793
100
AcDbVertex
100
AcDb3dPolylineVertex
 10
0.000000045150955
 20
190.5476379394531
 30
-0.3750182390213013
 70
    32
  0
VERTEX
  5
149
330
FA
100
AcDbEntity
  8
OracDecor_cornice_mouldings
 62
   183
420
  9197793
100
AcDbVertex
100
AcDb3dPolylineVertex
 10
0.0000001145599526
 20
190.8451690673828
 30
-0.9572478532791137
 70
    32
  0
VERTEX
  5
14A
330
FA
100
AcDbEntity
  8
OracDecor_cornice_mouldings
 62
   183
420
  9197793
100
AcDbVertex
100
AcDb3dPolylineVertex
 10
0.0000001622720447
 20
191.3618774414062
 30
-1.35749351978302
 70
    32
  0
VERTEX
  5
14B
330
FA
100
AcDbEntity
  8
OracDecor_cornice_mouldings
 62
   183
420
  9197793
100
AcDbVertex
100
AcDb3dPolylineVertex
 10
0.0000001792650437
 20
192.0
 30
-1.500018239021301
 70
    32
  0
VERTEX
  5
14C
330
FA
100
AcDbEntity
  8
OracDecor_cornice_mouldings
 62
   183
420
  9197793
100
AcDbVertex
100
AcDb3dPolylineVertex
 10
0.0000001622720447
 20
192.6381225585937
 30
-1.35749351978302
 70
    32
  0
VERTEX
  5
14D
330
FA
100
AcDbEntity
  8
OracDecor_cornice_mouldings
 62
   183
420
  9197793
100
AcDbVertex
100
AcDb3dPolylineVertex
 10
0.0000001145599526
 20
193.1548309326172
 30
-0.9572478532791137
 70
    32
  0
VERTEX
  5
14E
330
FA
100
AcDbEntity
  8
OracDecor_cornice_mouldings
 62
   183
420
  9197793
100
AcDbVertex
100
AcDb3dPolylineVertex
 10
0.000000045154593
 20
193.4523620605468
 30
-0.3750182390213013
 70
    32
  0
VERTEX
  5
14F
330
FA
100
AcDbEntity
  8
OracDecor_cornice_mouldings
 62
   183
420
  9197793
100
AcDbVertex
100
AcDb3dPolylineVertex
 10
0.0000000220170477
 20
193.5515289306641
 30
-0.1809569597244263
 70
    32
  0
VERTEX
  5
150
330
FA
100
AcDbEntity
  8
OracDecor_cornice_mouldings
 62
   183
420
  9197793
100
AcDbVertex
100
AcDb3dPolylineVertex
 10
0.0000000061081664
 20
193.7238006591797
 30
-0.0475112199783325
 70
    32
  0
SEQEND
  5
151
330
FA
100
AcDbEntity
  8
OracDecor_cornice_mouldings
 62
   183
420
  9197793
  0
ENDSEC
  0
SECTION
  2
OBJECTS
  0
DICTIONARY
  5
C
330
0
100
AcDbDictionary
281
     1
  3
ACAD_COLOR
350
DC
  3
ACAD_DETAILVIEWSTYLE
350
F5
  3
ACAD_GROUP
350
D
  3
ACAD_LAYOUT
350
1A
  3
ACAD_MATERIAL
350
AA
  3
ACAD_MLEADERSTYLE
350
F1
  3
ACAD_MLINESTYLE
350
17
  3
ACAD_PLOTSETTINGS
350
19
  3
ACAD_PLOTSTYLENAME
350
E
  3
ACAD_SCALELIST
350
DF
  3
ACAD_SECTIONVIEWSTYLE
350
F3
  3
ACAD_TABLESTYLE
350
DD
  3
ACAD_VISUALSTYLE
350
C3
  3
ACDB_RECOMPOSE_DATA
350
15E
  3
AcDbVariableDictionary
350
152
  0
DICTIONARY
  5
DC
102
{ACAD_REACTORS
330
C
102
}
330
C
100
AcDbDictionary
281
     1
  0
DICTIONARY
  5
F5
102
{ACAD_REACTORS
330
C
102
}
330
C
100
AcDbDictionary
281
     1
  3
Imperial24
350
F6
  0
DICTIONARY
  5
D
102
{ACAD_REACTORS
330
C
102
}
330
C
100
AcDbDictionary
281
     1
  0
DICTIONARY
  5
1A
102
{ACAD_REACTORS
330
C
102
}
330
C
100
AcDbDictionary
281
     1
  3
Layout1
350
1E
  3
Layout2
350
26
  3
Model
350
22
  0
DICTIONARY
  5
AA
102
{ACAD_REACTORS
330
C
102
}
330
C
100
AcDbDictionary
281
     1
  3
ByBlock
350
B3
  3
ByLayer
350
AB
  3
Global
350
BB
  0
DICTIONARY
  5
F1
102
{ACAD_REACTORS
330
C
102
}
330
C
100
AcDbDictionary
281
     1
  3
Standard
350
F2
  0
DICTIONARY
  5
17
102
{ACAD_REACTORS
330
C
102
}
330
C
100
AcDbDictionary
281
     1
  3
Standard
350
18
  0
DICTIONARY
  5
19
102
{ACAD_REACTORS
330
C
102
}
330
C
100
AcDbDictionary
281
     1
  0
ACDBDICTIONARYWDFLT
  5
E
102
{ACAD_REACTORS
330
C
102
}
330
C
100
AcDbDictionary
281
     1
  3
ByLayer
350
2D
  3
Normal
350
F
100
AcDbDictionaryWithDefault
340
F
  0
DICTIONARY
  5
DF
102
{ACAD_REACTORS
330
C
102
}
330
C
100
AcDbDictionary
281
     1
  3
A0
350
E0
  3
A1
350
E1
  3
A2
350
E2
  3
A3
350
E3
  3
A4
350
E4
  3
A5
350
E5
  3
A6
350
E6
  3
A7
350
E7
  3
A8
350
E8
  3
A9
350
E9
  3
B0
350
EA
  3
B1
350
EB
  3
B2
350
EC
  3
B3
350
ED
  3
B4
350
EE
  3
B5
350
EF
  3
B6
350
F0
  0
DICTIONARY
  5
F3
102
{ACAD_REACTORS
330
C
102
}
330
C
100
AcDbDictionary
281
     1
  3
Imperial24
350
F4
  0
DICTIONARY
  5
DD
102
{ACAD_REACTORS
330
C
102
}
330
C
100
AcDbDictionary
281
     1
  3
Standard
350
DE
  0
DICTIONARY
  5
C3
102
{ACAD_REACTORS
330
C
102
}
330
C
100
AcDbDictionary
281
     1
  3
2dWireframe
350
C9
  3
Basic
350
C8
  3
Brighten
350
CF
  3
ColorChange
350
D3
  3
Conceptual
350
CC
  3
Dim
350
CE
  3
EdgeColorOff
350
DB
  3
Facepattern
350
D2
  3
Flat
350
C4
  3
FlatWithEdges
350
C5
  3
Gouraud
350
C6
  3
GouraudWithEdges
350
C7
  3
Hidden
350
CB
  3
JitterOff
350
D9
  3
Linepattern
350
D1
  3
OverhangOff
350
DA
  3
Realistic
350
CD
  3
Shaded
350
D8
  3
Shaded with edges
350
D7
  3
Shades of Gray
350
D4
  3
Sketchy
350
D5
  3
Thicken
350
D0
  3
Wireframe
350
CA
  3
X-Ray
350
D6
  0
XRECORD
  5
15E
102
{ACAD_REACTORS
330
C
102
}
330
C
100
AcDbXrecord
280
     1
 90
        1
330
DE
  0
DICTIONARY
  5
152
102
{ACAD_REACTORS
330
C
102
}
330
C
100
AcDbDictionary
281
     1
  3
CANNOSCALE
350
158
  3
CMLEADERSTYLE
350
154
  3
CTABLESTYLE
350
153
  3
CVIEWDETAILSTYLE
350
155
  3
CVIEWSECTIONSTYLE
350
156
  3
LAYEREVAL
350
15A
  3
LAYERNOTIFY
350
15B
  3
LIGHTINGUNITS
350
159
  3
MSLTSCALE
350
157
  0
ACDBDETAILVIEWSTYLE
  5
F6
102
{ACAD_XDICTIONARY
360
193
102
}
102
{ACAD_REACTORS
330
F5
102
}
330
F5
100
AcDbModelDocViewStyle
 70
     0
  3
Imperial24
290
     0
100
AcDbDetailViewStyle
 70
     0
 71
     0
 90
        3
 71
     1
340
11
 62
   256
 40
0.24
340
0
 62
   256
 40
0.24
300

 40
0.36
280
     3
 71
     2
340
16
 90
       25
 62
   256
 71
     3
340
11
 62
   256
 40
0.24
 90
        1
 40
0.75
 90
        1
300
%<\AcVar ViewType \f "%tc1">% %<\AcVar ViewDetailId>%\PSCALE %<\AcVar ViewScale \f "%sn">%
 71
     4
340
16
 90
       25
 62
   256
340
16
 90
       25
 62
   256
280
     0
  0
LAYOUT
  5
1E
102
{ACAD_REACTORS
330
1A
102
}
330
1A
100
AcDbPlotSettings
  1

  2
\\KTXNTBDC\CASF2PN1
  4

  6

 40
0.0
 41
0.0
 42
0.0
 43
0.0
 44
0.0
 45
0.0
 46
0.0
 47
0.0
 48
0.0
 49
0.0
140
0.0
141
0.0
142
1.0
143
1.0
 70
   688
 72
     0
 73
     0
 74
     5
  7

 75
    16
147
1.0
 76
     0
 77
     2
 78
   300
148
0.0
149
0.0
100
AcDbLayout
  1
Layout1
 70
     1
 71
     1
 10
0.0
 20
0.0
 11
12.0
 21
9.0
 12
0.0
 22
0.0
 32
0.0
 14
1.000000000000000E+20
 24
1.000000000000000E+20
 34
1.000000000000000E+20
 15
-1.000000000000000E+20
 25
-1.000000000000000E+20
 35
-1.000000000000000E+20
146
0.0
 13
0.0
 23
0.0
 33
0.0
 16
1.0
 26
0.0
 36
0.0
 17
0.0
 27
1.0
 37
0.0
 76
     0
330
1B
  0
LAYOUT
  5
26
102
{ACAD_REACTORS
330
1A
102
}
330
1A
100
AcDbPlotSettings
  1

  2
\\KTXNTBDC\CASF2PN1
  4

  6

 40
0.0
 41
0.0
 42
0.0
 43
0.0
 44
0.0
 45
0.0
 46
0.0
 47
0.0
 48
0.0
 49
0.0
140
0.0
141
0.0
142
1.0
143
1.0
 70
   688
 72
     0
 73
     0
 74
     5
  7

 75
    16
147
1.0
 76
     0
 77
     2
 78
   300
148
0.0
149
0.0
100
AcDbLayout
  1
Layout2
 70
     1
 71
     2
 10
0.0
 20
0.0
 11
12.0
 21
9.0
 12
0.0
 22
0.0
 32
0.0
 14
0.0
 24
0.0
 34
0.0
 15
0.0
 25
0.0
 35
0.0
146
0.0
 13
0.0
 23
0.0
 33
0.0
 16
1.0
 26
0.0
 36
0.0
 17
0.0
 27
1.0
 37
0.0
 76
     0
330
23
  0
LAYOUT
  5
22
102
{ACAD_REACTORS
330
1A
102
}
330
1A
100
AcDbPlotSettings
  1

  2
\\KTXNTBDC\CASF2PN1
  4

  6

 40
0.0
 41
0.0
 42
0.0
 43
0.0
 44
0.0
 45
0.0
 46
0.0
 47
0.0
 48
0.0
 49
0.0
140
0.0
141
0.0
142
1.0
143
1.0
 70
  1712
 72
     0
 73
     0
 74
     0
  7

 75
     0
147
1.0
 76
     0
 77
     2
 78
   300
148
0.0
149
0.0
100
AcDbLayout
  1
Model
 70
     1
 71
     0
 10
0.0
 20
0.0
 11
12.0
 21
9.0
 12
0.0
 22
0.0
 32
0.0
 14
0.0
 24
0.0
 34
0.0
 15
0.0
 25
0.0
 35
0.0
146
0.0
 13
0.0
 23
0.0
 33
0.0
 16
1.0
 26
0.0
 36
0.0
 17
0.0
 27
1.0
 37
0.0
 76
     0
330
1F
  0
MATERIAL
  5
B3
102
{ACAD_XDICTIONARY
360
B4
102
}
102
{ACAD_REACTORS
330
AA
102
}
330
AA
100
AcDbMaterial
  1
ByBlock
 72
     0
 43
0.0208333333333333
 43
0.0
 43
0.0
 43
0.0
 43
0.0
 43
0.0208333333333333
 43
0.0
 43
0.0
 43
0.0
 43
0.0
 43
1.0
 43
0.0
 43
0.0
 43
0.0
 43
0.0
 43
1.0
 77
     0
 47
0.0208333333333333
 47
0.0
 47
0.0
 47
0.0
 47
0.0
 47
0.0208333333333333
 47
0.0
 47
0.0
 47
0.0
 47
0.0
 47
1.0
 47
0.0
 47
0.0
 47
0.0
 47
0.0
 47
1.0
171
     0
 49
0.0208333333333333
 49
0.0
 49
0.0
 49
0.0
 49
0.0
 49
0.0208333333333333
 49
0.0
 49
0.0
 49
0.0
 49
0.0
 49
1.0
 49
0.0
 49
0.0
 49
0.0
 49
0.0
 49
1.0
175
     0
142
0.0208333333333333
142
0.0
142
0.0
142
0.0
142
0.0
142
0.0208333333333333
142
0.0
142
0.0
142
0.0
142
0.0
142
1.0
142
0.0
142
0.0
142
0.0
142
0.0
142
1.0
179
     0
144
0.0208333333333333
144
0.0
144
0.0
144
0.0
144
0.0
144
0.0208333333333333
144
0.0
144
0.0
144
0.0
144
0.0
144
1.0
144
0.0
144
0.0
144
0.0
144
0.0
144
1.0
147
0.0208333333333333
147
0.0
147
0.0
147
0.0
147
0.0
147
0.0208333333333333
147
0.0
147
0.0
147
0.0
147
0.0
147
1.0
147
0.0
147
0.0
147
0.0
147
0.0
147
1.0
  0
MATERIAL
  5
AB
102
{ACAD_XDICTIONARY
360
AC
102
}
102
{ACAD_REACTORS
330
AA
102
}
330
AA
100
AcDbMaterial
  1
ByLayer
 72
     0
 43
0.0208333333333333
 43
0.0
 43
0.0
 43
0.0
 43
0.0
 43
0.0208333333333333
 43
0.0
 43
0.0
 43
0.0
 43
0.0
 43
1.0
 43
0.0
 43
0.0
 43
0.0
 43
0.0
 43
1.0
 77
     0
 47
0.0208333333333333
 47
0.0
 47
0.0
 47
0.0
 47
0.0
 47
0.0208333333333333
 47
0.0
 47
0.0
 47
0.0
 47
0.0
 47
1.0
 47
0.0
 47
0.0
 47
0.0
 47
0.0
 47
1.0
171
     0
 49
0.0208333333333333
 49
0.0
 49
0.0
 49
0.0
 49
0.0
 49
0.0208333333333333
 49
0.0
 49
0.0
 49
0.0
 49
0.0
 49
1.0
 49
0.0
 49
0.0
 49
0.0
 49
0.0
 49
1.0
175
     0
142
0.0208333333333333
142
0.0
142
0.0
142
0.0
142
0.0
142
0.0208333333333333
142
0.0
142
0.0
142
0.0
142
0.0
142
1.0
142
0.0
142
0.0
142
0.0
142
0.0
142
1.0
179
     0
144
0.0208333333333333
144
0.0
144
0.0
144
0.0
144
0.0
144
0.0208333333333333
144
0.0
144
0.0
144
0.0
144
0.0
144
1.0
144
0.0
144
0.0
144
0.0
144
0.0
144
1.0
147
0.0208333333333333
147
0.0
147
0.0
147
0.0
147
0.0
147
0.0208333333333333
147
0.0
147
0.0
147
0.0
147
0.0
147
1.0
147
0.0
147
0.0
147
0.0
147
0.0
147
1.0
  0
MATERIAL
  5
BB
102
{ACAD_XDICTIONARY
360
BC
102
}
102
{ACAD_REACTORS
330
AA
102
}
330
AA
100
AcDbMaterial
  1
Global
 72
     0
 43
0.0208333333333333
 43
0.0
 43
0.0
 43
0.0
 43
0.0
 43
0.0208333333333333
 43
0.0
 43
0.0
 43
0.0
 43
0.0
 43
1.0
 43
0.0
 43
0.0
 43
0.0
 43
0.0
 43
1.0
 77
     0
 47
0.0208333333333333
 47
0.0
 47
0.0
 47
0.0
 47
0.0
 47
0.0208333333333333
 47
0.0
 47
0.0
 47
0.0
 47
0.0
 47
1.0
 47
0.0
 47
0.0
 47
0.0
 47
0.0
 47
1.0
171
     0
 49
0.0208333333333333
 49
0.0
 49
0.0
 49
0.0
 49
0.0
 49
0.0208333333333333
 49
0.0
 49
0.0
 49
0.0
 49
0.0
 49
1.0
 49
0.0
 49
0.0
 49
0.0
 49
0.0
 49
1.0
175
     0
142
0.0208333333333333
142
0.0
142
0.0
142
0.0
142
0.0
142
0.0208333333333333
142
0.0
142
0.0
142
0.0
142
0.0
142
1.0
142
0.0
142
0.0
142
0.0
142
0.0
142
1.0
179
     0
144
0.0208333333333333
144
0.0
144
0.0
144
0.0
144
0.0
144
0.0208333333333333
144
0.0
144
0.0
144
0.0
144
0.0
144
1.0
144
0.0
144
0.0
144
0.0
144
0.0
144
1.0
147
0.0208333333333333
147
0.0
147
0.0
147
0.0
147
0.0
147
0.0208333333333333
147
0.0
147
0.0
147
0.0
147
0.0
147
1.0
147
0.0
147
0.0
147
0.0
147
0.0
147
1.0
  0
MLEADERSTYLE
  5
F2
102
{ACAD_XDICTIONARY
360
18F
102
}
102
{ACAD_REACTORS
330
F1
102
}
330
F1
100
AcDbMLeaderStyle
179
     2
170
     2
171
     1
172
     0
 90
        2
 40
0.0
 41
0.0
173
     1
 91
-1056964608
340
14
 92
       -2
290
     1
 42
0.09
291
     1
 43
0.36
  3
Standard
 44
0.18
300

342
11
174
     1
178
     6
175
     1
176
     0
 93
-1056964608
 45
0.18
292
     0
297
     0
 46
0.18
 94
-1056964608
 47
1.0
 49
1.0
140
1.0
293
     1
141
0.0
294
     1
177
     0
142
1.0
295
     0
296
     0
143
0.125
271
     0
272
     9
273
     9
  0
MLINESTYLE
  5
18
102
{ACAD_REACTORS
330
17
102
}
330
17
100
AcDbMlineStyle
  2
STANDARD
 70
     0
  3

 62
   256
 51
90.0
 52
90.0
 71
     2
 49
0.5
 62
   256
  6
BYLAYER
 49
-0.5
 62
   256
  6
BYLAYER
  0
ACDBPLACEHOLDER
  5
2D
102
{ACAD_REACTORS
330
E
102
}
330
E
  0
ACDBPLACEHOLDER
  5
F
102
{ACAD_REACTORS
330
E
102
}
330
E
  0
SCALE
  5
E0
102
{ACAD_REACTORS
330
DF
102
}
330
DF
100
AcDbScale
 70
     0
300
1:1
140
1.0
141
1.0
290
     1
  0
SCALE
  5
E1
102
{ACAD_REACTORS
330
DF
102
}
330
DF
100
AcDbScale
 70
     0
300
1/128" = 1'-0"
140
0.0078125
141
12.0
290
     0
  0
SCALE
  5
E2
102
{ACAD_REACTORS
330
DF
102
}
330
DF
100
AcDbScale
 70
     0
300
1/64" = 1'-0"
140
0.015625
141
12.0
290
     0
  0
SCALE
  5
E3
102
{ACAD_REACTORS
330
DF
102
}
330
DF
100
AcDbScale
 70
     0
300
1/32" = 1'-0"
140
0.03125
141
12.0
290
     0
  0
SCALE
  5
E4
102
{ACAD_REACTORS
330
DF
102
}
330
DF
100
AcDbScale
 70
     0
300
1/16" = 1'-0"
140
0.0625
141
12.0
290
     0
  0
SCALE
  5
E5
102
{ACAD_REACTORS
330
DF
102
}
330
DF
100
AcDbScale
 70
     0
300
3/32" = 1'-0"
140
0.09375
141
12.0
290
     0
  0
SCALE
  5
E6
102
{ACAD_REACTORS
330
DF
102
}
330
DF
100
AcDbScale
 70
     0
300
1/8" = 1'-0"
140
0.125
141
12.0
290
     0
  0
SCALE
  5
E7
102
{ACAD_REACTORS
330
DF
102
}
330
DF
100
AcDbScale
 70
     0
300
3/16" = 1'-0"
140
0.1875
141
12.0
290
     0
  0
SCALE
  5
E8
102
{ACAD_REACTORS
330
DF
102
}
330
DF
100
AcDbScale
 70
     0
300
1/4" = 1'-0"
140
0.25
141
12.0
290
     0
  0
SCALE
  5
E9
102
{ACAD_REACTORS
330
DF
102
}
330
DF
100
AcDbScale
 70
     0
300
3/8" = 1'-0"
140
0.375
141
12.0
290
     0
  0
SCALE
  5
EA
102
{ACAD_REACTORS
330
DF
102
}
330
DF
100
AcDbScale
 70
     0
300
1/2" = 1'-0"
140
0.5
141
12.0
290
     0
  0
SCALE
  5
EB
102
{ACAD_REACTORS
330
DF
102
}
330
DF
100
AcDbScale
 70
     0
300
3/4" = 1'-0"
140
0.75
141
12.0
290
     0
  0
SCALE
  5
EC
102
{ACAD_REACTORS
330
DF
102
}
330
DF
100
AcDbScale
 70
     0
300
1" = 1'-0"
140
1.0
141
12.0
290
     0
  0
SCALE
  5
ED
102
{ACAD_REACTORS
330
DF
102
}
330
DF
100
AcDbScale
 70
     0
300
1-1/2" = 1'-0"
140
1.5
141
12.0
290
     0
  0
SCALE
  5
EE
102
{ACAD_REACTORS
330
DF
102
}
330
DF
100
AcDbScale
 70
     0
300
3" = 1'-0"
140
3.0
141
12.0
290
     0
  0
SCALE
  5
EF
102
{ACAD_REACTORS
330
DF
102
}
330
DF
100
AcDbScale
 70
     0
300
6" = 1'-0"
140
6.0
141
12.0
290
     0
  0
SCALE
  5
F0
102
{ACAD_REACTORS
330
DF
102
}
330
DF
100
AcDbScale
 70
     0
300
1'-0" = 1'-0"
140
12.0
141
12.0
290
     0
  0
ACDBSECTIONVIEWSTYLE
  5
F4
102
{ACAD_XDICTIONARY
360
191
102
}
102
{ACAD_REACTORS
330
F3
102
}
330
F3
100
AcDbModelDocViewStyle
 70
     0
  3
Imperial24
290
     0
100
AcDbSectionViewStyle
 70
     0
 71
     0
 90
       78
 71
     1
340
11
 62
   256
 40
0.24
340
0
340
0
 62
   256
 40
0.24
300
I, O, Q, S, X, Z
 40
0.48
 90
        3
 40
0.18
 90
        1
 71
     2
340
16
 90
       25
 62
   256
340
16
 90
       50
 62
   256
 40
0.24
 40
0.0
 40
0.24
 71
     3
340
11
 62
   256
 40
0.24
 90
        1
 40
0.75
 90
        1
300
%<\AcVar ViewType \f "%tc1">% %<\AcVar ViewSectionStartId>%-%<\AcVar ViewSectionEndId>%\PSCALE %<\AcVar ViewScale \f "%sn">%
 71
     4
 62
   256
 62
   257
300
ANSI31
 40
1.0
 90
        0
290
     0
290
     0
 90
        6
 40
0.0
 40
1.570796326794896
 40
0.2617993877991494
 40
1.308996938995747
 40
-0.2617993877991494
 40
1.832595714594046
  0
TABLESTYLE
  5
DE
102
{ACAD_XDICTIONARY
360
15C
102
}
102
{ACAD_REACTORS
330
DD
102
}
330
DD
100
AcDbTableStyle
280
     0
  3
Standard
 70
     0
 71
     0
 40
0.06
 41
0.06
280
     0
281
     0
  7
Standard
140
0.18
170
     2
 62
     0
 63
     7
283
     0
 90
      512
 91
        0
  1

274
    -2
284
     1
 64
     0
275
    -2
285
     1
 65
     0
276
    -2
286
     1
 66
     0
277
    -2
287
     1
 67
     0
278
    -2
288
     1
 68
     0
279
    -2
289
     1
 69
     0
  7
Standard
140
0.25
170
     5
 62
     0
 63
     7
283
     0
 90
      512
 91
        0
  1

274
    -2
284
     1
 64
     0
275
    -2
285
     1
 65
     0
276
    -2
286
     1
 66
     0
277
    -2
287
     1
 67
     0
278
    -2
288
     1
 68
     0
279
    -2
289
     1
 69
     0
  7
Standard
140
0.18
170
     5
 62
     0
 63
     7
283
     0
 90
      512
 91
        0
  1

274
    -2
284
     1
 64
     0
275
    -2
285
     1
 65
     0
276
    -2
286
     1
 66
     0
277
    -2
287
     1
 67
     0
278
    -2
288
     1
 68
     0
279
    -2
289
     1
 69
     0
  0
VISUALSTYLE
  5
C9
102
{ACAD_XDICTIONARY
360
169
102
}
102
{ACAD_REACTORS
330
C3
102
}
330
C3
100
AcDbVisualStyle
  2
2dWireframe
 70
     4
177
     2
291
     0
 71
     0
176
     1
 72
     2
176
     1
 73
     0
176
     1
 90
        0
176
     1
 40
0.6
176
     1
 41
30.0
176
     1
 63
     7
421
 16777215
176
     1
 74
     1
176
     1
 91
        4
176
     1
 64
     7
176
     1
 65
   257
176
     1
 75
     1
176
     1
175
     1
176
     1
 42
1.0
176
     1
 92
        0
176
     1
 66
   257
176
     1
 43
1.0
176
     1
 76
     1
176
     1
 77
     6
176
     1
 78
     2
176
     1
 67
     7
176
     1
 79
     5
176
     1
170
     0
176
     1
171
     0
176
     1
290
     0
176
     1
 93
        1
176
     1
 44
0.0
176
     1
173
     0
176
     1
1001
ACAD
1000
AcDbSavedByObjectVersion
1070
     0
  0
VISUALSTYLE
  5
C8
102
{ACAD_XDICTIONARY
360
167
102
}
102
{ACAD_REACTORS
330
C3
102
}
330
C3
100
AcDbVisualStyle
  2
Basic
 70
     7
177
     2
291
     1
 71
     1
176
     1
 72
     0
176
     1
 73
     1
176
     1
 90
        0
176
     1
 40
0.6
176
     1
 41
30.0
176
     1
 63
     7
421
 16777215
176
     1
 74
     0
176
     1
 91
        4
176
     1
 64
     7
176
     1
 65
   257
176
     1
 75
     1
176
     1
175
     1
176
     1
 42
1.0
176
     1
 92
        8
176
     1
 66
     7
176
     1
 43
1.0
176
     1
 76
     1
176
     1
 77
     6
176
     1
 78
     2
176
     1
 67
     7
176
     1
 79
     5
176
     1
170
     0
176
     1
171
     0
176
     1
290
     0
176
     1
 93
        1
176
     1
 44
0.0
176
     1
173
     0
176
     1
1001
ACAD
1000
AcDbSavedByObjectVersion
1070
     0
  0
VISUALSTYLE
  5
CF
102
{ACAD_XDICTIONARY
360
175
102
}
102
{ACAD_REACTORS
330
C3
102
}
330
C3
100
AcDbVisualStyle
  2
Brighten
 70
    12
177
     2
291
     1
 71
     2
176
     1
 72
     2
176
     1
 73
     0
176
     1
 90
        0
176
     1
 40
0.6
176
     1
 41
30.0
176
     1
 63
     7
421
 16777215
176
     1
 74
     1
176
     1
 91
        4
176
     1
 64
     7
176
     1
 65
   257
176
     1
 75
     1
176
     1
175
     1
176
     1
 42
1.0
176
     1
 92
        8
176
     1
 66
     7
176
     1
 43
1.0
176
     1
 76
     1
176
     1
 77
     6
176
     1
 78
     2
176
     1
 67
     7
176
     1
 79
     5
176
     1
170
     0
176
     1
171
     0
176
     1
290
     0
176
     1
 93
        1
176
     1
 44
50.0
176
     1
173
     0
176
     1
1001
ACAD
1000
AcDbSavedByObjectVersion
1070
     0
  0
VISUALSTYLE
  5
D3
102
{ACAD_XDICTIONARY
360
17D
102
}
102
{ACAD_REACTORS
330
C3
102
}
330
C3
100
AcDbVisualStyle
  2
ColorChange
 70
    16
177
     2
291
     1
 71
     2
176
     1
 72
     2
176
     1
 73
     3
176
     1
 90
        0
176
     1
 40
0.6
176
     1
 41
30.0
176
     1
 63
     8
421
  8421504
176
     1
 74
     1
176
     1
 91
        4
176
     1
 64
     7
176
     1
 65
   257
176
     1
 75
     1
176
     1
175
     1
176
     1
 42
1.0
176
     1
 92
        8
176
     1
 66
     8
424
  8421504
176
     1
 43
1.0
176
     1
 76
     1
176
     1
 77
     6
176
     1
 78
     2
176
     1
 67
     7
176
     1
 79
     5
176
     1
170
     0
176
     1
171
     0
176
     1
290
     0
176
     1
 93
        1
176
     1
 44
0.0
176
     1
173
     0
176
     1
1001
ACAD
1000
AcDbSavedByObjectVersion
1070
     0
  0
VISUALSTYLE
  5
CC
102
{ACAD_XDICTIONARY
360
16F
102
}
102
{ACAD_REACTORS
330
C3
102
}
330
C3
100
AcDbVisualStyle
  2
Conceptual
 70
     9
177
     2
291
     0
 71
     3
176
     1
 72
     2
176
     1
 73
     0
176
     1
 90
        0
176
     1
 40
0.6
176
     1
 41
30.0
176
     1
 63
     7
421
 16777215
176
     1
 74
     2
176
     1
 91
        2
176
     1
 64
     7
176
     1
 65
   257
176
     1
 75
     1
176
     1
175
     1
176
     1
 42
179.0
176
     1
 92
        8
176
     1
 66
     7
176
     1
 43
1.0
176
     1
 76
     1
176
     1
 77
     6
176
     1
 78
     2
176
     1
 67
     7
176
     1
 79
     3
176
     1
170
     0
176
     1
171
     0
176
     1
290
     0
176
     1
 93
        1
176
     1
 44
0.0
176
     1
173
     0
176
     1
1001
ACAD
1000
AcDbSavedByObjectVersion
1070
     0
  0
VISUALSTYLE
  5
CE
102
{ACAD_XDICTIONARY
360
173
102
}
102
{ACAD_REACTORS
330
C3
102
}
330
C3
100
AcDbVisualStyle
  2
Dim
 70
    11
177
     2
291
     1
 71
     2
176
     1
 72
     2
176
     1
 73
     0
176
     1
 90
        0
176
     1
 40
0.6
176
     1
 41
30.0
176
     1
 63
     7
421
 16777215
176
     1
 74
     1
176
     1
 91
        4
176
     1
 64
     7
176
     1
 65
   257
176
     1
 75
     1
176
     1
175
     1
176
     1
 42
1.0
176
     1
 92
        8
176
     1
 66
     7
176
     1
 43
1.0
176
     1
 76
     1
176
     1
 77
     6
176
     1
 78
     2
176
     1
 67
     7
176
     1
 79
     5
176
     1
170
     0
176
     1
171
     0
176
     1
290
     0
176
     1
 93
        1
176
     1
 44
-50.0
176
     1
173
     0
176
     1
1001
ACAD
1000
AcDbSavedByObjectVersion
1070
     0
  0
VISUALSTYLE
  5
DB
102
{ACAD_XDICTIONARY
360
18D
102
}
102
{ACAD_REACTORS
330
C3
102
}
330
C3
100
AcDbVisualStyle
  2
EdgeColorOff
 70
    22
177
     2
291
     1
 71
     2
176
     0
 72
     2
176
     0
 73
     0
176
     0
 90
        0
176
     0
 40
0.6
176
     0
 41
30.0
176
     0
 63
     7
421
 16777215
176
     0
 74
     1
176
     0
 91
        4
176
     0
 64
     7
176
     0
 65
   257
176
     0
 75
     1
176
     0
175
     1
176
     0
 42
1.0
176
     0
 92
        8
176
     2
 66
     7
176
     0
 43
1.0
176
     0
 76
     1
176
     0
 77
     6
176
     0
 78
     2
176
     0
 67
     7
176
     0
 79
     5
176
     0
170
     0
176
     0
171
     0
176
     0
290
     0
176
     0
 93
        1
176
     0
 44
0.0
176
     0
173
     0
176
     0
1001
ACAD
1000
AcDbSavedByObjectVersion
1070
     0
  0
VISUALSTYLE
  5
D2
102
{ACAD_XDICTIONARY
360
17B
102
}
102
{ACAD_REACTORS
330
C3
102
}
330
C3
100
AcDbVisualStyle
  2
Facepattern
 70
    15
177
     2
291
     1
 71
     2
176
     1
 72
     2
176
     1
 73
     0
176
     1
 90
        0
176
     1
 40
0.6
176
     1
 41
30.0
176
     1
 63
     7
421
 16777215
176
     1
 74
     1
176
     1
 91
        4
176
     1
 64
     7
176
     1
 65
   257
176
     1
 75
     1
176
     1
175
     1
176
     1
 42
1.0
176
     1
 92
        8
176
     1
 66
     7
176
     1
 43
1.0
176
     1
 76
     1
176
     1
 77
     6
176
     1
 78
     2
176
     1
 67
     7
176
     1
 79
     5
176
     1
170
     0
176
     1
171
     0
176
     1
290
     0
176
     1
 93
        1
176
     1
 44
0.0
176
     1
173
     0
176
     1
1001
ACAD
1000
AcDbSavedByObjectVersion
1070
     0
  0
VISUALSTYLE
  5
C4
102
{ACAD_XDICTIONARY
360
15F
102
}
102
{ACAD_REACTORS
330
C3
102
}
330
C3
100
AcDbVisualStyle
  2
Flat
 70
     0
177
     2
291
     1
 71
     2
176
     1
 72
     1
176
     1
 73
     1
176
     1
 90
        2
176
     1
 40
0.6
176
     1
 41
30.0
176
     1
 63
     7
421
 16777215
176
     1
 74
     0
176
     1
 91
        0
176
     1
 64
     7
176
     1
 65
   257
176
     1
 75
     1
176
     1
175
     1
176
     1
 42
1.0
176
     1
 92
        8
176
     1
 66
     7
176
     1
 43
1.0
176
     1
 76
     1
176
     1
 77
     6
176
     1
 78
     2
176
     1
 67
     7
176
     1
 79
     5
176
     1
170
     0
176
     1
171
     0
176
     1
290
     0
176
     1
 93
       13
176
     1
 44
0.0
176
     1
173
     0
176
     1
1001
ACAD
1000
AcDbSavedByObjectVersion
1070
     0
  0
VISUALSTYLE
  5
C5
102
{ACAD_XDICTIONARY
360
161
102
}
102
{ACAD_REACTORS
330
C3
102
}
330
C3
100
AcDbVisualStyle
  2
FlatWithEdges
 70
     1
177
     2
291
     1
 71
     2
176
     1
 72
     1
176
     1
 73
     1
176
     1
 90
        2
176
     1
 40
0.6
176
     1
 41
30.0
176
     1
 63
     7
421
 16777215
176
     1
 74
     1
176
     1
 91
        0
176
     1
 64
     7
176
     1
 65
   257
176
     1
 75
     1
176
     1
175
     1
176
     1
 42
1.0
176
     1
 92
        0
176
     1
 66
   257
176
     1
 43
1.0
176
     1
 76
     1
176
     1
 77
     6
176
     1
 78
     2
176
     1
 67
     7
176
     1
 79
     5
176
     1
170
     0
176
     1
171
     0
176
     1
290
     0
176
     1
 93
       13
176
     1
 44
0.0
176
     1
173
     0
176
     1
1001
ACAD
1000
AcDbSavedByObjectVersion
1070
     0
  0
VISUALSTYLE
  5
C6
102
{ACAD_XDICTIONARY
360
163
102
}
102
{ACAD_REACTORS
330
C3
102
}
330
C3
100
AcDbVisualStyle
  2
Gouraud
 70
     2
177
     2
291
     1
 71
     2
176
     1
 72
     2
176
     1
 73
     1
176
     1
 90
        2
176
     1
 40
0.6
176
     1
 41
30.0
176
     1
 63
     7
421
 16777215
176
     1
 74
     0
176
     1
 91
        0
176
     1
 64
     7
176
     1
 65
   257
176
     1
 75
     1
176
     1
175
     1
176
     1
 42
1.0
176
     1
 92
        0
176
     1
 66
     7
176
     1
 43
1.0
176
     1
 76
     1
176
     1
 77
     6
176
     1
 78
     2
176
     1
 67
     7
176
     1
 79
     5
176
     1
170
     0
176
     1
171
     0
176
     1
290
     0
176
     1
 93
       13
176
     1
 44
0.0
176
     1
173
     0
176
     1
1001
ACAD
1000
AcDbSavedByObjectVersion
1070
     0
  0
VISUALSTYLE
  5
C7
102
{ACAD_XDICTIONARY
360
165
102
}
102
{ACAD_REACTORS
330
C3
102
}
330
C3
100
AcDbVisualStyle
  2
GouraudWithEdges
 70
     3
177
     2
291
     1
 71
     2
176
     1
 72
     2
176
     1
 73
     1
176
     1
 90
        2
176
     1
 40
0.6
176
     1
 41
30.0
176
     1
 63
     7
421
 16777215
176
     1
 74
     1
176
     1
 91
        0
176
     1
 64
     7
176
     1
 65
   257
176
     1
 75
     1
176
     1
175
     1
176
     1
 42
1.0
176
     1
 92
        0
176
     1
 66
   257
176
     1
 43
1.0
176
     1
 76
     1
176
     1
 77
     6
176
     1
 78
     2
176
     1
 67
     7
176
     1
 79
     5
176
     1
170
     0
176
     1
171
     0
176
     1
290
     0
176
     1
 93
       13
176
     1
 44
0.0
176
     1
173
     0
176
     1
1001
ACAD
1000
AcDbSavedByObjectVersion
1070
     0
  0
VISUALSTYLE
  5
CB
102
{ACAD_XDICTIONARY
360
16D
102
}
102
{ACAD_REACTORS
330
C3
102
}
330
C3
100
AcDbVisualStyle
  2
Hidden
 70
     6
177
     2
291
     0
 71
     1
176
     1
 72
     2
176
     1
 73
     2
176
     1
 90
        0
176
     1
 40
0.6
176
     1
 41
30.0
176
     1
 63
     7
421
 16777215
176
     1
 74
     2
176
     1
 91
        2
176
     1
 64
     7
176
     1
 65
   257
176
     1
 75
     2
176
     1
175
     1
176
     1
 42
40.0
176
     1
 92
        0
176
     1
 66
   257
176
     1
 43
1.0
176
     1
 76
     1
176
     1
 77
     6
176
     1
 78
     2
176
     1
 67
     7
176
     1
 79
     3
176
     1
170
     0
176
     1
171
     0
176
     1
290
     0
176
     1
 93
        1
176
     1
 44
0.0
176
     1
173
     0
176
     1
1001
ACAD
1000
AcDbSavedByObjectVersion
1070
     0
  0
VISUALSTYLE
  5
D9
102
{ACAD_XDICTIONARY
360
189
102
}
102
{ACAD_REACTORS
330
C3
102
}
330
C3
100
AcDbVisualStyle
  2
JitterOff
 70
    20
177
     2
291
     1
 71
     2
176
     0
 72
     2
176
     0
 73
     0
176
     0
 90
        0
176
     0
 40
0.6
176
     0
 41
30.0
176
     0
 63
     7
421
 16777215
176
     0
 74
     1
176
     0
 91
        4
176
     0
 64
     7
176
     0
 65
   257
176
     0
 75
     1
176
     0
175
     1
176
     0
 42
1.0
176
     0
 92
       10
176
     2
 66
     7
176
     0
 43
1.0
176
     0
 76
     1
176
     0
 77
     6
176
     0
 78
     2
176
     0
 67
     7
176
     0
 79
     5
176
     0
170
     0
176
     0
171
     0
176
     0
290
     0
176
     0
 93
        1
176
     0
 44
0.0
176
     0
173
     0
176
     0
1001
ACAD
1000
AcDbSavedByObjectVersion
1070
     0
  0
VISUALSTYLE
  5
D1
102
{ACAD_XDICTIONARY
360
179
102
}
102
{ACAD_REACTORS
330
C3
102
}
330
C3
100
AcDbVisualStyle
  2
Linepattern
 70
    14
177
     2
291
     1
 71
     2
176
     1
 72
     2
176
     1
 73
     0
176
     1
 90
        0
176
     1
 40
0.6
176
     1
 41
30.0
176
     1
 63
     7
421
 16777215
176
     1
 74
     1
176
     1
 91
        4
176
     1
 64
     7
176
     1
 65
   257
176
     1
 75
     7
176
     1
175
     7
176
     1
 42
1.0
176
     1
 92
        8
176
     1
 66
     7
176
     1
 43
1.0
176
     1
 76
     1
176
     1
 77
     6
176
     1
 78
     2
176
     1
 67
     7
176
     1
 79
     5
176
     1
170
     0
176
     1
171
     0
176
     1
290
     0
176
     1
 93
        1
176
     1
 44
0.0
176
     1
173
     0
176
     1
1001
ACAD
1000
AcDbSavedByObjectVersion
1070
     0
  0
VISUALSTYLE
  5
DA
102
{ACAD_XDICTIONARY
360
18B
102
}
102
{ACAD_REACTORS
330
C3
102
}
330
C3
100
AcDbVisualStyle
  2
OverhangOff
 70
    21
177
     2
291
     1
 71
     2
176
     0
 72
     2
176
     0
 73
     0
176
     0
 90
        0
176
     0
 40
0.6
176
     0
 41
30.0
176
     0
 63
     7
421
 16777215
176
     0
 74
     1
176
     0
 91
        4
176
     0
 64
     7
176
     0
 65
   257
176
     0
 75
     1
176
     0
175
     1
176
     0
 42
1.0
176
     0
 92
        9
176
     2
 66
     7
176
     0
 43
1.0
176
     0
 76
     1
176
     0
 77
     6
176
     0
 78
     2
176
     0
 67
     7
176
     0
 79
     5
176
     0
170
     0
176
     0
171
     0
176
     0
290
     0
176
     0
 93
        1
176
     0
 44
0.0
176
     0
173
     0
176
     0
1001
ACAD
1000
AcDbSavedByObjectVersion
1070
     0
  0
VISUALSTYLE
  5
CD
102
{ACAD_XDICTIONARY
360
171
102
}
102
{ACAD_REACTORS
330
C3
102
}
330
C3
100
AcDbVisualStyle
  2
Realistic
 70
     8
177
     2
291
     0
 71
     2
176
     1
 72
     3
176
     1
 73
     0
176
     1
 90
        2
176
     1
 40
0.6
176
     1
 41
30.0
176
     1
 63
     7
421
 16777215
176
     1
 74
     0
176
     1
 91
        0
176
     1
 64
     7
176
     1
 65
   257
176
     1
 75
     1
176
     1
175
     1
176
     1
 42
1.0
176
     1
 92
        8
176
     1
 66
   257
176
     1
 43
1.0
176
     1
 76
     1
176
     1
 77
     6
176
     1
 78
     2
176
     1
 67
     7
176
     1
 79
     3
176
     1
170
     0
176
     1
171
     0
176
     1
290
     0
176
     1
 93
       13
176
     1
 44
0.0
176
     1
173
     0
176
     1
1001
ACAD
1000
AcDbSavedByObjectVersion
1070
     0
  0
VISUALSTYLE
  5
D8
102
{ACAD_XDICTIONARY
360
187
102
}
102
{ACAD_REACTORS
330
C3
102
}
330
C3
100
AcDbVisualStyle
  2
Shaded
 70
    27
177
     2
291
     0
 71
     2
176
     1
 72
     2
176
     1
 73
     1
176
     1
 90
        2
176
     1
 40
0.6
176
     1
 41
30.0
176
     1
 63
     7
421
 16777215
176
     1
 74
     0
176
     1
 91
        4
176
     1
 64
     7
176
     1
 65
   257
176
     1
 75
     1
176
     1
175
     1
176
     1
 42
1.0
176
     1
 92
        8
176
     1
 66
   257
176
     1
 43
1.0
176
     1
 76
     1
176
     1
 77
     6
176
     1
 78
     2
176
     1
 67
     8
425
  7895160
176
     1
 79
     3
176
     1
170
     0
176
     1
171
     0
176
     1
290
     0
176
     1
 93
        5
176
     1
 44
0.0
176
     1
173
     0
176
     1
1001
ACAD
1000
AcDbSavedByObjectVersion
1070
     0
  0
VISUALSTYLE
  5
D7
102
{ACAD_XDICTIONARY
360
185
102
}
102
{ACAD_REACTORS
330
C3
102
}
330
C3
100
AcDbVisualStyle
  2
Shaded with edges
 70
    26
177
     2
291
     0
 71
     2
176
     1
 72
     2
176
     1
 73
     1
176
     1
 90
        2
176
     1
 40
0.6
176
     1
 41
30.0
176
     1
 63
     7
421
 16777215
176
     1
 74
     1
176
     1
 91
       10
176
     1
 64
     7
176
     1
 65
   257
176
     1
 75
     2
176
     1
175
     1
176
     1
 42
1.0
176
     1
 92
        8
176
     1
 66
   257
176
     1
 43
1.0
176
     1
 76
     1
176
     1
 77
     6
176
     1
 78
     2
176
     1
 67
     7
176
     1
 79
     3
176
     1
170
     0
176
     1
171
     0
176
     1
290
     0
176
     1
 93
        5
176
     1
 44
0.0
176
     1
173
     0
176
     1
1001
ACAD
1000
AcDbSavedByObjectVersion
1070
     0
  0
VISUALSTYLE
  5
D4
102
{ACAD_XDICTIONARY
360
17F
102
}
102
{ACAD_REACTORS
330
C3
102
}
330
C3
100
AcDbVisualStyle
  2
Shades of Gray
 70
    23
177
     2
291
     0
 71
     2
176
     1
 72
     2
176
     1
 73
     3
176
     1
 90
        0
176
     1
 40
0.6
176
     1
 41
30.0
176
     1
 63
     7
421
 16777215
176
     1
 74
     2
176
     1
 91
        2
176
     1
 64
     7
176
     1
 65
     7
176
     1
 75
     1
176
     1
175
     1
176
     1
 42
40.0
176
     1
 92
        8
176
     1
 66
     7
176
     1
 43
1.0
176
     1
 76
     1
176
     1
 77
     6
176
     1
 78
     2
176
     1
 67
     7
176
     1
 79
     3
176
     1
170
     0
176
     1
171
     0
176
     1
290
     0
176
     1
 93
        1
176
     1
 44
0.0
176
     1
173
     0
176
     1
1001
ACAD
1000
AcDbSavedByObjectVersion
1070
     0
  0
VISUALSTYLE
  5
D5
102
{ACAD_XDICTIONARY
360
181
102
}
102
{ACAD_REACTORS
330
C3
102
}
330
C3
100
AcDbVisualStyle
  2
Sketchy
 70
    24
177
     2
291
     0
 71
     1
176
     1
 72
     2
176
     1
 73
     2
176
     1
 90
        0
176
     1
 40
0.6
176
     1
 41
30.0
176
     1
 63
     7
421
 16777215
176
     1
 74
     2
176
     1
 91
        2
176
     1
 64
     7
176
     1
 65
     7
176
     1
 75
     1
176
     1
175
     1
176
     1
 42
40.0
176
     1
 92
       11
176
     1
 66
     7
176
     1
 43
1.0
176
     1
 76
     1
176
     1
 77
     6
176
     1
 78
     2
176
     1
 67
     7
176
     1
 79
     6
176
     1
170
     0
176
     1
171
     0
176
     1
290
     0
176
     1
 93
        1
176
     1
 44
0.0
176
     1
173
     0
176
     1
1001
ACAD
1000
AcDbSavedByObjectVersion
1070
     0
  0
VISUALSTYLE
  5
D0
102
{ACAD_XDICTIONARY
360
177
102
}
102
{ACAD_REACTORS
330
C3
102
}
330
C3
100
AcDbVisualStyle
  2
Thicken
 70
    13
177
     2
291
     1
 71
     2
176
     1
 72
     2
176
     1
 73
     0
176
     1
 90
        0
176
     1
 40
0.6
176
     1
 41
30.0
176
     1
 63
     7
421
 16777215
176
     1
 74
     1
176
     1
 91
        4
176
     1
 64
     7
176
     1
 65
   257
176
     1
 75
     1
176
     1
175
     1
176
     1
 42
1.0
176
     1
 92
       12
176
     1
 66
     7
176
     1
 43
1.0
176
     1
 76
     1
176
     1
 77
     6
176
     1
 78
     2
176
     1
 67
     7
176
     1
 79
     5
176
     1
170
     0
176
     1
171
     0
176
     1
290
     0
176
     1
 93
        1
176
     1
 44
0.0
176
     1
173
     0
176
     1
1001
ACAD
1000
AcDbSavedByObjectVersion
1070
     0
  0
VISUALSTYLE
  5
CA
102
{ACAD_XDICTIONARY
360
16B
102
}
102
{ACAD_REACTORS
330
C3
102
}
330
C3
100
AcDbVisualStyle
  2
Wireframe
 70
     5
177
     2
291
     0
 71
     0
176
     1
 72
     2
176
     1
 73
     0
176
     1
 90
        0
176
     1
 40
0.6
176
     1
 41
30.0
176
     1
 63
     7
421
 16777215
176
     1
 74
     1
176
     1
 91
        4
176
     1
 64
     7
176
     1
 65
   257
176
     1
 75
     1
176
     1
175
     1
176
     1
 42
1.0
176
     1
 92
        0
176
     1
 66
   257
176
     1
 43
1.0
176
     1
 76
     1
176
     1
 77
     6
176
     1
 78
     2
176
     1
 67
     7
176
     1
 79
     3
176
     1
170
     0
176
     1
171
     0
176
     1
290
     0
176
     1
 93
        1
176
     1
 44
0.0
176
     1
173
     0
176
     1
1001
ACAD
1000
AcDbSavedByObjectVersion
1070
     0
  0
VISUALSTYLE
  5
D6
102
{ACAD_XDICTIONARY
360
183
102
}
102
{ACAD_REACTORS
330
C3
102
}
330
C3
100
AcDbVisualStyle
  2
X-Ray
 70
    25
177
     2
291
     0
 71
     2
176
     1
 72
     2
176
     1
 73
     1
176
     1
 90
        1
176
     1
 40
0.5
176
     1
 41
30.0
176
     1
 63
     7
421
 16777215
176
     1
 74
     1
176
     1
 91
        0
176
     1
 64
     7
176
     1
 65
   257
176
     1
 75
     1
176
     1
175
     1
176
     1
 42
1.0
176
     1
 92
        8
176
     1
 66
     7
176
     1
 43
1.0
176
     1
 76
     1
176
     1
 77
     6
176
     1
 78
     2
176
     1
 67
     7
176
     1
 79
     3
176
     1
170
     0
176
     1
171
     0
176
     1
290
     0
176
     1
 93
       13
176
     1
 44
0.0
176
     1
173
     0
176
     1
1001
ACAD
1000
AcDbSavedByObjectVersion
1070
     0
  0
DICTIONARYVAR
  5
158
102
{ACAD_REACTORS
330
152
102
}
330
152
100
DictionaryVariables
280
     0
  1
1:1
  0
DICTIONARYVAR
  5
154
102
{ACAD_REACTORS
330
152
102
}
330
152
100
DictionaryVariables
280
     0
  1
STANDARD
  0
DICTIONARYVAR
  5
153
102
{ACAD_REACTORS
330
152
102
}
330
152
100
DictionaryVariables
280
     0
  1
STANDARD
  0
DICTIONARYVAR
  5
155
102
{ACAD_REACTORS
330
152
102
}
330
152
100
DictionaryVariables
280
     0
  1
Imperial24
  0
DICTIONARYVAR
  5
156
102
{ACAD_REACTORS
330
152
102
}
330
152
100
DictionaryVariables
280
     0
  1
Imperial24
  0
DICTIONARYVAR
  5
15A
102
{ACAD_REACTORS
330
152
102
}
330
152
100
DictionaryVariables
280
     0
  1
1
  0
DICTIONARYVAR
  5
15B
102
{ACAD_REACTORS
330
152
102
}
330
152
100
DictionaryVariables
280
     0
  1
15
  0
DICTIONARYVAR
  5
159
102
{ACAD_REACTORS
330
152
102
}
330
152
100
DictionaryVariables
280
     0
  1
0
  0
DICTIONARYVAR
  5
157
102
{ACAD_REACTORS
330
152
102
}
330
152
100
DictionaryVariables
280
     0
  1
0
  0
DICTIONARY
  5
193
330
F6
100
AcDbDictionary
280
     1
281
     1
  3
ACAD_XREC_ROUNDTRIP
360
194
  0
DICTIONARY
  5
B4
330
B3
100
AcDbDictionary
280
     1
281
     1
  3
BUMPTILE
360
B6
  3
DIFFUSETILE
360
B5
  3
OPACITYTILE
360
B9
  3
REFLECTIONTILE
360
B8
  3
REFRACTIONTILE
360
BA
  3
SPECULARTILE
360
B7
  0
DICTIONARY
  5
AC
330
AB
100
AcDbDictionary
280
     1
281
     1
  3
BUMPTILE
360
AE
  3
DIFFUSETILE
360
AD
  3
OPACITYTILE
360
B1
  3
REFLECTIONTILE
360
B0
  3
REFRACTIONTILE
360
B2
  3
SPECULARTILE
360
AF
  0
DICTIONARY
  5
BC
330
BB
100
AcDbDictionary
280
     1
281
     1
  3
BUMPTILE
360
BE
  3
DIFFUSETILE
360
BD
  3
OPACITYTILE
360
C1
  3
REFLECTIONTILE
360
C0
  3
REFRACTIONTILE
360
C2
  3
SPECULARTILE
360
BF
  0
DICTIONARY
  5
18F
330
F2
100
AcDbDictionary
280
     1
281
     1
  3
ACAD_XREC_ROUNDTRIP
360
190
  0
DICTIONARY
  5
191
330
F4
100
AcDbDictionary
280
     1
281
     1
  3
ACAD_XREC_ROUNDTRIP
360
192
  0
DICTIONARY
  5
15C
330
DE
100
AcDbDictionary
280
     1
281
     1
  3
ACAD_ROUNDTRIP_2008_TABLESTYLE_CELLSTYLEMAP
360
15D
  0
DICTIONARY
  5
169
330
C9
100
AcDbDictionary
280
     1
281
     1
  3
ACAD_XREC_ROUNDTRIP
360
16A
  0
DICTIONARY
  5
167
330
C8
100
AcDbDictionary
280
     1
281
     1
  3
ACAD_XREC_ROUNDTRIP
360
168
  0
DICTIONARY
  5
175
330
CF
100
AcDbDictionary
280
     1
281
     1
  3
ACAD_XREC_ROUNDTRIP
360
176
  0
DICTIONARY
  5
17D
330
D3
100
AcDbDictionary
280
     1
281
     1
  3
ACAD_XREC_ROUNDTRIP
360
17E
  0
DICTIONARY
  5
16F
330
CC
100
AcDbDictionary
280
     1
281
     1
  3
ACAD_XREC_ROUNDTRIP
360
170
  0
DICTIONARY
  5
173
330
CE
100
AcDbDictionary
280
     1
281
     1
  3
ACAD_XREC_ROUNDTRIP
360
174
  0
DICTIONARY
  5
18D
330
DB
100
AcDbDictionary
280
     1
281
     1
  3
ACAD_XREC_ROUNDTRIP
360
18E
  0
DICTIONARY
  5
17B
330
D2
100
AcDbDictionary
280
     1
281
     1
  3
ACAD_XREC_ROUNDTRIP
360
17C
  0
DICTIONARY
  5
15F
330
C4
100
AcDbDictionary
280
     1
281
     1
  3
ACAD_XREC_ROUNDTRIP
360
160
  0
DICTIONARY
  5
161
330
C5
100
AcDbDictionary
280
     1
281
     1
  3
ACAD_XREC_ROUNDTRIP
360
162
  0
DICTIONARY
  5
163
330
C6
100
AcDbDictionary
280
     1
281
     1
  3
ACAD_XREC_ROUNDTRIP
360
164
  0
DICTIONARY
  5
165
330
C7
100
AcDbDictionary
280
     1
281
     1
  3
ACAD_XREC_ROUNDTRIP
360
166
  0
DICTIONARY
  5
16D
330
CB
100
AcDbDictionary
280
     1
281
     1
  3
ACAD_XREC_ROUNDTRIP
360
16E
  0
DICTIONARY
  5
189
330
D9
100
AcDbDictionary
280
     1
281
     1
  3
ACAD_XREC_ROUNDTRIP
360
18A
  0
DICTIONARY
  5
179
330
D1
100
AcDbDictionary
280
     1
281
     1
  3
ACAD_XREC_ROUNDTRIP
360
17A
  0
DICTIONARY
  5
18B
330
DA
100
AcDbDictionary
280
     1
281
     1
  3
ACAD_XREC_ROUNDTRIP
360
18C
  0
DICTIONARY
  5
171
330
CD
100
AcDbDictionary
280
     1
281
     1
  3
ACAD_XREC_ROUNDTRIP
360
172
  0
DICTIONARY
  5
187
330
D8
100
AcDbDictionary
280
     1
281
     1
  3
ACAD_XREC_ROUNDTRIP
360
188
  0
DICTIONARY
  5
185
330
D7
100
AcDbDictionary
280
     1
281
     1
  3
ACAD_XREC_ROUNDTRIP
360
186
  0
DICTIONARY
  5
17F
330
D4
100
AcDbDictionary
280
     1
281
     1
  3
ACAD_XREC_ROUNDTRIP
360
180
  0
DICTIONARY
  5
181
330
D5
100
AcDbDictionary
280
     1
281
     1
  3
ACAD_XREC_ROUNDTRIP
360
182
  0
DICTIONARY
  5
177
330
D0
100
AcDbDictionary
280
     1
281
     1
  3
ACAD_XREC_ROUNDTRIP
360
178
  0
DICTIONARY
  5
16B
330
CA
100
AcDbDictionary
280
     1
281
     1
  3
ACAD_XREC_ROUNDTRIP
360
16C
  0
DICTIONARY
  5
183
330
D6
100
AcDbDictionary
280
     1
281
     1
  3
ACAD_XREC_ROUNDTRIP
360
184
  0
XRECORD
  5
194
102
{ACAD_REACTORS
330
193
102
}
330
193
100
AcDbXrecord
280
     1
102
DISPLAYNAME
  1
Imperial24
102
FLAGS
 90
        0
  0
XRECORD
  5
B6
102
{ACAD_REACTORS
330
B4
102
}
330
B4
100
AcDbXrecord
280
     1
270
     1
271
     1
  0
XRECORD
  5
B5
102
{ACAD_REACTORS
330
B4
102
}
330
B4
100
AcDbXrecord
280
     1
270
     1
271
     1
  0
XRECORD
  5
B9
102
{ACAD_REACTORS
330
B4
102
}
330
B4
100
AcDbXrecord
280
     1
270
     1
271
     1
  0
XRECORD
  5
B8
102
{ACAD_REACTORS
330
B4
102
}
330
B4
100
AcDbXrecord
280
     1
270
     1
271
     1
  0
XRECORD
  5
BA
102
{ACAD_REACTORS
330
B4
102
}
330
B4
100
AcDbXrecord
280
     1
270
     1
271
     1
  0
XRECORD
  5
B7
102
{ACAD_REACTORS
330
B4
102
}
330
B4
100
AcDbXrecord
280
     1
270
     1
271
     1
  0
XRECORD
  5
AE
102
{ACAD_REACTORS
330
AC
102
}
330
AC
100
AcDbXrecord
280
     1
270
     1
271
     1
  0
XRECORD
  5
AD
102
{ACAD_REACTORS
330
AC
102
}
330
AC
100
AcDbXrecord
280
     1
270
     1
271
     1
  0
XRECORD
  5
B1
102
{ACAD_REACTORS
330
AC
102
}
330
AC
100
AcDbXrecord
280
     1
270
     1
271
     1
  0
XRECORD
  5
B0
102
{ACAD_REACTORS
330
AC
102
}
330
AC
100
AcDbXrecord
280
     1
270
     1
271
     1
  0
XRECORD
  5
B2
102
{ACAD_REACTORS
330
AC
102
}
330
AC
100
AcDbXrecord
280
     1
270
     1
271
     1
  0
XRECORD
  5
AF
102
{ACAD_REACTORS
330
AC
102
}
330
AC
100
AcDbXrecord
280
     1
270
     1
271
     1
  0
XRECORD
  5
BE
102
{ACAD_REACTORS
330
BC
102
}
330
BC
100
AcDbXrecord
280
     1
270
     1
271
     1
  0
XRECORD
  5
BD
102
{ACAD_REACTORS
330
BC
102
}
330
BC
100
AcDbXrecord
280
     1
270
     1
271
     1
  0
XRECORD
  5
C1
102
{ACAD_REACTORS
330
BC
102
}
330
BC
100
AcDbXrecord
280
     1
270
     1
271
     1
  0
XRECORD
  5
C0
102
{ACAD_REACTORS
330
BC
102
}
330
BC
100
AcDbXrecord
280
     1
270
     1
271
     1
  0
XRECORD
  5
C2
102
{ACAD_REACTORS
330
BC
102
}
330
BC
100
AcDbXrecord
280
     1
270
     1
271
     1
  0
XRECORD
  5
BF
102
{ACAD_REACTORS
330
BC
102
}
330
BC
100
AcDbXrecord
280
     1
270
     1
271
     1
  0
XRECORD
  5
190
102
{ACAD_REACTORS
330
18F
102
}
330
18F
100
AcDbXrecord
280
     1
102
ACAD_ROUNDTRIP_2012_MLEADER_STYLE
298
     1
  0
XRECORD
  5
192
102
{ACAD_REACTORS
330
191
102
}
330
191
100
AcDbXrecord
280
     1
102
DISPLAYNAME
  1
Imperial24
102
FLAGS
 90
        0
  0
CELLSTYLEMAP
  5
15D
102
{ACAD_REACTORS
330
15C
102
}
330
15C
100
AcDbCellStyleMap
 90
        3
300
CELLSTYLE
  1
TABLEFORMAT_BEGIN
 90
        5
170
     1
 91
        0
 92
    32768
 62
   257
 93
        1
300
CONTENTFORMAT
  1
CONTENTFORMAT_BEGIN
 90
        0
 91
        0
 92
      512
 93
        0
300

 40
0.0
140
1.0
 94
        5
 62
     0
340
11
144
0.25
309
CONTENTFORMAT_END
171
     0
 94
        0
309
TABLEFORMAT_END
  1
CELLSTYLE_BEGIN
 90
        1
 91
        1
300
_TITLE
309
CELLSTYLE_END
300
CELLSTYLE
  1
TABLEFORMAT_BEGIN
 90
        5
170
     1
 91
        0
 92
        0
 62
   257
 93
        1
300
CONTENTFORMAT
  1
CONTENTFORMAT_BEGIN
 90
        0
 91
        0
 92
      512
 93
        0
300

 40
0.0
140
1.0
 94
        5
 62
     0
340
11
144
0.18
309
CONTENTFORMAT_END
171
     0
 94
        0
309
TABLEFORMAT_END
  1
CELLSTYLE_BEGIN
 90
        2
 91
        1
300
_HEADER
309
CELLSTYLE_END
300
CELLSTYLE
  1
TABLEFORMAT_BEGIN
 90
        5
170
     1
 91
        0
 92
        0
 62
   257
 93
        1
300
CONTENTFORMAT
  1
CONTENTFORMAT_BEGIN
 90
        0
 91
        0
 92
      512
 93
        0
300

 40
0.0
140
1.0
 94
        2
 62
     0
340
11
144
0.18
309
CONTENTFORMAT_END
171
     0
 94
        0
309
TABLEFORMAT_END
  1
CELLSTYLE_BEGIN
 90
        3
 91
        2
300
_DATA
309
CELLSTYLE_END
  0
XRECORD
  5
16A
102
{ACAD_REACTORS
330
169
102
}
330
169
100
AcDbXrecord
280
     1
102
RTVSPost2010Prop28
280
     1
102
RTVSPost2010PropOp28
 70
     1
102
RTVSPost2010Prop29
280
     1
102
RTVSPost2010PropOp29
 70
     1
102
RTVSPost2010Prop30
280
     0
102
RTVSPost2010PropOp30
 70
     1
102
RTVSPost2010Prop31
280
     0
102
RTVSPost2010PropOp31
 70
     1
102
RTVSPost2010Prop32
280
     0
102
RTVSPost2010PropOp32
 70
     1
102
RTVSPost2010Prop33
280
     0
102
RTVSPost2010PropOp33
 70
     1
102
RTVSPost2010Prop34
280
     0
102
RTVSPost2010PropOp34
 70
     1
102
RTVSPost2010Prop35
280
     0
102
RTVSPost2010PropOp35
 70
     1
102
RTVSPost2010Prop36
280
     0
102
RTVSPost2010PropOp36
 70
     1
102
RTVSPost2010Prop37
 90
       50
102
RTVSPost2010PropOp37
 70
     1
102
RTVSPost2010Prop38
140
0.0
102
RTVSPost2010PropOp38
 70
     1
102
RTVSPost2010Prop39
140
1.0
102
RTVSPost2010PropOp39
 70
     1
102
RTVSPost2010Prop40
 90
        0
102
RTVSPost2010PropOp40
 70
     1
102
RTVSPost2010Prop41ColorIndex
 90
       18
102
RTVSPost2010Prop41ColorRGB
 90
        0
102
RTVSPost2010PropOp41
 70
     1
102
RTVSPost2010Prop42
 90
       50
102
RTVSPost2010PropOp42
 70
     1
102
RTVSPost2010Prop43
 90
        3
102
RTVSPost2010PropOp43
 70
     1
102
RTVSPost2010Prop44ColorIndex
 90
        5
102
RTVSPost2010Prop44ColorRGB
 90
      255
102
RTVSPost2010PropOp44
 70
     1
102
RTVSPost2010Prop45
280
     0
102
RTVSPost2010PropOp45
 70
     1
102
RTVSPost2010Prop46
 90
       50
102
RTVSPost2010PropOp46
 70
     1
102
RTVSPost2010Prop47
 90
       50
102
RTVSPost2010PropOp47
 70
     1
102
RTVSPost2010Prop48
 90
       50
102
RTVSPost2010PropOp48
 70
     1
102
RTVSPost2010Prop49
280
     0
102
RTVSPost2010PropOp49
 70
     1
102
RTVSPost2010Prop50
 90
       50
102
RTVSPost2010PropOp50
 70
     1
102
RTVSPost2010Prop51ColorIndex
 90
      256
102
RTVSPost2010Prop51ColorRGB
 90
-16777216
102
RTVSPost2010PropOp51
 70
     0
102
RTVSPost2010Prop52
140
1.0
102
RTVSPost2010PropOp52
 70
     0
102
RTVSPost2010Prop53
 90
        2
102
RTVSPost2010PropOp53
 70
     1
102
RTVSPost2010Prop54
  1
strokes_ogs.tif
102
RTVSPost2010PropOp54
 70
     1
102
RTVSPost2010Prop55
280
     0
102
RTVSPost2010PropOp55
 70
     1
102
RTVSPost2010Prop56
140
1.0
102
RTVSPost2010PropOp56
 70
     1
102
RTVSPost2010Prop57
140
1.0
102
RTVSPost2010PropOp57
 70
     1
  0
XRECORD
  5
168
102
{ACAD_REACTORS
330
167
102
}
330
167
100
AcDbXrecord
280
     1
102
RTVSPost2010Prop28
280
     0
102
RTVSPost2010PropOp28
 70
     1
102
RTVSPost2010Prop29
280
     1
102
RTVSPost2010PropOp29
 70
     1
102
RTVSPost2010Prop30
280
     1
102
RTVSPost2010PropOp30
 70
     1
102
RTVSPost2010Prop31
280
     0
102
RTVSPost2010PropOp31
 70
     1
102
RTVSPost2010Prop32
280
     0
102
RTVSPost2010PropOp32
 70
     1
102
RTVSPost2010Prop33
280
     0
102
RTVSPost2010PropOp33
 70
     1
102
RTVSPost2010Prop34
280
     0
102
RTVSPost2010PropOp34
 70
     1
102
RTVSPost2010Prop35
280
     0
102
RTVSPost2010PropOp35
 70
     1
102
RTVSPost2010Prop36
280
     0
102
RTVSPost2010PropOp36
 70
     1
102
RTVSPost2010Prop37
 90
       50
102
RTVSPost2010PropOp37
 70
     1
102
RTVSPost2010Prop38
140
0.0
102
RTVSPost2010PropOp38
 70
     1
102
RTVSPost2010Prop39
140
1.0
102
RTVSPost2010PropOp39
 70
     1
102
RTVSPost2010Prop40
 90
        0
102
RTVSPost2010PropOp40
 70
     1
102
RTVSPost2010Prop41ColorIndex
 90
       18
102
RTVSPost2010Prop41ColorRGB
 90
        0
102
RTVSPost2010PropOp41
 70
     1
102
RTVSPost2010Prop42
 90
       50
102
RTVSPost2010PropOp42
 70
     1
102
RTVSPost2010Prop43
 90
        3
102
RTVSPost2010PropOp43
 70
     1
102
RTVSPost2010Prop44ColorIndex
 90
        5
102
RTVSPost2010Prop44ColorRGB
 90
      255
102
RTVSPost2010PropOp44
 70
     1
102
RTVSPost2010Prop45
280
     0
102
RTVSPost2010PropOp45
 70
     1
102
RTVSPost2010Prop46
 90
       50
102
RTVSPost2010PropOp46
 70
     1
102
RTVSPost2010Prop47
 90
       50
102
RTVSPost2010PropOp47
 70
     1
102
RTVSPost2010Prop48
 90
       50
102
RTVSPost2010PropOp48
 70
     1
102
RTVSPost2010Prop49
280
     0
102
RTVSPost2010PropOp49
 70
     1
102
RTVSPost2010Prop50
 90
       50
102
RTVSPost2010PropOp50
 70
     1
102
RTVSPost2010Prop51ColorIndex
 90
      256
102
RTVSPost2010Prop51ColorRGB
 90
-16777216
102
RTVSPost2010PropOp51
 70
     0
102
RTVSPost2010Prop52
140
1.0
102
RTVSPost2010PropOp52
 70
     0
102
RTVSPost2010Prop53
 90
        2
102
RTVSPost2010PropOp53
 70
     1
102
RTVSPost2010Prop54
  1
strokes_ogs.tif
102
RTVSPost2010PropOp54
 70
     1
102
RTVSPost2010Prop55
280
     0
102
RTVSPost2010PropOp55
 70
     1
102
RTVSPost2010Prop56
140
1.0
102
RTVSPost2010PropOp56
 70
     1
102
RTVSPost2010Prop57
140
1.0
102
RTVSPost2010PropOp57
 70
     1
  0
XRECORD
  5
176
102
{ACAD_REACTORS
330
175
102
}
330
175
100
AcDbXrecord
280
     1
102
RTVSPost2010Prop28
280
     0
102
RTVSPost2010PropOp28
 70
     1
102
RTVSPost2010Prop29
280
     1
102
RTVSPost2010PropOp29
 70
     1
102
RTVSPost2010Prop30
280
     1
102
RTVSPost2010PropOp30
 70
     1
102
RTVSPost2010Prop31
280
     0
102
RTVSPost2010PropOp31
 70
     1
102
RTVSPost2010Prop32
280
     0
102
RTVSPost2010PropOp32
 70
     1
102
RTVSPost2010Prop33
280
     0
102
RTVSPost2010PropOp33
 70
     1
102
RTVSPost2010Prop34
280
     0
102
RTVSPost2010PropOp34
 70
     1
102
RTVSPost2010Prop35
280
     0
102
RTVSPost2010PropOp35
 70
     1
102
RTVSPost2010Prop36
280
     0
102
RTVSPost2010PropOp36
 70
     1
102
RTVSPost2010Prop37
 90
       50
102
RTVSPost2010PropOp37
 70
     1
102
RTVSPost2010Prop38
140
0.0
102
RTVSPost2010PropOp38
 70
     1
102
RTVSPost2010Prop39
140
1.0
102
RTVSPost2010PropOp39
 70
     1
102
RTVSPost2010Prop40
 90
        0
102
RTVSPost2010PropOp40
 70
     1
102
RTVSPost2010Prop41ColorIndex
 90
       18
102
RTVSPost2010Prop41ColorRGB
 90
        0
102
RTVSPost2010PropOp41
 70
     1
102
RTVSPost2010Prop42
 90
       50
102
RTVSPost2010PropOp42
 70
     1
102
RTVSPost2010Prop43
 90
        3
102
RTVSPost2010PropOp43
 70
     1
102
RTVSPost2010Prop44ColorIndex
 90
        5
102
RTVSPost2010Prop44ColorRGB
 90
      255
102
RTVSPost2010PropOp44
 70
     1
102
RTVSPost2010Prop45
280
     0
102
RTVSPost2010PropOp45
 70
     1
102
RTVSPost2010Prop46
 90
       50
102
RTVSPost2010PropOp46
 70
     1
102
RTVSPost2010Prop47
 90
       50
102
RTVSPost2010PropOp47
 70
     1
102
RTVSPost2010Prop48
 90
       50
102
RTVSPost2010PropOp48
 70
     1
102
RTVSPost2010Prop49
280
     0
102
RTVSPost2010PropOp49
 70
     1
102
RTVSPost2010Prop50
 90
       50
102
RTVSPost2010PropOp50
 70
     1
102
RTVSPost2010Prop51ColorIndex
 90
      256
102
RTVSPost2010Prop51ColorRGB
 90
-16777216
102
RTVSPost2010PropOp51
 70
     0
102
RTVSPost2010Prop52
140
1.0
102
RTVSPost2010PropOp52
 70
     0
102
RTVSPost2010Prop53
 90
        2
102
RTVSPost2010PropOp53
 70
     1
102
RTVSPost2010Prop54
  1
strokes_ogs.tif
102
RTVSPost2010PropOp54
 70
     1
102
RTVSPost2010Prop55
280
     0
102
RTVSPost2010PropOp55
 70
     1
102
RTVSPost2010Prop56
140
1.0
102
RTVSPost2010PropOp56
 70
     1
102
RTVSPost2010Prop57
140
1.0
102
RTVSPost2010PropOp57
 70
     1
  0
XRECORD
  5
17E
102
{ACAD_REACTORS
330
17D
102
}
330
17D
100
AcDbXrecord
280
     1
102
RTVSPost2010Prop28
280
     0
102
RTVSPost2010PropOp28
 70
     1
102
RTVSPost2010Prop29
280
     1
102
RTVSPost2010PropOp29
 70
     1
102
RTVSPost2010Prop30
280
     1
102
RTVSPost2010PropOp30
 70
     1
102
RTVSPost2010Prop31
280
     0
102
RTVSPost2010PropOp31
 70
     1
102
RTVSPost2010Prop32
280
     0
102
RTVSPost2010PropOp32
 70
     1
102
RTVSPost2010Prop33
280
     0
102
RTVSPost2010PropOp33
 70
     1
102
RTVSPost2010Prop34
280
     0
102
RTVSPost2010PropOp34
 70
     1
102
RTVSPost2010Prop35
280
     0
102
RTVSPost2010PropOp35
 70
     1
102
RTVSPost2010Prop36
280
     0
102
RTVSPost2010PropOp36
 70
     1
102
RTVSPost2010Prop37
 90
       50
102
RTVSPost2010PropOp37
 70
     1
102
RTVSPost2010Prop38
140
0.0
102
RTVSPost2010PropOp38
 70
     1
102
RTVSPost2010Prop39
140
1.0
102
RTVSPost2010PropOp39
 70
     1
102
RTVSPost2010Prop40
 90
        0
102
RTVSPost2010PropOp40
 70
     1
102
RTVSPost2010Prop41ColorIndex
 90
       18
102
RTVSPost2010Prop41ColorRGB
 90
        0
102
RTVSPost2010PropOp41
 70
     1
102
RTVSPost2010Prop42
 90
       50
102
RTVSPost2010PropOp42
 70
     1
102
RTVSPost2010Prop43
 90
        3
102
RTVSPost2010PropOp43
 70
     1
102
RTVSPost2010Prop44ColorIndex
 90
        5
102
RTVSPost2010Prop44ColorRGB
 90
      255
102
RTVSPost2010PropOp44
 70
     1
102
RTVSPost2010Prop45
280
     0
102
RTVSPost2010PropOp45
 70
     1
102
RTVSPost2010Prop46
 90
       50
102
RTVSPost2010PropOp46
 70
     1
102
RTVSPost2010Prop47
 90
       50
102
RTVSPost2010PropOp47
 70
     1
102
RTVSPost2010Prop48
 90
       50
102
RTVSPost2010PropOp48
 70
     1
102
RTVSPost2010Prop49
280
     0
102
RTVSPost2010PropOp49
 70
     1
102
RTVSPost2010Prop50
 90
       50
102
RTVSPost2010PropOp50
 70
     1
102
RTVSPost2010Prop51ColorIndex
 90
      256
102
RTVSPost2010Prop51ColorRGB
 90
-16777216
102
RTVSPost2010PropOp51
 70
     0
102
RTVSPost2010Prop52
140
1.0
102
RTVSPost2010PropOp52
 70
     0
102
RTVSPost2010Prop53
 90
        2
102
RTVSPost2010PropOp53
 70
     1
102
RTVSPost2010Prop54
  1
strokes_ogs.tif
102
RTVSPost2010PropOp54
 70
     1
102
RTVSPost2010Prop55
280
     0
102
RTVSPost2010PropOp55
 70
     1
102
RTVSPost2010Prop56
140
1.0
102
RTVSPost2010PropOp56
 70
     1
102
RTVSPost2010Prop57
140
1.0
102
RTVSPost2010PropOp57
 70
     1
  0
XRECORD
  5
170
102
{ACAD_REACTORS
330
16F
102
}
330
16F
100
AcDbXrecord
280
     1
102
RTVSPost2010Prop28
280
     0
102
RTVSPost2010PropOp28
 70
     1
102
RTVSPost2010Prop29
280
     1
102
RTVSPost2010PropOp29
 70
     1
102
RTVSPost2010Prop30
280
     1
102
RTVSPost2010PropOp30
 70
     1
102
RTVSPost2010Prop31
280
     0
102
RTVSPost2010PropOp31
 70
     1
102
RTVSPost2010Prop32
280
     0
102
RTVSPost2010PropOp32
 70
     1
102
RTVSPost2010Prop33
280
     0
102
RTVSPost2010PropOp33
 70
     1
102
RTVSPost2010Prop34
280
     0
102
RTVSPost2010PropOp34
 70
     1
102
RTVSPost2010Prop35
280
     0
102
RTVSPost2010PropOp35
 70
     1
102
RTVSPost2010Prop36
280
     0
102
RTVSPost2010PropOp36
 70
     1
102
RTVSPost2010Prop37
 90
       50
102
RTVSPost2010PropOp37
 70
     1
102
RTVSPost2010Prop38
140
0.0
102
RTVSPost2010PropOp38
 70
     1
102
RTVSPost2010Prop39
140
1.0
102
RTVSPost2010PropOp39
 70
     1
102
RTVSPost2010Prop40
 90
        0
102
RTVSPost2010PropOp40
 70
     1
102
RTVSPost2010Prop41ColorIndex
 90
       18
102
RTVSPost2010Prop41ColorRGB
 90
        0
102
RTVSPost2010PropOp41
 70
     1
102
RTVSPost2010Prop42
 90
       50
102
RTVSPost2010PropOp42
 70
     1
102
RTVSPost2010Prop43
 90
        3
102
RTVSPost2010PropOp43
 70
     1
102
RTVSPost2010Prop44ColorIndex
 90
        5
102
RTVSPost2010Prop44ColorRGB
 90
      255
102
RTVSPost2010PropOp44
 70
     1
102
RTVSPost2010Prop45
280
     0
102
RTVSPost2010PropOp45
 70
     1
102
RTVSPost2010Prop46
 90
       50
102
RTVSPost2010PropOp46
 70
     1
102
RTVSPost2010Prop47
 90
       50
102
RTVSPost2010PropOp47
 70
     1
102
RTVSPost2010Prop48
 90
       50
102
RTVSPost2010PropOp48
 70
     1
102
RTVSPost2010Prop49
280
     0
102
RTVSPost2010PropOp49
 70
     1
102
RTVSPost2010Prop50
 90
       50
102
RTVSPost2010PropOp50
 70
     1
102
RTVSPost2010Prop51ColorIndex
 90
      256
102
RTVSPost2010Prop51ColorRGB
 90
-16777216
102
RTVSPost2010PropOp51
 70
     0
102
RTVSPost2010Prop52
140
1.0
102
RTVSPost2010PropOp52
 70
     0
102
RTVSPost2010Prop53
 90
        2
102
RTVSPost2010PropOp53
 70
     1
102
RTVSPost2010Prop54
  1
strokes_ogs.tif
102
RTVSPost2010PropOp54
 70
     1
102
RTVSPost2010Prop55
280
     0
102
RTVSPost2010PropOp55
 70
     1
102
RTVSPost2010Prop56
140
1.0
102
RTVSPost2010PropOp56
 70
     1
102
RTVSPost2010Prop57
140
1.0
102
RTVSPost2010PropOp57
 70
     1
  0
XRECORD
  5
174
102
{ACAD_REACTORS
330
173
102
}
330
173
100
AcDbXrecord
280
     1
102
RTVSPost2010Prop28
280
     0
102
RTVSPost2010PropOp28
 70
     1
102
RTVSPost2010Prop29
280
     1
102
RTVSPost2010PropOp29
 70
     1
102
RTVSPost2010Prop30
280
     1
102
RTVSPost2010PropOp30
 70
     1
102
RTVSPost2010Prop31
280
     0
102
RTVSPost2010PropOp31
 70
     1
102
RTVSPost2010Prop32
280
     0
102
RTVSPost2010PropOp32
 70
     1
102
RTVSPost2010Prop33
280
     0
102
RTVSPost2010PropOp33
 70
     1
102
RTVSPost2010Prop34
280
     0
102
RTVSPost2010PropOp34
 70
     1
102
RTVSPost2010Prop35
280
     0
102
RTVSPost2010PropOp35
 70
     1
102
RTVSPost2010Prop36
280
     0
102
RTVSPost2010PropOp36
 70
     1
102
RTVSPost2010Prop37
 90
       50
102
RTVSPost2010PropOp37
 70
     1
102
RTVSPost2010Prop38
140
0.0
102
RTVSPost2010PropOp38
 70
     1
102
RTVSPost2010Prop39
140
1.0
102
RTVSPost2010PropOp39
 70
     1
102
RTVSPost2010Prop40
 90
        0
102
RTVSPost2010PropOp40
 70
     1
102
RTVSPost2010Prop41ColorIndex
 90
       18
102
RTVSPost2010Prop41ColorRGB
 90
        0
102
RTVSPost2010PropOp41
 70
     1
102
RTVSPost2010Prop42
 90
       50
102
RTVSPost2010PropOp42
 70
     1
102
RTVSPost2010Prop43
 90
        3
102
RTVSPost2010PropOp43
 70
     1
102
RTVSPost2010Prop44ColorIndex
 90
        5
102
RTVSPost2010Prop44ColorRGB
 90
      255
102
RTVSPost2010PropOp44
 70
     1
102
RTVSPost2010Prop45
280
     0
102
RTVSPost2010PropOp45
 70
     1
102
RTVSPost2010Prop46
 90
       50
102
RTVSPost2010PropOp46
 70
     1
102
RTVSPost2010Prop47
 90
       50
102
RTVSPost2010PropOp47
 70
     1
102
RTVSPost2010Prop48
 90
       50
102
RTVSPost2010PropOp48
 70
     1
102
RTVSPost2010Prop49
280
     0
102
RTVSPost2010PropOp49
 70
     1
102
RTVSPost2010Prop50
 90
       50
102
RTVSPost2010PropOp50
 70
     1
102
RTVSPost2010Prop51ColorIndex
 90
      256
102
RTVSPost2010Prop51ColorRGB
 90
-16777216
102
RTVSPost2010PropOp51
 70
     0
102
RTVSPost2010Prop52
140
1.0
102
RTVSPost2010PropOp52
 70
     0
102
RTVSPost2010Prop53
 90
        2
102
RTVSPost2010PropOp53
 70
     1
102
RTVSPost2010Prop54
  1
strokes_ogs.tif
102
RTVSPost2010PropOp54
 70
     1
102
RTVSPost2010Prop55
280
     0
102
RTVSPost2010PropOp55
 70
     1
102
RTVSPost2010Prop56
140
1.0
102
RTVSPost2010PropOp56
 70
     1
102
RTVSPost2010Prop57
140
1.0
102
RTVSPost2010PropOp57
 70
     1
  0
XRECORD
  5
18E
102
{ACAD_REACTORS
330
18D
102
}
330
18D
100
AcDbXrecord
280
     1
102
RTVSPost2010Prop28
280
     0
102
RTVSPost2010PropOp28
 70
     0
102
RTVSPost2010Prop29
280
     1
102
RTVSPost2010PropOp29
 70
     0
102
RTVSPost2010Prop30
280
     1
102
RTVSPost2010PropOp30
 70
     0
102
RTVSPost2010Prop31
280
     0
102
RTVSPost2010PropOp31
 70
     0
102
RTVSPost2010Prop32
280
     0
102
RTVSPost2010PropOp32
 70
     0
102
RTVSPost2010Prop33
280
     0
102
RTVSPost2010PropOp33
 70
     0
102
RTVSPost2010Prop34
280
     0
102
RTVSPost2010PropOp34
 70
     0
102
RTVSPost2010Prop35
280
     0
102
RTVSPost2010PropOp35
 70
     0
102
RTVSPost2010Prop36
280
     0
102
RTVSPost2010PropOp36
 70
     0
102
RTVSPost2010Prop37
 90
       50
102
RTVSPost2010PropOp37
 70
     0
102
RTVSPost2010Prop38
140
0.0
102
RTVSPost2010PropOp38
 70
     0
102
RTVSPost2010Prop39
140
1.0
102
RTVSPost2010PropOp39
 70
     0
102
RTVSPost2010Prop40
 90
        0
102
RTVSPost2010PropOp40
 70
     0
102
RTVSPost2010Prop41ColorIndex
 90
       18
102
RTVSPost2010Prop41ColorRGB
 90
        0
102
RTVSPost2010PropOp41
 70
     0
102
RTVSPost2010Prop42
 90
       50
102
RTVSPost2010PropOp42
 70
     0
102
RTVSPost2010Prop43
 90
        3
102
RTVSPost2010PropOp43
 70
     0
102
RTVSPost2010Prop44ColorIndex
 90
        5
102
RTVSPost2010Prop44ColorRGB
 90
      255
102
RTVSPost2010PropOp44
 70
     0
102
RTVSPost2010Prop45
280
     0
102
RTVSPost2010PropOp45
 70
     0
102
RTVSPost2010Prop46
 90
       50
102
RTVSPost2010PropOp46
 70
     0
102
RTVSPost2010Prop47
 90
       50
102
RTVSPost2010PropOp47
 70
     0
102
RTVSPost2010Prop48
 90
       50
102
RTVSPost2010PropOp48
 70
     0
102
RTVSPost2010Prop49
280
     0
102
RTVSPost2010PropOp49
 70
     0
102
RTVSPost2010Prop50
 90
       50
102
RTVSPost2010PropOp50
 70
     0
102
RTVSPost2010Prop51ColorIndex
 90
      256
102
RTVSPost2010Prop51ColorRGB
 90
-16777216
102
RTVSPost2010PropOp51
 70
     0
102
RTVSPost2010Prop52
140
1.0
102
RTVSPost2010PropOp52
 70
     0
102
RTVSPost2010Prop53
 90
        2
102
RTVSPost2010PropOp53
 70
     0
102
RTVSPost2010Prop54
  1
strokes_ogs.tif
102
RTVSPost2010PropOp54
 70
     0
102
RTVSPost2010Prop55
280
     0
102
RTVSPost2010PropOp55
 70
     0
102
RTVSPost2010Prop56
140
1.0
102
RTVSPost2010PropOp56
 70
     0
102
RTVSPost2010Prop57
140
1.0
102
RTVSPost2010PropOp57
 70
     0
  0
XRECORD
  5
17C
102
{ACAD_REACTORS
330
17B
102
}
330
17B
100
AcDbXrecord
280
     1
102
RTVSPost2010Prop28
280
     0
102
RTVSPost2010PropOp28
 70
     1
102
RTVSPost2010Prop29
280
     1
102
RTVSPost2010PropOp29
 70
     1
102
RTVSPost2010Prop30
280
     1
102
RTVSPost2010PropOp30
 70
     1
102
RTVSPost2010Prop31
280
     0
102
RTVSPost2010PropOp31
 70
     1
102
RTVSPost2010Prop32
280
     0
102
RTVSPost2010PropOp32
 70
     1
102
RTVSPost2010Prop33
280
     0
102
RTVSPost2010PropOp33
 70
     1
102
RTVSPost2010Prop34
280
     0
102
RTVSPost2010PropOp34
 70
     1
102
RTVSPost2010Prop35
280
     0
102
RTVSPost2010PropOp35
 70
     1
102
RTVSPost2010Prop36
280
     0
102
RTVSPost2010PropOp36
 70
     1
102
RTVSPost2010Prop37
 90
       50
102
RTVSPost2010PropOp37
 70
     1
102
RTVSPost2010Prop38
140
0.0
102
RTVSPost2010PropOp38
 70
     1
102
RTVSPost2010Prop39
140
1.0
102
RTVSPost2010PropOp39
 70
     1
102
RTVSPost2010Prop40
 90
        0
102
RTVSPost2010PropOp40
 70
     1
102
RTVSPost2010Prop41ColorIndex
 90
       18
102
RTVSPost2010Prop41ColorRGB
 90
        0
102
RTVSPost2010PropOp41
 70
     1
102
RTVSPost2010Prop42
 90
       50
102
RTVSPost2010PropOp42
 70
     1
102
RTVSPost2010Prop43
 90
        3
102
RTVSPost2010PropOp43
 70
     1
102
RTVSPost2010Prop44ColorIndex
 90
        5
102
RTVSPost2010Prop44ColorRGB
 90
      255
102
RTVSPost2010PropOp44
 70
     1
102
RTVSPost2010Prop45
280
     0
102
RTVSPost2010PropOp45
 70
     1
102
RTVSPost2010Prop46
 90
       50
102
RTVSPost2010PropOp46
 70
     1
102
RTVSPost2010Prop47
 90
       50
102
RTVSPost2010PropOp47
 70
     1
102
RTVSPost2010Prop48
 90
       50
102
RTVSPost2010PropOp48
 70
     1
102
RTVSPost2010Prop49
280
     0
102
RTVSPost2010PropOp49
 70
     1
102
RTVSPost2010Prop50
 90
       50
102
RTVSPost2010PropOp50
 70
     1
102
RTVSPost2010Prop51ColorIndex
 90
      256
102
RTVSPost2010Prop51ColorRGB
 90
-16777216
102
RTVSPost2010PropOp51
 70
     0
102
RTVSPost2010Prop52
140
1.0
102
RTVSPost2010PropOp52
 70
     0
102
RTVSPost2010Prop53
 90
        2
102
RTVSPost2010PropOp53
 70
     1
102
RTVSPost2010Prop54
  1
strokes_ogs.tif
102
RTVSPost2010PropOp54
 70
     1
102
RTVSPost2010Prop55
280
     0
102
RTVSPost2010PropOp55
 70
     1
102
RTVSPost2010Prop56
140
1.0
102
RTVSPost2010PropOp56
 70
     1
102
RTVSPost2010Prop57
140
1.0
102
RTVSPost2010PropOp57
 70
     1
  0
XRECORD
  5
160
102
{ACAD_REACTORS
330
15F
102
}
330
15F
100
AcDbXrecord
280
     1
102
RTVSPost2010Prop28
280
     0
102
RTVSPost2010PropOp28
 70
     1
102
RTVSPost2010Prop29
280
     1
102
RTVSPost2010PropOp29
 70
     1
102
RTVSPost2010Prop30
280
     1
102
RTVSPost2010PropOp30
 70
     1
102
RTVSPost2010Prop31
280
     0
102
RTVSPost2010PropOp31
 70
     1
102
RTVSPost2010Prop32
280
     0
102
RTVSPost2010PropOp32
 70
     1
102
RTVSPost2010Prop33
280
     0
102
RTVSPost2010PropOp33
 70
     1
102
RTVSPost2010Prop34
280
     0
102
RTVSPost2010PropOp34
 70
     1
102
RTVSPost2010Prop35
280
     0
102
RTVSPost2010PropOp35
 70
     1
102
RTVSPost2010Prop36
280
     0
102
RTVSPost2010PropOp36
 70
     1
102
RTVSPost2010Prop37
 90
       50
102
RTVSPost2010PropOp37
 70
     1
102
RTVSPost2010Prop38
140
0.0
102
RTVSPost2010PropOp38
 70
     1
102
RTVSPost2010Prop39
140
1.0
102
RTVSPost2010PropOp39
 70
     1
102
RTVSPost2010Prop40
 90
        0
102
RTVSPost2010PropOp40
 70
     1
102
RTVSPost2010Prop41ColorIndex
 90
       18
102
RTVSPost2010Prop41ColorRGB
 90
        0
102
RTVSPost2010PropOp41
 70
     1
102
RTVSPost2010Prop42
 90
       50
102
RTVSPost2010PropOp42
 70
     1
102
RTVSPost2010Prop43
 90
        3
102
RTVSPost2010PropOp43
 70
     1
102
RTVSPost2010Prop44ColorIndex
 90
        5
102
RTVSPost2010Prop44ColorRGB
 90
      255
102
RTVSPost2010PropOp44
 70
     1
102
RTVSPost2010Prop45
280
     0
102
RTVSPost2010PropOp45
 70
     1
102
RTVSPost2010Prop46
 90
       50
102
RTVSPost2010PropOp46
 70
     1
102
RTVSPost2010Prop47
 90
       50
102
RTVSPost2010PropOp47
 70
     1
102
RTVSPost2010Prop48
 90
       50
102
RTVSPost2010PropOp48
 70
     1
102
RTVSPost2010Prop49
280
     0
102
RTVSPost2010PropOp49
 70
     1
102
RTVSPost2010Prop50
 90
       50
102
RTVSPost2010PropOp50
 70
     1
102
RTVSPost2010Prop51ColorIndex
 90
      256
102
RTVSPost2010Prop51ColorRGB
 90
-16777216
102
RTVSPost2010PropOp51
 70
     0
102
RTVSPost2010Prop52
140
1.0
102
RTVSPost2010PropOp52
 70
     0
102
RTVSPost2010Prop53
 90
        2
102
RTVSPost2010PropOp53
 70
     1
102
RTVSPost2010Prop54
  1
strokes_ogs.tif
102
RTVSPost2010PropOp54
 70
     1
102
RTVSPost2010Prop55
280
     0
102
RTVSPost2010PropOp55
 70
     1
102
RTVSPost2010Prop56
140
1.0
102
RTVSPost2010PropOp56
 70
     1
102
RTVSPost2010Prop57
140
1.0
102
RTVSPost2010PropOp57
 70
     1
  0
XRECORD
  5
162
102
{ACAD_REACTORS
330
161
102
}
330
161
100
AcDbXrecord
280
     1
102
RTVSPost2010Prop28
280
     0
102
RTVSPost2010PropOp28
 70
     1
102
RTVSPost2010Prop29
280
     1
102
RTVSPost2010PropOp29
 70
     1
102
RTVSPost2010Prop30
280
     1
102
RTVSPost2010PropOp30
 70
     1
102
RTVSPost2010Prop31
280
     0
102
RTVSPost2010PropOp31
 70
     1
102
RTVSPost2010Prop32
280
     0
102
RTVSPost2010PropOp32
 70
     1
102
RTVSPost2010Prop33
280
     0
102
RTVSPost2010PropOp33
 70
     1
102
RTVSPost2010Prop34
280
     0
102
RTVSPost2010PropOp34
 70
     1
102
RTVSPost2010Prop35
280
     0
102
RTVSPost2010PropOp35
 70
     1
102
RTVSPost2010Prop36
280
     0
102
RTVSPost2010PropOp36
 70
     1
102
RTVSPost2010Prop37
 90
       50
102
RTVSPost2010PropOp37
 70
     1
102
RTVSPost2010Prop38
140
0.0
102
RTVSPost2010PropOp38
 70
     1
102
RTVSPost2010Prop39
140
1.0
102
RTVSPost2010PropOp39
 70
     1
102
RTVSPost2010Prop40
 90
        0
102
RTVSPost2010PropOp40
 70
     1
102
RTVSPost2010Prop41ColorIndex
 90
       18
102
RTVSPost2010Prop41ColorRGB
 90
        0
102
RTVSPost2010PropOp41
 70
     1
102
RTVSPost2010Prop42
 90
       50
102
RTVSPost2010PropOp42
 70
     1
102
RTVSPost2010Prop43
 90
        3
102
RTVSPost2010PropOp43
 70
     1
102
RTVSPost2010Prop44ColorIndex
 90
        5
102
RTVSPost2010Prop44ColorRGB
 90
      255
102
RTVSPost2010PropOp44
 70
     1
102
RTVSPost2010Prop45
280
     0
102
RTVSPost2010PropOp45
 70
     1
102
RTVSPost2010Prop46
 90
       50
102
RTVSPost2010PropOp46
 70
     1
102
RTVSPost2010Prop47
 90
       50
102
RTVSPost2010PropOp47
 70
     1
102
RTVSPost2010Prop48
 90
       50
102
RTVSPost2010PropOp48
 70
     1
102
RTVSPost2010Prop49
280
     0
102
RTVSPost2010PropOp49
 70
     1
102
RTVSPost2010Prop50
 90
       50
102
RTVSPost2010PropOp50
 70
     1
102
RTVSPost2010Prop51ColorIndex
 90
      256
102
RTVSPost2010Prop51ColorRGB
 90
-16777216
102
RTVSPost2010PropOp51
 70
     0
102
RTVSPost2010Prop52
140
1.0
102
RTVSPost2010PropOp52
 70
     0
102
RTVSPost2010Prop53
 90
        2
102
RTVSPost2010PropOp53
 70
     1
102
RTVSPost2010Prop54
  1
strokes_ogs.tif
102
RTVSPost2010PropOp54
 70
     1
102
RTVSPost2010Prop55
280
     0
102
RTVSPost2010PropOp55
 70
     1
102
RTVSPost2010Prop56
140
1.0
102
RTVSPost2010PropOp56
 70
     1
102
RTVSPost2010Prop57
140
1.0
102
RTVSPost2010PropOp57
 70
     1
  0
XRECORD
  5
164
102
{ACAD_REACTORS
330
163
102
}
330
163
100
AcDbXrecord
280
     1
102
RTVSPost2010Prop28
280
     0
102
RTVSPost2010PropOp28
 70
     1
102
RTVSPost2010Prop29
280
     1
102
RTVSPost2010PropOp29
 70
     1
102
RTVSPost2010Prop30
280
     1
102
RTVSPost2010PropOp30
 70
     1
102
RTVSPost2010Prop31
280
     0
102
RTVSPost2010PropOp31
 70
     1
102
RTVSPost2010Prop32
280
     0
102
RTVSPost2010PropOp32
 70
     1
102
RTVSPost2010Prop33
280
     0
102
RTVSPost2010PropOp33
 70
     1
102
RTVSPost2010Prop34
280
     0
102
RTVSPost2010PropOp34
 70
     1
102
RTVSPost2010Prop35
280
     0
102
RTVSPost2010PropOp35
 70
     1
102
RTVSPost2010Prop36
280
     0
102
RTVSPost2010PropOp36
 70
     1
102
RTVSPost2010Prop37
 90
       50
102
RTVSPost2010PropOp37
 70
     1
102
RTVSPost2010Prop38
140
0.0
102
RTVSPost2010PropOp38
 70
     1
102
RTVSPost2010Prop39
140
1.0
102
RTVSPost2010PropOp39
 70
     1
102
RTVSPost2010Prop40
 90
        0
102
RTVSPost2010PropOp40
 70
     1
102
RTVSPost2010Prop41ColorIndex
 90
       18
102
RTVSPost2010Prop41ColorRGB
 90
        0
102
RTVSPost2010PropOp41
 70
     1
102
RTVSPost2010Prop42
 90
       50
102
RTVSPost2010PropOp42
 70
     1
102
RTVSPost2010Prop43
 90
        3
102
RTVSPost2010PropOp43
 70
     1
102
RTVSPost2010Prop44ColorIndex
 90
        5
102
RTVSPost2010Prop44ColorRGB
 90
      255
102
RTVSPost2010PropOp44
 70
     1
102
RTVSPost2010Prop45
280
     0
102
RTVSPost2010PropOp45
 70
     1
102
RTVSPost2010Prop46
 90
       50
102
RTVSPost2010PropOp46
 70
     1
102
RTVSPost2010Prop47
 90
       50
102
RTVSPost2010PropOp47
 70
     1
102
RTVSPost2010Prop48
 90
       50
102
RTVSPost2010PropOp48
 70
     1
102
RTVSPost2010Prop49
280
     0
102
RTVSPost2010PropOp49
 70
     1
102
RTVSPost2010Prop50
 90
       50
102
RTVSPost2010PropOp50
 70
     1
102
RTVSPost2010Prop51ColorIndex
 90
      256
102
RTVSPost2010Prop51ColorRGB
 90
-16777216
102
RTVSPost2010PropOp51
 70
     0
102
RTVSPost2010Prop52
140
1.0
102
RTVSPost2010PropOp52
 70
     0
102
RTVSPost2010Prop53
 90
        2
102
RTVSPost2010PropOp53
 70
     1
102
RTVSPost2010Prop54
  1
strokes_ogs.tif
102
RTVSPost2010PropOp54
 70
     1
102
RTVSPost2010Prop55
280
     0
102
RTVSPost2010PropOp55
 70
     1
102
RTVSPost2010Prop56
140
1.0
102
RTVSPost2010PropOp56
 70
     1
102
RTVSPost2010Prop57
140
1.0
102
RTVSPost2010PropOp57
 70
     1
  0
XRECORD
  5
166
102
{ACAD_REACTORS
330
165
102
}
330
165
100
AcDbXrecord
280
     1
102
RTVSPost2010Prop28
280
     0
102
RTVSPost2010PropOp28
 70
     1
102
RTVSPost2010Prop29
280
     1
102
RTVSPost2010PropOp29
 70
     1
102
RTVSPost2010Prop30
280
     1
102
RTVSPost2010PropOp30
 70
     1
102
RTVSPost2010Prop31
280
     0
102
RTVSPost2010PropOp31
 70
     1
102
RTVSPost2010Prop32
280
     0
102
RTVSPost2010PropOp32
 70
     1
102
RTVSPost2010Prop33
280
     0
102
RTVSPost2010PropOp33
 70
     1
102
RTVSPost2010Prop34
280
     0
102
RTVSPost2010PropOp34
 70
     1
102
RTVSPost2010Prop35
280
     0
102
RTVSPost2010PropOp35
 70
     1
102
RTVSPost2010Prop36
280
     0
102
RTVSPost2010PropOp36
 70
     1
102
RTVSPost2010Prop37
 90
       50
102
RTVSPost2010PropOp37
 70
     1
102
RTVSPost2010Prop38
140
0.0
102
RTVSPost2010PropOp38
 70
     1
102
RTVSPost2010Prop39
140
1.0
102
RTVSPost2010PropOp39
 70
     1
102
RTVSPost2010Prop40
 90
        0
102
RTVSPost2010PropOp40
 70
     1
102
RTVSPost2010Prop41ColorIndex
 90
       18
102
RTVSPost2010Prop41ColorRGB
 90
        0
102
RTVSPost2010PropOp41
 70
     1
102
RTVSPost2010Prop42
 90
       50
102
RTVSPost2010PropOp42
 70
     1
102
RTVSPost2010Prop43
 90
        3
102
RTVSPost2010PropOp43
 70
     1
102
RTVSPost2010Prop44ColorIndex
 90
        5
102
RTVSPost2010Prop44ColorRGB
 90
      255
102
RTVSPost2010PropOp44
 70
     1
102
RTVSPost2010Prop45
280
     0
102
RTVSPost2010PropOp45
 70
     1
102
RTVSPost2010Prop46
 90
       50
102
RTVSPost2010PropOp46
 70
     1
102
RTVSPost2010Prop47
 90
       50
102
RTVSPost2010PropOp47
 70
     1
102
RTVSPost2010Prop48
 90
       50
102
RTVSPost2010PropOp48
 70
     1
102
RTVSPost2010Prop49
280
     0
102
RTVSPost2010PropOp49
 70
     1
102
RTVSPost2010Prop50
 90
       50
102
RTVSPost2010PropOp50
 70
     1
102
RTVSPost2010Prop51ColorIndex
 90
      256
102
RTVSPost2010Prop51ColorRGB
 90
-16777216
102
RTVSPost2010PropOp51
 70
     0
102
RTVSPost2010Prop52
140
1.0
102
RTVSPost2010PropOp52
 70
     0
102
RTVSPost2010Prop53
 90
        2
102
RTVSPost2010PropOp53
 70
     1
102
RTVSPost2010Prop54
  1
strokes_ogs.tif
102
RTVSPost2010PropOp54
 70
     1
102
RTVSPost2010Prop55
280
     0
102
RTVSPost2010PropOp55
 70
     1
102
RTVSPost2010Prop56
140
1.0
102
RTVSPost2010PropOp56
 70
     1
102
RTVSPost2010Prop57
140
1.0
102
RTVSPost2010PropOp57
 70
     1
  0
XRECORD
  5
16E
102
{ACAD_REACTORS
330
16D
102
}
330
16D
100
AcDbXrecord
280
     1
102
RTVSPost2010Prop28
280
     0
102
RTVSPost2010PropOp28
 70
     1
102
RTVSPost2010Prop29
280
     1
102
RTVSPost2010PropOp29
 70
     1
102
RTVSPost2010Prop30
280
     1
102
RTVSPost2010PropOp30
 70
     1
102
RTVSPost2010Prop31
280
     0
102
RTVSPost2010PropOp31
 70
     1
102
RTVSPost2010Prop32
280
     0
102
RTVSPost2010PropOp32
 70
     1
102
RTVSPost2010Prop33
280
     0
102
RTVSPost2010PropOp33
 70
     1
102
RTVSPost2010Prop34
280
     0
102
RTVSPost2010PropOp34
 70
     1
102
RTVSPost2010Prop35
280
     0
102
RTVSPost2010PropOp35
 70
     1
102
RTVSPost2010Prop36
280
     0
102
RTVSPost2010PropOp36
 70
     1
102
RTVSPost2010Prop37
 90
       50
102
RTVSPost2010PropOp37
 70
     1
102
RTVSPost2010Prop38
140
0.0
102
RTVSPost2010PropOp38
 70
     1
102
RTVSPost2010Prop39
140
1.0
102
RTVSPost2010PropOp39
 70
     1
102
RTVSPost2010Prop40
 90
        0
102
RTVSPost2010PropOp40
 70
     1
102
RTVSPost2010Prop41ColorIndex
 90
       18
102
RTVSPost2010Prop41ColorRGB
 90
        0
102
RTVSPost2010PropOp41
 70
     1
102
RTVSPost2010Prop42
 90
       50
102
RTVSPost2010PropOp42
 70
     1
102
RTVSPost2010Prop43
 90
        3
102
RTVSPost2010PropOp43
 70
     1
102
RTVSPost2010Prop44ColorIndex
 90
        5
102
RTVSPost2010Prop44ColorRGB
 90
      255
102
RTVSPost2010PropOp44
 70
     1
102
RTVSPost2010Prop45
280
     0
102
RTVSPost2010PropOp45
 70
     1
102
RTVSPost2010Prop46
 90
       50
102
RTVSPost2010PropOp46
 70
     1
102
RTVSPost2010Prop47
 90
       50
102
RTVSPost2010PropOp47
 70
     1
102
RTVSPost2010Prop48
 90
       50
102
RTVSPost2010PropOp48
 70
     1
102
RTVSPost2010Prop49
280
     0
102
RTVSPost2010PropOp49
 70
     1
102
RTVSPost2010Prop50
 90
       50
102
RTVSPost2010PropOp50
 70
     1
102
RTVSPost2010Prop51ColorIndex
 90
      256
102
RTVSPost2010Prop51ColorRGB
 90
-16777216
102
RTVSPost2010PropOp51
 70
     0
102
RTVSPost2010Prop52
140
1.0
102
RTVSPost2010PropOp52
 70
     0
102
RTVSPost2010Prop53
 90
        2
102
RTVSPost2010PropOp53
 70
     1
102
RTVSPost2010Prop54
  1
strokes_ogs.tif
102
RTVSPost2010PropOp54
 70
     1
102
RTVSPost2010Prop55
280
     0
102
RTVSPost2010PropOp55
 70
     1
102
RTVSPost2010Prop56
140
1.0
102
RTVSPost2010PropOp56
 70
     1
102
RTVSPost2010Prop57
140
1.0
102
RTVSPost2010PropOp57
 70
     1
  0
XRECORD
  5
18A
102
{ACAD_REACTORS
330
189
102
}
330
189
100
AcDbXrecord
280
     1
102
RTVSPost2010Prop28
280
     0
102
RTVSPost2010PropOp28
 70
     0
102
RTVSPost2010Prop29
280
     1
102
RTVSPost2010PropOp29
 70
     0
102
RTVSPost2010Prop30
280
     1
102
RTVSPost2010PropOp30
 70
     0
102
RTVSPost2010Prop31
280
     0
102
RTVSPost2010PropOp31
 70
     0
102
RTVSPost2010Prop32
280
     0
102
RTVSPost2010PropOp32
 70
     0
102
RTVSPost2010Prop33
280
     0
102
RTVSPost2010PropOp33
 70
     0
102
RTVSPost2010Prop34
280
     0
102
RTVSPost2010PropOp34
 70
     0
102
RTVSPost2010Prop35
280
     0
102
RTVSPost2010PropOp35
 70
     0
102
RTVSPost2010Prop36
280
     0
102
RTVSPost2010PropOp36
 70
     0
102
RTVSPost2010Prop37
 90
       50
102
RTVSPost2010PropOp37
 70
     0
102
RTVSPost2010Prop38
140
0.0
102
RTVSPost2010PropOp38
 70
     0
102
RTVSPost2010Prop39
140
1.0
102
RTVSPost2010PropOp39
 70
     0
102
RTVSPost2010Prop40
 90
        0
102
RTVSPost2010PropOp40
 70
     0
102
RTVSPost2010Prop41ColorIndex
 90
       18
102
RTVSPost2010Prop41ColorRGB
 90
        0
102
RTVSPost2010PropOp41
 70
     0
102
RTVSPost2010Prop42
 90
       50
102
RTVSPost2010PropOp42
 70
     0
102
RTVSPost2010Prop43
 90
        3
102
RTVSPost2010PropOp43
 70
     0
102
RTVSPost2010Prop44ColorIndex
 90
        5
102
RTVSPost2010Prop44ColorRGB
 90
      255
102
RTVSPost2010PropOp44
 70
     0
102
RTVSPost2010Prop45
280
     0
102
RTVSPost2010PropOp45
 70
     0
102
RTVSPost2010Prop46
 90
       50
102
RTVSPost2010PropOp46
 70
     0
102
RTVSPost2010Prop47
 90
       50
102
RTVSPost2010PropOp47
 70
     0
102
RTVSPost2010Prop48
 90
       50
102
RTVSPost2010PropOp48
 70
     0
102
RTVSPost2010Prop49
280
     0
102
RTVSPost2010PropOp49
 70
     0
102
RTVSPost2010Prop50
 90
       50
102
RTVSPost2010PropOp50
 70
     0
102
RTVSPost2010Prop51ColorIndex
 90
      256
102
RTVSPost2010Prop51ColorRGB
 90
-16777216
102
RTVSPost2010PropOp51
 70
     0
102
RTVSPost2010Prop52
140
1.0
102
RTVSPost2010PropOp52
 70
     0
102
RTVSPost2010Prop53
 90
        2
102
RTVSPost2010PropOp53
 70
     0
102
RTVSPost2010Prop54
  1
strokes_ogs.tif
102
RTVSPost2010PropOp54
 70
     0
102
RTVSPost2010Prop55
280
     0
102
RTVSPost2010PropOp55
 70
     0
102
RTVSPost2010Prop56
140
1.0
102
RTVSPost2010PropOp56
 70
     0
102
RTVSPost2010Prop57
140
1.0
102
RTVSPost2010PropOp57
 70
     0
  0
XRECORD
  5
17A
102
{ACAD_REACTORS
330
179
102
}
330
179
100
AcDbXrecord
280
     1
102
RTVSPost2010Prop28
280
     0
102
RTVSPost2010PropOp28
 70
     1
102
RTVSPost2010Prop29
280
     1
102
RTVSPost2010PropOp29
 70
     1
102
RTVSPost2010Prop30
280
     1
102
RTVSPost2010PropOp30
 70
     1
102
RTVSPost2010Prop31
280
     0
102
RTVSPost2010PropOp31
 70
     1
102
RTVSPost2010Prop32
280
     0
102
RTVSPost2010PropOp32
 70
     1
102
RTVSPost2010Prop33
280
     0
102
RTVSPost2010PropOp33
 70
     1
102
RTVSPost2010Prop34
280
     0
102
RTVSPost2010PropOp34
 70
     1
102
RTVSPost2010Prop35
280
     0
102
RTVSPost2010PropOp35
 70
     1
102
RTVSPost2010Prop36
280
     0
102
RTVSPost2010PropOp36
 70
     1
102
RTVSPost2010Prop37
 90
       50
102
RTVSPost2010PropOp37
 70
     1
102
RTVSPost2010Prop38
140
0.0
102
RTVSPost2010PropOp38
 70
     1
102
RTVSPost2010Prop39
140
1.0
102
RTVSPost2010PropOp39
 70
     1
102
RTVSPost2010Prop40
 90
        0
102
RTVSPost2010PropOp40
 70
     1
102
RTVSPost2010Prop41ColorIndex
 90
       18
102
RTVSPost2010Prop41ColorRGB
 90
        0
102
RTVSPost2010PropOp41
 70
     1
102
RTVSPost2010Prop42
 90
       50
102
RTVSPost2010PropOp42
 70
     1
102
RTVSPost2010Prop43
 90
        3
102
RTVSPost2010PropOp43
 70
     1
102
RTVSPost2010Prop44ColorIndex
 90
        5
102
RTVSPost2010Prop44ColorRGB
 90
      255
102
RTVSPost2010PropOp44
 70
     1
102
RTVSPost2010Prop45
280
     0
102
RTVSPost2010PropOp45
 70
     1
102
RTVSPost2010Prop46
 90
       50
102
RTVSPost2010PropOp46
 70
     1
102
RTVSPost2010Prop47
 90
       50
102
RTVSPost2010PropOp47
 70
     1
102
RTVSPost2010Prop48
 90
       50
102
RTVSPost2010PropOp48
 70
     1
102
RTVSPost2010Prop49
280
     0
102
RTVSPost2010PropOp49
 70
     1
102
RTVSPost2010Prop50
 90
       50
102
RTVSPost2010PropOp50
 70
     1
102
RTVSPost2010Prop51ColorIndex
 90
      256
102
RTVSPost2010Prop51ColorRGB
 90
-16777216
102
RTVSPost2010PropOp51
 70
     0
102
RTVSPost2010Prop52
140
1.0
102
RTVSPost2010PropOp52
 70
     0
102
RTVSPost2010Prop53
 90
        2
102
RTVSPost2010PropOp53
 70
     1
102
RTVSPost2010Prop54
  1
strokes_ogs.tif
102
RTVSPost2010PropOp54
 70
     1
102
RTVSPost2010Prop55
280
     0
102
RTVSPost2010PropOp55
 70
     1
102
RTVSPost2010Prop56
140
1.0
102
RTVSPost2010PropOp56
 70
     1
102
RTVSPost2010Prop57
140
1.0
102
RTVSPost2010PropOp57
 70
     1
  0
XRECORD
  5
18C
102
{ACAD_REACTORS
330
18B
102
}
330
18B
100
AcDbXrecord
280
     1
102
RTVSPost2010Prop28
280
     0
102
RTVSPost2010PropOp28
 70
     0
102
RTVSPost2010Prop29
280
     1
102
RTVSPost2010PropOp29
 70
     0
102
RTVSPost2010Prop30
280
     1
102
RTVSPost2010PropOp30
 70
     0
102
RTVSPost2010Prop31
280
     0
102
RTVSPost2010PropOp31
 70
     0
102
RTVSPost2010Prop32
280
     0
102
RTVSPost2010PropOp32
 70
     0
102
RTVSPost2010Prop33
280
     0
102
RTVSPost2010PropOp33
 70
     0
102
RTVSPost2010Prop34
280
     0
102
RTVSPost2010PropOp34
 70
     0
102
RTVSPost2010Prop35
280
     0
102
RTVSPost2010PropOp35
 70
     0
102
RTVSPost2010Prop36
280
     0
102
RTVSPost2010PropOp36
 70
     0
102
RTVSPost2010Prop37
 90
       50
102
RTVSPost2010PropOp37
 70
     0
102
RTVSPost2010Prop38
140
0.0
102
RTVSPost2010PropOp38
 70
     0
102
RTVSPost2010Prop39
140
1.0
102
RTVSPost2010PropOp39
 70
     0
102
RTVSPost2010Prop40
 90
        0
102
RTVSPost2010PropOp40
 70
     0
102
RTVSPost2010Prop41ColorIndex
 90
       18
102
RTVSPost2010Prop41ColorRGB
 90
        0
102
RTVSPost2010PropOp41
 70
     0
102
RTVSPost2010Prop42
 90
       50
102
RTVSPost2010PropOp42
 70
     0
102
RTVSPost2010Prop43
 90
        3
102
RTVSPost2010PropOp43
 70
     0
102
RTVSPost2010Prop44ColorIndex
 90
        5
102
RTVSPost2010Prop44ColorRGB
 90
      255
102
RTVSPost2010PropOp44
 70
     0
102
RTVSPost2010Prop45
280
     0
102
RTVSPost2010PropOp45
 70
     0
102
RTVSPost2010Prop46
 90
       50
102
RTVSPost2010PropOp46
 70
     0
102
RTVSPost2010Prop47
 90
       50
102
RTVSPost2010PropOp47
 70
     0
102
RTVSPost2010Prop48
 90
       50
102
RTVSPost2010PropOp48
 70
     0
102
RTVSPost2010Prop49
280
     0
102
RTVSPost2010PropOp49
 70
     0
102
RTVSPost2010Prop50
 90
       50
102
RTVSPost2010PropOp50
 70
     0
102
RTVSPost2010Prop51ColorIndex
 90
      256
102
RTVSPost2010Prop51ColorRGB
 90
-16777216
102
RTVSPost2010PropOp51
 70
     0
102
RTVSPost2010Prop52
140
1.0
102
RTVSPost2010PropOp52
 70
     0
102
RTVSPost2010Prop53
 90
        2
102
RTVSPost2010PropOp53
 70
     0
102
RTVSPost2010Prop54
  1
strokes_ogs.tif
102
RTVSPost2010PropOp54
 70
     0
102
RTVSPost2010Prop55
280
     0
102
RTVSPost2010PropOp55
 70
     0
102
RTVSPost2010Prop56
140
1.0
102
RTVSPost2010PropOp56
 70
     0
102
RTVSPost2010Prop57
140
1.0
102
RTVSPost2010PropOp57
 70
     0
  0
XRECORD
  5
172
102
{ACAD_REACTORS
330
171
102
}
330
171
100
AcDbXrecord
280
     1
102
RTVSPost2010Prop28
280
     0
102
RTVSPost2010PropOp28
 70
     1
102
RTVSPost2010Prop29
280
     1
102
RTVSPost2010PropOp29
 70
     1
102
RTVSPost2010Prop30
280
     1
102
RTVSPost2010PropOp30
 70
     1
102
RTVSPost2010Prop31
280
     0
102
RTVSPost2010PropOp31
 70
     1
102
RTVSPost2010Prop32
280
     0
102
RTVSPost2010PropOp32
 70
     1
102
RTVSPost2010Prop33
280
     0
102
RTVSPost2010PropOp33
 70
     1
102
RTVSPost2010Prop34
280
     0
102
RTVSPost2010PropOp34
 70
     1
102
RTVSPost2010Prop35
280
     0
102
RTVSPost2010PropOp35
 70
     1
102
RTVSPost2010Prop36
280
     0
102
RTVSPost2010PropOp36
 70
     1
102
RTVSPost2010Prop37
 90
       50
102
RTVSPost2010PropOp37
 70
     1
102
RTVSPost2010Prop38
140
0.0
102
RTVSPost2010PropOp38
 70
     1
102
RTVSPost2010Prop39
140
1.0
102
RTVSPost2010PropOp39
 70
     1
102
RTVSPost2010Prop40
 90
        0
102
RTVSPost2010PropOp40
 70
     1
102
RTVSPost2010Prop41ColorIndex
 90
       18
102
RTVSPost2010Prop41ColorRGB
 90
        0
102
RTVSPost2010PropOp41
 70
     1
102
RTVSPost2010Prop42
 90
       50
102
RTVSPost2010PropOp42
 70
     1
102
RTVSPost2010Prop43
 90
        3
102
RTVSPost2010PropOp43
 70
     1
102
RTVSPost2010Prop44ColorIndex
 90
        5
102
RTVSPost2010Prop44ColorRGB
 90
      255
102
RTVSPost2010PropOp44
 70
     1
102
RTVSPost2010Prop45
280
     0
102
RTVSPost2010PropOp45
 70
     1
102
RTVSPost2010Prop46
 90
       50
102
RTVSPost2010PropOp46
 70
     1
102
RTVSPost2010Prop47
 90
       50
102
RTVSPost2010PropOp47
 70
     1
102
RTVSPost2010Prop48
 90
       50
102
RTVSPost2010PropOp48
 70
     1
102
RTVSPost2010Prop49
280
     0
102
RTVSPost2010PropOp49
 70
     1
102
RTVSPost2010Prop50
 90
       50
102
RTVSPost2010PropOp50
 70
     1
102
RTVSPost2010Prop51ColorIndex
 90
      256
102
RTVSPost2010Prop51ColorRGB
 90
-16777216
102
RTVSPost2010PropOp51
 70
     0
102
RTVSPost2010Prop52
140
1.0
102
RTVSPost2010PropOp52
 70
     0
102
RTVSPost2010Prop53
 90
        2
102
RTVSPost2010PropOp53
 70
     1
102
RTVSPost2010Prop54
  1
strokes_ogs.tif
102
RTVSPost2010PropOp54
 70
     1
102
RTVSPost2010Prop55
280
     0
102
RTVSPost2010PropOp55
 70
     1
102
RTVSPost2010Prop56
140
1.0
102
RTVSPost2010PropOp56
 70
     1
102
RTVSPost2010Prop57
140
1.0
102
RTVSPost2010PropOp57
 70
     1
  0
XRECORD
  5
188
102
{ACAD_REACTORS
330
187
102
}
330
187
100
AcDbXrecord
280
     1
102
RTVSPost2010Prop28
280
     0
102
RTVSPost2010PropOp28
 70
     1
102
RTVSPost2010Prop29
280
     1
102
RTVSPost2010PropOp29
 70
     1
102
RTVSPost2010Prop30
280
     1
102
RTVSPost2010PropOp30
 70
     1
102
RTVSPost2010Prop31
280
     0
102
RTVSPost2010PropOp31
 70
     1
102
RTVSPost2010Prop32
280
     0
102
RTVSPost2010PropOp32
 70
     1
102
RTVSPost2010Prop33
280
     0
102
RTVSPost2010PropOp33
 70
     1
102
RTVSPost2010Prop34
280
     0
102
RTVSPost2010PropOp34
 70
     1
102
RTVSPost2010Prop35
280
     0
102
RTVSPost2010PropOp35
 70
     1
102
RTVSPost2010Prop36
280
     0
102
RTVSPost2010PropOp36
 70
     1
102
RTVSPost2010Prop37
 90
       50
102
RTVSPost2010PropOp37
 70
     1
102
RTVSPost2010Prop38
140
0.0
102
RTVSPost2010PropOp38
 70
     1
102
RTVSPost2010Prop39
140
1.0
102
RTVSPost2010PropOp39
 70
     1
102
RTVSPost2010Prop40
 90
        0
102
RTVSPost2010PropOp40
 70
     1
102
RTVSPost2010Prop41ColorIndex
 90
       18
102
RTVSPost2010Prop41ColorRGB
 90
        0
102
RTVSPost2010PropOp41
 70
     1
102
RTVSPost2010Prop42
 90
       50
102
RTVSPost2010PropOp42
 70
     1
102
RTVSPost2010Prop43
 90
        3
102
RTVSPost2010PropOp43
 70
     1
102
RTVSPost2010Prop44ColorIndex
 90
        5
102
RTVSPost2010Prop44ColorRGB
 90
      255
102
RTVSPost2010PropOp44
 70
     1
102
RTVSPost2010Prop45
280
     0
102
RTVSPost2010PropOp45
 70
     1
102
RTVSPost2010Prop46
 90
       50
102
RTVSPost2010PropOp46
 70
     1
102
RTVSPost2010Prop47
 90
       50
102
RTVSPost2010PropOp47
 70
     1
102
RTVSPost2010Prop48
 90
       50
102
RTVSPost2010PropOp48
 70
     1
102
RTVSPost2010Prop49
280
     0
102
RTVSPost2010PropOp49
 70
     1
102
RTVSPost2010Prop50
 90
       50
102
RTVSPost2010PropOp50
 70
     1
102
RTVSPost2010Prop51ColorIndex
 90
      256
102
RTVSPost2010Prop51ColorRGB
 90
-16777216
102
RTVSPost2010PropOp51
 70
     0
102
RTVSPost2010Prop52
140
1.0
102
RTVSPost2010PropOp52
 70
     0
102
RTVSPost2010Prop53
 90
        2
102
RTVSPost2010PropOp53
 70
     1
102
RTVSPost2010Prop54
  1
strokes_ogs.tif
102
RTVSPost2010PropOp54
 70
     1
102
RTVSPost2010Prop55
280
     0
102
RTVSPost2010PropOp55
 70
     1
102
RTVSPost2010Prop56
140
1.0
102
RTVSPost2010PropOp56
 70
     1
102
RTVSPost2010Prop57
140
1.0
102
RTVSPost2010PropOp57
 70
     1
  0
XRECORD
  5
186
102
{ACAD_REACTORS
330
185
102
}
330
185
100
AcDbXrecord
280
     1
102
RTVSPost2010Prop28
280
     0
102
RTVSPost2010PropOp28
 70
     1
102
RTVSPost2010Prop29
280
     1
102
RTVSPost2010PropOp29
 70
     1
102
RTVSPost2010Prop30
280
     1
102
RTVSPost2010PropOp30
 70
     1
102
RTVSPost2010Prop31
280
     0
102
RTVSPost2010PropOp31
 70
     1
102
RTVSPost2010Prop32
280
     0
102
RTVSPost2010PropOp32
 70
     1
102
RTVSPost2010Prop33
280
     0
102
RTVSPost2010PropOp33
 70
     1
102
RTVSPost2010Prop34
280
     0
102
RTVSPost2010PropOp34
 70
     1
102
RTVSPost2010Prop35
280
     0
102
RTVSPost2010PropOp35
 70
     1
102
RTVSPost2010Prop36
280
     0
102
RTVSPost2010PropOp36
 70
     1
102
RTVSPost2010Prop37
 90
       50
102
RTVSPost2010PropOp37
 70
     1
102
RTVSPost2010Prop38
140
0.0
102
RTVSPost2010PropOp38
 70
     1
102
RTVSPost2010Prop39
140
1.0
102
RTVSPost2010PropOp39
 70
     1
102
RTVSPost2010Prop40
 90
        0
102
RTVSPost2010PropOp40
 70
     1
102
RTVSPost2010Prop41ColorIndex
 90
       18
102
RTVSPost2010Prop41ColorRGB
 90
        0
102
RTVSPost2010PropOp41
 70
     1
102
RTVSPost2010Prop42
 90
       50
102
RTVSPost2010PropOp42
 70
     1
102
RTVSPost2010Prop43
 90
        3
102
RTVSPost2010PropOp43
 70
     1
102
RTVSPost2010Prop44ColorIndex
 90
        5
102
RTVSPost2010Prop44ColorRGB
 90
      255
102
RTVSPost2010PropOp44
 70
     1
102
RTVSPost2010Prop45
280
     0
102
RTVSPost2010PropOp45
 70
     1
102
RTVSPost2010Prop46
 90
       50
102
RTVSPost2010PropOp46
 70
     1
102
RTVSPost2010Prop47
 90
       50
102
RTVSPost2010PropOp47
 70
     1
102
RTVSPost2010Prop48
 90
       50
102
RTVSPost2010PropOp48
 70
     1
102
RTVSPost2010Prop49
280
     0
102
RTVSPost2010PropOp49
 70
     1
102
RTVSPost2010Prop50
 90
       50
102
RTVSPost2010PropOp50
 70
     1
102
RTVSPost2010Prop51ColorIndex
 90
      256
102
RTVSPost2010Prop51ColorRGB
 90
-16777216
102
RTVSPost2010PropOp51
 70
     0
102
RTVSPost2010Prop52
140
1.0
102
RTVSPost2010PropOp52
 70
     0
102
RTVSPost2010Prop53
 90
        2
102
RTVSPost2010PropOp53
 70
     1
102
RTVSPost2010Prop54
  1
strokes_ogs.tif
102
RTVSPost2010PropOp54
 70
     1
102
RTVSPost2010Prop55
280
     0
102
RTVSPost2010PropOp55
 70
     1
102
RTVSPost2010Prop56
140
1.0
102
RTVSPost2010PropOp56
 70
     1
102
RTVSPost2010Prop57
140
1.0
102
RTVSPost2010PropOp57
 70
     1
  0
XRECORD
  5
180
102
{ACAD_REACTORS
330
17F
102
}
330
17F
100
AcDbXrecord
280
     1
102
RTVSPost2010Prop28
280
     0
102
RTVSPost2010PropOp28
 70
     1
102
RTVSPost2010Prop29
280
     1
102
RTVSPost2010PropOp29
 70
     1
102
RTVSPost2010Prop30
280
     1
102
RTVSPost2010PropOp30
 70
     1
102
RTVSPost2010Prop31
280
     0
102
RTVSPost2010PropOp31
 70
     1
102
RTVSPost2010Prop32
280
     0
102
RTVSPost2010PropOp32
 70
     1
102
RTVSPost2010Prop33
280
     0
102
RTVSPost2010PropOp33
 70
     1
102
RTVSPost2010Prop34
280
     0
102
RTVSPost2010PropOp34
 70
     1
102
RTVSPost2010Prop35
280
     0
102
RTVSPost2010PropOp35
 70
     1
102
RTVSPost2010Prop36
280
     0
102
RTVSPost2010PropOp36
 70
     1
102
RTVSPost2010Prop37
 90
       50
102
RTVSPost2010PropOp37
 70
     1
102
RTVSPost2010Prop38
140
0.0
102
RTVSPost2010PropOp38
 70
     1
102
RTVSPost2010Prop39
140
1.0
102
RTVSPost2010PropOp39
 70
     1
102
RTVSPost2010Prop40
 90
        0
102
RTVSPost2010PropOp40
 70
     1
102
RTVSPost2010Prop41ColorIndex
 90
       18
102
RTVSPost2010Prop41ColorRGB
 90
        0
102
RTVSPost2010PropOp41
 70
     1
102
RTVSPost2010Prop42
 90
       50
102
RTVSPost2010PropOp42
 70
     1
102
RTVSPost2010Prop43
 90
        3
102
RTVSPost2010PropOp43
 70
     1
102
RTVSPost2010Prop44ColorIndex
 90
        5
102
RTVSPost2010Prop44ColorRGB
 90
      255
102
RTVSPost2010PropOp44
 70
     1
102
RTVSPost2010Prop45
280
     0
102
RTVSPost2010PropOp45
 70
     1
102
RTVSPost2010Prop46
 90
       50
102
RTVSPost2010PropOp46
 70
     1
102
RTVSPost2010Prop47
 90
       50
102
RTVSPost2010PropOp47
 70
     1
102
RTVSPost2010Prop48
 90
       50
102
RTVSPost2010PropOp48
 70
     1
102
RTVSPost2010Prop49
280
     0
102
RTVSPost2010PropOp49
 70
     1
102
RTVSPost2010Prop50
 90
       50
102
RTVSPost2010PropOp50
 70
     1
102
RTVSPost2010Prop51ColorIndex
 90
      256
102
RTVSPost2010Prop51ColorRGB
 90
-16777216
102
RTVSPost2010PropOp51
 70
     0
102
RTVSPost2010Prop52
140
1.0
102
RTVSPost2010PropOp52
 70
     0
102
RTVSPost2010Prop53
 90
        2
102
RTVSPost2010PropOp53
 70
     1
102
RTVSPost2010Prop54
  1
strokes_ogs.tif
102
RTVSPost2010PropOp54
 70
     1
102
RTVSPost2010Prop55
280
     0
102
RTVSPost2010PropOp55
 70
     1
102
RTVSPost2010Prop56
140
1.0
102
RTVSPost2010PropOp56
 70
     1
102
RTVSPost2010Prop57
140
1.0
102
RTVSPost2010PropOp57
 70
     1
  0
XRECORD
  5
182
102
{ACAD_REACTORS
330
181
102
}
330
181
100
AcDbXrecord
280
     1
102
RTVSPost2010Prop28
280
     0
102
RTVSPost2010PropOp28
 70
     1
102
RTVSPost2010Prop29
280
     1
102
RTVSPost2010PropOp29
 70
     1
102
RTVSPost2010Prop30
280
     1
102
RTVSPost2010PropOp30
 70
     1
102
RTVSPost2010Prop31
280
     0
102
RTVSPost2010PropOp31
 70
     1
102
RTVSPost2010Prop32
280
     0
102
RTVSPost2010PropOp32
 70
     1
102
RTVSPost2010Prop33
280
     0
102
RTVSPost2010PropOp33
 70
     1
102
RTVSPost2010Prop34
280
     0
102
RTVSPost2010PropOp34
 70
     1
102
RTVSPost2010Prop35
280
     0
102
RTVSPost2010PropOp35
 70
     1
102
RTVSPost2010Prop36
280
     0
102
RTVSPost2010PropOp36
 70
     1
102
RTVSPost2010Prop37
 90
       50
102
RTVSPost2010PropOp37
 70
     1
102
RTVSPost2010Prop38
140
0.0
102
RTVSPost2010PropOp38
 70
     1
102
RTVSPost2010Prop39
140
1.0
102
RTVSPost2010PropOp39
 70
     1
102
RTVSPost2010Prop40
 90
        0
102
RTVSPost2010PropOp40
 70
     1
102
RTVSPost2010Prop41ColorIndex
 90
       18
102
RTVSPost2010Prop41ColorRGB
 90
        0
102
RTVSPost2010PropOp41
 70
     1
102
RTVSPost2010Prop42
 90
       50
102
RTVSPost2010PropOp42
 70
     1
102
RTVSPost2010Prop43
 90
        3
102
RTVSPost2010PropOp43
 70
     1
102
RTVSPost2010Prop44ColorIndex
 90
        5
102
RTVSPost2010Prop44ColorRGB
 90
      255
102
RTVSPost2010PropOp44
 70
     1
102
RTVSPost2010Prop45
280
     0
102
RTVSPost2010PropOp45
 70
     1
102
RTVSPost2010Prop46
 90
       50
102
RTVSPost2010PropOp46
 70
     1
102
RTVSPost2010Prop47
 90
       50
102
RTVSPost2010PropOp47
 70
     1
102
RTVSPost2010Prop48
 90
       50
102
RTVSPost2010PropOp48
 70
     1
102
RTVSPost2010Prop49
280
     0
102
RTVSPost2010PropOp49
 70
     1
102
RTVSPost2010Prop50
 90
       50
102
RTVSPost2010PropOp50
 70
     1
102
RTVSPost2010Prop51ColorIndex
 90
      256
102
RTVSPost2010Prop51ColorRGB
 90
-16777216
102
RTVSPost2010PropOp51
 70
     0
102
RTVSPost2010Prop52
140
1.0
102
RTVSPost2010PropOp52
 70
     0
102
RTVSPost2010Prop53
 90
        2
102
RTVSPost2010PropOp53
 70
     1
102
RTVSPost2010Prop54
  1
strokes_ogs.tif
102
RTVSPost2010PropOp54
 70
     1
102
RTVSPost2010Prop55
280
     0
102
RTVSPost2010PropOp55
 70
     1
102
RTVSPost2010Prop56
140
1.0
102
RTVSPost2010PropOp56
 70
     1
102
RTVSPost2010Prop57
140
1.0
102
RTVSPost2010PropOp57
 70
     1
  0
XRECORD
  5
178
102
{ACAD_REACTORS
330
177
102
}
330
177
100
AcDbXrecord
280
     1
102
RTVSPost2010Prop28
280
     0
102
RTVSPost2010PropOp28
 70
     1
102
RTVSPost2010Prop29
280
     1
102
RTVSPost2010PropOp29
 70
     1
102
RTVSPost2010Prop30
280
     1
102
RTVSPost2010PropOp30
 70
     1
102
RTVSPost2010Prop31
280
     0
102
RTVSPost2010PropOp31
 70
     1
102
RTVSPost2010Prop32
280
     0
102
RTVSPost2010PropOp32
 70
     1
102
RTVSPost2010Prop33
280
     0
102
RTVSPost2010PropOp33
 70
     1
102
RTVSPost2010Prop34
280
     0
102
RTVSPost2010PropOp34
 70
     1
102
RTVSPost2010Prop35
280
     0
102
RTVSPost2010PropOp35
 70
     1
102
RTVSPost2010Prop36
280
     0
102
RTVSPost2010PropOp36
 70
     1
102
RTVSPost2010Prop37
 90
       50
102
RTVSPost2010PropOp37
 70
     1
102
RTVSPost2010Prop38
140
0.0
102
RTVSPost2010PropOp38
 70
     1
102
RTVSPost2010Prop39
140
1.0
102
RTVSPost2010PropOp39
 70
     1
102
RTVSPost2010Prop40
 90
        0
102
RTVSPost2010PropOp40
 70
     1
102
RTVSPost2010Prop41ColorIndex
 90
       18
102
RTVSPost2010Prop41ColorRGB
 90
        0
102
RTVSPost2010PropOp41
 70
     1
102
RTVSPost2010Prop42
 90
       50
102
RTVSPost2010PropOp42
 70
     1
102
RTVSPost2010Prop43
 90
        3
102
RTVSPost2010PropOp43
 70
     1
102
RTVSPost2010Prop44ColorIndex
 90
        5
102
RTVSPost2010Prop44ColorRGB
 90
      255
102
RTVSPost2010PropOp44
 70
     1
102
RTVSPost2010Prop45
280
     0
102
RTVSPost2010PropOp45
 70
     1
102
RTVSPost2010Prop46
 90
       50
102
RTVSPost2010PropOp46
 70
     1
102
RTVSPost2010Prop47
 90
       50
102
RTVSPost2010PropOp47
 70
     1
102
RTVSPost2010Prop48
 90
       50
102
RTVSPost2010PropOp48
 70
     1
102
RTVSPost2010Prop49
280
     0
102
RTVSPost2010PropOp49
 70
     1
102
RTVSPost2010Prop50
 90
       50
102
RTVSPost2010PropOp50
 70
     1
102
RTVSPost2010Prop51ColorIndex
 90
      256
102
RTVSPost2010Prop51ColorRGB
 90
-16777216
102
RTVSPost2010PropOp51
 70
     0
102
RTVSPost2010Prop52
140
1.0
102
RTVSPost2010PropOp52
 70
     0
102
RTVSPost2010Prop53
 90
        2
102
RTVSPost2010PropOp53
 70
     1
102
RTVSPost2010Prop54
  1
strokes_ogs.tif
102
RTVSPost2010PropOp54
 70
     1
102
RTVSPost2010Prop55
280
     0
102
RTVSPost2010PropOp55
 70
     1
102
RTVSPost2010Prop56
140
1.0
102
RTVSPost2010PropOp56
 70
     1
102
RTVSPost2010Prop57
140
1.0
102
RTVSPost2010PropOp57
 70
     1
  0
XRECORD
  5
16C
102
{ACAD_REACTORS
330
16B
102
}
330
16B
100
AcDbXrecord
280
     1
102
RTVSPost2010Prop28
280
     0
102
RTVSPost2010PropOp28
 70
     1
102
RTVSPost2010Prop29
280
     1
102
RTVSPost2010PropOp29
 70
     1
102
RTVSPost2010Prop30
280
     1
102
RTVSPost2010PropOp30
 70
     1
102
RTVSPost2010Prop31
280
     0
102
RTVSPost2010PropOp31
 70
     1
102
RTVSPost2010Prop32
280
     0
102
RTVSPost2010PropOp32
 70
     1
102
RTVSPost2010Prop33
280
     0
102
RTVSPost2010PropOp33
 70
     1
102
RTVSPost2010Prop34
280
     0
102
RTVSPost2010PropOp34
 70
     1
102
RTVSPost2010Prop35
280
     0
102
RTVSPost2010PropOp35
 70
     1
102
RTVSPost2010Prop36
280
     0
102
RTVSPost2010PropOp36
 70
     1
102
RTVSPost2010Prop37
 90
       50
102
RTVSPost2010PropOp37
 70
     1
102
RTVSPost2010Prop38
140
0.0
102
RTVSPost2010PropOp38
 70
     1
102
RTVSPost2010Prop39
140
1.0
102
RTVSPost2010PropOp39
 70
     1
102
RTVSPost2010Prop40
 90
        0
102
RTVSPost2010PropOp40
 70
     1
102
RTVSPost2010Prop41ColorIndex
 90
       18
102
RTVSPost2010Prop41ColorRGB
 90
        0
102
RTVSPost2010PropOp41
 70
     1
102
RTVSPost2010Prop42
 90
       50
102
RTVSPost2010PropOp42
 70
     1
102
RTVSPost2010Prop43
 90
        3
102
RTVSPost2010PropOp43
 70
     1
102
RTVSPost2010Prop44ColorIndex
 90
        5
102
RTVSPost2010Prop44ColorRGB
 90
      255
102
RTVSPost2010PropOp44
 70
     1
102
RTVSPost2010Prop45
280
     0
102
RTVSPost2010PropOp45
 70
     1
102
RTVSPost2010Prop46
 90
       50
102
RTVSPost2010PropOp46
 70
     1
102
RTVSPost2010Prop47
 90
       50
102
RTVSPost2010PropOp47
 70
     1
102
RTVSPost2010Prop48
 90
       50
102
RTVSPost2010PropOp48
 70
     1
102
RTVSPost2010Prop49
280
     0
102
RTVSPost2010PropOp49
 70
     1
102
RTVSPost2010Prop50
 90
       50
102
RTVSPost2010PropOp50
 70
     1
102
RTVSPost2010Prop51ColorIndex
 90
      256
102
RTVSPost2010Prop51ColorRGB
 90
-16777216
102
RTVSPost2010PropOp51
 70
     0
102
RTVSPost2010Prop52
140
1.0
102
RTVSPost2010PropOp52
 70
     0
102
RTVSPost2010Prop53
 90
        2
102
RTVSPost2010PropOp53
 70
     1
102
RTVSPost2010Prop54
  1
strokes_ogs.tif
102
RTVSPost2010PropOp54
 70
     1
102
RTVSPost2010Prop55
280
     0
102
RTVSPost2010PropOp55
 70
     1
102
RTVSPost2010Prop56
140
1.0
102
RTVSPost2010PropOp56
 70
     1
102
RTVSPost2010Prop57
140
1.0
102
RTVSPost2010PropOp57
 70
     1
  0
XRECORD
  5
184
102
{ACAD_REACTORS
330
183
102
}
330
183
100
AcDbXrecord
280
     1
102
RTVSPost2010Prop28
280
     0
102
RTVSPost2010PropOp28
 70
     1
102
RTVSPost2010Prop29
280
     1
102
RTVSPost2010PropOp29
 70
     1
102
RTVSPost2010Prop30
280
     1
102
RTVSPost2010PropOp30
 70
     1
102
RTVSPost2010Prop31
280
     0
102
RTVSPost2010PropOp31
 70
     1
102
RTVSPost2010Prop32
280
     0
102
RTVSPost2010PropOp32
 70
     1
102
RTVSPost2010Prop33
280
     0
102
RTVSPost2010PropOp33
 70
     1
102
RTVSPost2010Prop34
280
     0
102
RTVSPost2010PropOp34
 70
     1
102
RTVSPost2010Prop35
280
     0
102
RTVSPost2010PropOp35
 70
     1
102
RTVSPost2010Prop36
280
     0
102
RTVSPost2010PropOp36
 70
     1
102
RTVSPost2010Prop37
 90
       50
102
RTVSPost2010PropOp37
 70
     1
102
RTVSPost2010Prop38
140
0.0
102
RTVSPost2010PropOp38
 70
     1
102
RTVSPost2010Prop39
140
1.0
102
RTVSPost2010PropOp39
 70
     1
102
RTVSPost2010Prop40
 90
        0
102
RTVSPost2010PropOp40
 70
     1
102
RTVSPost2010Prop41ColorIndex
 90
       18
102
RTVSPost2010Prop41ColorRGB
 90
        0
102
RTVSPost2010PropOp41
 70
     1
102
RTVSPost2010Prop42
 90
       50
102
RTVSPost2010PropOp42
 70
     1
102
RTVSPost2010Prop43
 90
        3
102
RTVSPost2010PropOp43
 70
     1
102
RTVSPost2010Prop44ColorIndex
 90
        5
102
RTVSPost2010Prop44ColorRGB
 90
      255
102
RTVSPost2010PropOp44
 70
     1
102
RTVSPost2010Prop45
280
     0
102
RTVSPost2010PropOp45
 70
     1
102
RTVSPost2010Prop46
 90
       50
102
RTVSPost2010PropOp46
 70
     1
102
RTVSPost2010Prop47
 90
       50
102
RTVSPost2010PropOp47
 70
     1
102
RTVSPost2010Prop48
 90
       50
102
RTVSPost2010PropOp48
 70
     1
102
RTVSPost2010Prop49
280
     0
102
RTVSPost2010PropOp49
 70
     1
102
RTVSPost2010Prop50
 90
       50
102
RTVSPost2010PropOp50
 70
     1
102
RTVSPost2010Prop51ColorIndex
 90
      256
102
RTVSPost2010Prop51ColorRGB
 90
-16777216
102
RTVSPost2010PropOp51
 70
     0
102
RTVSPost2010Prop52
140
1.0
102
RTVSPost2010PropOp52
 70
     0
102
RTVSPost2010Prop53
 90
        2
102
RTVSPost2010PropOp53
 70
     1
102
RTVSPost2010Prop54
  1
strokes_ogs.tif
102
RTVSPost2010PropOp54
 70
     1
102
RTVSPost2010Prop55
280
     0
102
RTVSPost2010PropOp55
 70
     1
102
RTVSPost2010Prop56
140
1.0
102
RTVSPost2010PropOp56
 70
     1
102
RTVSPost2010Prop57
140
1.0
102
RTVSPost2010PropOp57
 70
     1
  0
ENDSEC
  0
EOF
