  0
SECTION
  2
HEADER
  9
$ACADVER
  1
AC1024
  9
$ACADMAINTVER
 70
   205
  9
$DWGCODEPAGE
  3
ANSI_1251
  9
$INSBASE
 10
0.0
 20
0.0
 30
0.0
  9
$EXTMIN
 10
1.000000000000000E+20
 20
1.000000000000000E+20
 30
1.000000000000000E+20
  9
$EXTMAX
 10
-1.000000000000000E+20
 20
-1.000000000000000E+20
 30
-1.000000000000000E+20
  9
$LIMMIN
 10
0.0
 20
0.0
  9
$LIMMAX
 10
12.0
 20
9.0
  9
$ORTHOMODE
 70
     0
  9
$REGENMODE
 70
     1
  9
$FILLMODE
 70
     1
  9
$QTEXTMODE
 70
     0
  9
$MIRRTEXT
 70
     1
  9
$LTSCALE
 40
1.0
  9
$ATTMODE
 70
     1
  9
$TEXTSIZE
 40
0.2
  9
$TRACEWID
 40
0.05
  9
$TEXTSTYLE
  7
Standard
  9
$CLAYER
  8
OracDecor_panel_moldings
  9
$CELTYPE
  6
ByLayer
  9
$CECOLOR
 62
   256
  9
$CELTSCALE
 40
1.0
  9
$DISPSILH
 70
     0
  9
$DIMSCALE
 40
1.0
  9
$DIMASZ
 40
0.18
  9
$DIMEXO
 40
0.0625
  9
$DIMDLI
 40
0.38
  9
$DIMRND
 40
0.0
  9
$DIMDLE
 40
0.0
  9
$DIMEXE
 40
0.18
  9
$DIMTP
 40
0.0
  9
$DIMTM
 40
0.0
  9
$DIMTXT
 40
0.18
  9
$DIMCEN
 40
0.09
  9
$DIMTSZ
 40
0.0
  9
$DIMTOL
 70
     0
  9
$DIMLIM
 70
     0
  9
$DIMTIH
 70
     1
  9
$DIMTOH
 70
     1
  9
$DIMSE1
 70
     0
  9
$DIMSE2
 70
     0
  9
$DIMTAD
 70
     0
  9
$DIMZIN
 70
     0
  9
$DIMBLK
  1

  9
$DIMASO
 70
     1
  9
$DIMSHO
 70
     1
  9
$DIMPOST
  1

  9
$DIMAPOST
  1

  9
$DIMALT
 70
     0
  9
$DIMALTD
 70
     2
  9
$DIMALTF
 40
25.4
  9
$DIMLFAC
 40
1.0
  9
$DIMTOFL
 70
     0
  9
$DIMTVP
 40
0.0
  9
$DIMTIX
 70
     0
  9
$DIMSOXD
 70
     0
  9
$DIMSAH
 70
     0
  9
$DIMBLK1
  1

  9
$DIMBLK2
  1

  9
$DIMSTYLE
  2
Standard
  9
$DIMCLRD
 70
     0
  9
$DIMCLRE
 70
     0
  9
$DIMCLRT
 70
     0
  9
$DIMTFAC
 40
1.0
  9
$DIMGAP
 40
0.09
  9
$DIMJUST
 70
     0
  9
$DIMSD1
 70
     0
  9
$DIMSD2
 70
     0
  9
$DIMTOLJ
 70
     1
  9
$DIMTZIN
 70
     0
  9
$DIMALTZ
 70
     0
  9
$DIMALTTZ
 70
     0
  9
$DIMUPT
 70
     0
  9
$DIMDEC
 70
     4
  9
$DIMTDEC
 70
     4
  9
$DIMALTU
 70
     2
  9
$DIMALTTD
 70
     2
  9
$DIMTXSTY
  7
Standard
  9
$DIMAUNIT
 70
     0
  9
$DIMADEC
 70
     0
  9
$DIMALTRND
 40
0.0
  9
$DIMAZIN
 70
     0
  9
$DIMDSEP
 70
    46
  9
$DIMATFIT
 70
     3
  9
$DIMFRAC
 70
     0
  9
$DIMLDRBLK
  1

  9
$DIMLUNIT
 70
     2
  9
$DIMLWD
 70
    -2
  9
$DIMLWE
 70
    -2
  9
$DIMTMOVE
 70
     0
  9
$DIMFXL
 40
1.0
  9
$DIMFXLON
 70
     0
  9
$DIMJOGANG
 40
0.7853981633974483
  9
$DIMTFILL
 70
     0
  9
$DIMTFILLCLR
 70
     0
  9
$DIMARCSYM
 70
     0
  9
$DIMLTYPE
  6

  9
$DIMLTEX1
  6

  9
$DIMLTEX2
  6

  9
$DIMTXTDIRECTION
 70
     0
  9
$LUNITS
 70
     2
  9
$LUPREC
 70
     4
  9
$SKETCHINC
 40
0.1
  9
$FILLETRAD
 40
0.5
  9
$AUNITS
 70
     0
  9
$AUPREC
 70
     0
  9
$MENU
  1
.
  9
$ELEVATION
 40
0.0
  9
$PELEVATION
 40
0.0
  9
$THICKNESS
 40
0.0
  9
$LIMCHECK
 70
     0
  9
$CHAMFERA
 40
0.5
  9
$CHAMFERB
 40
0.5
  9
$CHAMFERC
 40
1.0
  9
$CHAMFERD
 40
0.0
  9
$SKPOLY
 70
     0
  9
$TDCREATE
 40
2451380.930432396
  9
$TDUCREATE
 40
2451380.805432396
  9
$TDUPDATE
 40
2451380.966180555
  9
$TDUUPDATE
 40
2451380.841180556
  9
$TDINDWG
 40
0.0075637731
  9
$TDUSRTIMER
 40
0.0075547338
  9
$USRTIMER
 70
     1
  9
$ANGBASE
 50
0.0
  9
$ANGDIR
 70
     0
  9
$PDMODE
 70
     0
  9
$PDSIZE
 40
0.0
  9
$PLINEWID
 40
0.0
  9
$SPLFRAME
 70
     0
  9
$SPLINETYPE
 70
     6
  9
$SPLINESEGS
 70
     8
  9
$HANDSEED
  5
1B1
  9
$SURFTAB1
 70
     6
  9
$SURFTAB2
 70
     6
  9
$SURFTYPE
 70
     6
  9
$SURFU
 70
     6
  9
$SURFV
 70
     6
  9
$UCSBASE
  2

  9
$UCSNAME
  2

  9
$UCSORG
 10
0.0
 20
0.0
 30
0.0
  9
$UCSXDIR
 10
1.0
 20
0.0
 30
0.0
  9
$UCSYDIR
 10
0.0
 20
1.0
 30
0.0
  9
$UCSORTHOREF
  2

  9
$UCSORTHOVIEW
 70
     0
  9
$UCSORGTOP
 10
0.0
 20
0.0
 30
0.0
  9
$UCSORGBOTTOM
 10
0.0
 20
0.0
 30
0.0
  9
$UCSORGLEFT
 10
0.0
 20
0.0
 30
0.0
  9
$UCSORGRIGHT
 10
0.0
 20
0.0
 30
0.0
  9
$UCSORGFRONT
 10
0.0
 20
0.0
 30
0.0
  9
$UCSORGBACK
 10
0.0
 20
0.0
 30
0.0
  9
$PUCSBASE
  2

  9
$PUCSNAME
  2

  9
$PUCSORG
 10
0.0
 20
0.0
 30
0.0
  9
$PUCSXDIR
 10
1.0
 20
0.0
 30
0.0
  9
$PUCSYDIR
 10
0.0
 20
1.0
 30
0.0
  9
$PUCSORTHOREF
  2

  9
$PUCSORTHOVIEW
 70
     0
  9
$PUCSORGTOP
 10
0.0
 20
0.0
 30
0.0
  9
$PUCSORGBOTTOM
 10
0.0
 20
0.0
 30
0.0
  9
$PUCSORGLEFT
 10
0.0
 20
0.0
 30
0.0
  9
$PUCSORGRIGHT
 10
0.0
 20
0.0
 30
0.0
  9
$PUCSORGFRONT
 10
0.0
 20
0.0
 30
0.0
  9
$PUCSORGBACK
 10
0.0
 20
0.0
 30
0.0
  9
$USERI1
 70
     0
  9
$USERI2
 70
     0
  9
$USERI3
 70
     0
  9
$USERI4
 70
     0
  9
$USERI5
 70
     0
  9
$USERR1
 40
0.0
  9
$USERR2
 40
0.0
  9
$USERR3
 40
0.0
  9
$USERR4
 40
0.0
  9
$USERR5
 40
0.0
  9
$WORLDVIEW
 70
     1
  9
$SHADEDGE
 70
     3
  9
$SHADEDIF
 70
    70
  9
$TILEMODE
 70
     1
  9
$MAXACTVP
 70
    64
  9
$PINSBASE
 10
0.0
 20
0.0
 30
0.0
  9
$PLIMCHECK
 70
     0
  9
$PEXTMIN
 10
1.000000000000000E+20
 20
1.000000000000000E+20
 30
1.000000000000000E+20
  9
$PEXTMAX
 10
-1.000000000000000E+20
 20
-1.000000000000000E+20
 30
-1.000000000000000E+20
  9
$PLIMMIN
 10
0.0
 20
0.0
  9
$PLIMMAX
 10
12.0
 20
9.0
  9
$UNITMODE
 70
     0
  9
$VISRETAIN
 70
     1
  9
$PLINEGEN
 70
     0
  9
$PSLTSCALE
 70
     1
  9
$TREEDEPTH
 70
  3020
  9
$CMLSTYLE
  2
Standard
  9
$CMLJUST
 70
     0
  9
$CMLSCALE
 40
1.0
  9
$PROXYGRAPHICS
 70
     1
  9
$MEASUREMENT
 70
     1
  9
$CELWEIGHT
370
    -1
  9
$ENDCAPS
280
     0
  9
$JOINSTYLE
280
     0
  9
$LWDISPLAY
290
     0
  9
$INSUNITS
 70
     4
  9
$HYPERLINKBASE
  1

  9
$STYLESHEET
  1

  9
$XEDIT
290
     1
  9
$CEPSNTYPE
380
     0
  9
$PSTYLEMODE
290
     1
  9
$FINGERPRINTGUID
  2
{12F50282-3ED8-11D3-A8B7-0060B0F84BC6}
  9
$VERSIONGUID
  2
{12F50293-3ED8-11D3-A8B7-0060B0F84BC6}
  9
$EXTNAMES
290
     1
  9
$PSVPSCALE
 40
0.0
  9
$OLESTARTUP
290
     0
  9
$SORTENTS
280
   127
  9
$INDEXCTL
280
     0
  9
$HIDETEXT
280
     0
  9
$XCLIPFRAME
280
     2
  9
$HALOGAP
280
     0
  9
$OBSCOLOR
 70
   257
  9
$OBSLTYPE
280
     0
  9
$INTERSECTIONDISPLAY
280
     0
  9
$INTERSECTIONCOLOR
 70
   257
  9
$DIMASSOC
280
     1
  9
$PROJECTNAME
  1

  9
$CAMERADISPLAY
290
     0
  9
$LENSLENGTH
 40
50.0
  9
$CAMERAHEIGHT
 40
0.0
  9
$STEPSPERSEC
 40
2.0
  9
$STEPSIZE
 40
6.0
  9
$3DDWFPREC
 40
2.0
  9
$PSOLWIDTH
 40
0.25
  9
$PSOLHEIGHT
 40
4.0
  9
$LOFTANG1
 40
1.570796326794896
  9
$LOFTANG2
 40
1.570796326794896
  9
$LOFTMAG1
 40
0.0
  9
$LOFTMAG2
 40
0.0
  9
$LOFTPARAM
 70
     7
  9
$LOFTNORMALS
280
     1
  9
$LATITUDE
 40
37.795
  9
$LONGITUDE
 40
-122.394
  9
$NORTHDIRECTION
 40
0.0
  9
$TIMEZONE
 70
 -8000
  9
$LIGHTGLYPHDISPLAY
280
     1
  9
$TILEMODELIGHTSYNCH
280
     1
  9
$CMATERIAL
347
AB
  9
$SOLIDHIST
280
     0
  9
$SHOWHIST
280
     1
  9
$DWFFRAME
280
     2
  9
$DGNFRAME
280
     0
  9
$REALWORLDSCALE
290
     1
  9
$INTERFERECOLOR
 62
     1
  9
$INTERFEREOBJVS
345
CD
  9
$INTERFEREVPVS
346
CA
  9
$CSHADOW
280
     0
  9
$SHADOWPLANELOCATION
 40
0.0
  0
ENDSEC
  0
SECTION
  2
CLASSES
  0
CLASS
  1
ACDBDICTIONARYWDFLT
  2
AcDbDictionaryWithDefault
  3
ObjectDBX Classes
 90
        0
 91
        1
280
     0
281
     0
  0
CLASS
  1
ACDBPLACEHOLDER
  2
AcDbPlaceHolder
  3
ObjectDBX Classes
 90
        0
 91
        2
280
     0
281
     0
  0
CLASS
  1
LAYOUT
  2
AcDbLayout
  3
ObjectDBX Classes
 90
        0
 91
        3
280
     0
281
     0
  0
CLASS
  1
MATERIAL
  2
AcDbMaterial
  3
ObjectDBX Classes
 90
     1153
 91
        3
280
     0
281
     0
  0
CLASS
  1
VISUALSTYLE
  2
AcDbVisualStyle
  3
ObjectDBX Classes
 90
     4095
 91
       24
280
     0
281
     0
  0
CLASS
  1
TABLESTYLE
  2
AcDbTableStyle
  3
ObjectDBX Classes
 90
     4095
 91
        1
280
     0
281
     0
  0
CLASS
  1
SCALE
  2
AcDbScale
  3
ObjectDBX Classes
 90
     1153
 91
       17
280
     0
281
     0
  0
CLASS
  1
MLEADERSTYLE
  2
AcDbMLeaderStyle
  3
ACDB_MLEADERSTYLE_CLASS
 90
     4095
 91
        1
280
     0
281
     0
  0
CLASS
  1
ACDBSECTIONVIEWSTYLE
  2
AcDbSectionViewStyle
  3
ObjectDBX Classes
 90
     1025
 91
        1
280
     0
281
     0
  0
CLASS
  1
ACDBDETAILVIEWSTYLE
  2
AcDbDetailViewStyle
  3
ObjectDBX Classes
 90
     1025
 91
        1
280
     0
281
     0
  0
CLASS
  1
MESH
  2
AcDbSubDMesh
  3
ObjectDBX Classes
 90
        0
 91
        1
280
     0
281
     1
  0
CLASS
  1
DICTIONARYVAR
  2
AcDbDictionaryVar
  3
ObjectDBX Classes
 90
        0
 91
        9
280
     0
281
     0
  0
CLASS
  1
CELLSTYLEMAP
  2
AcDbCellStyleMap
  3
ObjectDBX Classes
 90
     1152
 91
        1
280
     0
281
     0
  0
ENDSEC
  0
SECTION
  2
TABLES
  0
TABLE
  2
VPORT
  5
8
330
0
100
AcDbSymbolTable
 70
     1
  0
VPORT
  5
A8
330
8
100
AcDbSymbolTableRecord
100
AcDbViewportTableRecord
  2
*Active
 70
     0
 10
0.0
 20
0.0
 11
1.0
 21
1.0
 12
0.0000000000001143
 22
20.41243934631348
 13
0.0
 23
0.0
 14
0.5
 24
0.5
 15
0.5
 25
0.5
 16
-1.0
 26
-1.0
 36
1.0
 17
0.0
 27
0.0
 37
0.0
 40
1067.246595356322
 41
1.650905009555337
 42
50.0
 43
0.0
 44
0.0
 50
0.0
 51
0.0
 71
     0
 72
   100
 73
     1
 74
     3
 75
     0
 76
     0
 77
     0
 78
     0
281
     0
 65
     1
110
0.0
120
0.0
130
0.0
111
1.0
121
0.0
131
0.0
112
0.0
122
1.0
132
0.0
 79
     0
146
0.0
348
C9
 60
     3
 61
     5
292
     1
282
     1
141
0.0
142
0.0
 63
   250
421
  3355443
  0
ENDTAB
  0
TABLE
  2
LTYPE
  5
5
330
0
100
AcDbSymbolTable
 70
     1
  0
LTYPE
  5
14
330
5
100
AcDbSymbolTableRecord
100
AcDbLinetypeTableRecord
  2
ByBlock
 70
     0
  3

 72
    65
 73
     0
 40
0.0
  0
LTYPE
  5
15
330
5
100
AcDbSymbolTableRecord
100
AcDbLinetypeTableRecord
  2
ByLayer
 70
     0
  3

 72
    65
 73
     0
 40
0.0
  0
LTYPE
  5
16
330
5
100
AcDbSymbolTableRecord
100
AcDbLinetypeTableRecord
  2
Continuous
 70
     0
  3
Solid line
 72
    65
 73
     0
 40
0.0
  0
ENDTAB
  0
TABLE
  2
LAYER
  5
2
330
0
100
AcDbSymbolTable
 70
     3
  0
LAYER
  5
10
330
2
100
AcDbSymbolTableRecord
100
AcDbLayerTableRecord
  2
0
 70
     0
 62
     7
  6
Continuous
370
    -3
390
F
347
BB
  0
LAYER
  5
2B
330
2
100
AcDbSymbolTableRecord
100
AcDbLayerTableRecord
  2
ASHADE
 70
     4
 62
     7
  6
Continuous
370
    -3
390
2D
347
BB
  0
LAYER
  5
F8
330
2
100
AcDbSymbolTableRecord
100
AcDbLayerTableRecord
  2
OracDecor_panel_moldings
 70
     0
 62
    56
420
  7440134
  6
Continuous
370
    -3
390
F
347
BB
  0
ENDTAB
  0
TABLE
  2
STYLE
  5
3
330
0
100
AcDbSymbolTable
 70
     2
  0
STYLE
  5
11
330
3
100
AcDbSymbolTableRecord
100
AcDbTextStyleTableRecord
  2
Standard
 70
     0
 40
0.0
 41
1.0
 50
0.0
 71
     0
 42
0.2
  3
txt
  4

  0
STYLE
  5
2C
330
3
100
AcDbSymbolTableRecord
100
AcDbTextStyleTableRecord
  2
ASHADE
 70
     0
 40
0.2
 41
1.0
 50
0.0
 71
     0
 42
0.2
  3
simplex
  4

  0
ENDTAB
  0
TABLE
  2
VIEW
  5
6
330
0
100
AcDbSymbolTable
 70
     0
  0
ENDTAB
  0
TABLE
  2
UCS
  5
7
330
0
100
AcDbSymbolTable
 70
     0
  0
ENDTAB
  0
TABLE
  2
APPID
  5
9
330
0
100
AcDbSymbolTable
 70
     6
  0
APPID
  5
12
330
9
100
AcDbSymbolTableRecord
100
AcDbRegAppTableRecord
  2
ACAD
 70
     0
  0
APPID
  5
8F
330
9
100
AcDbSymbolTableRecord
100
AcDbRegAppTableRecord
  2
AVE_RENDER
 70
     0
  0
APPID
  5
90
330
9
100
AcDbSymbolTableRecord
100
AcDbRegAppTableRecord
  2
AVE_ENTITY_MATERIAL
 70
     0
  0
APPID
  5
9C
330
9
100
AcDbSymbolTableRecord
100
AcDbRegAppTableRecord
  2
AVE_FINISH
 70
     0
  0
APPID
  5
9D
330
9
100
AcDbSymbolTableRecord
100
AcDbRegAppTableRecord
  2
AVE_MATERIAL
 70
     0
  0
APPID
  5
9E
330
9
100
AcDbSymbolTableRecord
100
AcDbRegAppTableRecord
  2
AVE_GLOBAL
 70
     0
  0
ENDTAB
  0
TABLE
  2
DIMSTYLE
  5
A
330
0
100
AcDbSymbolTable
 70
     1
100
AcDbDimStyleTable
 71
     0
  0
DIMSTYLE
105
27
330
A
100
AcDbSymbolTableRecord
100
AcDbDimStyleTableRecord
  2
Standard
 70
     0
340
11
  0
ENDTAB
  0
TABLE
  2
BLOCK_RECORD
  5
1
330
0
100
AcDbSymbolTable
 70
     6
  0
BLOCK_RECORD
  5
1F
330
1
100
AcDbSymbolTableRecord
100
AcDbBlockTableRecord
  2
*Model_Space
340
22
 70
     0
280
     1
281
     0
  0
BLOCK_RECORD
  5
1B
330
1
100
AcDbSymbolTableRecord
100
AcDbBlockTableRecord
  2
*Paper_Space
340
1E
 70
     0
280
     1
281
     0
  0
BLOCK_RECORD
  5
23
330
1
100
AcDbSymbolTableRecord
100
AcDbBlockTableRecord
  2
*Paper_Space0
340
26
 70
     0
280
     1
281
     0
  0
BLOCK_RECORD
  5
2E
330
1
100
AcDbSymbolTableRecord
100
AcDbBlockTableRecord
  2
direct
340
0
 70
     0
280
     1
281
     0
  0
BLOCK_RECORD
  5
42
330
1
100
AcDbSymbolTableRecord
100
AcDbBlockTableRecord
  2
overhead
340
0
 70
     0
280
     1
281
     0
  0
BLOCK_RECORD
  5
5F
330
1
100
AcDbSymbolTableRecord
100
AcDbBlockTableRecord
  2
sh_spot
340
0
 70
     0
280
     1
281
     0
  0
BLOCK_RECORD
  5
91
330
1
100
AcDbSymbolTableRecord
100
AcDbBlockTableRecord
  2
AVE_RENDER
340
0
102
{BLKREFS
331
94
331
95
331
96
331
97
331
98
331
99
331
9A
331
9B
102
}
 70
     0
280
     1
281
     0
  0
BLOCK_RECORD
  5
9F
330
1
100
AcDbSymbolTableRecord
100
AcDbBlockTableRecord
  2
AVE_GLOBAL
340
0
102
{BLKREFS
331
A2
102
}
 70
     0
280
     1
281
     0
  0
ENDTAB
  0
ENDSEC
  0
SECTION
  2
BLOCKS
  0
BLOCK
  5
20
330
1F
100
AcDbEntity
  8
0
100
AcDbBlockBegin
  2
*Model_Space
 70
     0
 10
0.0
 20
0.0
 30
0.0
  3
*Model_Space
  1

  0
ENDBLK
  5
21
330
1F
100
AcDbEntity
  8
0
100
AcDbBlockEnd
  0
BLOCK
  5
1C
330
1B
100
AcDbEntity
 67
     1
  8
0
100
AcDbBlockBegin
  2
*Paper_Space
 70
     0
 10
0.0
 20
0.0
 30
0.0
  3
*Paper_Space
  1

  0
ENDBLK
  5
1D
330
1B
100
AcDbEntity
 67
     1
  8
0
100
AcDbBlockEnd
  0
BLOCK
  5
24
330
23
100
AcDbEntity
 67
     1
  8
0
100
AcDbBlockBegin
  2
*Paper_Space0
 70
     0
 10
0.0
 20
0.0
 30
0.0
  3
*Paper_Space0
  1

  0
ENDBLK
  5
25
330
23
100
AcDbEntity
 67
     1
  8
0
100
AcDbBlockEnd
  0
BLOCK
  5
40
330
2E
100
AcDbEntity
  8
0
100
AcDbBlockBegin
  2
direct
 70
     2
 10
0.0
 20
0.0
 30
0.0
  3
direct
  1

  0
ATTDEF
  5
2F
330
2E
100
AcDbEntity
  8
ASHADE
  6
Continuous
 62
     1
100
AcDbText
 10
0.0
 20
-0.1
 30
0.0
 40
0.2
  1

  7
ASHADE
 72
     1
 11
0.0
 21
-0.1
 31
0.0
100
AcDbAttributeDefinition
280
     0
  3
Light Name
  2
SNAME
 70
     0
280
     0
  0
ARC
  5
30
330
2E
100
AcDbEntity
  8
ASHADE
  6
Continuous
 62
     7
100
AcDbCircle
 10
0.0
 20
0.0
 30
0.0
 40
0.3
100
AcDbArc
 50
205.6792886194569
 51
334.3207113805431
  0
ARC
  5
31
330
2E
100
AcDbEntity
  8
ASHADE
  6
Continuous
 62
     7
100
AcDbCircle
 10
0.0
 20
0.0
 30
0.0
 40
0.3
100
AcDbArc
 50
25.67928861945685
 51
154.3207113805431
  0
LINE
  5
32
330
2E
100
AcDbEntity
  8
ASHADE
  6
Continuous
 62
     7
100
AcDbLine
 10
-0.21
 20
0.2142428528562855
 30
0.0
 11
-0.21
 21
0.5
 31
0.0
  0
LINE
  5
33
330
2E
100
AcDbEntity
  8
ASHADE
  6
Continuous
 62
     7
100
AcDbLine
 10
-0.11
 20
0.2791057147390572
 30
0.0
 11
-0.11
 21
0.5
 31
0.0
  0
LINE
  5
34
330
2E
100
AcDbEntity
  8
ASHADE
  6
Continuous
 62
     7
100
AcDbLine
 10
0.21
 20
0.2142428528562855
 30
0.0
 11
0.21
 21
0.5
 31
0.0
  0
ATTDEF
  5
35
330
2E
100
AcDbEntity
  8
ASHADE
  6
Continuous
 62
     7
100
AcDbText
 10
0.0
 20
0.25
 30
0.0
 40
0.01
  1

100
AcDbAttributeDefinition
280
     0
  3
Look-at Y
  2
LAY
 70
     1
280
     0
  0
ATTDEF
  5
36
330
2E
100
AcDbEntity
  8
ASHADE
  6
Continuous
 62
     7
100
AcDbText
 10
0.0
 20
0.22
 30
0.0
 40
0.01
  1
1
100
AcDbAttributeDefinition
280
     0
  3
Light Intensity
  2
INTENSITY
 70
     1
280
     0
  0
ATTDEF
  5
37
330
2E
100
AcDbEntity
  8
ASHADE
  6
Continuous
 62
     7
100
AcDbText
 10
0.0
 20
0.16
 30
0.0
 40
0.01
  1
-1
100
AcDbAttributeDefinition
280
     0
  3
*not used*
  2
BEAMD
 70
     1
280
     0
  0
ATTDEF
  5
38
330
2E
100
AcDbEntity
  8
ASHADE
  6
Continuous
 62
     7
100
AcDbText
 10
0.0
 20
0.175
 30
0.0
 40
0.01
  1
-1
100
AcDbAttributeDefinition
280
     0
  3
*not used*
  2
CONED
 70
     1
280
     0
  0
ATTDEF
  5
39
330
2E
100
AcDbEntity
  8
ASHADE
  6
Continuous
 62
     7
100
AcDbText
 10
0.0
 20
0.19
 30
0.0
 40
0.01
  1
0
100
AcDbAttributeDefinition
280
     0
  3
Depth Map Size
  2
CONEA
 70
     1
280
     0
  0
ATTDEF
  5
3A
330
2E
100
AcDbEntity
  8
ASHADE
  6
Continuous
 62
     7
100
AcDbText
 10
0.0
 20
0.2050000000000001
 30
0.0
 40
0.01
  1
1,1,1
100
AcDbAttributeDefinition
280
     0
  3
Light Color (RGB)
  2
COLOR
 70
     1
280
     0
  0
ATTDEF
  5
3B
330
2E
100
AcDbEntity
  8
ASHADE
  6
Continuous
 62
     7
100
AcDbText
 10
0.0
 20
0.235
 30
0.0
 40
0.01
  1

100
AcDbAttributeDefinition
280
     0
  3
Look-at Z
  2
LAZ
 70
     1
280
     0
  0
LINE
  5
3C
330
2E
100
AcDbEntity
  8
ASHADE
  6
Continuous
 62
     7
100
AcDbLine
 10
0.0
 20
0.3
 30
0.0
 11
0.0
 21
0.5
 31
0.0
  0
LINE
  5
3D
330
2E
100
AcDbEntity
  8
ASHADE
  6
Continuous
 62
     7
100
AcDbLine
 10
0.11
 20
0.2791057147390572
 30
0.0
 11
0.11
 21
0.5
 31
0.0
  0
ATTDEF
  5
3E
330
2E
100
AcDbEntity
  8
ASHADE
  6
Continuous
 62
     7
100
AcDbText
 10
0.0
 20
0.265
 30
0.0
 40
0.01
  1

100
AcDbAttributeDefinition
280
     0
  3
Look-at X
  2
LAX
 70
     1
280
     0
  0
ATTDEF
  5
3F
330
2E
100
AcDbEntity
  8
ASHADE
  6
Continuous
 62
     7
100
AcDbText
 10
0.0
 20
0.28
 30
0.0
 40
0.01
  1

100
AcDbAttributeDefinition
280
     0
  3

  2
GNAME
 70
     1
280
     0
  0
ENDBLK
  5
41
330
2E
100
AcDbEntity
  8
0
100
AcDbBlockEnd
  0
BLOCK
  5
5D
330
42
100
AcDbEntity
  8
0
100
AcDbBlockBegin
  2
overhead
 70
     2
 10
0.0
 20
0.0
 30
0.0
  3
overhead
  1

  0
ATTDEF
  5
43
330
42
100
AcDbEntity
  8
ASHADE
  6
Continuous
 62
     1
100
AcDbText
 10
0.0
 20
-0.1
 30
0.0
 40
0.2
  1

  7
ASHADE
 72
     1
 11
0.0
 21
-0.1
 31
0.0
100
AcDbAttributeDefinition
280
     0
  3
Light Name
  2
SNAME
 70
     0
280
     0
  0
ARC
  5
44
330
42
100
AcDbEntity
  8
ASHADE
  6
Continuous
 62
     7
100
AcDbCircle
 10
0.0
 20
0.0
 30
0.0
 40
0.3
100
AcDbArc
 50
205.6792886194569
 51
334.3207113805431
  0
LINE
  5
45
330
42
100
AcDbEntity
  8
ASHADE
  6
Continuous
 62
     7
100
AcDbLine
 10
-0.2041413561583015
 20
-0.2198324514393848
 30
0.0
 11
-0.2721884748777353
 21
-0.2931099352525131
 31
0.0
  0
LINE
  5
46
330
42
100
AcDbEntity
  8
ASHADE
  6
Continuous
 62
     7
100
AcDbLine
 10
-0.1096591641591904
 20
-0.2792398032442862
 30
0.0
 11
-0.1279356915190555
 21
-0.3257797704516673
 31
0.0
  0
LINE
  5
47
330
42
100
AcDbEntity
  8
ASHADE
  6
Continuous
 62
     7
100
AcDbLine
 10
0.0
 20
-0.2999999999999999
 30
0.0
 11
0.0
 21
-0.4
 31
0.0
  0
LINE
  5
48
330
42
100
AcDbEntity
  8
ASHADE
  6
Continuous
 62
     7
100
AcDbLine
 10
0.1096591641591904
 20
-0.2792398032442862
 30
0.0
 11
0.1279356915190555
 21
-0.3257797704516673
 31
0.0
  0
LINE
  5
49
330
42
100
AcDbEntity
  8
ASHADE
  6
Continuous
 62
     7
100
AcDbLine
 10
0.2041413561583015
 20
-0.2198324514393848
 30
0.0
 11
0.2721884748777353
 21
-0.2931099352525131
 31
0.0
  0
ARC
  5
4A
330
42
100
AcDbEntity
  8
ASHADE
  6
Continuous
 62
     7
100
AcDbCircle
 10
0.0
 20
0.0
 30
0.0
 40
0.3
100
AcDbArc
 50
25.67928861945685
 51
154.3207113805431
  0
LINE
  5
4B
330
42
100
AcDbEntity
  8
ASHADE
  6
Continuous
 62
     7
100
AcDbLine
 10
-0.2703701166919155
 20
0.13
 30
0.0
 11
-0.3154318028072347
 21
0.1516666666666666
 31
0.0
  0
LINE
  5
4C
330
42
100
AcDbEntity
  8
ASHADE
  6
Continuous
 62
     7
100
AcDbLine
 10
-0.2703701166919155
 20
-0.13
 30
0.0
 11
-0.3154318028072347
 21
-0.1516666666666666
 31
0.0
  0
LINE
  5
4D
330
42
100
AcDbEntity
  8
ASHADE
  6
Continuous
 62
     7
100
AcDbLine
 10
-0.2041413561583015
 20
0.2198324514393849
 30
0.0
 11
-0.2721884748777353
 21
0.2931099352525131
 31
0.0
  0
LINE
  5
4E
330
42
100
AcDbEntity
  8
ASHADE
  6
Continuous
 62
     7
100
AcDbLine
 10
-0.1096591641591904
 20
0.2792398032442862
 30
0.0
 11
-0.1279356915190555
 21
0.3257797704516674
 31
0.0
  0
LINE
  5
4F
330
42
100
AcDbEntity
  8
ASHADE
  6
Continuous
 62
     7
100
AcDbLine
 10
0.2703701166919155
 20
-0.13
 30
0.0
 11
0.3154318028072347
 21
-0.1516666666666666
 31
0.0
  0
LINE
  5
50
330
42
100
AcDbEntity
  8
ASHADE
  6
Continuous
 62
     7
100
AcDbLine
 10
0.2703701166919155
 20
0.13
 30
0.0
 11
0.3154318028072347
 21
0.1516666666666666
 31
0.0
  0
LINE
  5
51
330
42
100
AcDbEntity
  8
ASHADE
  6
Continuous
 62
     7
100
AcDbLine
 10
0.0
 20
0.3
 30
0.0
 11
0.0
 21
0.4
 31
0.0
  0
ATTDEF
  5
52
330
42
100
AcDbEntity
  8
ASHADE
  6
Continuous
 62
     7
100
AcDbText
 10
0.0
 20
0.22
 30
0.0
 40
0.01
  1
1
100
AcDbAttributeDefinition
280
     0
  3
Light Intensity
  2
INTENSITY
 70
     1
280
     0
  0
ATTDEF
  5
53
330
42
100
AcDbEntity
  8
ASHADE
  6
Continuous
 62
     7
100
AcDbText
 10
0.0
 20
0.16
 30
0.0
 40
0.01
  1
-1
100
AcDbAttributeDefinition
280
     0
  3
*not used*
  2
BEAMD
 70
     1
280
     0
  0
ATTDEF
  5
54
330
42
100
AcDbEntity
  8
ASHADE
  6
Continuous
 62
     7
100
AcDbText
 10
0.0
 20
0.175
 30
0.0
 40
0.01
  1
-1
100
AcDbAttributeDefinition
280
     0
  3
*not used*
  2
CONED
 70
     1
280
     0
  0
ATTDEF
  5
55
330
42
100
AcDbEntity
  8
ASHADE
  6
Continuous
 62
     7
100
AcDbText
 10
0.0
 20
0.19
 30
0.0
 40
0.01
  1
0
100
AcDbAttributeDefinition
280
     0
  3
Depth Map Size
  2
CONEA
 70
     1
280
     0
  0
ATTDEF
  5
56
330
42
100
AcDbEntity
  8
ASHADE
  6
Continuous
 62
     7
100
AcDbText
 10
0.0
 20
0.2050000000000001
 30
0.0
 40
0.01
  1
1,1,1
100
AcDbAttributeDefinition
280
     0
  3
Light Color (RGB)
  2
COLOR
 70
     1
280
     0
  0
ATTDEF
  5
57
330
42
100
AcDbEntity
  8
ASHADE
  6
Continuous
 62
     7
100
AcDbText
 10
0.0
 20
0.235
 30
0.0
 40
0.01
  1

100
AcDbAttributeDefinition
280
     0
  3
Look-at Z
  2
LAZ
 70
     1
280
     0
  0
ATTDEF
  5
58
330
42
100
AcDbEntity
  8
ASHADE
  6
Continuous
 62
     7
100
AcDbText
 10
0.0
 20
0.25
 30
0.0
 40
0.01
  1

100
AcDbAttributeDefinition
280
     0
  3
Look-at Y
  2
LAY
 70
     1
280
     0
  0
ATTDEF
  5
59
330
42
100
AcDbEntity
  8
ASHADE
  6
Continuous
 62
     7
100
AcDbText
 10
0.0
 20
0.265
 30
0.0
 40
0.01
  1

100
AcDbAttributeDefinition
280
     0
  3
Look-at X
  2
LAX
 70
     1
280
     0
  0
ATTDEF
  5
5A
330
42
100
AcDbEntity
  8
ASHADE
  6
Continuous
 62
     7
100
AcDbText
 10
0.0
 20
0.28
 30
0.0
 40
0.01
  1

100
AcDbAttributeDefinition
280
     0
  3

  2
GNAME
 70
     1
280
     0
  0
LINE
  5
5B
330
42
100
AcDbEntity
  8
ASHADE
  6
Continuous
 62
     7
100
AcDbLine
 10
0.1096591641591904
 20
0.2792398032442862
 30
0.0
 11
0.1279356915190555
 21
0.3257797704516674
 31
0.0
  0
LINE
  5
5C
330
42
100
AcDbEntity
  8
ASHADE
  6
Continuous
 62
     7
100
AcDbLine
 10
0.2041413561583015
 20
0.2198324514393849
 30
0.0
 11
0.2721884748777353
 21
0.2931099352525131
 31
0.0
  0
ENDBLK
  5
5E
330
42
100
AcDbEntity
  8
0
100
AcDbBlockEnd
  0
BLOCK
  5
85
330
5F
100
AcDbEntity
  8
0
100
AcDbBlockBegin
  2
sh_spot
 70
     2
 10
0.0
 20
0.0
 30
0.0
  3
sh_spot
  1

  0
LINE
  5
60
330
5F
100
AcDbEntity
  8
ASHADE
  6
Continuous
 62
     7
100
AcDbLine
 10
0.25
 20
0.26
 30
0.0
 11
-0.25
 21
0.26
 31
0.0
  0
LINE
  5
61
330
5F
100
AcDbEntity
  8
ASHADE
  6
Continuous
 62
     7
100
AcDbLine
 10
-0.25
 20
-0.3399999999999999
 30
0.0
 11
0.25
 21
-0.3399999999999999
 31
0.0
  0
ATTDEF
  5
62
330
5F
100
AcDbEntity
  8
ASHADE
  6
Continuous
 62
     1
100
AcDbText
 10
0.0
 20
-0.1
 30
0.0
 40
0.2
  1

  7
ASHADE
 72
     1
 11
0.0
 21
-0.1
 31
0.0
100
AcDbAttributeDefinition
280
     0
  3
Light Name
  2
SNAME
 70
     0
280
     0
  0
LINE
  5
63
330
5F
100
AcDbEntity
  8
ASHADE
  6
Continuous
 62
     7
100
AcDbLine
 10
-0.25
 20
-0.13
 30
0.0
 11
-0.25
 21
-0.3399999999999999
 31
0.0
  0
LINE
  5
64
330
5F
100
AcDbEntity
  8
ASHADE
  6
Continuous
 62
     7
100
AcDbLine
 10
-0.25
 20
-0.18
 30
0.0
 11
-0.29
 21
-0.18
 31
0.0
  0
LINE
  5
65
330
5F
100
AcDbEntity
  8
ASHADE
  6
Continuous
 62
     7
100
AcDbLine
 10
-0.29
 20
-0.22
 30
0.0
 11
-0.25
 21
-0.22
 31
0.0
  0
LINE
  5
66
330
5F
100
AcDbEntity
  8
ASHADE
  6
Continuous
 62
     7
100
AcDbLine
 10
-0.29
 20
-0.18
 30
0.0
 11
-0.29
 21
-0.22
 31
0.0
  0
LINE
  5
67
330
5F
100
AcDbEntity
  8
ASHADE
  6
Continuous
 62
     7
100
AcDbLine
 10
-0.1045454545454545
 20
0.26
 30
0.0
 11
-0.15
 21
0.46
 31
0.0
  0
LINE
  5
68
330
5F
100
AcDbEntity
  8
ASHADE
  6
Continuous
 62
     7
100
AcDbLine
 10
-0.21
 20
0.26
 30
0.0
 11
-0.301304347826087
 21
0.46
 31
0.0
  0
LINE
  5
69
330
5F
100
AcDbEntity
  8
ASHADE
  6
Continuous
 62
     7
100
AcDbLine
 10
-0.25
 20
0.26
 30
0.0
 11
-0.25
 21
0.13
 31
0.0
  0
LINE
  5
6A
330
5F
100
AcDbEntity
  8
ASHADE
  6
Continuous
 62
     7
100
AcDbLine
 10
-0.25
 20
0.22
 30
0.0
 11
-0.29
 21
0.22
 31
0.0
  0
LINE
  5
6B
330
5F
100
AcDbEntity
  8
ASHADE
  6
Continuous
 62
     7
100
AcDbLine
 10
-0.29
 20
0.1799999999999999
 30
0.0
 11
-0.25
 21
0.1799999999999999
 31
0.0
  0
LINE
  5
6C
330
5F
100
AcDbEntity
  8
ASHADE
  6
Continuous
 62
     7
100
AcDbLine
 10
-0.29
 20
0.22
 30
0.0
 11
-0.29
 21
0.1799999999999999
 31
0.0
  0
ATTDEF
  5
6D
330
5F
100
AcDbEntity
  8
ASHADE
  6
Continuous
 62
     7
100
AcDbText
 10
0.0
 20
-0.24
 30
0.0
 40
0.01
  1
0
100
AcDbAttributeDefinition
280
     0
  3
Depth Map Size
  2
ZSIZE
 70
     1
280
     0
  0
ATTDEF
  5
6E
330
5F
100
AcDbEntity
  8
ASHADE
  6
Continuous
 62
     7
100
AcDbText
 10
0.0
 20
-0.3300000000000001
 30
0.0
 40
0.01
  1
0,0,0
100
AcDbAttributeDefinition
280
     0
  3
Look-from XYZ
  2
LFXYZ
 70
     1
280
     0
  0
ATTDEF
  5
6F
330
5F
100
AcDbEntity
  8
ASHADE
  6
Continuous
 62
     7
100
AcDbText
 10
0.0
 20
-0.315
 30
0.0
 40
0.01
  1
0.0
100
AcDbAttributeDefinition
280
     0
  3
Beam Distribution
  2
BEAMDI
 70
     1
280
     0
  0
ATTDEF
  5
70
330
5F
100
AcDbEntity
  8
ASHADE
  6
Continuous
 62
     7
100
AcDbText
 10
0.0
 20
-0.3
 30
0.0
 40
0.01
  1
0.0
100
AcDbAttributeDefinition
280
     0
  3
Cone Delta
  2
CONEDE
 70
     1
280
     0
  0
ATTDEF
  5
71
330
5F
100
AcDbEntity
  8
ASHADE
  6
Continuous
 62
     7
100
AcDbText
 10
0.0
 20
-0.2850000000000001
 30
0.0
 40
0.01
  1
10.0
100
AcDbAttributeDefinition
280
     0
  3
Cone Angle
  2
CONEAN
 70
     1
280
     0
  0
ATTDEF
  5
72
330
5F
100
AcDbEntity
  8
ASHADE
  6
Continuous
 62
     7
100
AcDbText
 10
0.0
 20
-0.27
 30
0.0
 40
0.01
  1
-1
100
AcDbAttributeDefinition
280
     0
  3
*not used*
  2
BIASMAX
 70
     1
280
     0
  0
ATTDEF
  5
73
330
5F
100
AcDbEntity
  8
ASHADE
  6
Continuous
 62
     7
100
AcDbText
 10
0.0
 20
-0.255
 30
0.0
 40
0.01
  1
-1
100
AcDbAttributeDefinition
280
     0
  3
*not used*
  2
BIASMIN
 70
     1
280
     0
  0
ATTDEF
  5
74
330
5F
100
AcDbEntity
  8
ASHADE
  6
Continuous
 62
     7
100
AcDbText
 10
0.0
 20
-0.225
 30
0.0
 40
0.01
  1
1,1,1
100
AcDbAttributeDefinition
280
     0
  3
Light Color (RGB)
  2
COLOR
 70
     1
280
     0
  0
ATTDEF
  5
75
330
5F
100
AcDbEntity
  8
ASHADE
  6
Continuous
 62
     7
100
AcDbText
 10
0.0
 20
-0.21
 30
0.0
 40
0.01
  1
1
100
AcDbAttributeDefinition
280
     0
  3
Light Intensity
  2
INTENSITY
 70
     1
280
     0
  0
ATTDEF
  5
76
330
5F
100
AcDbEntity
  8
ASHADE
  6
Continuous
 62
     7
100
AcDbText
 10
0.0
 20
-0.15
 30
0.0
 40
0.01
  1

100
AcDbAttributeDefinition
280
     0
  3

  2
GNAME
 70
     1
280
     0
  0
ATTDEF
  5
77
330
5F
100
AcDbEntity
  8
ASHADE
  6
Continuous
 62
     7
100
AcDbText
 10
0.0
 20
-0.195
 30
0.0
 40
0.01
  1

100
AcDbAttributeDefinition
280
     0
  3
Look-at Z
  2
LAZ
 70
     1
280
     0
  0
ATTDEF
  5
78
330
5F
100
AcDbEntity
  8
ASHADE
  6
Continuous
 62
     7
100
AcDbText
 10
0.0
 20
-0.18
 30
0.0
 40
0.01
  1

100
AcDbAttributeDefinition
280
     0
  3
Look-at Y
  2
LAY
 70
     1
280
     0
  0
ATTDEF
  5
79
330
5F
100
AcDbEntity
  8
ASHADE
  6
Continuous
 62
     7
100
AcDbText
 10
0.0
 20
-0.165
 30
0.0
 40
0.01
  1

100
AcDbAttributeDefinition
280
     0
  3
Look-at X
  2
LAX
 70
     1
280
     0
  0
LINE
  5
7A
330
5F
100
AcDbEntity
  8
ASHADE
  6
Continuous
 62
     7
100
AcDbLine
 10
0.25
 20
-0.3399999999999999
 30
0.0
 11
0.25
 21
-0.13
 31
0.0
  0
LINE
  5
7B
330
5F
100
AcDbEntity
  8
ASHADE
  6
Continuous
 62
     7
100
AcDbLine
 10
0.25
 20
-0.18
 30
0.0
 11
0.29
 21
-0.18
 31
0.0
  0
LINE
  5
7C
330
5F
100
AcDbEntity
  8
ASHADE
  6
Continuous
 62
     7
100
AcDbLine
 10
0.29
 20
-0.22
 30
0.0
 11
0.25
 21
-0.22
 31
0.0
  0
LINE
  5
7D
330
5F
100
AcDbEntity
  8
ASHADE
  6
Continuous
 62
     7
100
AcDbLine
 10
0.29
 20
-0.18
 30
0.0
 11
0.29
 21
-0.22
 31
0.0
  0
LINE
  5
7E
330
5F
100
AcDbEntity
  8
ASHADE
  6
Continuous
 62
     7
100
AcDbLine
 10
0.21
 20
0.26
 30
0.0
 11
0.301304347826087
 21
0.46
 31
0.0
  0
LINE
  5
7F
330
5F
100
AcDbEntity
  8
ASHADE
  6
Continuous
 62
     7
100
AcDbLine
 10
0.1045454545454545
 20
0.26
 30
0.0
 11
0.15
 21
0.46
 31
0.0
  0
LINE
  5
80
330
5F
100
AcDbEntity
  8
ASHADE
  6
Continuous
 62
     7
100
AcDbLine
 10
0.0
 20
0.26
 30
0.0
 11
0.0
 21
0.46
 31
0.0
  0
LINE
  5
81
330
5F
100
AcDbEntity
  8
ASHADE
  6
Continuous
 62
     7
100
AcDbLine
 10
0.25
 20
0.13
 30
0.0
 11
0.25
 21
0.26
 31
0.0
  0
LINE
  5
82
330
5F
100
AcDbEntity
  8
ASHADE
  6
Continuous
 62
     7
100
AcDbLine
 10
0.25
 20
0.22
 30
0.0
 11
0.29
 21
0.22
 31
0.0
  0
LINE
  5
83
330
5F
100
AcDbEntity
  8
ASHADE
  6
Continuous
 62
     7
100
AcDbLine
 10
0.29
 20
0.1799999999999999
 30
0.0
 11
0.25
 21
0.1799999999999999
 31
0.0
  0
LINE
  5
84
330
5F
100
AcDbEntity
  8
ASHADE
  6
Continuous
 62
     7
100
AcDbLine
 10
0.29
 20
0.22
 30
0.0
 11
0.29
 21
0.1799999999999999
 31
0.0
  0
ENDBLK
  5
86
330
5F
100
AcDbEntity
  8
0
100
AcDbBlockEnd
  0
BLOCK
  5
92
330
91
100
AcDbEntity
  8
ASHADE
100
AcDbBlockBegin
  2
AVE_RENDER
 70
     0
 10
0.0
 20
0.0
 30
0.0
  3
AVE_RENDER
  1
AVE_RENDER
  0
ENDBLK
  5
93
330
91
100
AcDbEntity
  8
0
100
AcDbBlockEnd
  0
BLOCK
  5
A0
330
9F
100
AcDbEntity
  8
ASHADE
100
AcDbBlockBegin
  2
AVE_GLOBAL
 70
     0
 10
0.0
 20
0.0
 30
0.0
  3
AVE_GLOBAL
  1
AVE_GLOBAL
  0
ENDBLK
  5
A1
330
9F
100
AcDbEntity
  8
0
100
AcDbBlockEnd
  0
ENDSEC
  0
SECTION
  2
ENTITIES
  0
INSERT
  5
94
330
1F
100
AcDbEntity
  8
ASHADE
 62
     1
100
AcDbBlockReference
  2
AVE_RENDER
 10
0.0
 20
0.0
 30
0.0
1001
AVE_RENDER
1002
{
1070
     7
1000
Pref
1070
    30
1070
    20
1070
     1
1070
     0
1000

1070
    10
1070
     1
1070
    10
1040
1.0
1070
     1
1040
0.3
1040
0.7
1040
0.0
1040
10.0
1010
-1.0
1020
-1.0
1030
-1.0
1040
0.3
1070
    49
1070
     0
1070
     0
1010
1.0
1020
1.0
1030
1.0
1040
45.0
1070
     1
1070
     0
1000
WCS
1040
0.0
1070
     0
1040
10.0
1002
}
  0
INSERT
  5
95
330
1F
100
AcDbEntity
  8
ASHADE
 62
     3
100
AcDbBlockReference
  2
AVE_RENDER
 10
0.0
 20
0.0
 30
0.0
1001
AVE_RENDER
1002
{
1070
     0
1000
Full Opt
1070
     0
1070
     1
1070
     1
1070
     1
1070
     0
1070
     0
1070
     0
1070
     1
1070
     1
1040
0.0001
1040
0.0001
1002
}
  0
INSERT
  5
96
330
1F
100
AcDbEntity
  8
ASHADE
 62
     4
100
AcDbBlockReference
  2
AVE_RENDER
 10
0.0
 20
0.0
 30
0.0
1001
AVE_RENDER
1002
{
1070
     0
1000
Quick Opt
1070
     0
1070
     1
1070
     1
1070
     1
1070
     0
1070
     0
1070
     1
1002
}
  0
INSERT
  5
97
330
1F
100
AcDbEntity
  8
ASHADE
 62
     5
100
AcDbBlockReference
  2
AVE_RENDER
 10
0.0
 20
0.0
 30
0.0
1001
AVE_RENDER
1002
{
1070
     1
1000
Scanl Opt
1070
     2
1070
     0
1070
     2
1040
2.0
1040
4.0
1070
     0
1070
     1
1070
     0
1040
0.03
1002
}
  0
INSERT
  5
98
330
1F
100
AcDbEntity
  8
ASHADE
 62
     6
100
AcDbBlockReference
  2
AVE_RENDER
 10
0.0
 20
0.0
 30
0.0
1001
AVE_RENDER
1002
{
1070
     2
1000
Raytr Opt
1070
     2
1070
     0
1070
     2
1040
2.0
1040
4.0
1070
     0
1070
     1
1070
     1
1040
0.03
1070
     3
1040
0.03
1002
}
  0
INSERT
  5
99
330
1F
100
AcDbEntity
  8
ASHADE
 62
     7
100
AcDbBlockReference
  2
AVE_RENDER
 10
0.0
 20
0.0
 30
0.0
1001
AVE_RENDER
1002
{
1070
     0
1000
RFile Opt
1070
     1
1070
   640
1070
   480
1070
 10000
1070
     1
1070
     8
1070
     8
1070
     0
1070
     0
1070
     0
1070
     0
1070
     0
1070
     0
1070
     0
1002
}
  0
INSERT
  5
9A
330
1F
100
AcDbEntity
  8
ASHADE
 62
     8
100
AcDbBlockReference
  2
AVE_RENDER
 10
0.0
 20
0.0
 30
0.0
1001
AVE_RENDER
1002
{
1070
     0
1000
Fog Opt
1070
     0
1070
     0
1040
0.0
1040
1.0
1040
0.0
1040
1.0
1010
0.5
1020
0.5
1030
0.5
1002
}
  0
INSERT
  5
9B
330
1F
100
AcDbEntity
  8
ASHADE
 62
     9
100
AcDbBlockReference
  2
AVE_RENDER
 10
0.0
 20
0.0
 30
0.0
1001
AVE_RENDER
1002
{
1070
     0
1000
BG Opt
1070
     0
1070
     1
1010
0.0
1020
0.0
1030
0.0
1010
1.0
1020
0.0
1030
0.0
1010
0.0
1020
1.0
1030
0.0
1010
0.0
1020
0.0
1030
1.0
1040
0.5
1040
0.33
1040
0.0
1000

1070
     1
1000

1070
     1
1070
     1
1040
1.0
1040
1.0
1040
0.0
1040
0.0
1070
     0
1002
}
  0
INSERT
  5
A2
330
1F
100
AcDbEntity
  8
ASHADE
 62
     1
100
AcDbBlockReference
  2
AVE_GLOBAL
 10
0.0
 20
0.0
 30
0.0
1001
AVE_MATERIAL
1002
{
1000
*GLOBAL*
1000
2
1000
Global finish.
1002
{
1002
}
1002
{
1070
    63
1002
{
1002
{
1010
-1.0
1020
-1.0
1030
-1.0
1002
}
1040
0.1000000014901161
1000

1040
0.0
1002
{
1002
}
1040
0.0
1002
{
1002
}
1040
0.0
1002
}
1002
{
1002
{
1010
-1.0
1020
-1.0
1030
-1.0
1002
}
1040
0.6999999880790711
1000

1040
0.0
1002
{
1002
}
1040
0.0
1002
{
1002
}
1040
0.0
1002
}
1002
{
1002
{
1010
-1.0
1020
-1.0
1030
-1.0
1002
}
1040
0.2000000029802322
1000

1040
0.0
1002
{
1002
}
1040
0.0
1002
{
1002
}
1040
0.0
1002
}
1002
{
1070
     0
1002
{
1070
     1
1002
{
1040
1.0
1040
1.0
1000

1040
0.0
1002
{
1002
}
1040
0.0
1002
{
1002
}
1040
0.0
1002
}
1002
}
1040
1.0
1040
0.0
1040
0.0
1002
}
1002
{
1040
1.0
1040
1.0
1000

1040
0.0
1002
{
1002
}
1040
0.0
1002
{
1002
}
1040
0.0
1002
}
1002
{
1040
0.5
1040
1.0
1000

1040
0.0
1002
{
1002
}
1040
0.0
1002
{
1002
}
1040
0.0
1002
}
1002
{
1070
     0
1040
0.0
1002
{
1002
}
1040
1.0
1002
{
1002
}
1040
0.0
1002
}
1002
{
1040
0.0
1002
{
1002
{
1010
0.0
1020
0.0
1030
0.0
1002
}
1040
1.0
1000

1040
0.0
1002
{
1002
}
1040
0.0
1002
{
1002
}
1040
0.0
1002
}
1002
}
1002
{
1002
{
1070
     1
1002
{
1040
0.0
1040
1.0
1000

1040
0.0
1002
{
1002
}
1040
0.0
1002
{
1002
}
1040
0.0
1002
}
1002
}
1040
0.0
1002
{
1002
}
1010
1.0
1020
0.0
1030
0.0
1010
0.0
1020
1.0
1030
0.0
1010
0.0
1020
0.0
1030
1.0
1070
     0
1002
}
1002
{
1002
{
1040
1.0
1040
1.0
1002
{
1070
     1
1002
{
1040
1.0
1040
1.0
1000

1040
0.0
1002
{
1002
}
1040
0.0
1002
{
1002
}
1040
0.0
1002
}
1002
}
1002
}
1070
     0
1040
0.0
1002
{
1002
}
1002
}
1002
{
1002
}
1002
}
1002
{
1071
        3
1070
     3
1070
     0
1002
{
1070
     2
1070
     0
1070
     0
1040
0.0
1002
}
1070
     0
1070
     2
1002
{
1002
}
1002
}
1002
{
1040
8030.0
1040
190.3000030517578
1040
0.3050000071525574
1040
228.0
1040
545.0
1040
14.0
1040
17.39999961853027
1040
0.4560000002384186
1002
}
1002
}
  0
MESH
  5
F9
330
1F
100
AcDbEntity
  8
OracDecor_panel_moldings
 62
    33
420
 14782295
160
             34136
310
58850000B40300000C00000013000000020000003C00000006000000020000000000000000408F40000000000000A0BE000000C0E23644400000000000408F400000000060A2B3BF000000C0E45844400C000000130000000A0000003C00000006000000020000000000000000408F400000000028A5C0BF000000C005DB42
310
400000000000408F400000000060A2B3BF000000C0E45844400C00000013000000120000003C00000006000000020000000000000000408F40000000000000000000000040241A43400000000000408F400000000028A5C0BF000000C005DB42400C000000130000001A0000003C0000000600000002000000000000000040
310
8F40000000000000A0BE000000C0E23644400000000000408F40000000000000000000000040241A43400C00000013000000220000003C00000006000000020000000000000000408F40000000000000A0BE000000001F4946400000000000408F400000000000000000000000C0000049400C000000130000002A0000003C
310
00000006000000020000000000000000408F40000000E0C6C109C0000000C0000049400000000000408F400000000000000000000000C0000049400C00000013000000320000003C00000006000000020000000000000000408F40000000000000A0BE000000001F4946400000000000408F40000000E0C6C109C0000000C0
310
000049400C000000130000003A0000003C00000006000000020000000000000000408F400000000060A2B3BF000000001D2746400000000000408F40000000000000A0BE000000001F4946400C00000013000000420000003C00000006000000020000000000000000408F40000000E0C6C109C0000000C000004940000000
310
0000408F400000000014D10AC0000000408AF948400C000000130000004A0000003C00000006000000020000000000000000408F400000000060A2B3BF000000001D2746400000000000408F400000000014D10AC0000000408AF948400C00000013000000520000003C00000006000000020000000000000000408F400000
310
00004616D2BF000000807C0F46400000000000408F400000000060A2B3BF000000001D2746400C000000130000005A0000003C00000006000000020000000000000000408F400000000014D10AC0000000408AF948400000000000408F400000004066580BC0000000007CE948400C00000013000000620000003C00000006
310
000000020000000000000000408F40000000004616D2BF000000807C0F46400000000000408F400000004066580BC0000000007CE948400C000000130000006A0000003C00000006000000020000000000000000408F40000000004616D2BF000000807C0F46400000000000408F40000000006F0EE8BF000000407BDF4540
310
0C00000013000000720000003C00000006000000020000000000000000408F400000004066580BC0000000007CE948400000000000408F40000000C04B310CC000000080639948400C000000130000007A0000003C00000006000000020000000000000000408F40000000C04B310CC000000080639948400000000000408F
310
40000000006F0EE8BF000000407BDF45400C00000013000000820000003C00000006000000020000000000000000408F4000000000D7D4EFBF000000006EB845400000000000408F40000000006F0EE8BF000000407BDF45400C000000130000008A0000003C00000006000000020000000000000000408F40000000C04B31
310
0CC000000080639948400000000000408F40000000C0AFED0DC0000000004F3348400C00000013000000920000003C00000006000000020000000000000000408F4000000000D7D4EFBF000000006EB845400000000000408F40000000C0AFED0DC0000000004F3348400C000000130000009A0000003C0000000600000002
310
0000000000000000408F4000000000D7D4EFBF000000006EB845400000000000408F4000000000F4AFF2BF000000C05E8A45400C00000013000000A20000003C00000006000000020000000000000000408F40000000C0AFED0DC0000000004F3348400000000000408F4000000080244B10C000000000F6C147400C000000
310
13000000AA0000003C00000006000000020000000000000000408F4000000080244B10C000000000F6C147400000000000408F4000000000F4AFF2BF000000C05E8A45400C00000013000000B20000003C00000006000000020000000000000000408F40000000004713F4BF00000000B45945400000000000408F40000000
310
00F4AFF2BF000000C05E8A45400C00000013000000BA0000003C00000006000000020000000000000000408F4000000080244B10C000000000F6C147400000000000408F4000000000F30312C0000000C09E5247400C00000013000000C20000003C00000006000000020000000000000000408F40000000004713F4BF0000
310
0000B45945400000000000408F4000000000F30312C0000000C09E5247400C00000013000000CA0000003C00000006000000020000000000000000408F40000000004713F4BF00000000B45945400000000000408F40000000804613F4BF000000804D2645400C00000013000000D20000003C000000060000000200000000
310
00000000408F4000000000F30312C0000000C09E5247400000000000408F40000000E031FC13C00000008075F146400C00000013000000DA0000003C00000006000000020000000000000000408F40000000E031FC13C00000008075F146400000000000408F40000000804613F4BF000000804D2645400C00000013000000
310
E20000003C00000006000000020000000000000000408F400000000060A2B3BF000000C0E45844400000000000408F40000000004616D2BF00000000857044400C00000013000000EA0000003C00000006000000020000000000000000408F40000000004616D2BF00000000857044400000000000408F40000000002E20DF
310
BF0000008051AC42400C00000013000000F20000003C00000006000000020000000000000000408F400000000028A5C0BF000000C005DB42400000000000408F40000000002E20DFBF0000008051AC42400C00000013000000FA0000003C00000006000000020000000000000000408F40000000004616D2BF000000008570
310
44400000000000408F40000000006F0EE8BF0000008086A044400C00000013000000020100003C00000006000000020000000000000000408F40000000006F0EE8BF0000008086A044400000000000408F4000000040F7AD1AC00000000078D240400C000000130000000A0100003C00000006000000020000000000000000
310
408F40000000002E20DFBF0000008051AC42400000000000408F4000000040F7AD1AC00000000078D240400C00000013000000120100003C00000006000000020000000000000000408F40000000006F0EE8BF0000008086A044400000000000408F4000000000D6D4EFBF0000008093C744400C000000130000001A010000
310
3C00000006000000020000000000000000408F4000000040F7AD1AC00000000078D240400000000000408F4000000000D6D4EFBF0000008093C744400C00000013000000220100003C00000006000000020000000000000000408F4000000000EF8B20C0000000C09DD744400000000000408F4000000000D6D4EFBF000000
310
8093C744400C000000130000002A0100003C00000006000000020000000000000000408F4000000000EF8B20C0000000C09DD744400000000000408F4000000040A39620C00000004010D144400C00000013000000320100003C00000006000000020000000000000000408F4000000040A39620C00000004010D144400000
310
000000408F4000000040F7AD1AC00000000078D240400C000000130000003A0100003C00000006000000020000000000000000408F4000000080F3AFF2BF00000000A3F544400000000000408F4000000000D6D4EFBF0000008093C744400C00000013000000420100003C00000006000000020000000000000000408F4000
310
000000EF8B20C0000000C09DD744400000000000408F4000000080F3AFF2BF00000000A3F544400C000000130000004A0100003C00000006000000020000000000000000408F4000000080F3AFF2BF00000000A3F544400000000000408F4000000000D01F20C0000000400AD445400C00000013000000520100003C000000
310
06000000020000000000000000408F4000000000EF8B20C0000000C09DD744400000000000408F4000000000D01F20C0000000400AD445400C000000130000005A0100003C00000006000000020000000000000000408F4000000040A39620C00000004010D144400000000000408F40000000409CAD20C000000000EDCC44
310
400C00000013000000620100003C00000006000000020000000000000000408F4000000040F7AD1AC00000000078D240400000000000408F40000000409CAD20C000000000EDCC44400C000000130000006A0100003C00000006000000020000000000000000408F40000000C0168921C000000080FEB74440000000000040
310
8F40000000409CAD20C000000000EDCC44400C00000013000000720100003C00000006000000020000000000000000408F40000000C0168921C000000080FEB744400000000000408F4000000040F7AD1AC00000000078D240400C000000130000007A0100003C00000006000000020000000000000000408F400000000084
310
9325C0000000C0AC4744400000000000408F40000000C0168921C000000080FEB744400C00000013000000820100003C00000006000000020000000000000000408F4000000000849325C0000000C0AC4744400000000000408F400000000049611CC000000080159F40400C000000130000008A0100003C00000006000000
310
020000000000000000408F4000000040F7AD1AC00000000078D240400000000000408F400000000049611CC000000080159F40400C00000013000000920100003C00000006000000020000000000000000408F4000000080F3AFF2BF00000000A3F544400000000000408F400000000088A51FC00000008027EA45400C0000
310
00130000009A0100003C00000006000000020000000000000000408F400000000088A51FC00000008027EA45400000000000408F4000000080290720C0000000401EE245400C00000013000000A20100003C00000006000000020000000000000000408F4000000080F3AFF2BF00000000A3F544400000000000408F400000
310
0080290720C0000000401EE245400C00000013000000AA0100003C00000006000000020000000000000000408F4000000000D01F20C0000000400AD445400000000000408F4000000080290720C0000000401EE245400C00000013000000B20100003C00000006000000020000000000000000408F4000000080F3AFF2BF00
310
000000A3F544400000000000408F400000008057B51AC000000040B52A46400C00000013000000BA0100003C00000006000000020000000000000000408F400000000088A51FC00000008027EA45400000000000408F400000008057B51AC000000040B52A46400C00000013000000C20100003C0000000600000002000000
310
0000000000408F4000000080F3AFF2BF00000000A3F544400000000000408F40000000804613F4BF000000804D2645400C00000013000000CA0100003C00000006000000020000000000000000408F40000000C09E2116C000000000CC9F46400000000000408F40000000804613F4BF000000804D2645400C000000130000
310
00D20100003C00000006000000020000000000000000408F40000000C09E2116C000000000CC9F46400000000000408F4000000040C46118C000000080F05D46400C00000013000000DA0100003C00000006000000020000000000000000408F4000000080F3AFF2BF00000000A3F544400000000000408F4000000040C461
310
18C000000080F05D46400C00000013000000E20100003C00000006000000020000000000000000408F400000008057B51AC000000040B52A46400000000000408F4000000040C46118C000000080F05D46400C00000013000000EA0100003C00000006000000020000000000000000408F40000000E031FC13C00000008075
310
F146400000000000408F40000000C09E2116C000000000CC9F46400C00000013000000F20100003C00000006000000020000000000000000408F4000000000849325C0000000C0AC4744400000000000408F40000000C0385A29C00000004032BF43400C00000013000000FA0100003C000000060000000200000000000000
310
00408F40000000C0385A29C00000004032BF43400000000000408F40000000C046421DC000000080BD7540400C00000013000000020200003C00000006000000020000000000000000408F40000000C046421DC000000080BD7540400000000000408F400000000049611CC000000080159F40400C000000130000000A0200
310
003C00000006000000020000000000000000408F40000000C0385A29C00000004032BF43400000000000408F4000000000897F2CC000000040392943400C00000013000000120200003C00000006000000020000000000000000408F4000000000897F2CC000000040392943400000000000408F400000008031D41DC00000
310
0000294840400C000000130000001A0200003C00000006000000020000000000000000408F40000000C046421DC000000080BD7540400000000000408F400000008031D41DC000000000294840400C00000013000000220200003C00000006000000020000000000000000408F4000000000897F2CC0000000403929434000
310
00000000408F4000000040DF1C2FC000000080748042400C000000130000002A0200003C00000006000000020000000000000000408F4000000040DF1C2FC000000080748042400000000000408F400000008053151EC000000080D41640400C00000013000000320200003C00000006000000020000000000000000408F40
310
0000008053151EC000000080D41640400000000000408F400000008031D41DC000000000294840400C000000130000003A0200003C00000006000000020000000000000000408F4000000040DF1C2FC000000080748042400000000000408F40000000C0F76D30C000000040EBDE41400C00000013000000420200003C0000
310
0006000000020000000000000000408F40000000C0F76D30C000000040EBDE41400000000000408F40000000C034001EC00000006018CB3F400C000000130000004A0200003C00000006000000020000000000000000408F400000008053151EC000000080D41640400000000000408F40000000C034001EC00000006018CB
310
3F400C00000013000000520200003C00000006000000020000000000000000408F40000000C0F76D30C000000040EBDE41400000000000408F40000000C0860231C0000000A06E2E41400C000000130000005A0200003C00000006000000020000000000000000408F40000000C0860231C0000000A06E2E41400000000000
310
408F400000004048951DC0000000E0BC6A3F400C00000013000000620200003C00000006000000020000000000000000408F400000004048951DC0000000E0BC6A3F400000000000408F40000000C034001EC00000006018CB3F400C000000130000006A0200003C00000006000000020000000000000000408F40000000C0
310
860231C0000000A06E2E41400000000000408F40000000801F3F31C000000060E57040400C00000013000000720200003C00000006000000020000000000000000408F40000000801F3F31C000000060E57040400000000000408F40000000803EDD1CC000000080FF133F400C000000130000007A0200003C000000060000
310
00020000000000000000408F400000004048951DC0000000E0BC6A3F400000000000408F40000000803EDD1CC000000080FF133F400C00000013000000820200003C00000006000000020000000000000000408F40000000801F3F31C000000060E57040400000000000408F40000000C0232531C0000000C00F803F400C00
310
0000130000008A0200003C00000006000000020000000000000000408F400000004034DA1BC000000000CBC73E400000000000408F40000000C0232531C0000000C00F803F400C00000013000000920200003C00000006000000020000000000000000408F400000004034DA1BC000000000CBC73E400000000000408F4000
310
0000803EDD1CC000000080FF133F400C000000130000009A0200003C00000006000000020000000000000000408F40000000C0232531C0000000C00F803F400000000000408F4000000080D0C030C0000000402F1F3E400C00000013000000A20200003C00000006000000020000000000000000408F400000004075FD19C0
310
000000403D6D3E400000000000408F4000000080D0C030C0000000402F1F3E400C00000013000000AA0200003C00000006000000020000000000000000408F400000004034DA1BC000000000CBC73E400000000000408F400000004075FD19C0000000403D6D3E400C00000013000000B20200003C00000006000000020000
310
000000000000408F4000000080D0C030C0000000402F1F3E400000000000408F4000000040210E30C0000000C06EB13C400C00000013000000BA0200003C00000006000000020000000000000000408F4000000040210E30C0000000C06EB13C400000000000408F40000000A0D28312C0000000805D373D400C0000001300
310
0000C20200003C00000006000000020000000000000000408F400000004075FD19C0000000403D6D3E400000000000408F40000000A0D28312C0000000805D373D400C00000013000000CA0200003C00000006000000020000000000000000408F4000000040210E30C0000000C06EB13C400000000000408F4000000080D4
310
512EC0000000C0646A3B400C00000013000000D20200003C00000006000000020000000000000000408F40000000C0C27A0BC000000020E82C3C400000000000408F4000000080D4512EC0000000C0646A3B400C00000013000000DA0200003C00000006000000020000000000000000408F40000000C0C27A0BC000000020
310
E82C3C400000000000408F40000000A0D28312C0000000805D373D400C00000013000000E20200003C00000006000000020000000000000000408F4000000080D4512EC0000000C0646A3B400000000000408F40000000402D432CC0000000C0AB4C3A400C00000013000000EA0200003C0000000600000002000000000000
310
0000408F40000000402D432CC0000000C0AB4C3A400000000000408F40000000A0210904C0000000E093183B400C00000013000000F20200003C00000006000000020000000000000000408F40000000C0C27A0BC000000020E82C3C400000000000408F40000000A0210904C0000000E093183B400C00000013000000FA02
310
00003C00000006000000020000000000000000408F40000000402D432CC0000000C0AB4C3A400000000000408F400000004083E429C000000080A04A39400C00000013000000020300003C00000006000000020000000000000000408F40000000C0D669FABF000000C00AC339400000000000408F400000004083E429C000
310
000080A04A39400C000000130000000A0300003C00000006000000020000000000000000408F40000000C0D669FABF000000C00AC339400000000000408F40000000A0210904C0000000E093183B400C00000013000000120300003C00000006000000020000000000000000408F400000004083E429C000000080A04A3940
310
0000000000408F40000000E01F5527C0000000C06D5C38400C000000130000001A0300003C00000006000000020000000000000000408F40000000E01F5527C0000000C06D5C38400000000000408F4000000080A2F8F0BF00000000F77638400C00000013000000220300003C00000006000000020000000000000000408F
310
40000000C0D669FABF000000C00AC339400000000000408F4000000080A2F8F0BF00000000F77638400C000000130000002A0300003C00000006000000020000000000000000408F40000000E01F5527C0000000C06D5C38400000000000408F4000000080EDC424C0000000805B8237400C00000013000000320300003C00
310
000006000000020000000000000000408F40000000008FB5E3BF00000060D2F136400000000000408F4000000080EDC424C0000000805B8237400C000000130000003A0300003C00000006000000020000000000000000408F40000000008FB5E3BF00000060D2F136400000000000408F4000000080A2F8F0BF00000000F7
310
7638400C00000013000000420300003C00000006000000020000000000000000408F4000000080EDC424C0000000805B8237400000000000408F4000000080674622C00000006087A936400C000000130000004A0300003C00000006000000020000000000000000408F40000000008FB5E3BF00000060D2F1364000000000
310
00408F4000000080674622C00000006087A936400C00000013000000520300003C00000006000000020000000000000000408F4000000080674622C00000006087A936400000000000408F400000008045EE1FC000000080C8C435400C000000130000005A0300003C00000006000000020000000000000000408F40000000
310
8045EE1FC000000080C8C435400000000000408F4000000000EA76DABF000000A0518835400C00000013000000620300003C00000006000000020000000000000000408F40000000008FB5E3BF00000060D2F136400000000000408F4000000000EA76DABF000000A0518835400C000000130000006A0300003C0000000600
310
0000020000000000000000408F400000008045EE1FC000000080C8C435400000000000408F4000000080E1F01BC00000000048C434400C00000013000000720300003C00000006000000020000000000000000408F4000000080E1F01BC00000000048C434400000000000408F4000000000EA76DABF000000A0518835400C
310
000000130000007A0300003C00000006000000020000000000000000408F4000000080E1F01BC00000000048C434400000000000408F4000000040B10C19C0000000A0E5A833400C00000013000000820300003C00000006000000020000000000000000408F40000000003633D3BF00000080CAF033400000000000408F40
310
00000040B10C19C0000000A0E5A833400C000000130000008A0300003C00000006000000020000000000000000408F40000000003633D3BF00000080CAF033400000000000408F4000000000EA76DABF000000A0518835400C00000013000000920300003C00000006000000020000000000000000408F4000000040B10C19
310
C0000000A0E5A833400000000000408F400000000034A417C0000000C01F9032400C000000130000009A0300003C00000006000000020000000000000000408F40000000003633D3BF00000080CAF033400000000000408F400000000034A417C0000000C01F9032400C00000013000000A20300003C000000060000000200
310
00000000000000408F400000000034A417C0000000C01F9032400000000000408F40000000C0D78117C000000020545E31400C00000013000000AA0300003C00000006000000020000000000000000408F40000000003433D3BF000000C09B992C400000000000408F40000000C0D78117C000000020545E31400C00000013
310
000000B20300003C00000006000000020000000000000000408F40000000003633D3BF00000080CAF033400000000000408F40000000003433D3BF000000C09B992C400C00000013000000BA0300003C00000006000000020000000000000000408F40000000C0D78117C000000020545E31400000000000408F4000000040
310
84E418C000000040D2E02F400C00000013000000C20300003C00000006000000020000000000000000408F40000000003433D3BF000000C09B992C400000000000408F400000004084E418C000000040D2E02F400C00000013000000CA0300003C00000006000000020000000000000000408F400000004084E418C0000000
310
40D2E02F400000000000408F400000008073281CC000000040B58B2C400C00000013000000D20300003C00000006000000020000000000000000408F40000000003433D3BF000000C09B992C400000000000408F400000008073281CC000000040B58B2C400C00000013000000DA0300003C00000006000000020000000000
310
000000408F400000008073281CC000000040B58B2C400000000000408F40000000C046051FC0000000C0665E2A400C00000013000000E20300003C00000006000000020000000000000000408F4000000000000000000000004002002C400000000000408F40000000C046051FC0000000C0665E2A400C00000013000000EA
310
0300003C00000006000000020000000000000000408F40000000003433D3BF000000C09B992C400000000000408F4000000000000000000000004002002C400C00000013000000F20300003C00000006000000020000000000000000408F40000000C0D82B1FC0000000401F192A400000000000408F400000000028EE1EC0
310
0000004029D829400C00000013000000FA0300003C00000006000000020000000000000000408F4000000000000000000000004002002C400000000000408F400000000028EE1EC00000004029D829400C00000013000000020400003C00000006000000020000000000000000408F4000000000000000000000004002002C
310
400000000000408F40000000C0D82B1FC0000000401F192A400C000000130000000A0400003C00000006000000020000000000000000408F40000000C0D82B1FC0000000401F192A400000000000408F40000000C046051FC0000000C0665E2A400C00000013000000120400003C0000000600000002000000000000000040
310
8F400000000028EE1EC00000004029D829400000000000408F40000000002F3A19C0000000C0B81827400C000000130000001A0400003C00000006000000020000000000000000408F40000000000000A0BE000000C07A2423400000000000408F40000000002F3A19C0000000C0B81827400C00000013000000220400003C
310
00000006000000020000000000000000408F4000000000000000000000004002002C400000000000408F40000000000000A0BE000000C07A2423400C000000130000002A0400003C00000006000000020000000000000000408F40000000002F3A19C0000000C0B81827400000000000408F4000000000071B19C0000000C0
310
59F426400C00000013000000320400003C00000006000000020000000000000000408F4000000000071B19C0000000C059F426400000000000408F400000000060A2B3BF000000C0729C22400C000000130000003A0400003C00000006000000020000000000000000408F40000000000000A0BE000000C07A242340000000
310
0000408F400000000060A2B3BF000000C0729C22400C00000013000000420400003C00000006000000020000000000000000408F4000000000071B19C0000000C059F426400000000000408F4000000000C43819C0000000C0AECF26400C000000130000004A0400003C00000006000000020000000000000000408F400000
310
00004616D2BF00000040F13D22400000000000408F4000000000C43819C0000000C0AECF26400C00000013000000520400003C00000006000000020000000000000000408F400000000060A2B3BF000000C0729C22400000000000408F40000000004616D2BF00000040F13D22400C000000130000005A0400003C00000006
310
000000020000000000000000408F40000000609AE41AC0000000400BD725400000000000408F4000000000C43819C0000000C0AECF26400C00000013000000620400003C00000006000000020000000000000000408F40000000609AE41AC0000000400BD725400000000000408F40000000006F0EE8BF000000C0EB7D2140
310
0C000000130000006A0400003C00000006000000020000000000000000408F40000000004616D2BF00000040F13D22400000000000408F40000000006F0EE8BF000000C0EB7D21400C00000013000000720400003C00000006000000020000000000000000408F40000000609AE41AC0000000400BD725400000000000408F
310
40000000A086AC1DC000000040639E23400C000000130000007A0400003C00000006000000020000000000000000408F40000000A086AC1DC000000040639E23400000000000408F4000000000D7D4EFBF00000040B7E120400C00000013000000820400003C00000006000000020000000000000000408F4000000000D7D4
310
EFBF00000040B7E120400000000000408F40000000006F0EE8BF000000C0EB7D21400C000000130000008A0400003C00000006000000020000000000000000408F40000000A086AC1DC000000040639E23400000000000408F400000000028F91EC0000000405E4B21400C00000013000000920400003C0000000600000002
310
0000000000000000408F400000000028F91EC0000000405E4B21400000000000408F4000000080F3AFF2BF000000C0792920400C000000130000009A0400003C00000006000000020000000000000000408F4000000000D7D4EFBF00000040B7E120400000000000408F4000000080F3AFF2BF000000C0792920400C000000
310
13000000A20400003C00000006000000020000000000000000408F400000000028F91EC0000000405E4B21400000000000408F400000002092DA1EC00000008074FB1D400C00000013000000AA0400003C00000006000000020000000000000000408F40000000004713F4BF000000809ECD1E400000000000408F40000000
310
2092DA1EC00000008074FB1D400C00000013000000B20400003C00000006000000020000000000000000408F40000000004713F4BF000000809ECD1E400000000000408F4000000080F3AFF2BF000000C0792920400C00000013000000BA0400003C00000006000000020000000000000000408F400000002092DA1EC00000
310
008074FB1D400000000000408F400000000076871DC000000080A8A719400C00000013000000C20400003C00000006000000020000000000000000408F400000000076871DC000000080A8A719400000000000408F40000000004713F4BF000000806A321D400C00000013000000CA0400003C000000060000000200000000
310
00000000408F40000000004713F4BF000000809ECD1E400000000000408F40000000004713F4BF000000806A321D400C00000013000000D20400003C00000006000000020000000000000000408F400000000076871DC000000080A8A719400000000000408F40000000009A341BC000000080AABD15400C00000013000000
310
DA0400003C00000006000000020000000000000000408F4000000000F3AFF2BF0000008015AD1B400000000000408F40000000009A341BC000000080AABD15400C00000013000000E20400003C00000006000000020000000000000000408F4000000000F3AFF2BF0000008015AD1B400000000000408F40000000004713F4
310
BF000000806A321D400C00000013000000EA0400003C00000006000000020000000000000000408F40000000009A341BC000000080AABD15400000000000408F40000000E0A3D117C0000000802A2D12400C00000013000000F20400003C00000006000000020000000000000000408F40000000E0A3D117C0000000802A2D
310
12400000000000408F4000000000D6D4EFBF000000809A3C1A400C00000013000000FA0400003C00000006000000020000000000000000408F4000000000F3AFF2BF0000008015AD1B400000000000408F4000000000D6D4EFBF000000809A3C1A400C00000013000000020500003C00000006000000020000000000000000
310
408F40000000E0A3D117C0000000802A2D12400000000000408F4000000060475413C0000000003D4C0E400C000000130000000A0500003C00000006000000020000000000000000408F40000000006E0EE8BF00000080310419400000000000408F4000000060475413C0000000003D4C0E400C0000001300000012050000
310
3C00000006000000020000000000000000408F40000000006E0EE8BF00000080310419400000000000408F4000000000D6D4EFBF000000809A3C1A400C000000130000001A0500003C00000006000000020000000000000000408F4000000080D35A10C000000000CD6E0B400000000000408F4000000060475413C0000000
310
003D4C0E400C00000013000000220500003C00000006000000020000000000000000408F40000000004416D2BF00000080268417400000000000408F4000000080D35A10C000000000CD6E0B400C000000130000002A0500003C00000006000000020000000000000000408F40000000006E0EE8BF00000080310419400000
310
000000408F40000000004416D2BF00000080268417400C00000013000000320500003C00000006000000020000000000000000408F4000000080D35A10C000000000CD6E0B400000000000408F4000000040EA2C10C000000000B3260B400C000000130000003A0500003C00000006000000020000000000000000408F4000
310
00000058A2B3BF0000008023C716400000000000408F4000000040EA2C10C000000000B3260B400C00000013000000420500003C00000006000000020000000000000000408F40000000004416D2BF00000080268417400000000000408F400000000058A2B3BF0000008023C716400C000000130000004A0500003C000000
310
06000000020000000000000000408F4000000040EA2C10C000000000B3260B400000000000408F40000000C0121A10C00000000035B80A400C00000013000000520500003C00000006000000020000000000000000408F4000000000000000000000008013B715400000000000408F40000000C0121A10C00000000035B80A
310
400C000000130000005A0500003C00000006000000020000000000000000408F400000000058A2B3BF0000008023C716400000000000408F4000000000000000000000008013B715400C00000013000000620500003C00000006000000020000000000000000408F40000000C0121A10C00000000035B80A40000000000040
310
8F4000000040066B0FC00000000084BDE93F0C000000130000006A0500003C00000006000000020000000000000000408F4000000000000000000000008013B715400000000000408F4000000040066B0FC00000000084BDE93F0C00000013000000720500003C00000006000000020000000000000000408F400000004006
310
6B0FC00000000084BDE93F0000000000408F40000000805B040FC0000000001CC1E53F0C000000130000007A0500003C00000006000000020000000000000000408F4000000000000000000000008013B715400000000000408F40000000805B040FC0000000001CC1E53F0C00000013000000820500003C00000006000000
310
020000000000000000408F40000000805B040FC0000000001CC1E53F0000000000408F4000000080D3130EC000000000FCABE33F0C000000130000008A0500003C00000006000000020000000000000000408F4000000000000000000000008013B715400000000000408F4000000080D3130EC000000000FCABE33F0C0000
310
0013000000920500003C00000006000000020000000000000000408F40000000000000A0BE000000000000F23E0000000000408F4000000080D3130EC000000000FCABE33F0C000000130000009A0500003C00000006000000020000000000000000408F4000000000000000000000008013B715400000000000408F400000
310
00000000A0BE000000000000F23E0C00000013000000A20500003C00000006000000020000000000000000408F4000000080D3130EC000000000FCABE33F0000000000408FC000000080D3130EC0000000001CACE33F0C00000013000000AA0500003C00000006000000020000000000000000408FC000000080D3130EC000
310
0000001CACE33F0000000000408FC00000000000000000000000000000013F0C00000013000000B20500003C00000006000000020000000000000000408F40000000000000A0BE000000000000F23E0000000000408FC00000000000000000000000000000013F0C00000013000000BA0500003C0000000600000002000000
310
0000000000408F40000000805B040FC0000000001CC1E53F0000000000408FC0000000805B040FC0000000003CC1E53F0C00000013000000C20500003C00000006000000020000000000000000408FC0000000805B040FC0000000003CC1E53F0000000000408FC000000080D3130EC0000000001CACE33F0C000000130000
310
00CA0500003C00000006000000020000000000000000408F4000000040066B0FC00000000084BDE93F0000000000408FC000000040066B0FC000000000A4BDE93F0C00000013000000D20500003C00000006000000020000000000000000408FC0000000805B040FC0000000003CC1E53F0000000000408FC000000040066B
310
0FC000000000A4BDE93F0C00000013000000DA0500003C00000006000000020000000000000000408F40000000C0121A10C00000000035B80A400000000000408FC000000000131A10C0000000003DB80A400C00000013000000E20500003C00000006000000020000000000000000408FC000000000131A10C0000000003D
310
B80A400000000000408FC000000040066B0FC000000000A4BDE93F0C00000013000000EA0500003C00000006000000020000000000000000408F4000000040EA2C10C000000000B3260B400000000000408FC000000080EA2C10C000000000BB260B400C00000013000000F20500003C000000060000000200000000000000
310
00408FC000000080EA2C10C000000000BB260B400000000000408FC000000000131A10C0000000003DB80A400C00000013000000FA0500003C00000006000000020000000000000000408F4000000080D35A10C000000000CD6E0B400000000000408FC0000000C0D35A10C000000000D56E0B400C00000013000000020600
310
003C00000006000000020000000000000000408FC0000000C0D35A10C000000000D56E0B400000000000408FC000000080EA2C10C000000000BB260B400C000000130000000A0600003C00000006000000020000000000000000408F4000000060475413C0000000003D4C0E400000000000408FC000000080475413C00000
310
0000454C0E400C00000013000000120600003C00000006000000020000000000000000408FC0000000C0D35A10C000000000D56E0B400000000000408FC000000080475413C000000000454C0E400C000000130000001A0600003C00000006000000020000000000000000408F40000000E0A3D117C0000000802A2D124000
310
00000000408FC000000000A4D117C0000000802E2D12400C00000013000000220600003C00000006000000020000000000000000408FC000000000A4D117C0000000802E2D12400000000000408FC000000080475413C000000000454C0E400C000000130000002A0600003C00000006000000020000000000000000408F40
310
000000009A341BC000000080AABD15400000000000408FC0000000409A341BC000000080AEBD15400C00000013000000320600003C00000006000000020000000000000000408FC0000000409A341BC000000080AEBD15400000000000408FC000000000A4D117C0000000802E2D12400C000000130000003A0600003C0000
310
0006000000020000000000000000408F400000000076871DC000000080A8A719400000000000408FC00000008076871DC000000080ACA719400C00000013000000420600003C00000006000000020000000000000000408FC00000008076871DC000000080ACA719400000000000408FC0000000409A341BC000000080AEBD
310
15400C000000130000004A0600003C00000006000000020000000000000000408F400000002092DA1EC00000008074FB1D400000000000408FC00000008092DA1EC00000008078FB1D400C00000013000000520600003C00000006000000020000000000000000408FC00000008076871DC000000080ACA719400000000000
310
408FC00000008092DA1EC00000008078FB1D400C000000130000005A0600003C00000006000000020000000000000000408F400000000028F91EC0000000405E4B21400000000000408FC00000006028F91EC000000040604B21400C00000013000000620600003C00000006000000020000000000000000408FC000000060
310
28F91EC000000040604B21400000000000408FC00000008092DA1EC00000008078FB1D400C000000130000006A0600003C00000006000000020000000000000000408F40000000A086AC1DC000000040639E23400000000000408FC00000000087AC1DC000000040659E23400C00000013000000720600003C000000060000
310
00020000000000000000408FC00000000087AC1DC000000040659E23400000000000408FC00000006028F91EC000000040604B21400C000000130000007A0600003C00000006000000020000000000000000408F40000000609AE41AC0000000400BD725400000000000408FC0000000C09AE41AC0000000400DD725400C00
310
000013000000820600003C00000006000000020000000000000000408FC0000000C09AE41AC0000000400DD725400000000000408FC00000000087AC1DC000000040659E23400C000000130000008A0600003C00000006000000020000000000000000408F4000000000C43819C0000000C0AECF26400000000000408FC000
310
000040C43819C0000000C0B0CF26400C00000013000000920600003C00000006000000020000000000000000408FC000000040C43819C0000000C0B0CF26400000000000408FC0000000C09AE41AC0000000400DD725400C000000130000009A0600003C00000006000000020000000000000000408F4000000000071B19C0
310
000000C059F426400000000000408FC000000040071B19C0000000C05BF426400C00000013000000A20600003C00000006000000020000000000000000408FC000000040071B19C0000000C05BF426400000000000408FC000000040C43819C0000000C0B0CF26400C00000013000000AA0600003C00000006000000020000
310
000000000000408F40000000002F3A19C0000000C0B81827400000000000408FC0000000402F3A19C0000000C0BA1827400C00000013000000B20600003C00000006000000020000000000000000408FC0000000402F3A19C0000000C0BA1827400000000000408FC000000040071B19C0000000C05BF426400C0000001300
310
0000BA0600003C00000006000000020000000000000000408F400000000028EE1EC00000004029D829400000000000408FC00000004028EE1EC0000000402BD829400C00000013000000C20600003C00000006000000020000000000000000408FC0000000402F3A19C0000000C0BA1827400000000000408FC00000004028
310
EE1EC0000000402BD829400C00000013000000CA0600003C00000006000000020000000000000000408F40000000C0D82B1FC0000000401F192A400000000000408FC0000000C0D82B1FC00000004021192A400C00000013000000D20600003C00000006000000020000000000000000408FC0000000C0D82B1FC000000040
310
21192A400000000000408FC00000004028EE1EC0000000402BD829400C00000013000000DA0600003C00000006000000020000000000000000408F40000000C046051FC0000000C0665E2A400000000000408FC00000000047051FC0000000C0685E2A400C00000013000000E20600003C0000000600000002000000000000
310
0000408FC0000000C0D82B1FC00000004021192A400000000000408FC00000000047051FC0000000C0685E2A400C00000013000000EA0600003C00000006000000020000000000000000408F400000008073281CC000000040B58B2C400000000000408FC0000000C073281CC000000040B78B2C400C00000013000000F206
310
00003C00000006000000020000000000000000408FC0000000C073281CC000000040B78B2C400000000000408FC00000000047051FC0000000C0685E2A400C00000013000000FA0600003C00000006000000020000000000000000408F400000004084E418C000000040D2E02F400000000000408FC00000006084E418C000
310
000040D4E02F400C00000013000000020700003C00000006000000020000000000000000408FC00000006084E418C000000040D4E02F400000000000408FC0000000C073281CC000000040B78B2C400C000000130000000A0700003C00000006000000020000000000000000408F40000000C0D78117C000000020545E3140
310
0000000000408FC000000000D88117C000000020555E31400C00000013000000120700003C00000006000000020000000000000000408FC000000000D88117C000000020555E31400000000000408FC00000006084E418C000000040D4E02F400C000000130000001A0700003C00000006000000020000000000000000408F
310
400000000034A417C0000000C01F9032400000000000408FC00000006034A417C000000080209032400C00000013000000220700003C00000006000000020000000000000000408FC00000006034A417C000000080209032400000000000408FC000000000D88117C000000020555E31400C000000130000002A0700003C00
310
000006000000020000000000000000408F4000000040B10C19C0000000A0E5A833400000000000408FC0000000A0B10C19C000000060E6A833400C00000013000000320700003C00000006000000020000000000000000408FC00000006034A417C000000080209032400000000000408FC0000000A0B10C19C000000060E6
310
A833400C000000130000003A0700003C00000006000000020000000000000000408F4000000080E1F01BC00000000048C434400000000000408FC0000000E0E1F01BC0000000C048C434400C00000013000000420700003C00000006000000020000000000000000408FC0000000E0E1F01BC0000000C048C4344000000000
310
00408FC0000000A0B10C19C000000060E6A833400C000000130000004A0700003C00000006000000020000000000000000408F400000008045EE1FC000000080C8C435400000000000408FC0000000C045EE1FC000000040C9C435400C00000013000000520700003C00000006000000020000000000000000408FC0000000
310
E0E1F01BC0000000C048C434400000000000408FC0000000C045EE1FC000000040C9C435400C000000130000005A0700003C00000006000000020000000000000000408F4000000080674622C00000006087A936400000000000408FC0000000A0674622C00000002088A936400C00000013000000620700003C0000000600
310
0000020000000000000000408FC0000000A0674622C00000002088A936400000000000408FC0000000C045EE1FC000000040C9C435400C000000130000006A0700003C00000006000000020000000000000000408F4000000080EDC424C0000000805B8237400000000000408FC000000080EDC424C0000000405C8237400C
310
00000013000000720700003C00000006000000020000000000000000408FC0000000A0674622C00000002088A936400000000000408FC000000080EDC424C0000000405C8237400C000000130000007A0700003C00000006000000020000000000000000408F40000000E01F5527C0000000C06D5C38400000000000408FC0
310
000000E01F5527C0000000806E5C38400C00000013000000820700003C00000006000000020000000000000000408FC0000000E01F5527C0000000806E5C38400000000000408FC000000080EDC424C0000000405C8237400C000000130000008A0700003C00000006000000020000000000000000408F400000004083E429
310
C000000080A04A39400000000000408FC00000004083E429C000000040A14A39400C00000013000000920700003C00000006000000020000000000000000408FC00000004083E429C000000040A14A39400000000000408FC0000000E01F5527C0000000806E5C38400C000000130000009A0700003C000000060000000200
310
00000000000000408F40000000402D432CC0000000C0AB4C3A400000000000408FC0000000402D432CC000000080AC4C3A400C00000013000000A20700003C00000006000000020000000000000000408FC0000000402D432CC000000080AC4C3A400000000000408FC00000004083E429C000000040A14A39400C00000013
310
000000AA0700003C00000006000000020000000000000000408F4000000080D4512EC0000000C0646A3B400000000000408FC000000080D4512EC000000080656A3B400C00000013000000B20700003C00000006000000020000000000000000408FC0000000402D432CC000000080AC4C3A400000000000408FC000000080
310
D4512EC000000080656A3B400C00000013000000BA0700003C00000006000000020000000000000000408F4000000040210E30C0000000C06EB13C400000000000408FC000000040210E30C0000000806FB13C400C00000013000000C20700003C00000006000000020000000000000000408FC000000040210E30C0000000
310
806FB13C400000000000408FC000000080D4512EC000000080656A3B400C00000013000000CA0700003C00000006000000020000000000000000408F4000000080D0C030C0000000402F1F3E400000000000408FC000000080D0C030C000000000301F3E400C00000013000000D20700003C00000006000000020000000000
310
000000408FC000000040210E30C0000000806FB13C400000000000408FC000000080D0C030C000000000301F3E400C00000013000000DA0700003C00000006000000020000000000000000408F40000000C0232531C0000000C00F803F400000000000408FC0000000C0232531C00000008010803F400C00000013000000E2
310
0700003C00000006000000020000000000000000408FC0000000C0232531C00000008010803F400000000000408FC000000080D0C030C000000000301F3E400C00000013000000EA0700003C00000006000000020000000000000000408F40000000801F3F31C000000060E57040400000000000408FC0000000801F3F31C0
310
000000C0E57040400C00000013000000F20700003C00000006000000020000000000000000408FC0000000801F3F31C0000000C0E57040400000000000408FC0000000C0232531C00000008010803F400C00000013000000FA0700003C00000006000000020000000000000000408F40000000C0860231C0000000A06E2E41
310
400000000000408FC0000000C0860231C0000000006F2E41400C00000013000000020800003C00000006000000020000000000000000408FC0000000801F3F31C0000000C0E57040400000000000408FC0000000C0860231C0000000006F2E41400C000000130000000A0800003C0000000600000002000000000000000040
310
8F40000000C0F76D30C000000040EBDE41400000000000408FC0000000C0F76D30C0000000A0EBDE41400C00000013000000120800003C00000006000000020000000000000000408FC0000000C0F76D30C0000000A0EBDE41400000000000408FC0000000C0860231C0000000006F2E41400C000000130000001A0800003C
310
00000006000000020000000000000000408F4000000040DF1C2FC000000080748042400000000000408FC000000020DF1C2FC000000000758042400C00000013000000220800003C00000006000000020000000000000000408FC000000020DF1C2FC000000000758042400000000000408FC0000000C0F76D30C0000000A0
310
EBDE41400C000000130000002A0800003C00000006000000020000000000000000408F4000000000897F2CC000000040392943400000000000408FC000000000897F2CC0000000C0392943400C00000013000000320800003C00000006000000020000000000000000408FC000000000897F2CC0000000C039294340000000
310
0000408FC000000020DF1C2FC000000000758042400C000000130000003A0800003C00000006000000020000000000000000408F40000000C0385A29C00000004032BF43400000000000408FC0000000C0385A29C0000000C032BF43400C00000013000000420800003C00000006000000020000000000000000408FC00000
310
00C0385A29C0000000C032BF43400000000000408FC000000000897F2CC0000000C0392943400C000000130000004A0800003C00000006000000020000000000000000408F4000000000849325C0000000C0AC4744400000000000408FC000000000849325C000000000AD4744400C00000013000000520800003C00000006
310
000000020000000000000000408FC000000000849325C000000000AD4744400000000000408FC0000000C0385A29C0000000C032BF43400C000000130000005A0800003C00000006000000020000000000000000408F40000000C0168921C000000080FEB744400000000000408FC0000000E0168921C000000000FFB74440
310
0C00000013000000620800003C00000006000000020000000000000000408FC0000000E0168921C000000000FFB744400000000000408FC000000000849325C000000000AD4744400C000000130000006A0800003C00000006000000020000000000000000408F40000000409CAD20C000000000EDCC44400000000000408F
310
C0000000409CAD20C000000080EDCC44400C00000013000000720800003C00000006000000020000000000000000408FC0000000409CAD20C000000080EDCC44400000000000408FC0000000E0168921C000000000FFB744400C000000130000007A0800003C00000006000000020000000000000000408F4000000040A396
310
20C00000004010D144400000000000408FC000000040A39620C00000008010D144400C00000013000000820800003C00000006000000020000000000000000408FC0000000409CAD20C000000080EDCC44400000000000408FC000000040A39620C00000008010D144400C000000130000008A0800003C0000000600000002
310
0000000000000000408F4000000000EF8B20C0000000C09DD744400000000000408FC000000020EF8B20C0000000409ED744400C00000013000000920800003C00000006000000020000000000000000408FC000000020EF8B20C0000000409ED744400000000000408FC000000040A39620C00000008010D144400C000000
310
130000009A0800003C00000006000000020000000000000000408F4000000000D01F20C0000000400AD445400000000000408FC000000000D01F20C0000000800AD445400C00000013000000A20800003C00000006000000020000000000000000408FC000000020EF8B20C0000000409ED744400000000000408FC0000000
310
00D01F20C0000000800AD445400C00000013000000AA0800003C00000006000000020000000000000000408F4000000080290720C0000000401EE245400000000000408FC0000000A0290720C0000000801EE245400C00000013000000B20800003C00000006000000020000000000000000408FC0000000A0290720C00000
310
00801EE245400000000000408FC000000000D01F20C0000000800AD445400C00000013000000BA0800003C00000006000000020000000000000000408F400000000088A51FC00000008027EA45400000000000408FC00000008088A51FC0000000C027EA45400C00000013000000C20800003C000000060000000200000000
310
00000000408FC0000000A0290720C0000000801EE245400000000000408FC00000008088A51FC0000000C027EA45400C00000013000000CA0800003C00000006000000020000000000000000408F400000008057B51AC000000040B52A46400000000000408FC00000000058B51AC0000000C0B52A46400C00000013000000
310
D20800003C00000006000000020000000000000000408FC00000000058B51AC0000000C0B52A46400000000000408FC00000008088A51FC0000000C027EA45400C00000013000000DA0800003C00000006000000020000000000000000408F4000000040C46118C000000080F05D46400000000000408FC000000080C46118
310
C0000000C0F05D46400C00000013000000E20800003C00000006000000020000000000000000408FC00000000058B51AC0000000C0B52A46400000000000408FC000000080C46118C0000000C0F05D46400C00000013000000EA0800003C00000006000000020000000000000000408F40000000C09E2116C000000000CC9F
310
46400000000000408FC0000000009F2116C000000040CC9F46400C00000013000000F20800003C00000006000000020000000000000000408FC000000080C46118C0000000C0F05D46400000000000408FC0000000009F2116C000000040CC9F46400C00000013000000FA0800003C00000006000000020000000000000000
310
408F40000000E031FC13C00000008075F146400000000000408FC00000002032FC13C0000000C075F146400C00000013000000020900003C00000006000000020000000000000000408FC00000002032FC13C0000000C075F146400000000000408FC0000000009F2116C000000040CC9F46400C000000130000000A090000
310
3C00000006000000020000000000000000408F4000000000F30312C0000000C09E5247400000000000408FC000000040F30312C0000000009F5247400C00000013000000120900003C00000006000000020000000000000000408FC00000002032FC13C0000000C075F146400000000000408FC000000040F30312C0000000
310
009F5247400C000000130000001A0900003C00000006000000020000000000000000408F4000000080244B10C000000000F6C147400000000000408FC0000000C0244B10C000000040F6C147400C00000013000000220900003C00000006000000020000000000000000408FC0000000C0244B10C000000040F6C147400000
310
000000408FC000000040F30312C0000000009F5247400C000000130000002A0900003C00000006000000020000000000000000408F40000000C0AFED0DC0000000004F3348400000000000408FC0000000C0AFED0DC0000000404F3348400C00000013000000320900003C00000006000000020000000000000000408FC000
310
0000C0AFED0DC0000000404F3348400000000000408FC0000000C0244B10C000000040F6C147400C000000130000003A0900003C00000006000000020000000000000000408F40000000C04B310CC000000080639948400000000000408FC0000000C04B310CC0000000C0639948400C00000013000000420900003C000000
310
06000000020000000000000000408FC0000000C04B310CC0000000C0639948400000000000408FC0000000C0AFED0DC0000000404F3348400C000000130000004A0900003C00000006000000020000000000000000408F400000004066580BC0000000007CE948400000000000408FC00000004066580BC0000000407CE948
310
400C00000013000000520900003C00000006000000020000000000000000408FC0000000C04B310CC0000000C0639948400000000000408FC00000004066580BC0000000407CE948400C000000130000005A0900003C00000006000000020000000000000000408F400000000014D10AC0000000408AF94840000000000040
310
8FC00000000014D10AC0000000808AF948400C00000013000000620900003C00000006000000020000000000000000408FC00000000014D10AC0000000808AF948400000000000408FC00000004066580BC0000000407CE948400C000000130000006A0900003C00000006000000020000000000000000408F40000000E0C6
310
C109C0000000C0000049400000000000408FC0000000E0C6C109C000000040010049400C00000013000000720900003C00000006000000020000000000000000408FC0000000E0C6C109C000000040010049400000000000408FC00000000014D10AC0000000808AF948400C000000130000007A0900003C00000006000000
310
020000000000000000408F400000000000000000000000C0000049400000000000408FC0000000000000B83E00000040010049400C00000013000000820900003C00000006000000020000000000000000408FC0000000E0C6C109C000000040010049400000000000408FC0000000000000B83E00000040010049400C0000
310
00130000008A0900003C00000006000000020000000000000000408F40000000000000A0BE000000001F4946400000000000408FC00000000000000000000000401F4946400C00000013000000920900003C00000006000000020000000000000000408FC00000000000000000000000401F4946400000000000408FC00000
310
00000000B83E00000040010049400C000000130000009A0900003C00000006000000020000000000000000408F400000000060A2B3BF000000001D2746400000000000408FC00000000058A2B3BF000000401D2746400C00000013000000A20900003C00000006000000020000000000000000408FC00000000058A2B3BF00
310
0000401D2746400000000000408FC00000000000000000000000401F4946400C00000013000000AA0900003C00000006000000020000000000000000408F40000000004616D2BF000000807C0F46400000000000408FC0000000004416D2BF000000007D0F46400C00000013000000B20900003C0000000600000002000000
310
0000000000408FC00000000058A2B3BF000000401D2746400000000000408FC0000000004416D2BF000000007D0F46400C00000013000000BA0900003C00000006000000020000000000000000408F40000000006F0EE8BF000000407BDF45400000000000408FC0000000006E0EE8BF000000807BDF45400C000000130000
310
00C20900003C00000006000000020000000000000000408FC0000000004416D2BF000000007D0F46400000000000408FC0000000006E0EE8BF000000807BDF45400C00000013000000CA0900003C00000006000000020000000000000000408F4000000000D7D4EFBF000000006EB845400000000000408FC000000000D6D4
310
EFBF000000806EB845400C00000013000000D20900003C00000006000000020000000000000000408FC0000000006E0EE8BF000000807BDF45400000000000408FC000000000D6D4EFBF000000806EB845400C00000013000000DA0900003C00000006000000020000000000000000408F4000000000F4AFF2BF000000C05E
310
8A45400000000000408FC000000000F2AFF2BF000000005F8A45400C00000013000000E20900003C00000006000000020000000000000000408FC000000000D6D4EFBF000000806EB845400000000000408FC000000000F2AFF2BF000000005F8A45400C00000013000000EA0900003C000000060000000200000000000000
310
00408F40000000004713F4BF00000000B45945400000000000408FC0000000004613F4BF00000080B45945400C00000013000000F20900003C00000006000000020000000000000000408FC0000000004613F4BF00000080B45945400000000000408FC000000000F2AFF2BF000000005F8A45400C00000013000000FA0900
310
003C00000006000000020000000000000000408F40000000804613F4BF000000804D2645400000000000408FC0000000804513F4BF000000C04D2645400C00000013000000020A00003C00000006000000020000000000000000408FC0000000004613F4BF00000080B45945400000000000408FC0000000804513F4BF0000
310
00C04D2645400C000000130000000A0A00003C00000006000000020000000000000000408F4000000080F3AFF2BF00000000A3F544400000000000408FC000000000F2AFF2BF00000040A3F544400C00000013000000120A00003C00000006000000020000000000000000408FC0000000804513F4BF000000C04D26454000
310
00000000408FC000000000F2AFF2BF00000040A3F544400C000000130000001A0A00003C00000006000000020000000000000000408F4000000000D6D4EFBF0000008093C744400000000000408FC000000000D4D4EFBF0000000094C744400C00000013000000220A00003C00000006000000020000000000000000408FC0
310
00000000D4D4EFBF0000000094C744400000000000408FC000000000F2AFF2BF00000040A3F544400C000000130000002A0A00003C00000006000000020000000000000000408F40000000006F0EE8BF0000008086A044400000000000408FC0000000006C0EE8BF000000C086A044400C00000013000000320A00003C0000
310
0006000000020000000000000000408FC000000000D4D4EFBF0000000094C744400000000000408FC0000000006C0EE8BF000000C086A044400C000000130000003A0A00003C00000006000000020000000000000000408F40000000004616D2BF00000000857044400000000000408FC0000000004016D2BF000000808570
310
44400C00000013000000420A00003C00000006000000020000000000000000408FC0000000004016D2BF00000080857044400000000000408FC0000000006C0EE8BF000000C086A044400C000000130000004A0A00003C00000006000000020000000000000000408F400000000060A2B3BF000000C0E45844400000000000
310
408FC00000000048A2B3BF00000000E55844400C00000013000000520A00003C00000006000000020000000000000000408FC0000000004016D2BF00000080857044400000000000408FC00000000048A2B3BF00000000E55844400C000000130000005A0A00003C00000006000000020000000000000000408F4000000000
310
0000A0BE000000C0E23644400000000000408FC0000000000000B03E00000000E33644400C00000013000000620A00003C00000006000000020000000000000000408FC0000000000000B03E00000000E33644400000000000408FC00000000048A2B3BF00000000E55844400C000000130000006A0A00003C000000060000
310
00020000000000000000408F40000000000000000000000040241A43400000000000408FC0000000000000B83E000000C0241A43400C00000013000000720A00003C00000006000000020000000000000000408FC0000000000000B03E00000000E33644400000000000408FC0000000000000B83E000000C0241A43400C00
310
0000130000007A0A00003C00000006000000020000000000000000408F400000000028A5C0BF000000C005DB42400000000000408FC0000000001CA5C0BF0000000006DB42400C00000013000000820A00003C00000006000000020000000000000000408FC0000000001CA5C0BF0000000006DB42400000000000408FC000
310
0000000000B83E000000C0241A43400C000000130000008A0A00003C00000006000000020000000000000000408F40000000002E20DFBF0000008051AC42400000000000408FC0000000002820DFBF0000000052AC42400C00000013000000920A00003C00000006000000020000000000000000408FC0000000001CA5C0BF
310
0000000006DB42400000000000408FC0000000002820DFBF0000000052AC42400C000000130000009A0A00003C00000006000000020000000000000000408F4000000040F7AD1AC00000000078D240400000000000408FC0000000C0F7AD1AC00000004078D240400C00000013000000A20A00003C00000006000000020000
310
000000000000408FC0000000002820DFBF0000000052AC42400000000000408FC0000000C0F7AD1AC00000004078D240400C00000013000000AA0A00003C00000006000000020000000000000000408F400000000049611CC000000080159F40400000000000408FC00000008049611CC0000000C0159F40400C0000001300
310
0000B20A00003C00000006000000020000000000000000408FC0000000C0F7AD1AC00000004078D240400000000000408FC00000008049611CC0000000C0159F40400C00000013000000BA0A00003C00000006000000020000000000000000408F40000000C046421DC000000080BD7540400000000000408FC00000002047
310
421DC0000000C0BD7540400C00000013000000C20A00003C00000006000000020000000000000000408FC00000008049611CC0000000C0159F40400000000000408FC00000002047421DC0000000C0BD7540400C00000013000000CA0A00003C00000006000000020000000000000000408F400000008031D41DC000000000
310
294840400000000000408FC00000000032D41DC000000080294840400C00000013000000D20A00003C00000006000000020000000000000000408FC00000000032D41DC000000080294840400000000000408FC00000002047421DC0000000C0BD7540400C00000013000000DA0A00003C0000000600000002000000000000
310
0000408F400000008053151EC000000080D41640400000000000408FC00000000054151EC0000000C0D41640400C00000013000000E20A00003C00000006000000020000000000000000408FC00000000032D41DC000000080294840400000000000408FC00000000054151EC0000000C0D41640400C00000013000000EA0A
310
00003C00000006000000020000000000000000408F40000000C034001EC00000006018CB3F400000000000408FC00000000035001EC00000002019CB3F400C00000013000000F20A00003C00000006000000020000000000000000408FC00000000054151EC0000000C0D41640400000000000408FC00000000035001EC000
310
00002019CB3F400C00000013000000FA0A00003C00000006000000020000000000000000408F400000004048951DC0000000E0BC6A3F400000000000408FC0000000A048951DC0000000A0BD6A3F400C00000013000000020B00003C00000006000000020000000000000000408FC0000000A048951DC0000000A0BD6A3F40
310
0000000000408FC00000000035001EC00000002019CB3F400C000000130000000A0B00003C00000006000000020000000000000000408F40000000803EDD1CC000000080FF133F400000000000408FC0000000E03EDD1CC00000004000143F400C00000013000000120B00003C00000006000000020000000000000000408F
310
C0000000A048951DC0000000A0BD6A3F400000000000408FC0000000E03EDD1CC00000004000143F400C000000130000001A0B00003C00000006000000020000000000000000408F400000004034DA1BC000000000CBC73E400000000000408FC0000000A034DA1BC0000000C0CBC73E400C00000013000000220B00003C00
310
000006000000020000000000000000408FC0000000E03EDD1CC00000004000143F400000000000408FC0000000A034DA1BC0000000C0CBC73E400C000000130000002A0B00003C00000006000000020000000000000000408F400000004075FD19C0000000403D6D3E400000000000408FC0000000A075FD19C0000000003E
310
6D3E400C00000013000000320B00003C00000006000000020000000000000000408FC0000000A034DA1BC0000000C0CBC73E400000000000408FC0000000A075FD19C0000000003E6D3E400C000000130000003A0B00003C00000006000000020000000000000000408F40000000A0D28312C0000000805D373D4000000000
310
00408FC000000000D38312C0000000405E373D400C00000013000000420B00003C00000006000000020000000000000000408FC000000000D38312C0000000405E373D400000000000408FC0000000A075FD19C0000000003E6D3E400C000000130000004A0B00003C00000006000000020000000000000000408F40000000
310
C0C27A0BC000000020E82C3C400000000000408FC0000000C0C27A0BC0000000E0E82C3C400C00000013000000520B00003C00000006000000020000000000000000408FC000000000D38312C0000000405E373D400000000000408FC0000000C0C27A0BC0000000E0E82C3C400C000000130000005A0B00003C0000000600
310
0000020000000000000000408F40000000A0210904C0000000E093183B400000000000408FC0000000A0210904C0000000A094183B400C00000013000000620B00003C00000006000000020000000000000000408FC0000000C0C27A0BC0000000E0E82C3C400000000000408FC0000000A0210904C0000000A094183B400C
310
000000130000006A0B00003C00000006000000020000000000000000408F40000000C0D669FABF000000C00AC339400000000000408FC0000000C0D669FABF000000800BC339400C00000013000000720B00003C00000006000000020000000000000000408FC0000000A0210904C0000000A094183B400000000000408FC0
310
000000C0D669FABF000000800BC339400C000000130000007A0B00003C00000006000000020000000000000000408F4000000080A2F8F0BF00000000F77638400000000000408FC000000080A0F8F0BF000000C0F77638400C00000013000000820B00003C00000006000000020000000000000000408FC0000000C0D669FA
310
BF000000800BC339400000000000408FC000000080A0F8F0BF000000C0F77638400C000000130000008A0B00003C00000006000000020000000000000000408F40000000008FB5E3BF00000060D2F136400000000000408FC0000000008EB5E3BF00000020D3F136400C00000013000000920B00003C000000060000000200
310
00000000000000408FC000000080A0F8F0BF000000C0F77638400000000000408FC0000000008EB5E3BF00000020D3F136400C000000130000009A0B00003C00000006000000020000000000000000408F4000000000EA76DABF000000A0518835400000000000408FC000000000E876DABF00000060528835400C00000013
310
000000A20B00003C00000006000000020000000000000000408FC000000000E876DABF00000060528835400000000000408FC0000000008EB5E3BF00000020D3F136400C00000013000000AA0B00003C00000006000000020000000000000000408F40000000003633D3BF00000080CAF033400000000000408FC000000000
310
3033D3BF00000040CBF033400C00000013000000B20B00003C00000006000000020000000000000000408FC000000000E876DABF00000060528835400000000000408FC0000000003033D3BF00000040CBF033400C00000013000000BA0B00003C00000006000000020000000000000000408F40000000003433D3BF000000
310
C09B992C400000000000408FC0000000003033D3BF000000C09D992C400C00000013000000C20B00003C00000006000000020000000000000000408FC0000000003033D3BF00000040CBF033400000000000408FC0000000003033D3BF000000C09D992C400C00000013000000CA0B00003C00000006000000020000000000
310
000000408F4000000000000000000000004002002C400000000000408FC0000000000000B03E0000004004002C400C00000013000000D20B00003C00000006000000020000000000000000408FC0000000003033D3BF000000C09D992C400000000000408FC0000000000000B03E0000004004002C400C00000013000000DA
310
0B00003C00000006000000020000000000000000408F40000000000000A0BE000000C07A2423400000000000408FC0000000000000B03E000000C07C2423400C00000013000000E20B00003C00000006000000020000000000000000408FC0000000000000B03E0000004004002C400000000000408FC0000000000000B03E
310
000000C07C2423400C00000013000000EA0B00003C00000006000000020000000000000000408F400000000060A2B3BF000000C0729C22400000000000408FC00000000048A2B3BF000000C0749C22400C00000013000000F20B00003C00000006000000020000000000000000408FC00000000048A2B3BF000000C0749C22
310
400000000000408FC0000000000000B03E000000C07C2423400C00000013000000FA0B00003C00000006000000020000000000000000408F40000000004616D2BF00000040F13D22400000000000408FC0000000004016D2BF00000040F33D22400C00000013000000020C00003C0000000600000002000000000000000040
310
8FC00000000048A2B3BF000000C0749C22400000000000408FC0000000004016D2BF00000040F33D22400C000000130000000A0C00003C00000006000000020000000000000000408F40000000006F0EE8BF000000C0EB7D21400000000000408FC0000000006C0EE8BF000000C0ED7D21400C00000013000000120C00003C
310
00000006000000020000000000000000408FC0000000004016D2BF00000040F33D22400000000000408FC0000000006C0EE8BF000000C0ED7D21400C000000130000001A0C00003C00000006000000020000000000000000408F4000000000D7D4EFBF00000040B7E120400000000000408FC000000000D4D4EFBF00000040
310
B9E120400C00000013000000220C00003C00000006000000020000000000000000408FC0000000006C0EE8BF000000C0ED7D21400000000000408FC000000000D4D4EFBF00000040B9E120400C000000130000002A0C00003C00000006000000020000000000000000408F4000000080F3AFF2BF000000C079292040000000
310
0000408FC000000000F2AFF2BF000000C07B2920400C00000013000000320C00003C00000006000000020000000000000000408FC000000000F2AFF2BF000000C07B2920400000000000408FC000000000D4D4EFBF00000040B9E120400C000000130000003A0C00003C00000006000000020000000000000000408F400000
310
00004713F4BF000000809ECD1E400000000000408FC0000000804513F4BF00000080A2CD1E400C00000013000000420C00003C00000006000000020000000000000000408FC000000000F2AFF2BF000000C07B2920400000000000408FC0000000804513F4BF00000080A2CD1E400C000000130000004A0C00003C00000006
310
000000020000000000000000408F40000000004713F4BF000000806A321D400000000000408FC0000000804513F4BF000000806E321D400C00000013000000520C00003C00000006000000020000000000000000408FC0000000804513F4BF000000806E321D400000000000408FC0000000804513F4BF00000080A2CD1E40
310
0C000000130000005A0C00003C00000006000000020000000000000000408F4000000000F3AFF2BF0000008015AD1B400000000000408FC000000080F1AFF2BF0000008019AD1B400C00000013000000620C00003C00000006000000020000000000000000408FC0000000804513F4BF000000806E321D400000000000408F
310
C000000080F1AFF2BF0000008019AD1B400C000000130000006A0C00003C00000006000000020000000000000000408F4000000000D6D4EFBF000000809A3C1A400000000000408FC000000000D3D4EFBF000000809E3C1A400C00000013000000720C00003C00000006000000020000000000000000408FC000000000D3D4
310
EFBF000000809E3C1A400000000000408FC000000080F1AFF2BF0000008019AD1B400C000000130000007A0C00003C00000006000000020000000000000000408F40000000006E0EE8BF00000080310419400000000000408FC0000000006B0EE8BF00000080350419400C00000013000000820C00003C0000000600000002
310
0000000000000000408FC000000000D3D4EFBF000000809E3C1A400000000000408FC0000000006B0EE8BF00000080350419400C000000130000008A0C00003C00000006000000020000000000000000408F40000000004416D2BF00000080268417400000000000408FC0000000003E16D2BF000000802A8417400C000000
310
13000000920C00003C00000006000000020000000000000000408FC0000000006B0EE8BF00000080350419400000000000408FC0000000003E16D2BF000000802A8417400C000000130000009A0C00003C00000006000000020000000000000000408F400000000058A2B3BF0000008023C716400000000000408FC0000000
310
0040A2B3BF0000008027C716400C00000013000000A20C00003C00000006000000020000000000000000408FC00000000040A2B3BF0000008027C716400000000000408FC0000000003E16D2BF000000802A8417400C00000013000000AA0C00003C00000006000000020000000000000000408F4000000000000000000000
310
008013B715400000000000408FC0000000000000B83E0000008017B715400C00000013000000B20C00003C00000006000000020000000000000000408FC00000000040A2B3BF0000008027C716400000000000408FC0000000000000B83E0000008017B715400C00000013000000BA0C00003C000000060000000200000000
310
00000000408FC0000000000000B83E0000008017B715400000000000408FC00000000000000000000000000000013F0C00000013000000C20C00003C00000006000000020000000000000000408FC0000000001CA5C0BF0000000006DB42400000000000408FC00000000048A2B3BF00000000E55844400C00000013000000
310
CA0C00003C00000006000000020000000000000000408FC0000000E0C6C109C000000040010049400000000000408FC00000000000000000000000401F4946400C00000013000000D20C00003C00000006000000020000000000000000408FC00000000058A2B3BF000000401D2746400000000000408FC00000000014D10A
310
C0000000808AF948400C00000013000000DA0C00003C00000006000000020000000000000000408FC0000000004416D2BF000000007D0F46400000000000408FC00000004066580BC0000000407CE948400C00000013000000E20C00003C00000006000000020000000000000000408FC0000000006E0EE8BF000000807BDF
310
45400000000000408FC0000000C04B310CC0000000C0639948400C00000013000000EA0C00003C00000006000000020000000000000000408FC0000000C0AFED0DC0000000404F3348400000000000408FC000000000D6D4EFBF000000806EB845400C00000013000000F20C00003C00000006000000020000000000000000
310
408FC000000000F2AFF2BF000000005F8A45400000000000408FC0000000C0244B10C000000040F6C147400C00000013000000FA0C00003C00000006000000020000000000000000408FC0000000004613F4BF00000080B45945400000000000408FC000000040F30312C0000000009F5247400C00000013000000020D0000
310
3C00000006000000020000000000000000408FC0000000804513F4BF000000C04D2645400000000000408FC00000002032FC13C0000000C075F146400C000000130000000A0D00003C00000006000000020000000000000000408FC0000000004016D2BF00000080857044400000000000408FC0000000002820DFBF000000
310
0052AC42400C00000013000000120D00003C00000006000000020000000000000000408FC0000000C0F7AD1AC00000004078D240400000000000408FC0000000006C0EE8BF000000C086A044400C000000130000001A0D00003C00000006000000020000000000000000408FC0000000C0F7AD1AC00000004078D240400000
310
000000408FC000000000D4D4EFBF0000000094C744400C00000013000000220D00003C00000006000000020000000000000000408FC0000000C0F7AD1AC00000004078D240400000000000408FC000000040A39620C00000008010D144400C000000130000002A0D00003C00000006000000020000000000000000408FC000
310
000000D4D4EFBF0000000094C744400000000000408FC000000020EF8B20C0000000409ED744400C00000013000000320D00003C00000006000000020000000000000000408FC000000000F2AFF2BF00000040A3F544400000000000408FC000000020EF8B20C0000000409ED744400C000000130000003A0D00003C000000
310
06000000020000000000000000408FC000000000F2AFF2BF00000040A3F544400000000000408FC000000000D01F20C0000000800AD445400C00000013000000420D00003C00000006000000020000000000000000408FC0000000C0F7AD1AC00000004078D240400000000000408FC0000000409CAD20C000000080EDCC44
310
400C000000130000004A0D00003C00000006000000020000000000000000408FC0000000C0F7AD1AC00000004078D240400000000000408FC0000000E0168921C000000000FFB744400C00000013000000520D00003C00000006000000020000000000000000408FC000000000849325C000000000AD474440000000000040
310
8FC00000008049611CC0000000C0159F40400C000000130000005A0D00003C00000006000000020000000000000000408FC000000000F2AFF2BF00000040A3F544400000000000408FC0000000A0290720C0000000801EE245400C00000013000000620D00003C00000006000000020000000000000000408FC000000000F2
310
AFF2BF00000040A3F544400000000000408FC00000008088A51FC0000000C027EA45400C000000130000006A0D00003C00000006000000020000000000000000408FC000000000F2AFF2BF00000040A3F544400000000000408FC00000000058B51AC0000000C0B52A46400C00000013000000720D00003C00000006000000
310
020000000000000000408FC000000000F2AFF2BF00000040A3F544400000000000408FC000000080C46118C0000000C0F05D46400C000000130000007A0D00003C00000006000000020000000000000000408FC0000000804513F4BF000000C04D2645400000000000408FC0000000009F2116C000000040CC9F46400C0000
310
0013000000820D00003C00000006000000020000000000000000408FC0000000C0385A29C0000000C032BF43400000000000408FC00000002047421DC0000000C0BD7540400C000000130000008A0D00003C00000006000000020000000000000000408FC000000000897F2CC0000000C0392943400000000000408FC00000
310
000032D41DC000000080294840400C00000013000000920D00003C00000006000000020000000000000000408FC000000020DF1C2FC000000000758042400000000000408FC00000000054151EC0000000C0D41640400C000000130000009A0D00003C00000006000000020000000000000000408FC0000000C0F76D30C000
310
0000A0EBDE41400000000000408FC00000000035001EC00000002019CB3F400C00000013000000A20D00003C00000006000000020000000000000000408FC0000000A048951DC0000000A0BD6A3F400000000000408FC0000000C0860231C0000000006F2E41400C00000013000000AA0D00003C0000000600000002000000
310
0000000000408FC0000000801F3F31C0000000C0E57040400000000000408FC0000000E03EDD1CC00000004000143F400C00000013000000B20D00003C00000006000000020000000000000000408FC0000000C0232531C00000008010803F400000000000408FC0000000A034DA1BC0000000C0CBC73E400C000000130000
310
00BA0D00003C00000006000000020000000000000000408FC000000080D0C030C000000000301F3E400000000000408FC0000000A075FD19C0000000003E6D3E400C00000013000000C20D00003C00000006000000020000000000000000408FC000000040210E30C0000000806FB13C400000000000408FC000000000D383
310
12C0000000405E373D400C00000013000000CA0D00003C00000006000000020000000000000000408FC0000000C0C27A0BC0000000E0E82C3C400000000000408FC000000080D4512EC000000080656A3B400C00000013000000D20D00003C00000006000000020000000000000000408FC0000000402D432CC000000080AC
310
4C3A400000000000408FC0000000A0210904C0000000A094183B400C00000013000000DA0D00003C00000006000000020000000000000000408FC00000004083E429C000000040A14A39400000000000408FC0000000C0D669FABF000000800BC339400C00000013000000E20D00003C000000060000000200000000000000
310
00408FC0000000E01F5527C0000000806E5C38400000000000408FC000000080A0F8F0BF000000C0F77638400C00000013000000EA0D00003C00000006000000020000000000000000408FC000000080EDC424C0000000405C8237400000000000408FC0000000008EB5E3BF00000020D3F136400C00000013000000F20D00
310
003C00000006000000020000000000000000408FC0000000A0674622C00000002088A936400000000000408FC0000000008EB5E3BF00000020D3F136400C00000013000000FA0D00003C00000006000000020000000000000000408FC000000000E876DABF00000060528835400000000000408FC0000000C045EE1FC00000
310
0040C9C435400C00000013000000020E00003C00000006000000020000000000000000408FC000000000E876DABF00000060528835400000000000408FC0000000E0E1F01BC0000000C048C434400C000000130000000A0E00003C00000006000000020000000000000000408FC0000000A0B10C19C000000060E6A8334000
310
00000000408FC0000000003033D3BF00000040CBF033400C00000013000000120E00003C00000006000000020000000000000000408FC00000006034A417C000000080209032400000000000408FC0000000003033D3BF00000040CBF033400C000000130000001A0E00003C00000006000000020000000000000000408FC0
310
00000000D88117C000000020555E31400000000000408FC0000000003033D3BF000000C09D992C400C00000013000000220E00003C00000006000000020000000000000000408FC0000000003033D3BF000000C09D992C400000000000408FC00000006084E418C000000040D4E02F400C000000130000002A0E00003C0000
310
0006000000020000000000000000408FC0000000003033D3BF000000C09D992C400000000000408FC0000000C073281CC000000040B78B2C400C00000013000000320E00003C00000006000000020000000000000000408FC00000000047051FC0000000C0685E2A400000000000408FC0000000000000B03E000000400400
310
2C400C000000130000003A0E00003C00000006000000020000000000000000408FC0000000C0D82B1FC00000004021192A400000000000408FC0000000000000B03E0000004004002C400C00000013000000420E00003C00000006000000020000000000000000408FC0000000000000B03E0000004004002C400000000000
310
408FC00000004028EE1EC0000000402BD829400C000000130000004A0E00003C00000006000000020000000000000000408FC0000000402F3A19C0000000C0BA1827400000000000408FC0000000000000B03E000000C07C2423400C00000013000000520E00003C00000006000000020000000000000000408FC000000000
310
48A2B3BF000000C0749C22400000000000408FC000000040071B19C0000000C05BF426400C000000130000005A0E00003C00000006000000020000000000000000408FC0000000004016D2BF00000040F33D22400000000000408FC000000040C43819C0000000C0B0CF26400C00000013000000620E00003C000000060000
310
00020000000000000000408FC0000000C09AE41AC0000000400DD725400000000000408FC0000000006C0EE8BF000000C0ED7D21400C000000130000006A0E00003C00000006000000020000000000000000408FC00000000087AC1DC000000040659E23400000000000408FC000000000D4D4EFBF00000040B9E120400C00
310
000013000000720E00003C00000006000000020000000000000000408FC000000000F2AFF2BF000000C07B2920400000000000408FC00000006028F91EC000000040604B21400C000000130000007A0E00003C00000006000000020000000000000000408FC00000008092DA1EC00000008078FB1D400000000000408FC000
310
0000804513F4BF00000080A2CD1E400C00000013000000820E00003C00000006000000020000000000000000408FC00000008076871DC000000080ACA719400000000000408FC0000000804513F4BF000000806E321D400C000000130000008A0E00003C00000006000000020000000000000000408FC0000000409A341BC0
310
00000080AEBD15400000000000408FC000000080F1AFF2BF0000008019AD1B400C00000013000000920E00003C00000006000000020000000000000000408FC000000000A4D117C0000000802E2D12400000000000408FC000000000D3D4EFBF000000809E3C1A400C000000130000009A0E00003C00000006000000020000
310
000000000000408FC0000000006B0EE8BF00000080350419400000000000408FC000000080475413C000000000454C0E400C00000013000000A20E00003C00000006000000020000000000000000408FC0000000C0D35A10C000000000D56E0B400000000000408FC0000000003E16D2BF000000802A8417400C0000001300
310
0000AA0E00003C00000006000000020000000000000000408FC00000000040A2B3BF0000008027C716400000000000408FC000000080EA2C10C000000000BB260B400C00000013000000B20E00003C00000006000000020000000000000000408FC0000000000000B83E0000008017B715400000000000408FC00000000013
310
1A10C0000000003DB80A400C00000013000000BA0E00003C00000006000000020000000000000000408FC0000000000000B83E0000008017B715400000000000408FC000000040066B0FC000000000A4BDE93F0C00000013000000C20E00003C00000006000000020000000000000000408FC0000000000000B83E00000080
310
17B715400000000000408FC0000000805B040FC0000000003CC1E53F0C00000013000000CA0E00003C00000006000000020000000000000000408FC0000000000000B83E0000008017B715400000000000408FC000000080D3130EC0000000001CACE33F
100
AcDbSubDMesh
 71
     2
 72
     0
 91
        0
 92
      228
 10
1000.0
 20
-10.78811645507812
 30
40.55995941162109
 10
1000.0
 20
-0.0000004768371582
 30
40.42879486083984
 10
1000.0
 20
0.0
 30
38.20423126220703
 10
1000.0
 20
-12.67621421813965
 30
39.49372100830078
 10
1000.0
 20
-0.130040168762207
 30
37.71111297607422
 10
1000.0
 20
-0.0766963958740234
 30
40.69448089599609
 10
1000.0
 20
-0.2826094627380371
 30
40.87905883789062
 10
1000.0
 20
-8.767751693725585
 30
41.43745422363281
 10
1000.0
 20
-0.7517619132995606
 30
41.25410461425781
 10
1000.0
 20
-8.273307800292968
 30
41.68450164794921
 10
1000.0
 20
-1.167956829071044
 30
41.91903686523438
 10
1000.0
 20
-8.294214248657226
 30
41.63330841064452
 10
1000.0
 20
-8.0621337890625
 30
43.65656280517578
 10
1000.0
 20
-1.254706382751464
 30
42.7008056640625
 10
1000.0
 20
-0.9947314262390136
 30
43.44085693359375
 10
1000.0
 20
-7.911651611328125
 30
43.82933044433594
 10
1000.0
 20
-0.2826094627380371
 30
44.12098693847656
 10
1000.0
 20
-8.013988494873046
 30
43.76654815673828
 10
1000.0
 20
-6.677091598510742
 30
44.33365631103515
 10
1000.0
 20
-0.0766963958740234
 30
44.30557250976562
 10
1000.0
 20
-0.0000004768371582
 30
44.57125854492187
 10
1000.0
 20
-3.21961760520935
 30
50.00002288818359
 10
1000.0
 20
0.0
 30
50.00002288818359
 10
1000.0
 20
-3.352088928222656
 30
49.94953155517578
 10
1000.0
 20
-3.418163776397705
 30
49.8240966796875
 10
1000.0
 20
-3.524070262908935
 30
49.19834899902344
 10
1000.0
 20
-3.741057872772216
 30
48.40084838867188
 10
1000.0
 20
-4.073381423950195
 30
47.51531982421875
 10
1000.0
 20
-4.503856658935546
 30
46.64546966552734
 10
1000.0
 20
-4.996284008026123
 30
45.88639831542969
 10
1000.0
 20
-5.532832145690917
 30
45.2484130859375
 10
1000.0
 20
-6.095475196838378
 30
44.73390197753906
 10
1000.0
 20
-14.24909210205078
 30
38.32205963134766
 10
1000.0
 20
-0.4863390922546387
 30
37.34623718261719
 10
1000.0
 20
-6.669888496398925
 30
33.644287109375
 10
1000.0
 20
-15.5563907623291
 30
37.00355529785156
 10
1000.0
 20
-16.42956161499023
 30
35.74155426025391
 10
1000.0
 20
-17.00986862182617
 30
34.36275100708008
 10
1000.0
 20
-7.314723014831542
 30
32.91984558105469
 10
1000.0
 20
-7.520826339721679
 30
32.17835998535156
 10
1000.0
 20
-17.24657440185547
 30
32.88199996948242
 10
1000.0
 20
-7.395783424377441
 30
31.41694450378418
 10
1000.0
 20
-6.963089942932128
 30
30.78044128417969
 10
1000.0
 20
-17.14507675170898
 30
31.50024032592773
 10
1000.0
 20
-6.497517585754394
 30
30.42671585083008
 10
1000.0
 20
-3.43494176864624
 30
28.17541694641113
 10
1000.0
 20
-16.75318145751953
 30
30.1218147277832
 10
1000.0
 20
-1.650839567184448
 30
25.76188278198242
 10
1000.0
 20
-16.05519485473633
 30
28.69309616088867
 10
1000.0
 20
-15.15982437133789
 30
27.41559982299805
 10
1000.0
 20
-0.6159129142761231
 30
22.94461631774902
 10
1000.0
 20
-14.13120460510254
 30
26.29949569702148
 10
1000.0
 20
-12.94631385803223
 30
25.29151153564453
 10
1000.0
 20
-11.66625881195068
 30
24.36104965209961
 10
1000.0
 20
-0.3000006675720215
 30
19.94058990478515
 10
1000.0
 20
-10.38462448120117
 30
23.50920867919922
 10
1000.0
 20
-9.137508392333984
 30
22.66222190856934
 10
1000.0
 20
-7.98268699645996
 30
21.76868438720703
 10
1000.0
 20
-0.3000001907348633
 30
14.30001640319824
 10
1000.0
 20
-6.985235214233398
 30
20.7667236328125
 10
1000.0
 20
-6.262394905090332
 30
19.65975379943848
 10
1000.0
 20
-5.910354614257812
 30
18.56298446655273
 10
1000.0
 20
-5.876799583435058
 30
17.36847114562988
 10
1000.0
 20
-6.223160743713378
 30
15.93910408020019
 10
1000.0
 20
0.0
 30
14.00001716613769
 10
1000.0
 20
-7.039503097534179
 30
14.27286720275879
 10
1000.0
 20
-0.0000004768371582
 30
9.57124900817871
 10
1000.0
 20
-7.792819023132324
 30
13.0490665435791
 10
1000.0
 20
-7.732574462890625
 30
12.92218971252441
 10
1000.0
 20
-6.306819915771484
 30
11.54828453063965
 10
1000.0
 20
-6.276393890380859
 30
11.47724723815918
 10
1000.0
 20
-6.72324514389038
 30
10.92000770568847
 10
1000.0
 20
-0.0766963958740234
 30
9.30556297302246
 10
1000.0
 20
-7.418482303619384
 30
9.809350967407226
 10
1000.0
 20
-0.2826094627380371
 30
9.120981216430664
 10
1000.0
 20
-0.9947314262390136
 30
8.440851211547851
 10
1000.0
 20
-1.254706382751464
 30
7.700799942016601
 10
1000.0
 20
-7.743316650390625
 30
8.64720344543457
 10
1000.0
 20
-1.167956352233886
 30
6.91902732849121
 10
1000.0
 20
-7.713448047637939
 30
7.495561599731445
 10
1000.0
 20
-0.7517614364624024
 30
6.254095077514648
 10
1000.0
 20
-0.2826089859008789
 30
5.879053115844726
 10
1000.0
 20
-7.382286071777343
 30
6.413728713989257
 10
1000.0
 20
-0.0766959190368652
 30
5.694471359252929
 10
1000.0
 20
0.0
 30
5.428785324096679
 10
1000.0
 20
-4.088697433471679
 30
3.429101943969726
 10
1000.0
 20
-6.801368713378906
 30
5.435220718383789
 10
1000.0
 20
-5.954726696014404
 30
4.544107437133789
 10
1000.0
 20
-4.832303524017333
 30
3.787225723266601
 10
1000.0
 20
-4.043862342834472
 30
3.393896102905273
 10
1000.0
 20
-0.0000004768371582
 30
0.0000171661376953
 10
1000.0
 20
-4.02546215057373
 30
3.339944839477539
 10
1000.0
 20
-3.927258014678955
 30
0.8043842315673828
 10
1000.0
 20
-3.877127647399902
 30
0.6798229217529297
 10
1000.0
 20
-3.759680747985839
 30
0.6147441864013672
 10
1000.0
 20
-8.339082717895507
 30
41.60098266601562
 10
1000.0
 20
-7.755152702331542
 30
13.18437767028808
 10
1000.0
 20
-6.305435180664062
 30
11.40563011169433
 10
1000.0
 20
-0.9947309494018554
 30
41.55918884277343
 10
1000.0
 20
-1.254705905914306
 30
42.29924011230468
 10
1000.0
 20
-1.167957305908203
 30
43.08101654052734
 10
1000.0
 20
-0.7517619132995606
 30
43.7459487915039
 10
1000.0
 20
-7.09500503540039
 30
33.24284362792969
 10
1000.0
 20
-7.457220077514648
 30
32.56375122070313
 10
1000.0
 20
-7.500201225280761
 30
31.7933406829834
 10
1000.0
 20
-7.216058731079101
 30
31.07811737060547
 10
1000.0
 20
-0.7517619132995606
 30
8.745939254760742
 10
1000.0
 20
-1.167956829071044
 30
8.081007003784179
 10
1000.0
 20
-1.254706382751464
 30
7.299234390258789
 10
1000.0
 20
-0.9947309494018554
 30
6.559183120727539
 10
1000.0
 20
-4.628733158111572
 30
29.21627044677734
 10
1000.0
 20
-2.504458665847778
 30
27.09600639343262
 10
1000.0
 20
-1.060701847076416
 30
24.46470642089844
 10
1000.0
 20
-0.4135079383850098
 30
21.53249549865723
 10
-1000.0
 20
-0.1300387382507324
 30
37.71112060546875
 10
-1000.0
 20
-3.21961760520935
 30
50.00003814697265
 10
-1000.0
 20
-0.0766959190368652
 30
44.30558013916015
 10
-1000.0
 20
-0.2826089859008789
 30
44.12100219726562
 10
-1000.0
 20
-0.7517614364624024
 30
43.74595642089843
 10
-1000.0
 20
-3.524070262908935
 30
49.19835662841797
 10
-1000.0
 20
-3.741057872772216
 30
48.40085601806641
 10
-1000.0
 20
-1.254705429077148
 30
42.70082092285156
 10
-1000.0
 20
-1.25470495223999
 30
42.29924774169922
 10
-1000.0
 20
-4.996284961700439
 30
45.88640594482422
 10
-1000.0
 20
-0.2826080322265625
 30
40.87907409667969
 10
-1000.0
 20
-0.4863376617431641
 30
37.34625244140625
 10
-1000.0
 20
-6.669890403747558
 30
33.64429473876953
 10
-1000.0
 20
-0.994729995727539
 30
41.5592041015625
 10
-1000.0
 20
-1.16795539855957
 30
41.9190444946289
 10
-1000.0
 20
-8.339082717895507
 30
41.60099792480468
 10
-1000.0
 20
-8.767752647399902
 30
41.43746948242188
 10
-1000.0
 20
-10.78811645507812
 30
40.55996704101562
 10
-1000.0
 20
-8.013989448547363
 30
43.76655578613281
 10
-1000.0
 20
-6.677093505859375
 30
44.33367156982422
 10
-1000.0
 20
-6.095476150512695
 30
44.73390960693359
 10
-1000.0
 20
-12.67621421813965
 30
39.49373626708985
 10
-1000.0
 20
-14.24909210205078
 30
38.32207489013672
 10
-1000.0
 20
-7.457221984863281
 30
32.56376647949219
 10
-1000.0
 20
-15.55638980865478
 30
37.00357055664063
 10
-1000.0
 20
-7.520828247070312
 30
32.1783676147461
 10
-1000.0
 20
-7.395784854888916
 30
31.41695594787598
 10
-1000.0
 20
-17.24657440185547
 30
32.88201141357422
 10
-1000.0
 20
-17.14507675170898
 30
31.50025177001953
 10
-1000.0
 20
-16.05519485473633
 30
28.69310760498047
 10
-1000.0
 20
-4.628734588623046
 30
29.21628189086914
 10
-1000.0
 20
-3.43494176864624
 30
28.17542839050293
 10
-1000.0
 20
-14.13120460510254
 30
26.29950714111328
 10
-1000.0
 20
-12.94631385803223
 30
25.29152297973633
 10
-1000.0
 20
-11.66625881195068
 30
24.36106109619141
 10
-1000.0
 20
-9.1375093460083
 30
22.66223335266113
 10
-1000.0
 20
-0.4135074615478516
 30
21.53250694274902
 10
-1000.0
 20
-6.985236644744873
 30
20.7667350769043
 10
-1000.0
 20
-5.910356044769287
 30
18.56299591064453
 10
-1000.0
 20
-5.876800537109375
 30
17.36848640441894
 10
-1000.0
 20
-7.792819023132324
 30
13.04908180236816
 10
-1000.0
 20
-6.3068208694458
 30
11.54829978942871
 10
-1000.0
 20
-0.0766949653625488
 30
9.305578231811523
 10
-1000.0
 20
-0.2826080322265625
 30
9.120996475219726
 10
-1000.0
 20
-1.16795539855957
 30
8.081022262573242
 10
-1000.0
 20
-7.382287979125976
 30
6.41374397277832
 10
-1000.0
 20
-1.25470495223999
 30
7.299249649047851
 10
-1000.0
 20
-6.801369667053222
 30
5.435235977172851
 10
-1000.0
 20
-5.954727172851562
 30
4.544122695922851
 10
-1000.0
 20
-0.9947295188903808
 30
6.559198379516601
 10
-1000.0
 20
-0.7517600059509278
 30
6.25411033630371
 10
-1000.0
 20
-4.088698387145996
 30
3.429117202758789
 10
-1000.0
 20
-0.0766944885253906
 30
5.694486618041992
 10
-1000.0
 20
0.0000014305114746
 30
5.428800582885742
 10
-1000.0
 20
-3.877127647399902
 30
0.6798381805419922
 10
-1000.0
 20
0.0000009536743164
 30
40.42880249023437
 10
-1000.0
 20
-0.0766949653625488
 30
40.69448852539062
 10
-1000.0
 20
0.0000014305114746
 30
38.20424652099609
 10
-1000.0
 20
0.0
 30
44.5712661743164
 10
-1000.0
 20
0.0000014305114746
 30
50.00003814697265
 10
-1000.0
 20
-3.352088928222656
 30
49.94953918457031
 10
-1000.0
 20
-3.418163776397705
 30
49.82410430908203
 10
-1000.0
 20
-0.9947309494018554
 30
43.44087219238281
 10
-1000.0
 20
-1.16795539855957
 30
43.08102416992187
 10
-1000.0
 20
-4.073382377624511
 30
47.51532745361328
 10
-1000.0
 20
-4.503857612609863
 30
46.64547729492187
 10
-1000.0
 20
-0.751760482788086
 30
41.25411224365234
 10
-1000.0
 20
-8.273308753967285
 30
41.68451690673828
 10
-1000.0
 20
-8.294214248657226
 30
41.63331604003906
 10
-1000.0
 20
-8.0621337890625
 30
43.65657043457031
 10
-1000.0
 20
-7.095006942749023
 30
33.24285125732422
 10
-1000.0
 20
-7.911653518676757
 30
43.82933807373047
 10
-1000.0
 20
-5.532833099365234
 30
45.24842071533202
 10
-1000.0
 20
-7.314724445343017
 30
32.91985321044922
 10
-1000.0
 20
-16.42956161499023
 30
35.74156570434571
 10
-1000.0
 20
-7.500202178955078
 30
31.7933521270752
 10
-1000.0
 20
-17.00986862182617
 30
34.36276245117188
 10
-1000.0
 20
-7.216060161590576
 30
31.07812881469727
 10
-1000.0
 20
-6.963091373443603
 30
30.78045272827149
 10
-1000.0
 20
-16.75318145751953
 30
30.121826171875
 10
-1000.0
 20
-6.497519016265869
 30
30.42672729492188
 10
-1000.0
 20
-15.15982437133789
 30
27.41561126708984
 10
-1000.0
 20
-2.504458665847778
 30
27.09601783752442
 10
-1000.0
 20
-1.650839567184448
 30
25.76189422607422
 10
-1000.0
 20
-1.060699939727783
 30
24.46471786499023
 10
-1000.0
 20
-10.38462448120117
 30
23.50922012329101
 10
-1000.0
 20
-0.6159124374389649
 30
22.94462776184082
 10
-1000.0
 20
-7.982687950134277
 30
21.76869583129883
 10
-1000.0
 20
-6.262396335601806
 30
19.65976524353027
 10
-1000.0
 20
-0.2999992370605469
 30
19.94060134887695
 10
-1000.0
 20
-0.2999992370605469
 30
14.3000316619873
 10
-1000.0
 20
-6.223161220550537
 30
15.93911933898926
 10
-1000.0
 20
-7.039504051208496
 30
14.27288246154785
 10
-1000.0
 20
-7.755153656005859
 30
13.18439292907715
 10
-1000.0
 20
0.0000009536743164
 30
14.00003242492676
 10
-1000.0
 20
-7.732575416564941
 30
12.92220497131348
 10
-1000.0
 20
0.0000009536743164
 30
9.571264266967773
 10
-1000.0
 20
-6.276394844055175
 30
11.47726249694824
 10
-1000.0
 20
-6.305436134338378
 30
11.4056453704834
 10
-1000.0
 20
-6.723246574401855
 30
10.92002296447754
 10
-1000.0
 20
-0.751760482788086
 30
8.745954513549804
 10
-1000.0
 20
-7.418483734130859
 30
9.809366226196289
 10
-1000.0
 20
-0.994729995727539
 30
8.440866470336914
 10
-1000.0
 20
-7.743318080902099
 30
8.647218704223632
 10
-1000.0
 20
-7.713449478149414
 30
7.495576858520507
 10
-1000.0
 20
-1.25470495223999
 30
7.700815200805664
 10
-1000.0
 20
-1.167954921722412
 30
6.919042587280273
 10
-1000.0
 20
-4.832304000854492
 30
3.787240982055664
 10
-1000.0
 20
-0.2826075553894043
 30
5.879068374633789
 10
-1000.0
 20
-4.043863296508789
 30
3.393911361694335
 10
-1000.0
 20
-4.025463104248046
 30
3.339960098266601
 10
-1000.0
 20
-3.927258014678955
 30
0.8043994903564453
 10
-1000.0
 20
-3.759680747985839
 30
0.6147594451904297
 10
-1000.0
 20
0.0
 30
0.0000324249267578
 93
     1196
 90
        4
 90
        1
 90
        5
 90
        4
 90
        2
 90
        3
 90
       20
 90
       22
 90
       21
 90
        4
 90
       19
 90
       20
 90
       21
 90
       23
 90
        4
 90
       16
 90
       19
 90
       23
 90
       24
 90
        4
 90
      101
 90
       16
 90
       24
 90
       25
 90
        4
 90
       14
 90
      101
 90
       25
 90
       26
 90
        4
 90
      100
 90
       14
 90
       26
 90
       27
 90
        4
 90
       13
 90
      100
 90
       27
 90
       28
 90
        4
 90
       99
 90
       13
 90
       28
 90
       29
 90
        4
 90
        5
 90
        6
 90
       33
 90
        4
 90
        4
 90
        6
 90
        8
 90
       34
 90
       33
 90
        3
 90
        8
 90
       98
 90
       34
 90
        4
 90
       98
 90
        9
 90
       11
 90
       34
 90
        3
 90
       98
 90
       10
 90
        9
 90
        3
 90
       10
 90
       12
 90
        9
 90
        3
 90
       11
 90
       95
 90
       34
 90
        3
 90
       95
 90
        7
 90
       34
 90
        4
 90
        7
 90
        0
 90
      102
 90
       34
 90
        3
 90
       10
 90
       15
 90
       17
 90
        3
 90
       10
 90
       17
 90
       12
 90
        3
 90
       10
 90
       18
 90
       15
 90
        4
 90
       10
 90
       99
 90
       30
 90
       31
 90
        3
 90
       10
 90
       31
 90
       18
 90
        3
 90
       99
 90
       29
 90
       30
 90
        4
 90
        0
 90
        3
 90
       38
 90
      102
 90
        4
 90
        3
 90
       32
 90
      103
 90
       38
 90
        4
 90
       32
 90
       35
 90
       39
 90
      103
 90
        4
 90
       35
 90
       36
 90
      104
 90
       39
 90
        4
 90
       36
 90
       37
 90
       41
 90
      104
 90
        4
 90
       37
 90
       40
 90
      105
 90
       41
 90
        4
 90
       40
 90
       43
 90
       42
 90
      105
 90
        4
 90
       43
 90
       46
 90
       44
 90
       42
 90
        4
 90
       46
 90
       48
 90
      110
 90
       44
 90
        4
 90
       48
 90
       49
 90
       45
 90
      110
 90
        4
 90
       49
 90
       51
 90
      111
 90
       45
 90
        4
 90
       51
 90
       52
 90
       47
 90
      111
 90
        4
 90
       52
 90
       53
 90
      112
 90
       47
 90
        4
 90
       53
 90
       55
 90
       50
 90
      112
 90
        3
 90
       55
 90
       56
 90
       50
 90
        4
 90
       56
 90
       57
 90
      113
 90
       50
 90
        3
 90
       57
 90
       59
 90
      113
 90
        4
 90
       59
 90
       60
 90
       54
 90
      113
 90
        3
 90
       60
 90
       61
 90
       54
 90
        4
 90
       61
 90
       62
 90
       58
 90
       54
 90
        3
 90
       62
 90
       63
 90
       58
 90
        3
 90
       63
 90
       65
 90
       58
 90
        4
 90
       65
 90
       96
 90
       64
 90
       58
 90
        3
 90
       67
 90
       68
 90
       64
 90
        3
 90
       96
 90
       67
 90
       64
 90
        4
 90
       68
 90
       69
 90
       66
 90
       64
 90
        4
 90
       69
 90
       70
 90
       72
 90
       66
 90
        4
 90
       70
 90
       97
 90
       74
 90
       72
 90
        4
 90
       97
 90
       71
 90
      106
 90
       74
 90
        4
 90
       71
 90
       73
 90
       75
 90
      106
 90
        4
 90
       73
 90
       77
 90
      107
 90
       75
 90
        4
 90
       77
 90
       79
 90
       76
 90
      107
 90
        4
 90
       79
 90
       82
 90
      108
 90
       76
 90
        4
 90
       82
 90
       86
 90
       78
 90
      108
 90
        4
 90
       86
 90
       87
 90
      109
 90
       78
 90
        4
 90
       87
 90
       88
 90
       80
 90
      109
 90
        4
 90
       88
 90
       85
 90
       81
 90
       80
 90
        4
 90
       85
 90
       89
 90
       83
 90
       81
 90
        4
 90
       89
 90
       91
 90
       84
 90
       83
 90
        3
 90
       91
 90
       92
 90
       84
 90
        3
 90
       92
 90
       93
 90
       84
 90
        3
 90
       93
 90
       94
 90
       84
 90
        3
 90
       94
 90
       90
 90
       84
 90
        4
 90
       90
 90
       94
 90
      226
 90
      227
 90
        4
 90
       94
 90
       93
 90
      168
 90
      226
 90
        4
 90
       93
 90
       92
 90
      225
 90
      168
 90
        4
 90
       92
 90
       91
 90
      224
 90
      225
 90
        4
 90
       91
 90
       89
 90
      223
 90
      224
 90
        4
 90
       89
 90
       85
 90
      165
 90
      223
 90
        4
 90
       85
 90
       88
 90
      221
 90
      165
 90
        4
 90
       88
 90
       87
 90
      162
 90
      221
 90
        4
 90
       87
 90
       86
 90
      161
 90
      162
 90
        4
 90
       86
 90
       82
 90
      159
 90
      161
 90
        4
 90
       82
 90
       79
 90
      218
 90
      159
 90
        4
 90
       79
 90
       77
 90
      217
 90
      218
 90
        4
 90
       77
 90
       73
 90
      215
 90
      217
 90
        4
 90
       73
 90
       71
 90
      213
 90
      215
 90
        4
 90
       71
 90
       97
 90
      212
 90
      213
 90
        4
 90
       97
 90
       70
 90
      211
 90
      212
 90
        4
 90
       70
 90
       69
 90
      155
 90
      211
 90
        4
 90
       69
 90
       68
 90
      209
 90
      155
 90
        4
 90
       68
 90
       67
 90
      154
 90
      209
 90
        4
 90
       67
 90
       96
 90
      207
 90
      154
 90
        4
 90
       96
 90
       65
 90
      206
 90
      207
 90
        4
 90
       65
 90
       63
 90
      205
 90
      206
 90
        4
 90
       63
 90
       62
 90
      153
 90
      205
 90
        4
 90
       62
 90
       61
 90
      152
 90
      153
 90
        4
 90
       61
 90
       60
 90
      202
 90
      152
 90
        4
 90
       60
 90
       59
 90
      151
 90
      202
 90
        4
 90
       59
 90
       57
 90
      201
 90
      151
 90
        4
 90
       57
 90
       56
 90
      149
 90
      201
 90
        4
 90
       56
 90
       55
 90
      199
 90
      149
 90
        4
 90
       55
 90
       53
 90
      148
 90
      199
 90
        4
 90
       53
 90
       52
 90
      147
 90
      148
 90
        4
 90
       52
 90
       51
 90
      146
 90
      147
 90
        4
 90
       51
 90
       49
 90
      195
 90
      146
 90
        4
 90
       49
 90
       48
 90
      143
 90
      195
 90
        4
 90
       48
 90
       46
 90
      193
 90
      143
 90
        4
 90
       46
 90
       43
 90
      142
 90
      193
 90
        4
 90
       43
 90
       40
 90
      141
 90
      142
 90
        4
 90
       40
 90
       37
 90
      190
 90
      141
 90
        4
 90
       37
 90
       36
 90
      188
 90
      190
 90
        4
 90
       36
 90
       35
 90
      138
 90
      188
 90
        4
 90
       35
 90
       32
 90
      136
 90
      138
 90
        4
 90
       32
 90
        3
 90
      135
 90
      136
 90
        4
 90
        3
 90
        0
 90
      131
 90
      135
 90
        4
 90
        0
 90
        7
 90
      130
 90
      131
 90
        4
 90
        7
 90
       95
 90
      129
 90
      130
 90
        4
 90
       95
 90
       11
 90
      182
 90
      129
 90
        4
 90
       11
 90
        9
 90
      181
 90
      182
 90
        4
 90
        9
 90
       12
 90
      183
 90
      181
 90
        4
 90
       12
 90
       17
 90
      132
 90
      183
 90
        4
 90
       17
 90
       15
 90
      185
 90
      132
 90
        4
 90
       15
 90
       18
 90
      133
 90
      185
 90
        4
 90
       18
 90
       31
 90
      134
 90
      133
 90
        4
 90
       31
 90
       30
 90
      186
 90
      134
 90
        4
 90
       30
 90
       29
 90
      123
 90
      186
 90
        4
 90
       29
 90
       28
 90
      179
 90
      123
 90
        4
 90
       28
 90
       27
 90
      178
 90
      179
 90
        4
 90
       27
 90
       26
 90
      120
 90
      178
 90
        4
 90
       26
 90
       25
 90
      119
 90
      120
 90
        4
 90
       25
 90
       24
 90
      175
 90
      119
 90
        4
 90
       24
 90
       23
 90
      174
 90
      175
 90
        4
 90
       23
 90
       21
 90
      115
 90
      174
 90
        4
 90
       21
 90
       22
 90
      173
 90
      115
 90
        4
 90
       22
 90
       20
 90
      172
 90
      173
 90
        4
 90
       20
 90
       19
 90
      116
 90
      172
 90
        4
 90
       19
 90
       16
 90
      117
 90
      116
 90
        4
 90
       16
 90
      101
 90
      118
 90
      117
 90
        4
 90
      101
 90
       14
 90
      176
 90
      118
 90
        4
 90
       14
 90
      100
 90
      177
 90
      176
 90
        4
 90
      100
 90
       13
 90
      121
 90
      177
 90
        4
 90
       13
 90
       99
 90
      122
 90
      121
 90
        4
 90
       99
 90
       10
 90
      128
 90
      122
 90
        4
 90
       10
 90
       98
 90
      127
 90
      128
 90
        4
 90
       98
 90
        8
 90
      180
 90
      127
 90
        4
 90
        8
 90
        6
 90
      124
 90
      180
 90
        4
 90
        6
 90
        5
 90
      170
 90
      124
 90
        4
 90
        5
 90
        1
 90
      169
 90
      170
 90
        4
 90
        1
 90
        2
 90
      171
 90
      169
 90
        4
 90
        2
 90
        4
 90
      114
 90
      171
 90
        4
 90
        4
 90
       33
 90
      125
 90
      114
 90
        4
 90
       33
 90
       34
 90
      126
 90
      125
 90
        4
 90
       34
 90
      102
 90
      184
 90
      126
 90
        4
 90
      102
 90
       38
 90
      187
 90
      184
 90
        4
 90
       38
 90
      103
 90
      137
 90
      187
 90
        4
 90
      103
 90
       39
 90
      139
 90
      137
 90
        4
 90
       39
 90
      104
 90
      189
 90
      139
 90
        4
 90
      104
 90
       41
 90
      140
 90
      189
 90
        4
 90
       41
 90
      105
 90
      191
 90
      140
 90
        4
 90
      105
 90
       42
 90
      192
 90
      191
 90
        4
 90
       42
 90
       44
 90
      194
 90
      192
 90
        4
 90
       44
 90
      110
 90
      144
 90
      194
 90
        4
 90
      110
 90
       45
 90
      145
 90
      144
 90
        4
 90
       45
 90
      111
 90
      196
 90
      145
 90
        4
 90
      111
 90
       47
 90
      197
 90
      196
 90
        4
 90
       47
 90
      112
 90
      198
 90
      197
 90
        4
 90
      112
 90
       50
 90
      200
 90
      198
 90
        4
 90
       50
 90
      113
 90
      150
 90
      200
 90
        4
 90
      113
 90
       54
 90
      203
 90
      150
 90
        4
 90
       54
 90
       58
 90
      204
 90
      203
 90
        4
 90
       58
 90
       64
 90
      208
 90
      204
 90
        4
 90
       64
 90
       66
 90
      210
 90
      208
 90
        4
 90
       66
 90
       72
 90
      156
 90
      210
 90
        4
 90
       72
 90
       74
 90
      157
 90
      156
 90
        4
 90
       74
 90
      106
 90
      214
 90
      157
 90
        4
 90
      106
 90
       75
 90
      216
 90
      214
 90
        4
 90
       75
 90
      107
 90
      158
 90
      216
 90
        4
 90
      107
 90
       76
 90
      219
 90
      158
 90
        4
 90
       76
 90
      108
 90
      160
 90
      219
 90
        4
 90
      108
 90
       78
 90
      220
 90
      160
 90
        4
 90
       78
 90
      109
 90
      163
 90
      220
 90
        4
 90
      109
 90
       80
 90
      164
 90
      163
 90
        4
 90
       80
 90
       81
 90
      222
 90
      164
 90
        4
 90
       81
 90
       83
 90
      166
 90
      222
 90
        4
 90
       83
 90
       84
 90
      167
 90
      166
 90
        4
 90
       84
 90
       90
 90
      227
 90
      167
 90
        4
 90
      169
 90
      171
 90
      114
 90
      170
 90
        3
 90
      172
 90
      115
 90
      173
 90
        4
 90
      116
 90
      174
 90
      115
 90
      172
 90
        4
 90
      117
 90
      175
 90
      174
 90
      116
 90
        4
 90
      118
 90
      119
 90
      175
 90
      117
 90
        4
 90
      176
 90
      120
 90
      119
 90
      118
 90
        4
 90
      177
 90
      178
 90
      120
 90
      176
 90
        4
 90
      121
 90
      179
 90
      178
 90
      177
 90
        4
 90
      122
 90
      123
 90
      179
 90
      121
 90
        4
 90
      170
 90
      114
 90
      125
 90
      124
 90
        4
 90
      124
 90
      125
 90
      126
 90
      180
 90
        3
 90
      180
 90
      126
 90
      127
 90
        4
 90
      127
 90
      126
 90
      182
 90
      181
 90
        3
 90
      127
 90
      181
 90
      128
 90
        3
 90
      128
 90
      181
 90
      183
 90
        3
 90
      182
 90
      126
 90
      129
 90
        3
 90
      129
 90
      126
 90
      130
 90
        4
 90
      130
 90
      126
 90
      184
 90
      131
 90
        3
 90
      128
 90
      132
 90
      185
 90
        3
 90
      128
 90
      183
 90
      132
 90
        3
 90
      128
 90
      185
 90
      133
 90
        4
 90
      128
 90
      134
 90
      186
 90
      122
 90
        3
 90
      128
 90
      133
 90
      134
 90
        3
 90
      122
 90
      186
 90
      123
 90
        4
 90
      131
 90
      184
 90
      187
 90
      135
 90
        4
 90
      135
 90
      187
 90
      137
 90
      136
 90
        4
 90
      136
 90
      137
 90
      139
 90
      138
 90
        4
 90
      138
 90
      139
 90
      189
 90
      188
 90
        4
 90
      188
 90
      189
 90
      140
 90
      190
 90
        4
 90
      190
 90
      140
 90
      191
 90
      141
 90
        4
 90
      141
 90
      191
 90
      192
 90
      142
 90
        4
 90
      142
 90
      192
 90
      194
 90
      193
 90
        4
 90
      193
 90
      194
 90
      144
 90
      143
 90
        4
 90
      143
 90
      144
 90
      145
 90
      195
 90
        4
 90
      195
 90
      145
 90
      196
 90
      146
 90
        4
 90
      146
 90
      196
 90
      197
 90
      147
 90
        4
 90
      147
 90
      197
 90
      198
 90
      148
 90
        4
 90
      148
 90
      198
 90
      200
 90
      199
 90
        3
 90
      199
 90
      200
 90
      149
 90
        4
 90
      149
 90
      200
 90
      150
 90
      201
 90
        3
 90
      201
 90
      150
 90
      151
 90
        4
 90
      151
 90
      150
 90
      203
 90
      202
 90
        3
 90
      202
 90
      203
 90
      152
 90
        4
 90
      152
 90
      203
 90
      204
 90
      153
 90
        3
 90
      153
 90
      204
 90
      205
 90
        3
 90
      205
 90
      204
 90
      206
 90
        4
 90
      206
 90
      204
 90
      208
 90
      207
 90
        3
 90
      154
 90
      208
 90
      209
 90
        3
 90
      207
 90
      208
 90
      154
 90
        4
 90
      209
 90
      208
 90
      210
 90
      155
 90
        4
 90
      155
 90
      210
 90
      156
 90
      211
 90
        4
 90
      211
 90
      156
 90
      157
 90
      212
 90
        4
 90
      212
 90
      157
 90
      214
 90
      213
 90
        4
 90
      213
 90
      214
 90
      216
 90
      215
 90
        4
 90
      215
 90
      216
 90
      158
 90
      217
 90
        4
 90
      217
 90
      158
 90
      219
 90
      218
 90
        4
 90
      218
 90
      219
 90
      160
 90
      159
 90
        4
 90
      159
 90
      160
 90
      220
 90
      161
 90
        4
 90
      161
 90
      220
 90
      163
 90
      162
 90
        4
 90
      162
 90
      163
 90
      164
 90
      221
 90
        4
 90
      221
 90
      164
 90
      222
 90
      165
 90
        4
 90
      165
 90
      222
 90
      166
 90
      223
 90
        4
 90
      223
 90
      166
 90
      167
 90
      224
 90
        3
 90
      224
 90
      167
 90
      225
 90
        3
 90
      225
 90
      167
 90
      168
 90
        3
 90
      168
 90
      167
 90
      226
 90
        3
 90
      226
 90
      167
 90
      227
 94
      474
 90
        1
 90
        5
 90
        4
 90
        5
 90
        2
 90
        4
 90
        1
 90
        2
 90
       20
 90
       22
 90
       21
 90
       22
 90
       20
 90
       21
 90
       19
 90
       20
 90
       21
 90
       23
 90
       19
 90
       23
 90
       16
 90
       19
 90
       23
 90
       24
 90
       16
 90
       24
 90
       16
 90
      101
 90
       24
 90
       25
 90
       25
 90
      101
 90
       14
 90
      101
 90
       25
 90
       26
 90
       14
 90
       26
 90
       14
 90
      100
 90
       26
 90
       27
 90
       27
 90
      100
 90
       13
 90
      100
 90
       27
 90
       28
 90
       13
 90
       28
 90
       13
 90
       99
 90
       28
 90
       29
 90
       29
 90
       99
 90
        5
 90
        6
 90
        6
 90
       33
 90
        4
 90
       33
 90
        6
 90
        8
 90
        8
 90
       34
 90
       33
 90
       34
 90
        8
 90
       98
 90
       34
 90
       98
 90
        9
 90
       98
 90
        9
 90
       11
 90
       11
 90
       34
 90
       10
 90
       98
 90
        9
 90
       10
 90
       10
 90
       12
 90
        9
 90
       12
 90
       11
 90
       95
 90
       34
 90
       95
 90
        7
 90
       95
 90
        7
 90
       34
 90
        0
 90
        7
 90
        0
 90
      102
 90
       34
 90
      102
 90
       10
 90
       15
 90
       15
 90
       17
 90
       10
 90
       17
 90
       12
 90
       17
 90
       10
 90
       18
 90
       15
 90
       18
 90
       10
 90
       99
 90
       30
 90
       99
 90
       30
 90
       31
 90
       10
 90
       31
 90
       18
 90
       31
 90
       29
 90
       30
 90
        0
 90
        3
 90
        3
 90
       38
 90
       38
 90
      102
 90
        3
 90
       32
 90
       32
 90
      103
 90
       38
 90
      103
 90
       32
 90
       35
 90
       35
 90
       39
 90
       39
 90
      103
 90
       35
 90
       36
 90
       36
 90
      104
 90
       39
 90
      104
 90
       36
 90
       37
 90
       37
 90
       41
 90
       41
 90
      104
 90
       37
 90
       40
 90
       40
 90
      105
 90
       41
 90
      105
 90
       40
 90
       43
 90
       42
 90
       43
 90
       42
 90
      105
 90
       43
 90
       46
 90
       44
 90
       46
 90
       42
 90
       44
 90
       46
 90
       48
 90
       48
 90
      110
 90
       44
 90
      110
 90
       48
 90
       49
 90
       45
 90
       49
 90
       45
 90
      110
 90
       49
 90
       51
 90
       51
 90
      111
 90
       45
 90
      111
 90
       51
 90
       52
 90
       47
 90
       52
 90
       47
 90
      111
 90
       52
 90
       53
 90
       53
 90
      112
 90
       47
 90
      112
 90
       53
 90
       55
 90
       50
 90
       55
 90
       50
 90
      112
 90
       55
 90
       56
 90
       50
 90
       56
 90
       56
 90
       57
 90
       57
 90
      113
 90
       50
 90
      113
 90
       57
 90
       59
 90
       59
 90
      113
 90
       59
 90
       60
 90
       54
 90
       60
 90
       54
 90
      113
 90
       60
 90
       61
 90
       54
 90
       61
 90
       61
 90
       62
 90
       58
 90
       62
 90
       54
 90
       58
 90
       62
 90
       63
 90
       58
 90
       63
 90
       63
 90
       65
 90
       58
 90
       65
 90
       65
 90
       96
 90
       64
 90
       96
 90
       58
 90
       64
 90
       67
 90
       68
 90
       64
 90
       68
 90
       64
 90
       67
 90
       67
 90
       96
 90
       68
 90
       69
 90
       66
 90
       69
 90
       64
 90
       66
 90
       69
 90
       70
 90
       70
 90
       72
 90
       66
 90
       72
 90
       70
 90
       97
 90
       74
 90
       97
 90
       72
 90
       74
 90
       71
 90
       97
 90
       71
 90
      106
 90
       74
 90
      106
 90
       71
 90
       73
 90
       73
 90
       75
 90
       75
 90
      106
 90
       73
 90
       77
 90
       77
 90
      107
 90
       75
 90
      107
 90
       77
 90
       79
 90
       76
 90
       79
 90
       76
 90
      107
 90
       79
 90
       82
 90
       82
 90
      108
 90
       76
 90
      108
 90
       82
 90
       86
 90
       78
 90
       86
 90
       78
 90
      108
 90
       86
 90
       87
 90
       87
 90
      109
 90
       78
 90
      109
 90
       87
 90
       88
 90
       80
 90
       88
 90
       80
 90
      109
 90
       85
 90
       88
 90
       81
 90
       85
 90
       80
 90
       81
 90
       85
 90
       89
 90
       83
 90
       89
 90
       81
 90
       83
 90
       89
 90
       91
 90
       84
 90
       91
 90
       83
 90
       84
 90
       91
 90
       92
 90
       84
 90
       92
 90
       92
 90
       93
 90
       84
 90
       93
 90
       93
 90
       94
 90
       84
 90
       94
 90
       90
 90
       94
 90
       84
 90
       90
 90
       94
 90
      226
 90
      226
 90
      227
 90
       90
 90
      227
 90
       93
 90
      168
 90
      168
 90
      226
 90
       92
 90
      225
 90
      168
 90
      225
 90
       91
 90
      224
 90
      224
 90
      225
 90
       89
 90
      223
 90
      223
 90
      224
 90
       85
 90
      165
 90
      165
 90
      223
 90
       88
 90
      221
 90
      165
 90
      221
 90
       87
 90
      162
 90
      162
 90
      221
 90
       86
 90
      161
 90
      161
 90
      162
 90
       82
 90
      159
 90
      159
 90
      161
 90
       79
 90
      218
 90
      159
 90
      218
 90
       77
 90
      217
 90
      217
 90
      218
 90
       73
 90
      215
 90
      215
 90
      217
 90
       71
 90
      213
 90
      213
 90
      215
 90
       97
 90
      212
 90
      212
 90
      213
 90
       70
 90
      211
 90
      211
 90
      212
 90
       69
 90
      155
 90
      155
 90
      211
 90
       68
 90
      209
 90
      155
 90
      209
 90
       67
 90
      154
 90
      154
 90
      209
 90
       96
 90
      207
 90
      154
 90
      207
 90
       65
 90
      206
 90
      206
 90
      207
 90
       63
 90
      205
 90
      205
 90
      206
 90
       62
 90
      153
 90
      153
 90
      205
 90
       61
 90
      152
 90
      152
 90
      153
 90
       60
 90
      202
 90
      152
 90
      202
 90
       59
 90
      151
 90
      151
 90
      202
 90
       57
 90
      201
 90
      151
 90
      201
 90
       56
 90
      149
 90
      149
 90
      201
 90
       55
 90
      199
 90
      149
 90
      199
 90
       53
 90
      148
 90
      148
 90
      199
 90
       52
 90
      147
 90
      147
 90
      148
 90
       51
 90
      146
 90
      146
 90
      147
 90
       49
 90
      195
 90
      146
 90
      195
 90
       48
 90
      143
 90
      143
 90
      195
 90
       46
 90
      193
 90
      143
 90
      193
 90
       43
 90
      142
 90
      142
 90
      193
 90
       40
 90
      141
 90
      141
 90
      142
 90
       37
 90
      190
 90
      141
 90
      190
 90
       36
 90
      188
 90
      188
 90
      190
 90
       35
 90
      138
 90
      138
 90
      188
 90
       32
 90
      136
 90
      136
 90
      138
 90
        3
 90
      135
 90
      135
 90
      136
 90
        0
 90
      131
 90
      131
 90
      135
 90
        7
 90
      130
 90
      130
 90
      131
 90
       95
 90
      129
 90
      129
 90
      130
 90
       11
 90
      182
 90
      129
 90
      182
 90
        9
 90
      181
 90
      181
 90
      182
 90
       12
 90
      183
 90
      181
 90
      183
 90
       17
 90
      132
 90
      132
 90
      183
 90
       15
 90
      185
 90
      132
 90
      185
 90
       18
 90
      133
 90
      133
 90
      185
 90
       31
 90
      134
 90
      133
 90
      134
 90
       30
 90
      186
 90
      134
 90
      186
 90
       29
 90
      123
 90
      123
 90
      186
 90
       28
 90
      179
 90
      123
 90
      179
 90
       27
 90
      178
 90
      178
 90
      179
 90
       26
 90
      120
 90
      120
 90
      178
 90
       25
 90
      119
 90
      119
 90
      120
 90
       24
 90
      175
 90
      119
 90
      175
 90
       23
 90
      174
 90
      174
 90
      175
 90
       21
 90
      115
 90
      115
 90
      174
 90
       22
 90
      173
 90
      115
 90
      173
 90
       20
 90
      172
 90
      172
 90
      173
 90
       19
 90
      116
 90
      116
 90
      172
 90
       16
 90
      117
 90
      116
 90
      117
 90
      101
 90
      118
 90
      117
 90
      118
 90
       14
 90
      176
 90
      118
 90
      176
 90
      100
 90
      177
 90
      176
 90
      177
 90
       13
 90
      121
 90
      121
 90
      177
 90
       99
 90
      122
 90
      121
 90
      122
 90
       10
 90
      128
 90
      122
 90
      128
 90
       98
 90
      127
 90
      127
 90
      128
 90
        8
 90
      180
 90
      127
 90
      180
 90
        6
 90
      124
 90
      124
 90
      180
 90
        5
 90
      170
 90
      124
 90
      170
 90
        1
 90
      169
 90
      169
 90
      170
 90
        2
 90
      171
 90
      169
 90
      171
 90
        4
 90
      114
 90
      114
 90
      171
 90
       33
 90
      125
 90
      114
 90
      125
 90
       34
 90
      126
 90
      125
 90
      126
 90
      102
 90
      184
 90
      126
 90
      184
 90
       38
 90
      187
 90
      184
 90
      187
 90
      103
 90
      137
 90
      137
 90
      187
 90
       39
 90
      139
 90
      137
 90
      139
 90
      104
 90
      189
 90
      139
 90
      189
 90
       41
 90
      140
 90
      140
 90
      189
 90
      105
 90
      191
 90
      140
 90
      191
 90
       42
 90
      192
 90
      191
 90
      192
 90
       44
 90
      194
 90
      192
 90
      194
 90
      110
 90
      144
 90
      144
 90
      194
 90
       45
 90
      145
 90
      144
 90
      145
 90
      111
 90
      196
 90
      145
 90
      196
 90
       47
 90
      197
 90
      196
 90
      197
 90
      112
 90
      198
 90
      197
 90
      198
 90
       50
 90
      200
 90
      198
 90
      200
 90
      113
 90
      150
 90
      150
 90
      200
 90
       54
 90
      203
 90
      150
 90
      203
 90
       58
 90
      204
 90
      203
 90
      204
 90
       64
 90
      208
 90
      204
 90
      208
 90
       66
 90
      210
 90
      208
 90
      210
 90
       72
 90
      156
 90
      156
 90
      210
 90
       74
 90
      157
 90
      156
 90
      157
 90
      106
 90
      214
 90
      157
 90
      214
 90
       75
 90
      216
 90
      214
 90
      216
 90
      107
 90
      158
 90
      158
 90
      216
 90
       76
 90
      219
 90
      158
 90
      219
 90
      108
 90
      160
 90
      160
 90
      219
 90
       78
 90
      220
 90
      160
 90
      220
 90
      109
 90
      163
 90
      163
 90
      220
 90
       80
 90
      164
 90
      163
 90
      164
 90
       81
 90
      222
 90
      164
 90
      222
 90
       83
 90
      166
 90
      166
 90
      222
 90
       84
 90
      167
 90
      166
 90
      167
 90
      167
 90
      227
 90
      114
 90
      170
 90
      115
 90
      172
 90
      116
 90
      174
 90
      117
 90
      175
 90
      118
 90
      119
 90
      120
 90
      176
 90
      177
 90
      178
 90
      121
 90
      179
 90
      122
 90
      123
 90
      124
 90
      125
 90
      126
 90
      180
 90
      126
 90
      127
 90
      126
 90
      182
 90
      127
 90
      181
 90
      128
 90
      181
 90
      128
 90
      183
 90
      126
 90
      129
 90
      126
 90
      130
 90
      131
 90
      184
 90
      128
 90
      132
 90
      128
 90
      185
 90
      128
 90
      133
 90
      128
 90
      134
 90
      122
 90
      186
 90
      135
 90
      187
 90
      136
 90
      137
 90
      138
 90
      139
 90
      188
 90
      189
 90
      140
 90
      190
 90
      141
 90
      191
 90
      142
 90
      192
 90
      193
 90
      194
 90
      143
 90
      144
 90
      145
 90
      195
 90
      146
 90
      196
 90
      147
 90
      197
 90
      148
 90
      198
 90
      199
 90
      200
 90
      149
 90
      200
 90
      150
 90
      201
 90
      150
 90
      151
 90
      202
 90
      203
 90
      152
 90
      203
 90
      153
 90
      204
 90
      204
 90
      205
 90
      204
 90
      206
 90
      207
 90
      208
 90
      154
 90
      208
 90
      208
 90
      209
 90
      155
 90
      210
 90
      156
 90
      211
 90
      157
 90
      212
 90
      213
 90
      214
 90
      215
 90
      216
 90
      158
 90
      217
 90
      218
 90
      219
 90
      159
 90
      160
 90
      161
 90
      220
 90
      162
 90
      163
 90
      164
 90
      221
 90
      165
 90
      222
 90
      166
 90
      223
 90
      167
 90
      224
 90
      167
 90
      225
 90
      167
 90
      168
 90
      167
 90
      226
 95
      474
140
0.0
140
0.0
140
0.0
140
0.0
140
0.0
140
0.0
140
0.0
140
0.0
140
0.0
140
0.0
140
0.0
140
0.0
140
0.0
140
0.0
140
0.0
140
0.0
140
0.0
140
0.0
140
0.0
140
0.0
140
0.0
140
0.0
140
0.0
140
0.0
140
0.0
140
0.0
140
0.0
140
0.0
140
0.0
140
0.0
140
0.0
140
0.0
140
0.0
140
0.0
140
0.0
140
0.0
140
0.0
140
0.0
140
0.0
140
0.0
140
0.0
140
0.0
140
0.0
140
0.0
140
0.0
140
0.0
140
0.0
140
0.0
140
0.0
140
0.0
140
0.0
140
0.0
140
0.0
140
0.0
140
0.0
140
0.0
140
0.0
140
0.0
140
0.0
140
0.0
140
0.0
140
0.0
140
0.0
140
0.0
140
0.0
140
0.0
140
0.0
140
0.0
140
0.0
140
0.0
140
0.0
140
0.0
140
0.0
140
0.0
140
0.0
140
0.0
140
0.0
140
0.0
140
0.0
140
0.0
140
0.0
140
0.0
140
0.0
140
0.0
140
0.0
140
0.0
140
0.0
140
0.0
140
0.0
140
0.0
140
0.0
140
0.0
140
0.0
140
0.0
140
0.0
140
0.0
140
0.0
140
0.0
140
0.0
140
0.0
140
0.0
140
0.0
140
0.0
140
0.0
140
0.0
140
0.0
140
0.0
140
0.0
140
0.0
140
0.0
140
0.0
140
0.0
140
0.0
140
0.0
140
0.0
140
0.0
140
0.0
140
0.0
140
0.0
140
0.0
140
0.0
140
0.0
140
0.0
140
0.0
140
0.0
140
0.0
140
0.0
140
0.0
140
0.0
140
0.0
140
0.0
140
0.0
140
0.0
140
0.0
140
0.0
140
0.0
140
0.0
140
0.0
140
0.0
140
0.0
140
0.0
140
0.0
140
0.0
140
0.0
140
0.0
140
0.0
140
0.0
140
0.0
140
0.0
140
0.0
140
0.0
140
0.0
140
0.0
140
0.0
140
0.0
140
0.0
140
0.0
140
0.0
140
0.0
140
0.0
140
0.0
140
0.0
140
0.0
140
0.0
140
0.0
140
0.0
140
0.0
140
0.0
140
0.0
140
0.0
140
0.0
140
0.0
140
0.0
140
0.0
140
0.0
140
0.0
140
0.0
140
0.0
140
0.0
140
0.0
140
0.0
140
0.0
140
0.0
140
0.0
140
0.0
140
0.0
140
0.0
140
0.0
140
0.0
140
0.0
140
0.0
140
0.0
140
0.0
140
0.0
140
0.0
140
0.0
140
0.0
140
0.0
140
0.0
140
0.0
140
0.0
140
0.0
140
0.0
140
0.0
140
0.0
140
0.0
140
0.0
140
0.0
140
0.0
140
0.0
140
0.0
140
0.0
140
0.0
140
0.0
140
0.0
140
0.0
140
0.0
140
0.0
140
0.0
140
0.0
140
0.0
140
0.0
140
0.0
140
0.0
140
0.0
140
0.0
140
0.0
140
0.0
140
0.0
140
0.0
140
0.0
140
0.0
140
0.0
140
0.0
140
0.0
140
0.0
140
0.0
140
0.0
140
0.0
140
0.0
140
0.0
140
0.0
140
0.0
140
0.0
140
0.0
140
0.0
140
0.0
140
0.0
140
0.0
140
0.0
140
0.0
140
0.0
140
0.0
140
0.0
140
0.0
140
0.0
140
0.0
140
0.0
140
0.0
140
0.0
140
0.0
140
0.0
140
0.0
140
0.0
140
0.0
140
0.0
140
0.0
140
0.0
140
0.0
140
0.0
140
0.0
140
0.0
140
0.0
140
0.0
140
0.0
140
0.0
140
0.0
140
0.0
140
0.0
140
0.0
140
0.0
140
0.0
140
0.0
140
0.0
140
0.0
140
0.0
140
0.0
140
0.0
140
0.0
140
0.0
140
0.0
140
0.0
140
0.0
140
0.0
140
0.0
140
0.0
140
0.0
140
0.0
140
0.0
140
0.0
140
0.0
140
0.0
140
0.0
140
0.0
140
0.0
140
0.0
140
0.0
140
0.0
140
0.0
140
0.0
140
0.0
140
0.0
140
0.0
140
0.0
140
0.0
140
0.0
140
0.0
140
0.0
140
0.0
140
0.0
140
0.0
140
0.0
140
0.0
140
0.0
140
0.0
140
0.0
140
0.0
140
0.0
140
0.0
140
0.0
140
0.0
140
0.0
140
0.0
140
0.0
140
0.0
140
0.0
140
0.0
140
0.0
140
0.0
140
0.0
140
0.0
140
0.0
140
0.0
140
0.0
140
0.0
140
0.0
140
0.0
140
0.0
140
0.0
140
0.0
140
0.0
140
0.0
140
0.0
140
0.0
140
0.0
140
0.0
140
0.0
140
0.0
140
0.0
140
0.0
140
0.0
140
0.0
140
0.0
140
0.0
140
0.0
140
0.0
140
0.0
140
0.0
140
0.0
140
0.0
140
0.0
140
0.0
140
0.0
140
0.0
140
0.0
140
0.0
140
0.0
140
0.0
140
0.0
140
0.0
140
0.0
140
0.0
140
0.0
140
0.0
140
0.0
140
0.0
140
0.0
140
0.0
140
0.0
140
0.0
140
0.0
140
0.0
140
0.0
140
0.0
140
0.0
140
0.0
140
0.0
140
0.0
140
0.0
140
0.0
140
0.0
140
0.0
140
0.0
140
0.0
140
0.0
140
0.0
140
0.0
140
0.0
140
0.0
140
0.0
140
0.0
140
0.0
140
0.0
140
0.0
140
0.0
140
0.0
140
0.0
140
0.0
140
0.0
140
0.0
140
0.0
140
0.0
140
0.0
140
0.0
140
0.0
140
0.0
140
0.0
140
0.0
140
0.0
140
0.0
140
0.0
140
0.0
140
0.0
140
0.0
140
0.0
140
0.0
140
0.0
140
0.0
140
0.0
140
0.0
140
0.0
140
0.0
140
0.0
140
0.0
140
0.0
140
0.0
140
0.0
140
0.0
140
0.0
140
0.0
140
0.0
140
0.0
140
0.0
140
0.0
140
0.0
140
0.0
140
0.0
140
0.0
140
0.0
140
0.0
140
0.0
140
0.0
140
0.0
140
0.0
140
0.0
140
0.0
140
0.0
140
0.0
140
0.0
140
0.0
140
0.0
140
0.0
140
0.0
140
0.0
 90
        0
  0
POLYLINE
  5
FA
330
1F
100
AcDbEntity
  8
OracDecor_panel_moldings
 62
    61
420
 14083225
100
AcDb2dPolyline
 66
     1
 10
0.0
 20
0.0
 30
-0.0000041769435484
 70
     1
210
-0.9999999999999769
220
0.0000001788139343
230
-0.0000001192092896
  0
VERTEX
  5
FB
330
FA
100
AcDbEntity
  8
OracDecor_panel_moldings
 62
    61
420
 14083225
100
AcDbVertex
100
AcDb2dVertex
 10
0.0000009536747712
 20
40.42880249023437
 30
-0.0000041769435484
  0
VERTEX
  5
FC
330
FA
100
AcDbEntity
  8
OracDecor_panel_moldings
 62
    61
420
 14083225
100
AcDbVertex
100
AcDb2dVertex
 10
-0.0766949653625488
 20
40.69448852539062
 30
-0.0000041769435484
  0
VERTEX
  5
FD
330
FA
100
AcDbEntity
  8
OracDecor_panel_moldings
 62
    61
420
 14083225
100
AcDbVertex
100
AcDb2dVertex
 10
-0.2826080322265625
 20
40.87907409667969
 30
-0.0000041769435484
  0
VERTEX
  5
FE
330
FA
100
AcDbEntity
  8
OracDecor_panel_moldings
 62
    61
420
 14083225
100
AcDbVertex
100
AcDb2dVertex
 10
-0.751760482788086
 20
41.25411224365234
 30
-0.0000041769435484
  0
VERTEX
  5
FF
330
FA
100
AcDbEntity
  8
OracDecor_panel_moldings
 62
    61
420
 14083225
100
AcDbVertex
100
AcDb2dVertex
 10
-0.994729995727539
 20
41.5592041015625
 30
-0.0000041769435484
  0
VERTEX
  5
100
330
FA
100
AcDbEntity
  8
OracDecor_panel_moldings
 62
    61
420
 14083225
100
AcDbVertex
100
AcDb2dVertex
 10
-1.16795539855957
 20
41.9190444946289
 30
-0.0000041769435484
  0
VERTEX
  5
101
330
FA
100
AcDbEntity
  8
OracDecor_panel_moldings
 62
    61
420
 14083225
100
AcDbVertex
100
AcDb2dVertex
 10
-1.25470495223999
 20
42.29924774169922
 30
-0.0000041769435484
  0
VERTEX
  5
102
330
FA
100
AcDbEntity
  8
OracDecor_panel_moldings
 62
    61
420
 14083225
100
AcDbVertex
100
AcDb2dVertex
 10
-1.254705429077148
 20
42.70082092285156
 30
-0.0000041769435484
  0
VERTEX
  5
103
330
FA
100
AcDbEntity
  8
OracDecor_panel_moldings
 62
    61
420
 14083225
100
AcDbVertex
100
AcDb2dVertex
 10
-1.16795539855957
 20
43.08102416992187
 30
-0.0000041769435484
  0
VERTEX
  5
104
330
FA
100
AcDbEntity
  8
OracDecor_panel_moldings
 62
    61
420
 14083225
100
AcDbVertex
100
AcDb2dVertex
 10
-0.9947309494018554
 20
43.44087219238281
 30
-0.0000041769435484
  0
VERTEX
  5
105
330
FA
100
AcDbEntity
  8
OracDecor_panel_moldings
 62
    61
420
 14083225
100
AcDbVertex
100
AcDb2dVertex
 10
-0.7517614364624024
 20
43.74595642089843
 30
-0.0000041769435484
  0
VERTEX
  5
106
330
FA
100
AcDbEntity
  8
OracDecor_panel_moldings
 62
    61
420
 14083225
100
AcDbVertex
100
AcDb2dVertex
 10
-0.2826089859008789
 20
44.12100219726562
 30
-0.0000041769435484
  0
VERTEX
  5
107
330
FA
100
AcDbEntity
  8
OracDecor_panel_moldings
 62
    61
420
 14083225
100
AcDbVertex
100
AcDb2dVertex
 10
-0.0766959190368652
 20
44.30558013916015
 30
-0.0000041769435484
  0
VERTEX
  5
108
330
FA
100
AcDbEntity
  8
OracDecor_panel_moldings
 62
    61
420
 14083225
100
AcDbVertex
100
AcDb2dVertex
 10
0.000000000000475
 20
44.5712661743164
 30
-0.0000041769435484
  0
VERTEX
  5
109
330
FA
100
AcDbEntity
  8
OracDecor_panel_moldings
 62
    61
420
 14083225
100
AcDbVertex
100
AcDb2dVertex
 10
0.000001430512043
 20
50.00003814697265
 30
-0.0000041769435484
  0
VERTEX
  5
10A
330
FA
100
AcDbEntity
  8
OracDecor_panel_moldings
 62
    61
420
 14083225
100
AcDbVertex
100
AcDb2dVertex
 10
-3.21961760520935
 20
50.00003814697265
 30
-0.0000041769435484
  0
VERTEX
  5
10B
330
FA
100
AcDbEntity
  8
OracDecor_panel_moldings
 62
    61
420
 14083225
100
AcDbVertex
100
AcDb2dVertex
 10
-3.352088928222656
 20
49.94953918457031
 30
-0.0000041769435484
  0
VERTEX
  5
10C
330
FA
100
AcDbEntity
  8
OracDecor_panel_moldings
 62
    61
420
 14083225
100
AcDbVertex
100
AcDb2dVertex
 10
-3.418163776397705
 20
49.82410430908203
 30
-0.0000041769435484
  0
VERTEX
  5
10D
330
FA
100
AcDbEntity
  8
OracDecor_panel_moldings
 62
    61
420
 14083225
100
AcDbVertex
100
AcDb2dVertex
 10
-3.524070262908935
 20
49.19835662841797
 30
-0.0000041769435484
  0
VERTEX
  5
10E
330
FA
100
AcDbEntity
  8
OracDecor_panel_moldings
 62
    61
420
 14083225
100
AcDbVertex
100
AcDb2dVertex
 10
-3.741057872772216
 20
48.40085601806641
 30
-0.0000041769435484
  0
VERTEX
  5
10F
330
FA
100
AcDbEntity
  8
OracDecor_panel_moldings
 62
    61
420
 14083225
100
AcDbVertex
100
AcDb2dVertex
 10
-4.073382377624511
 20
47.51532745361328
 30
-0.0000041769435484
  0
VERTEX
  5
110
330
FA
100
AcDbEntity
  8
OracDecor_panel_moldings
 62
    61
420
 14083225
100
AcDbVertex
100
AcDb2dVertex
 10
-4.503857612609863
 20
46.64547729492187
 30
-0.0000041769435484
  0
VERTEX
  5
111
330
FA
100
AcDbEntity
  8
OracDecor_panel_moldings
 62
    61
420
 14083225
100
AcDbVertex
100
AcDb2dVertex
 10
-4.996284961700439
 20
45.88640594482422
 30
-0.0000041769435484
  0
VERTEX
  5
112
330
FA
100
AcDbEntity
  8
OracDecor_panel_moldings
 62
    61
420
 14083225
100
AcDbVertex
100
AcDb2dVertex
 10
-5.532833099365234
 20
45.24842071533202
 30
-0.0000041769435484
  0
VERTEX
  5
113
330
FA
100
AcDbEntity
  8
OracDecor_panel_moldings
 62
    61
420
 14083225
100
AcDbVertex
100
AcDb2dVertex
 10
-6.095476150512695
 20
44.73390960693359
 30
-0.0000041769435484
  0
VERTEX
  5
114
330
FA
100
AcDbEntity
  8
OracDecor_panel_moldings
 62
    61
420
 14083225
100
AcDbVertex
100
AcDb2dVertex
 10
-6.677093505859375
 20
44.33367156982422
 30
-0.0000041769435484
  0
VERTEX
  5
115
330
FA
100
AcDbEntity
  8
OracDecor_panel_moldings
 62
    61
420
 14083225
100
AcDbVertex
100
AcDb2dVertex
 10
-7.911653518676757
 20
43.82933807373047
 30
-0.0000041769435484
  0
VERTEX
  5
116
330
FA
100
AcDbEntity
  8
OracDecor_panel_moldings
 62
    61
420
 14083225
100
AcDbVertex
100
AcDb2dVertex
 10
-8.013989448547363
 20
43.76655578613281
 30
-0.0000041769435484
  0
VERTEX
  5
117
330
FA
100
AcDbEntity
  8
OracDecor_panel_moldings
 62
    61
420
 14083225
100
AcDbVertex
100
AcDb2dVertex
 10
-8.0621337890625
 20
43.65657043457031
 30
-0.0000041769435484
  0
VERTEX
  5
118
330
FA
100
AcDbEntity
  8
OracDecor_panel_moldings
 62
    61
420
 14083225
100
AcDbVertex
100
AcDb2dVertex
 10
-8.273308753967285
 20
41.68451690673828
 30
-0.0000041769435484
  0
VERTEX
  5
119
330
FA
100
AcDbEntity
  8
OracDecor_panel_moldings
 62
    61
420
 14083225
100
AcDbVertex
100
AcDb2dVertex
 10
-8.294214248657226
 20
41.63331604003906
 30
-0.0000041769435484
  0
VERTEX
  5
11A
330
FA
100
AcDbEntity
  8
OracDecor_panel_moldings
 62
    61
420
 14083225
100
AcDbVertex
100
AcDb2dVertex
 10
-8.339082717895507
 20
41.60099792480468
 30
-0.0000041769435484
  0
VERTEX
  5
11B
330
FA
100
AcDbEntity
  8
OracDecor_panel_moldings
 62
    61
420
 14083225
100
AcDbVertex
100
AcDb2dVertex
 10
-8.767752647399902
 20
41.43746948242188
 30
-0.0000041769435484
  0
VERTEX
  5
11C
330
FA
100
AcDbEntity
  8
OracDecor_panel_moldings
 62
    61
420
 14083225
100
AcDbVertex
100
AcDb2dVertex
 10
-10.78811645507812
 20
40.55996704101562
 30
-0.0000041769435484
  0
VERTEX
  5
11D
330
FA
100
AcDbEntity
  8
OracDecor_panel_moldings
 62
    61
420
 14083225
100
AcDbVertex
100
AcDb2dVertex
 10
-12.67621421813965
 20
39.49373626708985
 30
-0.0000041769435484
  0
VERTEX
  5
11E
330
FA
100
AcDbEntity
  8
OracDecor_panel_moldings
 62
    61
420
 14083225
100
AcDbVertex
100
AcDb2dVertex
 10
-14.24909210205078
 20
38.32207489013672
 30
-0.0000041769435484
  0
VERTEX
  5
11F
330
FA
100
AcDbEntity
  8
OracDecor_panel_moldings
 62
    61
420
 14083225
100
AcDbVertex
100
AcDb2dVertex
 10
-15.55638980865478
 20
37.00357055664063
 30
-0.0000041769435484
  0
VERTEX
  5
120
330
FA
100
AcDbEntity
  8
OracDecor_panel_moldings
 62
    61
420
 14083225
100
AcDbVertex
100
AcDb2dVertex
 10
-16.42956161499023
 20
35.74156570434571
 30
-0.0000041769435484
  0
VERTEX
  5
121
330
FA
100
AcDbEntity
  8
OracDecor_panel_moldings
 62
    61
420
 14083225
100
AcDbVertex
100
AcDb2dVertex
 10
-17.00986862182617
 20
34.36276245117188
 30
-0.0000041769435484
  0
VERTEX
  5
122
330
FA
100
AcDbEntity
  8
OracDecor_panel_moldings
 62
    61
420
 14083225
100
AcDbVertex
100
AcDb2dVertex
 10
-17.24657440185547
 20
32.88201141357422
 30
-0.0000041769435484
  0
VERTEX
  5
123
330
FA
100
AcDbEntity
  8
OracDecor_panel_moldings
 62
    61
420
 14083225
100
AcDbVertex
100
AcDb2dVertex
 10
-17.14507675170898
 20
31.5002498626709
 30
-0.0000041769435484
  0
VERTEX
  5
124
330
FA
100
AcDbEntity
  8
OracDecor_panel_moldings
 62
    61
420
 14083225
100
AcDbVertex
100
AcDb2dVertex
 10
-16.75318145751953
 20
30.12182426452637
 30
-0.0000041769435484
  0
VERTEX
  5
125
330
FA
100
AcDbEntity
  8
OracDecor_panel_moldings
 62
    61
420
 14083225
100
AcDbVertex
100
AcDb2dVertex
 10
-16.05519485473633
 20
28.69310569763184
 30
-0.0000041769435484
  0
VERTEX
  5
126
330
FA
100
AcDbEntity
  8
OracDecor_panel_moldings
 62
    61
420
 14083225
100
AcDbVertex
100
AcDb2dVertex
 10
-15.15982437133789
 20
27.41561126708984
 30
-0.0000041769435484
  0
VERTEX
  5
127
330
FA
100
AcDbEntity
  8
OracDecor_panel_moldings
 62
    61
420
 14083225
100
AcDbVertex
100
AcDb2dVertex
 10
-14.13120460510254
 20
26.29950714111328
 30
-0.0000041769435484
  0
VERTEX
  5
128
330
FA
100
AcDbEntity
  8
OracDecor_panel_moldings
 62
    61
420
 14083225
100
AcDbVertex
100
AcDb2dVertex
 10
-12.94631385803223
 20
25.29152297973633
 30
-0.0000041769435484
  0
VERTEX
  5
129
330
FA
100
AcDbEntity
  8
OracDecor_panel_moldings
 62
    61
420
 14083225
100
AcDbVertex
100
AcDb2dVertex
 10
-11.66625881195068
 20
24.36106109619141
 30
-0.0000041769435484
  0
VERTEX
  5
12A
330
FA
100
AcDbEntity
  8
OracDecor_panel_moldings
 62
    61
420
 14083225
100
AcDbVertex
100
AcDb2dVertex
 10
-10.38462448120117
 20
23.50922012329101
 30
-0.0000041769435484
  0
VERTEX
  5
12B
330
FA
100
AcDbEntity
  8
OracDecor_panel_moldings
 62
    61
420
 14083225
100
AcDbVertex
100
AcDb2dVertex
 10
-9.1375093460083
 20
22.66223335266113
 30
-0.0000041769435484
  0
VERTEX
  5
12C
330
FA
100
AcDbEntity
  8
OracDecor_panel_moldings
 62
    61
420
 14083225
100
AcDbVertex
100
AcDb2dVertex
 10
-7.982687950134277
 20
21.76869583129883
 30
-0.0000041769435484
  0
VERTEX
  5
12D
330
FA
100
AcDbEntity
  8
OracDecor_panel_moldings
 62
    61
420
 14083225
100
AcDbVertex
100
AcDb2dVertex
 10
-6.985236644744873
 20
20.7667350769043
 30
-0.0000041769435484
  0
VERTEX
  5
12E
330
FA
100
AcDbEntity
  8
OracDecor_panel_moldings
 62
    61
420
 14083225
100
AcDbVertex
100
AcDb2dVertex
 10
-6.262396335601806
 20
19.65976524353027
 30
-0.0000041769435484
  0
VERTEX
  5
12F
330
FA
100
AcDbEntity
  8
OracDecor_panel_moldings
 62
    61
420
 14083225
100
AcDbVertex
100
AcDb2dVertex
 10
-5.910356044769287
 20
18.56299591064453
 30
-0.0000041769435484
  0
VERTEX
  5
130
330
FA
100
AcDbEntity
  8
OracDecor_panel_moldings
 62
    61
420
 14083225
100
AcDbVertex
100
AcDb2dVertex
 10
-5.876800537109375
 20
17.36848640441894
 30
-0.0000041769435484
  0
VERTEX
  5
131
330
FA
100
AcDbEntity
  8
OracDecor_panel_moldings
 62
    61
420
 14083225
100
AcDbVertex
100
AcDb2dVertex
 10
-6.223161220550537
 20
15.93911933898926
 30
-0.0000041769435484
  0
VERTEX
  5
132
330
FA
100
AcDbEntity
  8
OracDecor_panel_moldings
 62
    61
420
 14083225
100
AcDbVertex
100
AcDb2dVertex
 10
-7.039504051208496
 20
14.27288246154785
 30
-0.0000041769435484
  0
VERTEX
  5
133
330
FA
100
AcDbEntity
  8
OracDecor_panel_moldings
 62
    61
420
 14083225
100
AcDbVertex
100
AcDb2dVertex
 10
-7.755153656005859
 20
13.18439292907715
 30
-0.0000041769435484
  0
VERTEX
  5
134
330
FA
100
AcDbEntity
  8
OracDecor_panel_moldings
 62
    61
420
 14083225
100
AcDbVertex
100
AcDb2dVertex
 10
-7.792819023132324
 20
13.04908180236816
 30
-0.0000041769435484
  0
VERTEX
  5
135
330
FA
100
AcDbEntity
  8
OracDecor_panel_moldings
 62
    61
420
 14083225
100
AcDbVertex
100
AcDb2dVertex
 10
-7.732575416564941
 20
12.92220497131348
 30
-0.0000041769435484
  0
VERTEX
  5
136
330
FA
100
AcDbEntity
  8
OracDecor_panel_moldings
 62
    61
420
 14083225
100
AcDbVertex
100
AcDb2dVertex
 10
-6.3068208694458
 20
11.54829978942871
 30
-0.0000041769435484
  0
VERTEX
  5
137
330
FA
100
AcDbEntity
  8
OracDecor_panel_moldings
 62
    61
420
 14083225
100
AcDbVertex
100
AcDb2dVertex
 10
-6.276394844055175
 20
11.47726249694824
 30
-0.0000041769435484
  0
VERTEX
  5
138
330
FA
100
AcDbEntity
  8
OracDecor_panel_moldings
 62
    61
420
 14083225
100
AcDbVertex
100
AcDb2dVertex
 10
-6.305436134338378
 20
11.4056453704834
 30
-0.0000041769435484
  0
VERTEX
  5
139
330
FA
100
AcDbEntity
  8
OracDecor_panel_moldings
 62
    61
420
 14083225
100
AcDbVertex
100
AcDb2dVertex
 10
-6.723246574401855
 20
10.92002296447754
 30
-0.0000041769435484
  0
VERTEX
  5
13A
330
FA
100
AcDbEntity
  8
OracDecor_panel_moldings
 62
    61
420
 14083225
100
AcDbVertex
100
AcDb2dVertex
 10
-7.418483734130859
 20
9.809366226196289
 30
-0.0000041769435484
  0
VERTEX
  5
13B
330
FA
100
AcDbEntity
  8
OracDecor_panel_moldings
 62
    61
420
 14083225
100
AcDbVertex
100
AcDb2dVertex
 10
-7.743318080902099
 20
8.647218704223632
 30
-0.0000041769435484
  0
VERTEX
  5
13C
330
FA
100
AcDbEntity
  8
OracDecor_panel_moldings
 62
    61
420
 14083225
100
AcDbVertex
100
AcDb2dVertex
 10
-7.713449478149414
 20
7.495576381683349
 30
-0.0000041769435484
  0
VERTEX
  5
13D
330
FA
100
AcDbEntity
  8
OracDecor_panel_moldings
 62
    61
420
 14083225
100
AcDbVertex
100
AcDb2dVertex
 10
-7.382287979125976
 20
6.413743495941162
 30
-0.0000041769435484
  0
VERTEX
  5
13E
330
FA
100
AcDbEntity
  8
OracDecor_panel_moldings
 62
    61
420
 14083225
100
AcDbVertex
100
AcDb2dVertex
 10
-6.801369667053222
 20
5.435235500335693
 30
-0.0000041769435484
  0
VERTEX
  5
13F
330
FA
100
AcDbEntity
  8
OracDecor_panel_moldings
 62
    61
420
 14083225
100
AcDbVertex
100
AcDb2dVertex
 10
-5.954727172851562
 20
4.544122219085693
 30
-0.0000041769435484
  0
VERTEX
  5
140
330
FA
100
AcDbEntity
  8
OracDecor_panel_moldings
 62
    61
420
 14083225
100
AcDbVertex
100
AcDb2dVertex
 10
-4.832304000854492
 20
3.787240743637084
 30
-0.0000041769435484
  0
VERTEX
  5
141
330
FA
100
AcDbEntity
  8
OracDecor_panel_moldings
 62
    61
420
 14083225
100
AcDbVertex
100
AcDb2dVertex
 10
-4.088698387145996
 20
3.429116964340209
 30
-0.0000041769435484
  0
VERTEX
  5
142
330
FA
100
AcDbEntity
  8
OracDecor_panel_moldings
 62
    61
420
 14083225
100
AcDbVertex
100
AcDb2dVertex
 10
-4.043863296508789
 20
3.393911123275756
 30
-0.0000041769435484
  0
VERTEX
  5
143
330
FA
100
AcDbEntity
  8
OracDecor_panel_moldings
 62
    61
420
 14083225
100
AcDbVertex
100
AcDb2dVertex
 10
-4.025463104248046
 20
3.339959859848022
 30
-0.0000041769435484
  0
VERTEX
  5
144
330
FA
100
AcDbEntity
  8
OracDecor_panel_moldings
 62
    61
420
 14083225
100
AcDbVertex
100
AcDb2dVertex
 10
-3.927258014678955
 20
0.8043992519378662
 30
-0.0000041769435484
  0
VERTEX
  5
145
330
FA
100
AcDbEntity
  8
OracDecor_panel_moldings
 62
    61
420
 14083225
100
AcDbVertex
100
AcDb2dVertex
 10
-3.877127647399902
 20
0.6798379421234131
 30
-0.0000041769435484
  0
VERTEX
  5
146
330
FA
100
AcDbEntity
  8
OracDecor_panel_moldings
 62
    61
420
 14083225
100
AcDbVertex
100
AcDb2dVertex
 10
-3.759680747985839
 20
0.6147592067718506
 30
-0.0000041769435484
  0
VERTEX
  5
147
330
FA
100
AcDbEntity
  8
OracDecor_panel_moldings
 62
    61
420
 14083225
100
AcDbVertex
100
AcDb2dVertex
 10
0.0
 20
0.0000324249267578
 30
-0.0000041769435484
  0
VERTEX
  5
148
330
FA
100
AcDbEntity
  8
OracDecor_panel_moldings
 62
    61
420
 14083225
100
AcDbVertex
100
AcDb2dVertex
 10
0.0000014305115883
 20
5.428800582885742
 30
-0.0000041769435484
  0
VERTEX
  5
149
330
FA
100
AcDbEntity
  8
OracDecor_panel_moldings
 62
    61
420
 14083225
100
AcDbVertex
100
AcDb2dVertex
 10
-0.0766944885253906
 20
5.694486618041992
 30
-0.0000041769435484
  0
VERTEX
  5
14A
330
FA
100
AcDbEntity
  8
OracDecor_panel_moldings
 62
    61
420
 14083225
100
AcDbVertex
100
AcDb2dVertex
 10
-0.2826075553894043
 20
5.879068374633789
 30
-0.0000041769435484
  0
VERTEX
  5
14B
330
FA
100
AcDbEntity
  8
OracDecor_panel_moldings
 62
    61
420
 14083225
100
AcDbVertex
100
AcDb2dVertex
 10
-0.7517600059509278
 20
6.25411033630371
 30
-0.0000041769435484
  0
VERTEX
  5
14C
330
FA
100
AcDbEntity
  8
OracDecor_panel_moldings
 62
    61
420
 14083225
100
AcDbVertex
100
AcDb2dVertex
 10
-0.9947295188903808
 20
6.559198379516601
 30
-0.0000041769435484
  0
VERTEX
  5
14D
330
FA
100
AcDbEntity
  8
OracDecor_panel_moldings
 62
    61
420
 14083225
100
AcDbVertex
100
AcDb2dVertex
 10
-1.167954921722412
 20
6.919042587280273
 30
-0.0000041769435484
  0
VERTEX
  5
14E
330
FA
100
AcDbEntity
  8
OracDecor_panel_moldings
 62
    61
420
 14083225
100
AcDbVertex
100
AcDb2dVertex
 10
-1.25470495223999
 20
7.299249649047851
 30
-0.0000041769435484
  0
VERTEX
  5
14F
330
FA
100
AcDbEntity
  8
OracDecor_panel_moldings
 62
    61
420
 14083225
100
AcDbVertex
100
AcDb2dVertex
 10
-1.25470495223999
 20
7.700815200805664
 30
-0.0000041769435484
  0
VERTEX
  5
150
330
FA
100
AcDbEntity
  8
OracDecor_panel_moldings
 62
    61
420
 14083225
100
AcDbVertex
100
AcDb2dVertex
 10
-1.16795539855957
 20
8.081022262573242
 30
-0.0000041769435484
  0
VERTEX
  5
151
330
FA
100
AcDbEntity
  8
OracDecor_panel_moldings
 62
    61
420
 14083225
100
AcDbVertex
100
AcDb2dVertex
 10
-0.994729995727539
 20
8.440866470336914
 30
-0.0000041769435484
  0
VERTEX
  5
152
330
FA
100
AcDbEntity
  8
OracDecor_panel_moldings
 62
    61
420
 14083225
100
AcDbVertex
100
AcDb2dVertex
 10
-0.751760482788086
 20
8.745954513549804
 30
-0.0000041769435484
  0
VERTEX
  5
153
330
FA
100
AcDbEntity
  8
OracDecor_panel_moldings
 62
    61
420
 14083225
100
AcDbVertex
100
AcDb2dVertex
 10
-0.2826080322265625
 20
9.120996475219726
 30
-0.0000041769435484
  0
VERTEX
  5
154
330
FA
100
AcDbEntity
  8
OracDecor_panel_moldings
 62
    61
420
 14083225
100
AcDbVertex
100
AcDb2dVertex
 10
-0.0766949653625488
 20
9.305578231811523
 30
-0.0000041769435484
  0
VERTEX
  5
155
330
FA
100
AcDbEntity
  8
OracDecor_panel_moldings
 62
    61
420
 14083225
100
AcDbVertex
100
AcDb2dVertex
 10
0.0000009536744301
 20
9.571264266967773
 30
-0.0000041769435484
  0
VERTEX
  5
156
330
FA
100
AcDbEntity
  8
OracDecor_panel_moldings
 62
    61
420
 14083225
100
AcDbVertex
100
AcDb2dVertex
 10
0.0000009536744301
 20
14.00003242492676
 30
-0.0000041769435484
  0
VERTEX
  5
157
330
FA
100
AcDbEntity
  8
OracDecor_panel_moldings
 62
    61
420
 14083225
100
AcDbVertex
100
AcDb2dVertex
 10
-0.2999992370605469
 20
14.3000316619873
 30
-0.0000041769435484
  0
VERTEX
  5
158
330
FA
100
AcDbEntity
  8
OracDecor_panel_moldings
 62
    61
420
 14083225
100
AcDbVertex
100
AcDb2dVertex
 10
-0.2999992370605469
 20
19.94060134887695
 30
-0.0000041769435484
  0
VERTEX
  5
159
330
FA
100
AcDbEntity
  8
OracDecor_panel_moldings
 62
    61
420
 14083225
100
AcDbVertex
100
AcDb2dVertex
 10
-0.4135074615478516
 20
21.53250694274902
 30
-0.0000041769435484
  0
VERTEX
  5
15A
330
FA
100
AcDbEntity
  8
OracDecor_panel_moldings
 62
    61
420
 14083225
100
AcDbVertex
100
AcDb2dVertex
 10
-0.6159124374389649
 20
22.94462776184082
 30
-0.0000041769435484
  0
VERTEX
  5
15B
330
FA
100
AcDbEntity
  8
OracDecor_panel_moldings
 62
    61
420
 14083225
100
AcDbVertex
100
AcDb2dVertex
 10
-1.060699939727783
 20
24.46471786499023
 30
-0.0000041769435484
  0
VERTEX
  5
15C
330
FA
100
AcDbEntity
  8
OracDecor_panel_moldings
 62
    61
420
 14083225
100
AcDbVertex
100
AcDb2dVertex
 10
-1.650839567184448
 20
25.76189422607422
 30
-0.0000041769435484
  0
VERTEX
  5
15D
330
FA
100
AcDbEntity
  8
OracDecor_panel_moldings
 62
    61
420
 14083225
100
AcDbVertex
100
AcDb2dVertex
 10
-2.504458665847778
 20
27.09601783752442
 30
-0.0000041769435484
  0
VERTEX
  5
15E
330
FA
100
AcDbEntity
  8
OracDecor_panel_moldings
 62
    61
420
 14083225
100
AcDbVertex
100
AcDb2dVertex
 10
-3.43494176864624
 20
28.17542839050293
 30
-0.0000041769435484
  0
VERTEX
  5
15F
330
FA
100
AcDbEntity
  8
OracDecor_panel_moldings
 62
    61
420
 14083225
100
AcDbVertex
100
AcDb2dVertex
 10
-4.628734588623046
 20
29.21628189086914
 30
-0.0000041769435484
  0
VERTEX
  5
160
330
FA
100
AcDbEntity
  8
OracDecor_panel_moldings
 62
    61
420
 14083225
100
AcDbVertex
100
AcDb2dVertex
 10
-6.497519016265869
 20
30.42672729492188
 30
-0.0000041769435484
  0
VERTEX
  5
161
330
FA
100
AcDbEntity
  8
OracDecor_panel_moldings
 62
    61
420
 14083225
100
AcDbVertex
100
AcDb2dVertex
 10
-6.963091373443603
 20
30.78045272827149
 30
-0.0000041769435484
  0
VERTEX
  5
162
330
FA
100
AcDbEntity
  8
OracDecor_panel_moldings
 62
    61
420
 14083225
100
AcDbVertex
100
AcDb2dVertex
 10
-7.216060161590576
 20
31.07812881469727
 30
-0.0000041769435484
  0
VERTEX
  5
163
330
FA
100
AcDbEntity
  8
OracDecor_panel_moldings
 62
    61
420
 14083225
100
AcDbVertex
100
AcDb2dVertex
 10
-7.395784854888916
 20
31.41695594787598
 30
-0.0000041769435484
  0
VERTEX
  5
164
330
FA
100
AcDbEntity
  8
OracDecor_panel_moldings
 62
    61
420
 14083225
100
AcDbVertex
100
AcDb2dVertex
 10
-7.500202178955078
 20
31.7933521270752
 30
-0.0000041769435484
  0
VERTEX
  5
165
330
FA
100
AcDbEntity
  8
OracDecor_panel_moldings
 62
    61
420
 14083225
100
AcDbVertex
100
AcDb2dVertex
 10
-7.520828247070312
 20
32.1783676147461
 30
-0.0000041769435484
  0
VERTEX
  5
166
330
FA
100
AcDbEntity
  8
OracDecor_panel_moldings
 62
    61
420
 14083225
100
AcDbVertex
100
AcDb2dVertex
 10
-7.457221984863281
 20
32.56376647949219
 30
-0.0000041769435484
  0
VERTEX
  5
167
330
FA
100
AcDbEntity
  8
OracDecor_panel_moldings
 62
    61
420
 14083225
100
AcDbVertex
100
AcDb2dVertex
 10
-7.314724445343017
 20
32.91985321044922
 30
-0.0000041769435484
  0
VERTEX
  5
168
330
FA
100
AcDbEntity
  8
OracDecor_panel_moldings
 62
    61
420
 14083225
100
AcDbVertex
100
AcDb2dVertex
 10
-7.095006942749023
 20
33.24285125732422
 30
-0.0000041769435484
  0
VERTEX
  5
169
330
FA
100
AcDbEntity
  8
OracDecor_panel_moldings
 62
    61
420
 14083225
100
AcDbVertex
100
AcDb2dVertex
 10
-6.669890403747558
 20
33.64429473876953
 30
-0.0000041769435484
  0
VERTEX
  5
16A
330
FA
100
AcDbEntity
  8
OracDecor_panel_moldings
 62
    61
420
 14083225
100
AcDbVertex
100
AcDb2dVertex
 10
-0.4863376617431641
 20
37.34625244140625
 30
-0.0000041769435484
  0
VERTEX
  5
16B
330
FA
100
AcDbEntity
  8
OracDecor_panel_moldings
 62
    61
420
 14083225
100
AcDbVertex
100
AcDb2dVertex
 10
-0.1300387382507324
 20
37.71112060546875
 30
-0.0000041769435484
  0
VERTEX
  5
16C
330
FA
100
AcDbEntity
  8
OracDecor_panel_moldings
 62
    61
420
 14083225
100
AcDbVertex
100
AcDb2dVertex
 10
0.0000014305119294
 20
38.20424652099609
 30
-0.0000041769435484
  0
SEQEND
  5
16D
330
FA
100
AcDbEntity
  8
OracDecor_panel_moldings
 62
    61
420
 14083225
  0
ENDSEC
  0
SECTION
  2
OBJECTS
  0
DICTIONARY
  5
C
330
0
100
AcDbDictionary
281
     1
  3
ACAD_COLOR
350
DC
  3
ACAD_DETAILVIEWSTYLE
350
F5
  3
ACAD_GROUP
350
D
  3
ACAD_LAYOUT
350
1A
  3
ACAD_MATERIAL
350
AA
  3
ACAD_MLEADERSTYLE
350
F1
  3
ACAD_MLINESTYLE
350
17
  3
ACAD_PLOTSETTINGS
350
19
  3
ACAD_PLOTSTYLENAME
350
E
  3
ACAD_SCALELIST
350
DF
  3
ACAD_SECTIONVIEWSTYLE
350
F3
  3
ACAD_TABLESTYLE
350
DD
  3
ACAD_VISUALSTYLE
350
C3
  3
ACDB_RECOMPOSE_DATA
350
17A
  3
AcDbVariableDictionary
350
16E
  0
DICTIONARY
  5
DC
102
{ACAD_REACTORS
330
C
102
}
330
C
100
AcDbDictionary
281
     1
  0
DICTIONARY
  5
F5
102
{ACAD_REACTORS
330
C
102
}
330
C
100
AcDbDictionary
281
     1
  3
Imperial24
350
F6
  0
DICTIONARY
  5
D
102
{ACAD_REACTORS
330
C
102
}
330
C
100
AcDbDictionary
281
     1
  0
DICTIONARY
  5
1A
102
{ACAD_REACTORS
330
C
102
}
330
C
100
AcDbDictionary
281
     1
  3
Layout1
350
1E
  3
Layout2
350
26
  3
Model
350
22
  0
DICTIONARY
  5
AA
102
{ACAD_REACTORS
330
C
102
}
330
C
100
AcDbDictionary
281
     1
  3
ByBlock
350
B3
  3
ByLayer
350
AB
  3
Global
350
BB
  0
DICTIONARY
  5
F1
102
{ACAD_REACTORS
330
C
102
}
330
C
100
AcDbDictionary
281
     1
  3
Standard
350
F2
  0
DICTIONARY
  5
17
102
{ACAD_REACTORS
330
C
102
}
330
C
100
AcDbDictionary
281
     1
  3
Standard
350
18
  0
DICTIONARY
  5
19
102
{ACAD_REACTORS
330
C
102
}
330
C
100
AcDbDictionary
281
     1
  0
ACDBDICTIONARYWDFLT
  5
E
102
{ACAD_REACTORS
330
C
102
}
330
C
100
AcDbDictionary
281
     1
  3
ByLayer
350
2D
  3
Normal
350
F
100
AcDbDictionaryWithDefault
340
F
  0
DICTIONARY
  5
DF
102
{ACAD_REACTORS
330
C
102
}
330
C
100
AcDbDictionary
281
     1
  3
A0
350
E0
  3
A1
350
E1
  3
A2
350
E2
  3
A3
350
E3
  3
A4
350
E4
  3
A5
350
E5
  3
A6
350
E6
  3
A7
350
E7
  3
A8
350
E8
  3
A9
350
E9
  3
B0
350
EA
  3
B1
350
EB
  3
B2
350
EC
  3
B3
350
ED
  3
B4
350
EE
  3
B5
350
EF
  3
B6
350
F0
  0
DICTIONARY
  5
F3
102
{ACAD_REACTORS
330
C
102
}
330
C
100
AcDbDictionary
281
     1
  3
Imperial24
350
F4
  0
DICTIONARY
  5
DD
102
{ACAD_REACTORS
330
C
102
}
330
C
100
AcDbDictionary
281
     1
  3
Standard
350
DE
  0
DICTIONARY
  5
C3
102
{ACAD_REACTORS
330
C
102
}
330
C
100
AcDbDictionary
281
     1
  3
2dWireframe
350
C9
  3
Basic
350
C8
  3
Brighten
350
CF
  3
ColorChange
350
D3
  3
Conceptual
350
CC
  3
Dim
350
CE
  3
EdgeColorOff
350
DB
  3
Facepattern
350
D2
  3
Flat
350
C4
  3
FlatWithEdges
350
C5
  3
Gouraud
350
C6
  3
GouraudWithEdges
350
C7
  3
Hidden
350
CB
  3
JitterOff
350
D9
  3
Linepattern
350
D1
  3
OverhangOff
350
DA
  3
Realistic
350
CD
  3
Shaded
350
D8
  3
Shaded with edges
350
D7
  3
Shades of Gray
350
D4
  3
Sketchy
350
D5
  3
Thicken
350
D0
  3
Wireframe
350
CA
  3
X-Ray
350
D6
  0
XRECORD
  5
17A
102
{ACAD_REACTORS
330
C
102
}
330
C
100
AcDbXrecord
280
     1
 90
        1
330
DE
  0
DICTIONARY
  5
16E
102
{ACAD_REACTORS
330
C
102
}
330
C
100
AcDbDictionary
281
     1
  3
CANNOSCALE
350
174
  3
CMLEADERSTYLE
350
170
  3
CTABLESTYLE
350
16F
  3
CVIEWDETAILSTYLE
350
171
  3
CVIEWSECTIONSTYLE
350
172
  3
LAYEREVAL
350
176
  3
LAYERNOTIFY
350
177
  3
LIGHTINGUNITS
350
175
  3
MSLTSCALE
350
173
  0
ACDBDETAILVIEWSTYLE
  5
F6
102
{ACAD_XDICTIONARY
360
1AF
102
}
102
{ACAD_REACTORS
330
F5
102
}
330
F5
100
AcDbModelDocViewStyle
 70
     0
  3
Imperial24
290
     0
100
AcDbDetailViewStyle
 70
     0
 71
     0
 90
        3
 71
     1
340
11
 62
   256
 40
0.24
340
0
 62
   256
 40
0.24
300

 40
0.36
280
     3
 71
     2
340
16
 90
       25
 62
   256
 71
     3
340
11
 62
   256
 40
0.24
 90
        1
 40
0.75
 90
        1
300
%<\AcVar ViewType \f "%tc1">% %<\AcVar ViewDetailId>%\PSCALE %<\AcVar ViewScale \f "%sn">%
 71
     4
340
16
 90
       25
 62
   256
340
16
 90
       25
 62
   256
280
     0
  0
LAYOUT
  5
1E
102
{ACAD_REACTORS
330
1A
102
}
330
1A
100
AcDbPlotSettings
  1

  2
\\KTXNTBDC\CASF2PN1
  4

  6

 40
0.0
 41
0.0
 42
0.0
 43
0.0
 44
0.0
 45
0.0
 46
0.0
 47
0.0
 48
0.0
 49
0.0
140
0.0
141
0.0
142
1.0
143
1.0
 70
   688
 72
     0
 73
     0
 74
     5
  7

 75
    16
147
1.0
 76
     0
 77
     2
 78
   300
148
0.0
149
0.0
100
AcDbLayout
  1
Layout1
 70
     1
 71
     1
 10
0.0
 20
0.0
 11
12.0
 21
9.0
 12
0.0
 22
0.0
 32
0.0
 14
1.000000000000000E+20
 24
1.000000000000000E+20
 34
1.000000000000000E+20
 15
-1.000000000000000E+20
 25
-1.000000000000000E+20
 35
-1.000000000000000E+20
146
0.0
 13
0.0
 23
0.0
 33
0.0
 16
1.0
 26
0.0
 36
0.0
 17
0.0
 27
1.0
 37
0.0
 76
     0
330
1B
  0
LAYOUT
  5
26
102
{ACAD_REACTORS
330
1A
102
}
330
1A
100
AcDbPlotSettings
  1

  2
\\KTXNTBDC\CASF2PN1
  4

  6

 40
0.0
 41
0.0
 42
0.0
 43
0.0
 44
0.0
 45
0.0
 46
0.0
 47
0.0
 48
0.0
 49
0.0
140
0.0
141
0.0
142
1.0
143
1.0
 70
   688
 72
     0
 73
     0
 74
     5
  7

 75
    16
147
1.0
 76
     0
 77
     2
 78
   300
148
0.0
149
0.0
100
AcDbLayout
  1
Layout2
 70
     1
 71
     2
 10
0.0
 20
0.0
 11
12.0
 21
9.0
 12
0.0
 22
0.0
 32
0.0
 14
0.0
 24
0.0
 34
0.0
 15
0.0
 25
0.0
 35
0.0
146
0.0
 13
0.0
 23
0.0
 33
0.0
 16
1.0
 26
0.0
 36
0.0
 17
0.0
 27
1.0
 37
0.0
 76
     0
330
23
  0
LAYOUT
  5
22
102
{ACAD_REACTORS
330
1A
102
}
330
1A
100
AcDbPlotSettings
  1

  2
\\KTXNTBDC\CASF2PN1
  4

  6

 40
0.0
 41
0.0
 42
0.0
 43
0.0
 44
0.0
 45
0.0
 46
0.0
 47
0.0
 48
0.0
 49
0.0
140
0.0
141
0.0
142
1.0
143
1.0
 70
  1712
 72
     0
 73
     0
 74
     0
  7

 75
     0
147
1.0
 76
     0
 77
     2
 78
   300
148
0.0
149
0.0
100
AcDbLayout
  1
Model
 70
     1
 71
     0
 10
0.0
 20
0.0
 11
12.0
 21
9.0
 12
0.0
 22
0.0
 32
0.0
 14
0.0
 24
0.0
 34
0.0
 15
0.0
 25
0.0
 35
0.0
146
0.0
 13
0.0
 23
0.0
 33
0.0
 16
1.0
 26
0.0
 36
0.0
 17
0.0
 27
1.0
 37
0.0
 76
     0
330
1F
  0
MATERIAL
  5
B3
102
{ACAD_XDICTIONARY
360
B4
102
}
102
{ACAD_REACTORS
330
AA
102
}
330
AA
100
AcDbMaterial
  1
ByBlock
 72
     0
 43
0.0208333333333333
 43
0.0
 43
0.0
 43
0.0
 43
0.0
 43
0.0208333333333333
 43
0.0
 43
0.0
 43
0.0
 43
0.0
 43
1.0
 43
0.0
 43
0.0
 43
0.0
 43
0.0
 43
1.0
 77
     0
 47
0.0208333333333333
 47
0.0
 47
0.0
 47
0.0
 47
0.0
 47
0.0208333333333333
 47
0.0
 47
0.0
 47
0.0
 47
0.0
 47
1.0
 47
0.0
 47
0.0
 47
0.0
 47
0.0
 47
1.0
171
     0
 49
0.0208333333333333
 49
0.0
 49
0.0
 49
0.0
 49
0.0
 49
0.0208333333333333
 49
0.0
 49
0.0
 49
0.0
 49
0.0
 49
1.0
 49
0.0
 49
0.0
 49
0.0
 49
0.0
 49
1.0
175
     0
142
0.0208333333333333
142
0.0
142
0.0
142
0.0
142
0.0
142
0.0208333333333333
142
0.0
142
0.0
142
0.0
142
0.0
142
1.0
142
0.0
142
0.0
142
0.0
142
0.0
142
1.0
179
     0
144
0.0208333333333333
144
0.0
144
0.0
144
0.0
144
0.0
144
0.0208333333333333
144
0.0
144
0.0
144
0.0
144
0.0
144
1.0
144
0.0
144
0.0
144
0.0
144
0.0
144
1.0
147
0.0208333333333333
147
0.0
147
0.0
147
0.0
147
0.0
147
0.0208333333333333
147
0.0
147
0.0
147
0.0
147
0.0
147
1.0
147
0.0
147
0.0
147
0.0
147
0.0
147
1.0
  0
MATERIAL
  5
AB
102
{ACAD_XDICTIONARY
360
AC
102
}
102
{ACAD_REACTORS
330
AA
102
}
330
AA
100
AcDbMaterial
  1
ByLayer
 72
     0
 43
0.0208333333333333
 43
0.0
 43
0.0
 43
0.0
 43
0.0
 43
0.0208333333333333
 43
0.0
 43
0.0
 43
0.0
 43
0.0
 43
1.0
 43
0.0
 43
0.0
 43
0.0
 43
0.0
 43
1.0
 77
     0
 47
0.0208333333333333
 47
0.0
 47
0.0
 47
0.0
 47
0.0
 47
0.0208333333333333
 47
0.0
 47
0.0
 47
0.0
 47
0.0
 47
1.0
 47
0.0
 47
0.0
 47
0.0
 47
0.0
 47
1.0
171
     0
 49
0.0208333333333333
 49
0.0
 49
0.0
 49
0.0
 49
0.0
 49
0.0208333333333333
 49
0.0
 49
0.0
 49
0.0
 49
0.0
 49
1.0
 49
0.0
 49
0.0
 49
0.0
 49
0.0
 49
1.0
175
     0
142
0.0208333333333333
142
0.0
142
0.0
142
0.0
142
0.0
142
0.0208333333333333
142
0.0
142
0.0
142
0.0
142
0.0
142
1.0
142
0.0
142
0.0
142
0.0
142
0.0
142
1.0
179
     0
144
0.0208333333333333
144
0.0
144
0.0
144
0.0
144
0.0
144
0.0208333333333333
144
0.0
144
0.0
144
0.0
144
0.0
144
1.0
144
0.0
144
0.0
144
0.0
144
0.0
144
1.0
147
0.0208333333333333
147
0.0
147
0.0
147
0.0
147
0.0
147
0.0208333333333333
147
0.0
147
0.0
147
0.0
147
0.0
147
1.0
147
0.0
147
0.0
147
0.0
147
0.0
147
1.0
  0
MATERIAL
  5
BB
102
{ACAD_XDICTIONARY
360
BC
102
}
102
{ACAD_REACTORS
330
AA
102
}
330
AA
100
AcDbMaterial
  1
Global
 72
     0
 43
0.0208333333333333
 43
0.0
 43
0.0
 43
0.0
 43
0.0
 43
0.0208333333333333
 43
0.0
 43
0.0
 43
0.0
 43
0.0
 43
1.0
 43
0.0
 43
0.0
 43
0.0
 43
0.0
 43
1.0
 77
     0
 47
0.0208333333333333
 47
0.0
 47
0.0
 47
0.0
 47
0.0
 47
0.0208333333333333
 47
0.0
 47
0.0
 47
0.0
 47
0.0
 47
1.0
 47
0.0
 47
0.0
 47
0.0
 47
0.0
 47
1.0
171
     0
 49
0.0208333333333333
 49
0.0
 49
0.0
 49
0.0
 49
0.0
 49
0.0208333333333333
 49
0.0
 49
0.0
 49
0.0
 49
0.0
 49
1.0
 49
0.0
 49
0.0
 49
0.0
 49
0.0
 49
1.0
175
     0
142
0.0208333333333333
142
0.0
142
0.0
142
0.0
142
0.0
142
0.0208333333333333
142
0.0
142
0.0
142
0.0
142
0.0
142
1.0
142
0.0
142
0.0
142
0.0
142
0.0
142
1.0
179
     0
144
0.0208333333333333
144
0.0
144
0.0
144
0.0
144
0.0
144
0.0208333333333333
144
0.0
144
0.0
144
0.0
144
0.0
144
1.0
144
0.0
144
0.0
144
0.0
144
0.0
144
1.0
147
0.0208333333333333
147
0.0
147
0.0
147
0.0
147
0.0
147
0.0208333333333333
147
0.0
147
0.0
147
0.0
147
0.0
147
1.0
147
0.0
147
0.0
147
0.0
147
0.0
147
1.0
  0
MLEADERSTYLE
  5
F2
102
{ACAD_XDICTIONARY
360
1AB
102
}
102
{ACAD_REACTORS
330
F1
102
}
330
F1
100
AcDbMLeaderStyle
179
     2
170
     2
171
     1
172
     0
 90
        2
 40
0.0
 41
0.0
173
     1
 91
-1056964608
340
14
 92
       -2
290
     1
 42
0.09
291
     1
 43
0.36
  3
Standard
 44
0.18
300

342
11
174
     1
178
     6
175
     1
176
     0
 93
-1056964608
 45
0.18
292
     0
297
     0
 46
0.18
 94
-1056964608
 47
1.0
 49
1.0
140
1.0
293
     1
141
0.0
294
     1
177
     0
142
1.0
295
     0
296
     0
143
0.125
271
     0
272
     9
273
     9
  0
MLINESTYLE
  5
18
102
{ACAD_REACTORS
330
17
102
}
330
17
100
AcDbMlineStyle
  2
STANDARD
 70
     0
  3

 62
   256
 51
90.0
 52
90.0
 71
     2
 49
0.5
 62
   256
  6
BYLAYER
 49
-0.5
 62
   256
  6
BYLAYER
  0
ACDBPLACEHOLDER
  5
2D
102
{ACAD_REACTORS
330
E
102
}
330
E
  0
ACDBPLACEHOLDER
  5
F
102
{ACAD_REACTORS
330
E
102
}
330
E
  0
SCALE
  5
E0
102
{ACAD_REACTORS
330
DF
102
}
330
DF
100
AcDbScale
 70
     0
300
1:1
140
1.0
141
1.0
290
     1
  0
SCALE
  5
E1
102
{ACAD_REACTORS
330
DF
102
}
330
DF
100
AcDbScale
 70
     0
300
1/128" = 1'-0"
140
0.0078125
141
12.0
290
     0
  0
SCALE
  5
E2
102
{ACAD_REACTORS
330
DF
102
}
330
DF
100
AcDbScale
 70
     0
300
1/64" = 1'-0"
140
0.015625
141
12.0
290
     0
  0
SCALE
  5
E3
102
{ACAD_REACTORS
330
DF
102
}
330
DF
100
AcDbScale
 70
     0
300
1/32" = 1'-0"
140
0.03125
141
12.0
290
     0
  0
SCALE
  5
E4
102
{ACAD_REACTORS
330
DF
102
}
330
DF
100
AcDbScale
 70
     0
300
1/16" = 1'-0"
140
0.0625
141
12.0
290
     0
  0
SCALE
  5
E5
102
{ACAD_REACTORS
330
DF
102
}
330
DF
100
AcDbScale
 70
     0
300
3/32" = 1'-0"
140
0.09375
141
12.0
290
     0
  0
SCALE
  5
E6
102
{ACAD_REACTORS
330
DF
102
}
330
DF
100
AcDbScale
 70
     0
300
1/8" = 1'-0"
140
0.125
141
12.0
290
     0
  0
SCALE
  5
E7
102
{ACAD_REACTORS
330
DF
102
}
330
DF
100
AcDbScale
 70
     0
300
3/16" = 1'-0"
140
0.1875
141
12.0
290
     0
  0
SCALE
  5
E8
102
{ACAD_REACTORS
330
DF
102
}
330
DF
100
AcDbScale
 70
     0
300
1/4" = 1'-0"
140
0.25
141
12.0
290
     0
  0
SCALE
  5
E9
102
{ACAD_REACTORS
330
DF
102
}
330
DF
100
AcDbScale
 70
     0
300
3/8" = 1'-0"
140
0.375
141
12.0
290
     0
  0
SCALE
  5
EA
102
{ACAD_REACTORS
330
DF
102
}
330
DF
100
AcDbScale
 70
     0
300
1/2" = 1'-0"
140
0.5
141
12.0
290
     0
  0
SCALE
  5
EB
102
{ACAD_REACTORS
330
DF
102
}
330
DF
100
AcDbScale
 70
     0
300
3/4" = 1'-0"
140
0.75
141
12.0
290
     0
  0
SCALE
  5
EC
102
{ACAD_REACTORS
330
DF
102
}
330
DF
100
AcDbScale
 70
     0
300
1" = 1'-0"
140
1.0
141
12.0
290
     0
  0
SCALE
  5
ED
102
{ACAD_REACTORS
330
DF
102
}
330
DF
100
AcDbScale
 70
     0
300
1-1/2" = 1'-0"
140
1.5
141
12.0
290
     0
  0
SCALE
  5
EE
102
{ACAD_REACTORS
330
DF
102
}
330
DF
100
AcDbScale
 70
     0
300
3" = 1'-0"
140
3.0
141
12.0
290
     0
  0
SCALE
  5
EF
102
{ACAD_REACTORS
330
DF
102
}
330
DF
100
AcDbScale
 70
     0
300
6" = 1'-0"
140
6.0
141
12.0
290
     0
  0
SCALE
  5
F0
102
{ACAD_REACTORS
330
DF
102
}
330
DF
100
AcDbScale
 70
     0
300
1'-0" = 1'-0"
140
12.0
141
12.0
290
     0
  0
ACDBSECTIONVIEWSTYLE
  5
F4
102
{ACAD_XDICTIONARY
360
1AD
102
}
102
{ACAD_REACTORS
330
F3
102
}
330
F3
100
AcDbModelDocViewStyle
 70
     0
  3
Imperial24
290
     0
100
AcDbSectionViewStyle
 70
     0
 71
     0
 90
       78
 71
     1
340
11
 62
   256
 40
0.24
340
0
340
0
 62
   256
 40
0.24
300
I, O, Q, S, X, Z
 40
0.48
 90
        3
 40
0.18
 90
        1
 71
     2
340
16
 90
       25
 62
   256
340
16
 90
       50
 62
   256
 40
0.24
 40
0.0
 40
0.24
 71
     3
340
11
 62
   256
 40
0.24
 90
        1
 40
0.75
 90
        1
300
%<\AcVar ViewType \f "%tc1">% %<\AcVar ViewSectionStartId>%-%<\AcVar ViewSectionEndId>%\PSCALE %<\AcVar ViewScale \f "%sn">%
 71
     4
 62
   256
 62
   257
300
ANSI31
 40
1.0
 90
        0
290
     0
290
     0
 90
        6
 40
0.0
 40
1.570796326794896
 40
0.2617993877991494
 40
1.308996938995747
 40
-0.2617993877991494
 40
1.832595714594046
  0
TABLESTYLE
  5
DE
102
{ACAD_XDICTIONARY
360
178
102
}
102
{ACAD_REACTORS
330
DD
102
}
330
DD
100
AcDbTableStyle
280
     0
  3
Standard
 70
     0
 71
     0
 40
0.06
 41
0.06
280
     0
281
     0
  7
Standard
140
0.18
170
     2
 62
     0
 63
     7
283
     0
 90
      512
 91
        0
  1

274
    -2
284
     1
 64
     0
275
    -2
285
     1
 65
     0
276
    -2
286
     1
 66
     0
277
    -2
287
     1
 67
     0
278
    -2
288
     1
 68
     0
279
    -2
289
     1
 69
     0
  7
Standard
140
0.25
170
     5
 62
     0
 63
     7
283
     0
 90
      512
 91
        0
  1

274
    -2
284
     1
 64
     0
275
    -2
285
     1
 65
     0
276
    -2
286
     1
 66
     0
277
    -2
287
     1
 67
     0
278
    -2
288
     1
 68
     0
279
    -2
289
     1
 69
     0
  7
Standard
140
0.18
170
     5
 62
     0
 63
     7
283
     0
 90
      512
 91
        0
  1

274
    -2
284
     1
 64
     0
275
    -2
285
     1
 65
     0
276
    -2
286
     1
 66
     0
277
    -2
287
     1
 67
     0
278
    -2
288
     1
 68
     0
279
    -2
289
     1
 69
     0
  0
VISUALSTYLE
  5
C9
102
{ACAD_XDICTIONARY
360
185
102
}
102
{ACAD_REACTORS
330
C3
102
}
330
C3
100
AcDbVisualStyle
  2
2dWireframe
 70
     4
177
     2
291
     0
 71
     0
176
     1
 72
     2
176
     1
 73
     0
176
     1
 90
        0
176
     1
 40
0.6
176
     1
 41
30.0
176
     1
 63
     7
421
 16777215
176
     1
 74
     1
176
     1
 91
        4
176
     1
 64
     7
176
     1
 65
   257
176
     1
 75
     1
176
     1
175
     1
176
     1
 42
1.0
176
     1
 92
        0
176
     1
 66
   257
176
     1
 43
1.0
176
     1
 76
     1
176
     1
 77
     6
176
     1
 78
     2
176
     1
 67
     7
176
     1
 79
     5
176
     1
170
     0
176
     1
171
     0
176
     1
290
     0
176
     1
 93
        1
176
     1
 44
0.0
176
     1
173
     0
176
     1
1001
ACAD
1000
AcDbSavedByObjectVersion
1070
     0
  0
VISUALSTYLE
  5
C8
102
{ACAD_XDICTIONARY
360
183
102
}
102
{ACAD_REACTORS
330
C3
102
}
330
C3
100
AcDbVisualStyle
  2
Basic
 70
     7
177
     2
291
     1
 71
     1
176
     1
 72
     0
176
     1
 73
     1
176
     1
 90
        0
176
     1
 40
0.6
176
     1
 41
30.0
176
     1
 63
     7
421
 16777215
176
     1
 74
     0
176
     1
 91
        4
176
     1
 64
     7
176
     1
 65
   257
176
     1
 75
     1
176
     1
175
     1
176
     1
 42
1.0
176
     1
 92
        8
176
     1
 66
     7
176
     1
 43
1.0
176
     1
 76
     1
176
     1
 77
     6
176
     1
 78
     2
176
     1
 67
     7
176
     1
 79
     5
176
     1
170
     0
176
     1
171
     0
176
     1
290
     0
176
     1
 93
        1
176
     1
 44
0.0
176
     1
173
     0
176
     1
1001
ACAD
1000
AcDbSavedByObjectVersion
1070
     0
  0
VISUALSTYLE
  5
CF
102
{ACAD_XDICTIONARY
360
191
102
}
102
{ACAD_REACTORS
330
C3
102
}
330
C3
100
AcDbVisualStyle
  2
Brighten
 70
    12
177
     2
291
     1
 71
     2
176
     1
 72
     2
176
     1
 73
     0
176
     1
 90
        0
176
     1
 40
0.6
176
     1
 41
30.0
176
     1
 63
     7
421
 16777215
176
     1
 74
     1
176
     1
 91
        4
176
     1
 64
     7
176
     1
 65
   257
176
     1
 75
     1
176
     1
175
     1
176
     1
 42
1.0
176
     1
 92
        8
176
     1
 66
     7
176
     1
 43
1.0
176
     1
 76
     1
176
     1
 77
     6
176
     1
 78
     2
176
     1
 67
     7
176
     1
 79
     5
176
     1
170
     0
176
     1
171
     0
176
     1
290
     0
176
     1
 93
        1
176
     1
 44
50.0
176
     1
173
     0
176
     1
1001
ACAD
1000
AcDbSavedByObjectVersion
1070
     0
  0
VISUALSTYLE
  5
D3
102
{ACAD_XDICTIONARY
360
199
102
}
102
{ACAD_REACTORS
330
C3
102
}
330
C3
100
AcDbVisualStyle
  2
ColorChange
 70
    16
177
     2
291
     1
 71
     2
176
     1
 72
     2
176
     1
 73
     3
176
     1
 90
        0
176
     1
 40
0.6
176
     1
 41
30.0
176
     1
 63
     8
421
  8421504
176
     1
 74
     1
176
     1
 91
        4
176
     1
 64
     7
176
     1
 65
   257
176
     1
 75
     1
176
     1
175
     1
176
     1
 42
1.0
176
     1
 92
        8
176
     1
 66
     8
424
  8421504
176
     1
 43
1.0
176
     1
 76
     1
176
     1
 77
     6
176
     1
 78
     2
176
     1
 67
     7
176
     1
 79
     5
176
     1
170
     0
176
     1
171
     0
176
     1
290
     0
176
     1
 93
        1
176
     1
 44
0.0
176
     1
173
     0
176
     1
1001
ACAD
1000
AcDbSavedByObjectVersion
1070
     0
  0
VISUALSTYLE
  5
CC
102
{ACAD_XDICTIONARY
360
18B
102
}
102
{ACAD_REACTORS
330
C3
102
}
330
C3
100
AcDbVisualStyle
  2
Conceptual
 70
     9
177
     2
291
     0
 71
     3
176
     1
 72
     2
176
     1
 73
     0
176
     1
 90
        0
176
     1
 40
0.6
176
     1
 41
30.0
176
     1
 63
     7
421
 16777215
176
     1
 74
     2
176
     1
 91
        2
176
     1
 64
     7
176
     1
 65
   257
176
     1
 75
     1
176
     1
175
     1
176
     1
 42
179.0
176
     1
 92
        8
176
     1
 66
     7
176
     1
 43
1.0
176
     1
 76
     1
176
     1
 77
     6
176
     1
 78
     2
176
     1
 67
     7
176
     1
 79
     3
176
     1
170
     0
176
     1
171
     0
176
     1
290
     0
176
     1
 93
        1
176
     1
 44
0.0
176
     1
173
     0
176
     1
1001
ACAD
1000
AcDbSavedByObjectVersion
1070
     0
  0
VISUALSTYLE
  5
CE
102
{ACAD_XDICTIONARY
360
18F
102
}
102
{ACAD_REACTORS
330
C3
102
}
330
C3
100
AcDbVisualStyle
  2
Dim
 70
    11
177
     2
291
     1
 71
     2
176
     1
 72
     2
176
     1
 73
     0
176
     1
 90
        0
176
     1
 40
0.6
176
     1
 41
30.0
176
     1
 63
     7
421
 16777215
176
     1
 74
     1
176
     1
 91
        4
176
     1
 64
     7
176
     1
 65
   257
176
     1
 75
     1
176
     1
175
     1
176
     1
 42
1.0
176
     1
 92
        8
176
     1
 66
     7
176
     1
 43
1.0
176
     1
 76
     1
176
     1
 77
     6
176
     1
 78
     2
176
     1
 67
     7
176
     1
 79
     5
176
     1
170
     0
176
     1
171
     0
176
     1
290
     0
176
     1
 93
        1
176
     1
 44
-50.0
176
     1
173
     0
176
     1
1001
ACAD
1000
AcDbSavedByObjectVersion
1070
     0
  0
VISUALSTYLE
  5
DB
102
{ACAD_XDICTIONARY
360
1A9
102
}
102
{ACAD_REACTORS
330
C3
102
}
330
C3
100
AcDbVisualStyle
  2
EdgeColorOff
 70
    22
177
     2
291
     1
 71
     2
176
     0
 72
     2
176
     0
 73
     0
176
     0
 90
        0
176
     0
 40
0.6
176
     0
 41
30.0
176
     0
 63
     7
421
 16777215
176
     0
 74
     1
176
     0
 91
        4
176
     0
 64
     7
176
     0
 65
   257
176
     0
 75
     1
176
     0
175
     1
176
     0
 42
1.0
176
     0
 92
        8
176
     2
 66
     7
176
     0
 43
1.0
176
     0
 76
     1
176
     0
 77
     6
176
     0
 78
     2
176
     0
 67
     7
176
     0
 79
     5
176
     0
170
     0
176
     0
171
     0
176
     0
290
     0
176
     0
 93
        1
176
     0
 44
0.0
176
     0
173
     0
176
     0
1001
ACAD
1000
AcDbSavedByObjectVersion
1070
     0
  0
VISUALSTYLE
  5
D2
102
{ACAD_XDICTIONARY
360
197
102
}
102
{ACAD_REACTORS
330
C3
102
}
330
C3
100
AcDbVisualStyle
  2
Facepattern
 70
    15
177
     2
291
     1
 71
     2
176
     1
 72
     2
176
     1
 73
     0
176
     1
 90
        0
176
     1
 40
0.6
176
     1
 41
30.0
176
     1
 63
     7
421
 16777215
176
     1
 74
     1
176
     1
 91
        4
176
     1
 64
     7
176
     1
 65
   257
176
     1
 75
     1
176
     1
175
     1
176
     1
 42
1.0
176
     1
 92
        8
176
     1
 66
     7
176
     1
 43
1.0
176
     1
 76
     1
176
     1
 77
     6
176
     1
 78
     2
176
     1
 67
     7
176
     1
 79
     5
176
     1
170
     0
176
     1
171
     0
176
     1
290
     0
176
     1
 93
        1
176
     1
 44
0.0
176
     1
173
     0
176
     1
1001
ACAD
1000
AcDbSavedByObjectVersion
1070
     0
  0
VISUALSTYLE
  5
C4
102
{ACAD_XDICTIONARY
360
17B
102
}
102
{ACAD_REACTORS
330
C3
102
}
330
C3
100
AcDbVisualStyle
  2
Flat
 70
     0
177
     2
291
     1
 71
     2
176
     1
 72
     1
176
     1
 73
     1
176
     1
 90
        2
176
     1
 40
0.6
176
     1
 41
30.0
176
     1
 63
     7
421
 16777215
176
     1
 74
     0
176
     1
 91
        0
176
     1
 64
     7
176
     1
 65
   257
176
     1
 75
     1
176
     1
175
     1
176
     1
 42
1.0
176
     1
 92
        8
176
     1
 66
     7
176
     1
 43
1.0
176
     1
 76
     1
176
     1
 77
     6
176
     1
 78
     2
176
     1
 67
     7
176
     1
 79
     5
176
     1
170
     0
176
     1
171
     0
176
     1
290
     0
176
     1
 93
       13
176
     1
 44
0.0
176
     1
173
     0
176
     1
1001
ACAD
1000
AcDbSavedByObjectVersion
1070
     0
  0
VISUALSTYLE
  5
C5
102
{ACAD_XDICTIONARY
360
17D
102
}
102
{ACAD_REACTORS
330
C3
102
}
330
C3
100
AcDbVisualStyle
  2
FlatWithEdges
 70
     1
177
     2
291
     1
 71
     2
176
     1
 72
     1
176
     1
 73
     1
176
     1
 90
        2
176
     1
 40
0.6
176
     1
 41
30.0
176
     1
 63
     7
421
 16777215
176
     1
 74
     1
176
     1
 91
        0
176
     1
 64
     7
176
     1
 65
   257
176
     1
 75
     1
176
     1
175
     1
176
     1
 42
1.0
176
     1
 92
        0
176
     1
 66
   257
176
     1
 43
1.0
176
     1
 76
     1
176
     1
 77
     6
176
     1
 78
     2
176
     1
 67
     7
176
     1
 79
     5
176
     1
170
     0
176
     1
171
     0
176
     1
290
     0
176
     1
 93
       13
176
     1
 44
0.0
176
     1
173
     0
176
     1
1001
ACAD
1000
AcDbSavedByObjectVersion
1070
     0
  0
VISUALSTYLE
  5
C6
102
{ACAD_XDICTIONARY
360
17F
102
}
102
{ACAD_REACTORS
330
C3
102
}
330
C3
100
AcDbVisualStyle
  2
Gouraud
 70
     2
177
     2
291
     1
 71
     2
176
     1
 72
     2
176
     1
 73
     1
176
     1
 90
        2
176
     1
 40
0.6
176
     1
 41
30.0
176
     1
 63
     7
421
 16777215
176
     1
 74
     0
176
     1
 91
        0
176
     1
 64
     7
176
     1
 65
   257
176
     1
 75
     1
176
     1
175
     1
176
     1
 42
1.0
176
     1
 92
        0
176
     1
 66
     7
176
     1
 43
1.0
176
     1
 76
     1
176
     1
 77
     6
176
     1
 78
     2
176
     1
 67
     7
176
     1
 79
     5
176
     1
170
     0
176
     1
171
     0
176
     1
290
     0
176
     1
 93
       13
176
     1
 44
0.0
176
     1
173
     0
176
     1
1001
ACAD
1000
AcDbSavedByObjectVersion
1070
     0
  0
VISUALSTYLE
  5
C7
102
{ACAD_XDICTIONARY
360
181
102
}
102
{ACAD_REACTORS
330
C3
102
}
330
C3
100
AcDbVisualStyle
  2
GouraudWithEdges
 70
     3
177
     2
291
     1
 71
     2
176
     1
 72
     2
176
     1
 73
     1
176
     1
 90
        2
176
     1
 40
0.6
176
     1
 41
30.0
176
     1
 63
     7
421
 16777215
176
     1
 74
     1
176
     1
 91
        0
176
     1
 64
     7
176
     1
 65
   257
176
     1
 75
     1
176
     1
175
     1
176
     1
 42
1.0
176
     1
 92
        0
176
     1
 66
   257
176
     1
 43
1.0
176
     1
 76
     1
176
     1
 77
     6
176
     1
 78
     2
176
     1
 67
     7
176
     1
 79
     5
176
     1
170
     0
176
     1
171
     0
176
     1
290
     0
176
     1
 93
       13
176
     1
 44
0.0
176
     1
173
     0
176
     1
1001
ACAD
1000
AcDbSavedByObjectVersion
1070
     0
  0
VISUALSTYLE
  5
CB
102
{ACAD_XDICTIONARY
360
189
102
}
102
{ACAD_REACTORS
330
C3
102
}
330
C3
100
AcDbVisualStyle
  2
Hidden
 70
     6
177
     2
291
     0
 71
     1
176
     1
 72
     2
176
     1
 73
     2
176
     1
 90
        0
176
     1
 40
0.6
176
     1
 41
30.0
176
     1
 63
     7
421
 16777215
176
     1
 74
     2
176
     1
 91
        2
176
     1
 64
     7
176
     1
 65
   257
176
     1
 75
     2
176
     1
175
     1
176
     1
 42
40.0
176
     1
 92
        0
176
     1
 66
   257
176
     1
 43
1.0
176
     1
 76
     1
176
     1
 77
     6
176
     1
 78
     2
176
     1
 67
     7
176
     1
 79
     3
176
     1
170
     0
176
     1
171
     0
176
     1
290
     0
176
     1
 93
        1
176
     1
 44
0.0
176
     1
173
     0
176
     1
1001
ACAD
1000
AcDbSavedByObjectVersion
1070
     0
  0
VISUALSTYLE
  5
D9
102
{ACAD_XDICTIONARY
360
1A5
102
}
102
{ACAD_REACTORS
330
C3
102
}
330
C3
100
AcDbVisualStyle
  2
JitterOff
 70
    20
177
     2
291
     1
 71
     2
176
     0
 72
     2
176
     0
 73
     0
176
     0
 90
        0
176
     0
 40
0.6
176
     0
 41
30.0
176
     0
 63
     7
421
 16777215
176
     0
 74
     1
176
     0
 91
        4
176
     0
 64
     7
176
     0
 65
   257
176
     0
 75
     1
176
     0
175
     1
176
     0
 42
1.0
176
     0
 92
       10
176
     2
 66
     7
176
     0
 43
1.0
176
     0
 76
     1
176
     0
 77
     6
176
     0
 78
     2
176
     0
 67
     7
176
     0
 79
     5
176
     0
170
     0
176
     0
171
     0
176
     0
290
     0
176
     0
 93
        1
176
     0
 44
0.0
176
     0
173
     0
176
     0
1001
ACAD
1000
AcDbSavedByObjectVersion
1070
     0
  0
VISUALSTYLE
  5
D1
102
{ACAD_XDICTIONARY
360
195
102
}
102
{ACAD_REACTORS
330
C3
102
}
330
C3
100
AcDbVisualStyle
  2
Linepattern
 70
    14
177
     2
291
     1
 71
     2
176
     1
 72
     2
176
     1
 73
     0
176
     1
 90
        0
176
     1
 40
0.6
176
     1
 41
30.0
176
     1
 63
     7
421
 16777215
176
     1
 74
     1
176
     1
 91
        4
176
     1
 64
     7
176
     1
 65
   257
176
     1
 75
     7
176
     1
175
     7
176
     1
 42
1.0
176
     1
 92
        8
176
     1
 66
     7
176
     1
 43
1.0
176
     1
 76
     1
176
     1
 77
     6
176
     1
 78
     2
176
     1
 67
     7
176
     1
 79
     5
176
     1
170
     0
176
     1
171
     0
176
     1
290
     0
176
     1
 93
        1
176
     1
 44
0.0
176
     1
173
     0
176
     1
1001
ACAD
1000
AcDbSavedByObjectVersion
1070
     0
  0
VISUALSTYLE
  5
DA
102
{ACAD_XDICTIONARY
360
1A7
102
}
102
{ACAD_REACTORS
330
C3
102
}
330
C3
100
AcDbVisualStyle
  2
OverhangOff
 70
    21
177
     2
291
     1
 71
     2
176
     0
 72
     2
176
     0
 73
     0
176
     0
 90
        0
176
     0
 40
0.6
176
     0
 41
30.0
176
     0
 63
     7
421
 16777215
176
     0
 74
     1
176
     0
 91
        4
176
     0
 64
     7
176
     0
 65
   257
176
     0
 75
     1
176
     0
175
     1
176
     0
 42
1.0
176
     0
 92
        9
176
     2
 66
     7
176
     0
 43
1.0
176
     0
 76
     1
176
     0
 77
     6
176
     0
 78
     2
176
     0
 67
     7
176
     0
 79
     5
176
     0
170
     0
176
     0
171
     0
176
     0
290
     0
176
     0
 93
        1
176
     0
 44
0.0
176
     0
173
     0
176
     0
1001
ACAD
1000
AcDbSavedByObjectVersion
1070
     0
  0
VISUALSTYLE
  5
CD
102
{ACAD_XDICTIONARY
360
18D
102
}
102
{ACAD_REACTORS
330
C3
102
}
330
C3
100
AcDbVisualStyle
  2
Realistic
 70
     8
177
     2
291
     0
 71
     2
176
     1
 72
     3
176
     1
 73
     0
176
     1
 90
        2
176
     1
 40
0.6
176
     1
 41
30.0
176
     1
 63
     7
421
 16777215
176
     1
 74
     0
176
     1
 91
        0
176
     1
 64
     7
176
     1
 65
   257
176
     1
 75
     1
176
     1
175
     1
176
     1
 42
1.0
176
     1
 92
        8
176
     1
 66
   257
176
     1
 43
1.0
176
     1
 76
     1
176
     1
 77
     6
176
     1
 78
     2
176
     1
 67
     7
176
     1
 79
     3
176
     1
170
     0
176
     1
171
     0
176
     1
290
     0
176
     1
 93
       13
176
     1
 44
0.0
176
     1
173
     0
176
     1
1001
ACAD
1000
AcDbSavedByObjectVersion
1070
     0
  0
VISUALSTYLE
  5
D8
102
{ACAD_XDICTIONARY
360
1A3
102
}
102
{ACAD_REACTORS
330
C3
102
}
330
C3
100
AcDbVisualStyle
  2
Shaded
 70
    27
177
     2
291
     0
 71
     2
176
     1
 72
     2
176
     1
 73
     1
176
     1
 90
        2
176
     1
 40
0.6
176
     1
 41
30.0
176
     1
 63
     7
421
 16777215
176
     1
 74
     0
176
     1
 91
        4
176
     1
 64
     7
176
     1
 65
   257
176
     1
 75
     1
176
     1
175
     1
176
     1
 42
1.0
176
     1
 92
        8
176
     1
 66
   257
176
     1
 43
1.0
176
     1
 76
     1
176
     1
 77
     6
176
     1
 78
     2
176
     1
 67
     8
425
  7895160
176
     1
 79
     3
176
     1
170
     0
176
     1
171
     0
176
     1
290
     0
176
     1
 93
        5
176
     1
 44
0.0
176
     1
173
     0
176
     1
1001
ACAD
1000
AcDbSavedByObjectVersion
1070
     0
  0
VISUALSTYLE
  5
D7
102
{ACAD_XDICTIONARY
360
1A1
102
}
102
{ACAD_REACTORS
330
C3
102
}
330
C3
100
AcDbVisualStyle
  2
Shaded with edges
 70
    26
177
     2
291
     0
 71
     2
176
     1
 72
     2
176
     1
 73
     1
176
     1
 90
        2
176
     1
 40
0.6
176
     1
 41
30.0
176
     1
 63
     7
421
 16777215
176
     1
 74
     1
176
     1
 91
       10
176
     1
 64
     7
176
     1
 65
   257
176
     1
 75
     2
176
     1
175
     1
176
     1
 42
1.0
176
     1
 92
        8
176
     1
 66
   257
176
     1
 43
1.0
176
     1
 76
     1
176
     1
 77
     6
176
     1
 78
     2
176
     1
 67
     7
176
     1
 79
     3
176
     1
170
     0
176
     1
171
     0
176
     1
290
     0
176
     1
 93
        5
176
     1
 44
0.0
176
     1
173
     0
176
     1
1001
ACAD
1000
AcDbSavedByObjectVersion
1070
     0
  0
VISUALSTYLE
  5
D4
102
{ACAD_XDICTIONARY
360
19B
102
}
102
{ACAD_REACTORS
330
C3
102
}
330
C3
100
AcDbVisualStyle
  2
Shades of Gray
 70
    23
177
     2
291
     0
 71
     2
176
     1
 72
     2
176
     1
 73
     3
176
     1
 90
        0
176
     1
 40
0.6
176
     1
 41
30.0
176
     1
 63
     7
421
 16777215
176
     1
 74
     2
176
     1
 91
        2
176
     1
 64
     7
176
     1
 65
     7
176
     1
 75
     1
176
     1
175
     1
176
     1
 42
40.0
176
     1
 92
        8
176
     1
 66
     7
176
     1
 43
1.0
176
     1
 76
     1
176
     1
 77
     6
176
     1
 78
     2
176
     1
 67
     7
176
     1
 79
     3
176
     1
170
     0
176
     1
171
     0
176
     1
290
     0
176
     1
 93
        1
176
     1
 44
0.0
176
     1
173
     0
176
     1
1001
ACAD
1000
AcDbSavedByObjectVersion
1070
     0
  0
VISUALSTYLE
  5
D5
102
{ACAD_XDICTIONARY
360
19D
102
}
102
{ACAD_REACTORS
330
C3
102
}
330
C3
100
AcDbVisualStyle
  2
Sketchy
 70
    24
177
     2
291
     0
 71
     1
176
     1
 72
     2
176
     1
 73
     2
176
     1
 90
        0
176
     1
 40
0.6
176
     1
 41
30.0
176
     1
 63
     7
421
 16777215
176
     1
 74
     2
176
     1
 91
        2
176
     1
 64
     7
176
     1
 65
     7
176
     1
 75
     1
176
     1
175
     1
176
     1
 42
40.0
176
     1
 92
       11
176
     1
 66
     7
176
     1
 43
1.0
176
     1
 76
     1
176
     1
 77
     6
176
     1
 78
     2
176
     1
 67
     7
176
     1
 79
     6
176
     1
170
     0
176
     1
171
     0
176
     1
290
     0
176
     1
 93
        1
176
     1
 44
0.0
176
     1
173
     0
176
     1
1001
ACAD
1000
AcDbSavedByObjectVersion
1070
     0
  0
VISUALSTYLE
  5
D0
102
{ACAD_XDICTIONARY
360
193
102
}
102
{ACAD_REACTORS
330
C3
102
}
330
C3
100
AcDbVisualStyle
  2
Thicken
 70
    13
177
     2
291
     1
 71
     2
176
     1
 72
     2
176
     1
 73
     0
176
     1
 90
        0
176
     1
 40
0.6
176
     1
 41
30.0
176
     1
 63
     7
421
 16777215
176
     1
 74
     1
176
     1
 91
        4
176
     1
 64
     7
176
     1
 65
   257
176
     1
 75
     1
176
     1
175
     1
176
     1
 42
1.0
176
     1
 92
       12
176
     1
 66
     7
176
     1
 43
1.0
176
     1
 76
     1
176
     1
 77
     6
176
     1
 78
     2
176
     1
 67
     7
176
     1
 79
     5
176
     1
170
     0
176
     1
171
     0
176
     1
290
     0
176
     1
 93
        1
176
     1
 44
0.0
176
     1
173
     0
176
     1
1001
ACAD
1000
AcDbSavedByObjectVersion
1070
     0
  0
VISUALSTYLE
  5
CA
102
{ACAD_XDICTIONARY
360
187
102
}
102
{ACAD_REACTORS
330
C3
102
}
330
C3
100
AcDbVisualStyle
  2
Wireframe
 70
     5
177
     2
291
     0
 71
     0
176
     1
 72
     2
176
     1
 73
     0
176
     1
 90
        0
176
     1
 40
0.6
176
     1
 41
30.0
176
     1
 63
     7
421
 16777215
176
     1
 74
     1
176
     1
 91
        4
176
     1
 64
     7
176
     1
 65
   257
176
     1
 75
     1
176
     1
175
     1
176
     1
 42
1.0
176
     1
 92
        0
176
     1
 66
   257
176
     1
 43
1.0
176
     1
 76
     1
176
     1
 77
     6
176
     1
 78
     2
176
     1
 67
     7
176
     1
 79
     3
176
     1
170
     0
176
     1
171
     0
176
     1
290
     0
176
     1
 93
        1
176
     1
 44
0.0
176
     1
173
     0
176
     1
1001
ACAD
1000
AcDbSavedByObjectVersion
1070
     0
  0
VISUALSTYLE
  5
D6
102
{ACAD_XDICTIONARY
360
19F
102
}
102
{ACAD_REACTORS
330
C3
102
}
330
C3
100
AcDbVisualStyle
  2
X-Ray
 70
    25
177
     2
291
     0
 71
     2
176
     1
 72
     2
176
     1
 73
     1
176
     1
 90
        1
176
     1
 40
0.5
176
     1
 41
30.0
176
     1
 63
     7
421
 16777215
176
     1
 74
     1
176
     1
 91
        0
176
     1
 64
     7
176
     1
 65
   257
176
     1
 75
     1
176
     1
175
     1
176
     1
 42
1.0
176
     1
 92
        8
176
     1
 66
     7
176
     1
 43
1.0
176
     1
 76
     1
176
     1
 77
     6
176
     1
 78
     2
176
     1
 67
     7
176
     1
 79
     3
176
     1
170
     0
176
     1
171
     0
176
     1
290
     0
176
     1
 93
       13
176
     1
 44
0.0
176
     1
173
     0
176
     1
1001
ACAD
1000
AcDbSavedByObjectVersion
1070
     0
  0
DICTIONARYVAR
  5
174
102
{ACAD_REACTORS
330
16E
102
}
330
16E
100
DictionaryVariables
280
     0
  1
1:1
  0
DICTIONARYVAR
  5
170
102
{ACAD_REACTORS
330
16E
102
}
330
16E
100
DictionaryVariables
280
     0
  1
STANDARD
  0
DICTIONARYVAR
  5
16F
102
{ACAD_REACTORS
330
16E
102
}
330
16E
100
DictionaryVariables
280
     0
  1
STANDARD
  0
DICTIONARYVAR
  5
171
102
{ACAD_REACTORS
330
16E
102
}
330
16E
100
DictionaryVariables
280
     0
  1
Imperial24
  0
DICTIONARYVAR
  5
172
102
{ACAD_REACTORS
330
16E
102
}
330
16E
100
DictionaryVariables
280
     0
  1
Imperial24
  0
DICTIONARYVAR
  5
176
102
{ACAD_REACTORS
330
16E
102
}
330
16E
100
DictionaryVariables
280
     0
  1
1
  0
DICTIONARYVAR
  5
177
102
{ACAD_REACTORS
330
16E
102
}
330
16E
100
DictionaryVariables
280
     0
  1
15
  0
DICTIONARYVAR
  5
175
102
{ACAD_REACTORS
330
16E
102
}
330
16E
100
DictionaryVariables
280
     0
  1
0
  0
DICTIONARYVAR
  5
173
102
{ACAD_REACTORS
330
16E
102
}
330
16E
100
DictionaryVariables
280
     0
  1
0
  0
DICTIONARY
  5
1AF
330
F6
100
AcDbDictionary
280
     1
281
     1
  3
ACAD_XREC_ROUNDTRIP
360
1B0
  0
DICTIONARY
  5
B4
330
B3
100
AcDbDictionary
280
     1
281
     1
  3
BUMPTILE
360
B6
  3
DIFFUSETILE
360
B5
  3
OPACITYTILE
360
B9
  3
REFLECTIONTILE
360
B8
  3
REFRACTIONTILE
360
BA
  3
SPECULARTILE
360
B7
  0
DICTIONARY
  5
AC
330
AB
100
AcDbDictionary
280
     1
281
     1
  3
BUMPTILE
360
AE
  3
DIFFUSETILE
360
AD
  3
OPACITYTILE
360
B1
  3
REFLECTIONTILE
360
B0
  3
REFRACTIONTILE
360
B2
  3
SPECULARTILE
360
AF
  0
DICTIONARY
  5
BC
330
BB
100
AcDbDictionary
280
     1
281
     1
  3
BUMPTILE
360
BE
  3
DIFFUSETILE
360
BD
  3
OPACITYTILE
360
C1
  3
REFLECTIONTILE
360
C0
  3
REFRACTIONTILE
360
C2
  3
SPECULARTILE
360
BF
  0
DICTIONARY
  5
1AB
330
F2
100
AcDbDictionary
280
     1
281
     1
  3
ACAD_XREC_ROUNDTRIP
360
1AC
  0
DICTIONARY
  5
1AD
330
F4
100
AcDbDictionary
280
     1
281
     1
  3
ACAD_XREC_ROUNDTRIP
360
1AE
  0
DICTIONARY
  5
178
330
DE
100
AcDbDictionary
280
     1
281
     1
  3
ACAD_ROUNDTRIP_2008_TABLESTYLE_CELLSTYLEMAP
360
179
  0
DICTIONARY
  5
185
330
C9
100
AcDbDictionary
280
     1
281
     1
  3
ACAD_XREC_ROUNDTRIP
360
186
  0
DICTIONARY
  5
183
330
C8
100
AcDbDictionary
280
     1
281
     1
  3
ACAD_XREC_ROUNDTRIP
360
184
  0
DICTIONARY
  5
191
330
CF
100
AcDbDictionary
280
     1
281
     1
  3
ACAD_XREC_ROUNDTRIP
360
192
  0
DICTIONARY
  5
199
330
D3
100
AcDbDictionary
280
     1
281
     1
  3
ACAD_XREC_ROUNDTRIP
360
19A
  0
DICTIONARY
  5
18B
330
CC
100
AcDbDictionary
280
     1
281
     1
  3
ACAD_XREC_ROUNDTRIP
360
18C
  0
DICTIONARY
  5
18F
330
CE
100
AcDbDictionary
280
     1
281
     1
  3
ACAD_XREC_ROUNDTRIP
360
190
  0
DICTIONARY
  5
1A9
330
DB
100
AcDbDictionary
280
     1
281
     1
  3
ACAD_XREC_ROUNDTRIP
360
1AA
  0
DICTIONARY
  5
197
330
D2
100
AcDbDictionary
280
     1
281
     1
  3
ACAD_XREC_ROUNDTRIP
360
198
  0
DICTIONARY
  5
17B
330
C4
100
AcDbDictionary
280
     1
281
     1
  3
ACAD_XREC_ROUNDTRIP
360
17C
  0
DICTIONARY
  5
17D
330
C5
100
AcDbDictionary
280
     1
281
     1
  3
ACAD_XREC_ROUNDTRIP
360
17E
  0
DICTIONARY
  5
17F
330
C6
100
AcDbDictionary
280
     1
281
     1
  3
ACAD_XREC_ROUNDTRIP
360
180
  0
DICTIONARY
  5
181
330
C7
100
AcDbDictionary
280
     1
281
     1
  3
ACAD_XREC_ROUNDTRIP
360
182
  0
DICTIONARY
  5
189
330
CB
100
AcDbDictionary
280
     1
281
     1
  3
ACAD_XREC_ROUNDTRIP
360
18A
  0
DICTIONARY
  5
1A5
330
D9
100
AcDbDictionary
280
     1
281
     1
  3
ACAD_XREC_ROUNDTRIP
360
1A6
  0
DICTIONARY
  5
195
330
D1
100
AcDbDictionary
280
     1
281
     1
  3
ACAD_XREC_ROUNDTRIP
360
196
  0
DICTIONARY
  5
1A7
330
DA
100
AcDbDictionary
280
     1
281
     1
  3
ACAD_XREC_ROUNDTRIP
360
1A8
  0
DICTIONARY
  5
18D
330
CD
100
AcDbDictionary
280
     1
281
     1
  3
ACAD_XREC_ROUNDTRIP
360
18E
  0
DICTIONARY
  5
1A3
330
D8
100
AcDbDictionary
280
     1
281
     1
  3
ACAD_XREC_ROUNDTRIP
360
1A4
  0
DICTIONARY
  5
1A1
330
D7
100
AcDbDictionary
280
     1
281
     1
  3
ACAD_XREC_ROUNDTRIP
360
1A2
  0
DICTIONARY
  5
19B
330
D4
100
AcDbDictionary
280
     1
281
     1
  3
ACAD_XREC_ROUNDTRIP
360
19C
  0
DICTIONARY
  5
19D
330
D5
100
AcDbDictionary
280
     1
281
     1
  3
ACAD_XREC_ROUNDTRIP
360
19E
  0
DICTIONARY
  5
193
330
D0
100
AcDbDictionary
280
     1
281
     1
  3
ACAD_XREC_ROUNDTRIP
360
194
  0
DICTIONARY
  5
187
330
CA
100
AcDbDictionary
280
     1
281
     1
  3
ACAD_XREC_ROUNDTRIP
360
188
  0
DICTIONARY
  5
19F
330
D6
100
AcDbDictionary
280
     1
281
     1
  3
ACAD_XREC_ROUNDTRIP
360
1A0
  0
XRECORD
  5
1B0
102
{ACAD_REACTORS
330
1AF
102
}
330
1AF
100
AcDbXrecord
280
     1
102
DISPLAYNAME
  1
Imperial24
102
FLAGS
 90
        0
  0
XRECORD
  5
B6
102
{ACAD_REACTORS
330
B4
102
}
330
B4
100
AcDbXrecord
280
     1
270
     1
271
     1
  0
XRECORD
  5
B5
102
{ACAD_REACTORS
330
B4
102
}
330
B4
100
AcDbXrecord
280
     1
270
     1
271
     1
  0
XRECORD
  5
B9
102
{ACAD_REACTORS
330
B4
102
}
330
B4
100
AcDbXrecord
280
     1
270
     1
271
     1
  0
XRECORD
  5
B8
102
{ACAD_REACTORS
330
B4
102
}
330
B4
100
AcDbXrecord
280
     1
270
     1
271
     1
  0
XRECORD
  5
BA
102
{ACAD_REACTORS
330
B4
102
}
330
B4
100
AcDbXrecord
280
     1
270
     1
271
     1
  0
XRECORD
  5
B7
102
{ACAD_REACTORS
330
B4
102
}
330
B4
100
AcDbXrecord
280
     1
270
     1
271
     1
  0
XRECORD
  5
AE
102
{ACAD_REACTORS
330
AC
102
}
330
AC
100
AcDbXrecord
280
     1
270
     1
271
     1
  0
XRECORD
  5
AD
102
{ACAD_REACTORS
330
AC
102
}
330
AC
100
AcDbXrecord
280
     1
270
     1
271
     1
  0
XRECORD
  5
B1
102
{ACAD_REACTORS
330
AC
102
}
330
AC
100
AcDbXrecord
280
     1
270
     1
271
     1
  0
XRECORD
  5
B0
102
{ACAD_REACTORS
330
AC
102
}
330
AC
100
AcDbXrecord
280
     1
270
     1
271
     1
  0
XRECORD
  5
B2
102
{ACAD_REACTORS
330
AC
102
}
330
AC
100
AcDbXrecord
280
     1
270
     1
271
     1
  0
XRECORD
  5
AF
102
{ACAD_REACTORS
330
AC
102
}
330
AC
100
AcDbXrecord
280
     1
270
     1
271
     1
  0
XRECORD
  5
BE
102
{ACAD_REACTORS
330
BC
102
}
330
BC
100
AcDbXrecord
280
     1
270
     1
271
     1
  0
XRECORD
  5
BD
102
{ACAD_REACTORS
330
BC
102
}
330
BC
100
AcDbXrecord
280
     1
270
     1
271
     1
  0
XRECORD
  5
C1
102
{ACAD_REACTORS
330
BC
102
}
330
BC
100
AcDbXrecord
280
     1
270
     1
271
     1
  0
XRECORD
  5
C0
102
{ACAD_REACTORS
330
BC
102
}
330
BC
100
AcDbXrecord
280
     1
270
     1
271
     1
  0
XRECORD
  5
C2
102
{ACAD_REACTORS
330
BC
102
}
330
BC
100
AcDbXrecord
280
     1
270
     1
271
     1
  0
XRECORD
  5
BF
102
{ACAD_REACTORS
330
BC
102
}
330
BC
100
AcDbXrecord
280
     1
270
     1
271
     1
  0
XRECORD
  5
1AC
102
{ACAD_REACTORS
330
1AB
102
}
330
1AB
100
AcDbXrecord
280
     1
102
ACAD_ROUNDTRIP_2012_MLEADER_STYLE
298
     1
  0
XRECORD
  5
1AE
102
{ACAD_REACTORS
330
1AD
102
}
330
1AD
100
AcDbXrecord
280
     1
102
DISPLAYNAME
  1
Imperial24
102
FLAGS
 90
        0
  0
CELLSTYLEMAP
  5
179
102
{ACAD_REACTORS
330
178
102
}
330
178
100
AcDbCellStyleMap
 90
        3
300
CELLSTYLE
  1
TABLEFORMAT_BEGIN
 90
        5
170
     1
 91
        0
 92
    32768
 62
   257
 93
        1
300
CONTENTFORMAT
  1
CONTENTFORMAT_BEGIN
 90
        0
 91
        0
 92
      512
 93
        0
300

 40
0.0
140
1.0
 94
        5
 62
     0
340
11
144
0.25
309
CONTENTFORMAT_END
171
     0
 94
        0
309
TABLEFORMAT_END
  1
CELLSTYLE_BEGIN
 90
        1
 91
        1
300
_TITLE
309
CELLSTYLE_END
300
CELLSTYLE
  1
TABLEFORMAT_BEGIN
 90
        5
170
     1
 91
        0
 92
        0
 62
   257
 93
        1
300
CONTENTFORMAT
  1
CONTENTFORMAT_BEGIN
 90
        0
 91
        0
 92
      512
 93
        0
300

 40
0.0
140
1.0
 94
        5
 62
     0
340
11
144
0.18
309
CONTENTFORMAT_END
171
     0
 94
        0
309
TABLEFORMAT_END
  1
CELLSTYLE_BEGIN
 90
        2
 91
        1
300
_HEADER
309
CELLSTYLE_END
300
CELLSTYLE
  1
TABLEFORMAT_BEGIN
 90
        5
170
     1
 91
        0
 92
        0
 62
   257
 93
        1
300
CONTENTFORMAT
  1
CONTENTFORMAT_BEGIN
 90
        0
 91
        0
 92
      512
 93
        0
300

 40
0.0
140
1.0
 94
        2
 62
     0
340
11
144
0.18
309
CONTENTFORMAT_END
171
     0
 94
        0
309
TABLEFORMAT_END
  1
CELLSTYLE_BEGIN
 90
        3
 91
        2
300
_DATA
309
CELLSTYLE_END
  0
XRECORD
  5
186
102
{ACAD_REACTORS
330
185
102
}
330
185
100
AcDbXrecord
280
     1
102
RTVSPost2010Prop28
280
     1
102
RTVSPost2010PropOp28
 70
     1
102
RTVSPost2010Prop29
280
     1
102
RTVSPost2010PropOp29
 70
     1
102
RTVSPost2010Prop30
280
     0
102
RTVSPost2010PropOp30
 70
     1
102
RTVSPost2010Prop31
280
     0
102
RTVSPost2010PropOp31
 70
     1
102
RTVSPost2010Prop32
280
     0
102
RTVSPost2010PropOp32
 70
     1
102
RTVSPost2010Prop33
280
     0
102
RTVSPost2010PropOp33
 70
     1
102
RTVSPost2010Prop34
280
     0
102
RTVSPost2010PropOp34
 70
     1
102
RTVSPost2010Prop35
280
     0
102
RTVSPost2010PropOp35
 70
     1
102
RTVSPost2010Prop36
280
     0
102
RTVSPost2010PropOp36
 70
     1
102
RTVSPost2010Prop37
 90
       50
102
RTVSPost2010PropOp37
 70
     1
102
RTVSPost2010Prop38
140
0.0
102
RTVSPost2010PropOp38
 70
     1
102
RTVSPost2010Prop39
140
1.0
102
RTVSPost2010PropOp39
 70
     1
102
RTVSPost2010Prop40
 90
        0
102
RTVSPost2010PropOp40
 70
     1
102
RTVSPost2010Prop41ColorIndex
 90
       18
102
RTVSPost2010Prop41ColorRGB
 90
        0
102
RTVSPost2010PropOp41
 70
     1
102
RTVSPost2010Prop42
 90
       50
102
RTVSPost2010PropOp42
 70
     1
102
RTVSPost2010Prop43
 90
        3
102
RTVSPost2010PropOp43
 70
     1
102
RTVSPost2010Prop44ColorIndex
 90
        5
102
RTVSPost2010Prop44ColorRGB
 90
      255
102
RTVSPost2010PropOp44
 70
     1
102
RTVSPost2010Prop45
280
     0
102
RTVSPost2010PropOp45
 70
     1
102
RTVSPost2010Prop46
 90
       50
102
RTVSPost2010PropOp46
 70
     1
102
RTVSPost2010Prop47
 90
       50
102
RTVSPost2010PropOp47
 70
     1
102
RTVSPost2010Prop48
 90
       50
102
RTVSPost2010PropOp48
 70
     1
102
RTVSPost2010Prop49
280
     0
102
RTVSPost2010PropOp49
 70
     1
102
RTVSPost2010Prop50
 90
       50
102
RTVSPost2010PropOp50
 70
     1
102
RTVSPost2010Prop51ColorIndex
 90
      256
102
RTVSPost2010Prop51ColorRGB
 90
-16777216
102
RTVSPost2010PropOp51
 70
     0
102
RTVSPost2010Prop52
140
1.0
102
RTVSPost2010PropOp52
 70
     0
102
RTVSPost2010Prop53
 90
        2
102
RTVSPost2010PropOp53
 70
     1
102
RTVSPost2010Prop54
  1
strokes_ogs.tif
102
RTVSPost2010PropOp54
 70
     1
102
RTVSPost2010Prop55
280
     0
102
RTVSPost2010PropOp55
 70
     1
102
RTVSPost2010Prop56
140
1.0
102
RTVSPost2010PropOp56
 70
     1
102
RTVSPost2010Prop57
140
1.0
102
RTVSPost2010PropOp57
 70
     1
  0
XRECORD
  5
184
102
{ACAD_REACTORS
330
183
102
}
330
183
100
AcDbXrecord
280
     1
102
RTVSPost2010Prop28
280
     0
102
RTVSPost2010PropOp28
 70
     1
102
RTVSPost2010Prop29
280
     1
102
RTVSPost2010PropOp29
 70
     1
102
RTVSPost2010Prop30
280
     1
102
RTVSPost2010PropOp30
 70
     1
102
RTVSPost2010Prop31
280
     0
102
RTVSPost2010PropOp31
 70
     1
102
RTVSPost2010Prop32
280
     0
102
RTVSPost2010PropOp32
 70
     1
102
RTVSPost2010Prop33
280
     0
102
RTVSPost2010PropOp33
 70
     1
102
RTVSPost2010Prop34
280
     0
102
RTVSPost2010PropOp34
 70
     1
102
RTVSPost2010Prop35
280
     0
102
RTVSPost2010PropOp35
 70
     1
102
RTVSPost2010Prop36
280
     0
102
RTVSPost2010PropOp36
 70
     1
102
RTVSPost2010Prop37
 90
       50
102
RTVSPost2010PropOp37
 70
     1
102
RTVSPost2010Prop38
140
0.0
102
RTVSPost2010PropOp38
 70
     1
102
RTVSPost2010Prop39
140
1.0
102
RTVSPost2010PropOp39
 70
     1
102
RTVSPost2010Prop40
 90
        0
102
RTVSPost2010PropOp40
 70
     1
102
RTVSPost2010Prop41ColorIndex
 90
       18
102
RTVSPost2010Prop41ColorRGB
 90
        0
102
RTVSPost2010PropOp41
 70
     1
102
RTVSPost2010Prop42
 90
       50
102
RTVSPost2010PropOp42
 70
     1
102
RTVSPost2010Prop43
 90
        3
102
RTVSPost2010PropOp43
 70
     1
102
RTVSPost2010Prop44ColorIndex
 90
        5
102
RTVSPost2010Prop44ColorRGB
 90
      255
102
RTVSPost2010PropOp44
 70
     1
102
RTVSPost2010Prop45
280
     0
102
RTVSPost2010PropOp45
 70
     1
102
RTVSPost2010Prop46
 90
       50
102
RTVSPost2010PropOp46
 70
     1
102
RTVSPost2010Prop47
 90
       50
102
RTVSPost2010PropOp47
 70
     1
102
RTVSPost2010Prop48
 90
       50
102
RTVSPost2010PropOp48
 70
     1
102
RTVSPost2010Prop49
280
     0
102
RTVSPost2010PropOp49
 70
     1
102
RTVSPost2010Prop50
 90
       50
102
RTVSPost2010PropOp50
 70
     1
102
RTVSPost2010Prop51ColorIndex
 90
      256
102
RTVSPost2010Prop51ColorRGB
 90
-16777216
102
RTVSPost2010PropOp51
 70
     0
102
RTVSPost2010Prop52
140
1.0
102
RTVSPost2010PropOp52
 70
     0
102
RTVSPost2010Prop53
 90
        2
102
RTVSPost2010PropOp53
 70
     1
102
RTVSPost2010Prop54
  1
strokes_ogs.tif
102
RTVSPost2010PropOp54
 70
     1
102
RTVSPost2010Prop55
280
     0
102
RTVSPost2010PropOp55
 70
     1
102
RTVSPost2010Prop56
140
1.0
102
RTVSPost2010PropOp56
 70
     1
102
RTVSPost2010Prop57
140
1.0
102
RTVSPost2010PropOp57
 70
     1
  0
XRECORD
  5
192
102
{ACAD_REACTORS
330
191
102
}
330
191
100
AcDbXrecord
280
     1
102
RTVSPost2010Prop28
280
     0
102
RTVSPost2010PropOp28
 70
     1
102
RTVSPost2010Prop29
280
     1
102
RTVSPost2010PropOp29
 70
     1
102
RTVSPost2010Prop30
280
     1
102
RTVSPost2010PropOp30
 70
     1
102
RTVSPost2010Prop31
280
     0
102
RTVSPost2010PropOp31
 70
     1
102
RTVSPost2010Prop32
280
     0
102
RTVSPost2010PropOp32
 70
     1
102
RTVSPost2010Prop33
280
     0
102
RTVSPost2010PropOp33
 70
     1
102
RTVSPost2010Prop34
280
     0
102
RTVSPost2010PropOp34
 70
     1
102
RTVSPost2010Prop35
280
     0
102
RTVSPost2010PropOp35
 70
     1
102
RTVSPost2010Prop36
280
     0
102
RTVSPost2010PropOp36
 70
     1
102
RTVSPost2010Prop37
 90
       50
102
RTVSPost2010PropOp37
 70
     1
102
RTVSPost2010Prop38
140
0.0
102
RTVSPost2010PropOp38
 70
     1
102
RTVSPost2010Prop39
140
1.0
102
RTVSPost2010PropOp39
 70
     1
102
RTVSPost2010Prop40
 90
        0
102
RTVSPost2010PropOp40
 70
     1
102
RTVSPost2010Prop41ColorIndex
 90
       18
102
RTVSPost2010Prop41ColorRGB
 90
        0
102
RTVSPost2010PropOp41
 70
     1
102
RTVSPost2010Prop42
 90
       50
102
RTVSPost2010PropOp42
 70
     1
102
RTVSPost2010Prop43
 90
        3
102
RTVSPost2010PropOp43
 70
     1
102
RTVSPost2010Prop44ColorIndex
 90
        5
102
RTVSPost2010Prop44ColorRGB
 90
      255
102
RTVSPost2010PropOp44
 70
     1
102
RTVSPost2010Prop45
280
     0
102
RTVSPost2010PropOp45
 70
     1
102
RTVSPost2010Prop46
 90
       50
102
RTVSPost2010PropOp46
 70
     1
102
RTVSPost2010Prop47
 90
       50
102
RTVSPost2010PropOp47
 70
     1
102
RTVSPost2010Prop48
 90
       50
102
RTVSPost2010PropOp48
 70
     1
102
RTVSPost2010Prop49
280
     0
102
RTVSPost2010PropOp49
 70
     1
102
RTVSPost2010Prop50
 90
       50
102
RTVSPost2010PropOp50
 70
     1
102
RTVSPost2010Prop51ColorIndex
 90
      256
102
RTVSPost2010Prop51ColorRGB
 90
-16777216
102
RTVSPost2010PropOp51
 70
     0
102
RTVSPost2010Prop52
140
1.0
102
RTVSPost2010PropOp52
 70
     0
102
RTVSPost2010Prop53
 90
        2
102
RTVSPost2010PropOp53
 70
     1
102
RTVSPost2010Prop54
  1
strokes_ogs.tif
102
RTVSPost2010PropOp54
 70
     1
102
RTVSPost2010Prop55
280
     0
102
RTVSPost2010PropOp55
 70
     1
102
RTVSPost2010Prop56
140
1.0
102
RTVSPost2010PropOp56
 70
     1
102
RTVSPost2010Prop57
140
1.0
102
RTVSPost2010PropOp57
 70
     1
  0
XRECORD
  5
19A
102
{ACAD_REACTORS
330
199
102
}
330
199
100
AcDbXrecord
280
     1
102
RTVSPost2010Prop28
280
     0
102
RTVSPost2010PropOp28
 70
     1
102
RTVSPost2010Prop29
280
     1
102
RTVSPost2010PropOp29
 70
     1
102
RTVSPost2010Prop30
280
     1
102
RTVSPost2010PropOp30
 70
     1
102
RTVSPost2010Prop31
280
     0
102
RTVSPost2010PropOp31
 70
     1
102
RTVSPost2010Prop32
280
     0
102
RTVSPost2010PropOp32
 70
     1
102
RTVSPost2010Prop33
280
     0
102
RTVSPost2010PropOp33
 70
     1
102
RTVSPost2010Prop34
280
     0
102
RTVSPost2010PropOp34
 70
     1
102
RTVSPost2010Prop35
280
     0
102
RTVSPost2010PropOp35
 70
     1
102
RTVSPost2010Prop36
280
     0
102
RTVSPost2010PropOp36
 70
     1
102
RTVSPost2010Prop37
 90
       50
102
RTVSPost2010PropOp37
 70
     1
102
RTVSPost2010Prop38
140
0.0
102
RTVSPost2010PropOp38
 70
     1
102
RTVSPost2010Prop39
140
1.0
102
RTVSPost2010PropOp39
 70
     1
102
RTVSPost2010Prop40
 90
        0
102
RTVSPost2010PropOp40
 70
     1
102
RTVSPost2010Prop41ColorIndex
 90
       18
102
RTVSPost2010Prop41ColorRGB
 90
        0
102
RTVSPost2010PropOp41
 70
     1
102
RTVSPost2010Prop42
 90
       50
102
RTVSPost2010PropOp42
 70
     1
102
RTVSPost2010Prop43
 90
        3
102
RTVSPost2010PropOp43
 70
     1
102
RTVSPost2010Prop44ColorIndex
 90
        5
102
RTVSPost2010Prop44ColorRGB
 90
      255
102
RTVSPost2010PropOp44
 70
     1
102
RTVSPost2010Prop45
280
     0
102
RTVSPost2010PropOp45
 70
     1
102
RTVSPost2010Prop46
 90
       50
102
RTVSPost2010PropOp46
 70
     1
102
RTVSPost2010Prop47
 90
       50
102
RTVSPost2010PropOp47
 70
     1
102
RTVSPost2010Prop48
 90
       50
102
RTVSPost2010PropOp48
 70
     1
102
RTVSPost2010Prop49
280
     0
102
RTVSPost2010PropOp49
 70
     1
102
RTVSPost2010Prop50
 90
       50
102
RTVSPost2010PropOp50
 70
     1
102
RTVSPost2010Prop51ColorIndex
 90
      256
102
RTVSPost2010Prop51ColorRGB
 90
-16777216
102
RTVSPost2010PropOp51
 70
     0
102
RTVSPost2010Prop52
140
1.0
102
RTVSPost2010PropOp52
 70
     0
102
RTVSPost2010Prop53
 90
        2
102
RTVSPost2010PropOp53
 70
     1
102
RTVSPost2010Prop54
  1
strokes_ogs.tif
102
RTVSPost2010PropOp54
 70
     1
102
RTVSPost2010Prop55
280
     0
102
RTVSPost2010PropOp55
 70
     1
102
RTVSPost2010Prop56
140
1.0
102
RTVSPost2010PropOp56
 70
     1
102
RTVSPost2010Prop57
140
1.0
102
RTVSPost2010PropOp57
 70
     1
  0
XRECORD
  5
18C
102
{ACAD_REACTORS
330
18B
102
}
330
18B
100
AcDbXrecord
280
     1
102
RTVSPost2010Prop28
280
     0
102
RTVSPost2010PropOp28
 70
     1
102
RTVSPost2010Prop29
280
     1
102
RTVSPost2010PropOp29
 70
     1
102
RTVSPost2010Prop30
280
     1
102
RTVSPost2010PropOp30
 70
     1
102
RTVSPost2010Prop31
280
     0
102
RTVSPost2010PropOp31
 70
     1
102
RTVSPost2010Prop32
280
     0
102
RTVSPost2010PropOp32
 70
     1
102
RTVSPost2010Prop33
280
     0
102
RTVSPost2010PropOp33
 70
     1
102
RTVSPost2010Prop34
280
     0
102
RTVSPost2010PropOp34
 70
     1
102
RTVSPost2010Prop35
280
     0
102
RTVSPost2010PropOp35
 70
     1
102
RTVSPost2010Prop36
280
     0
102
RTVSPost2010PropOp36
 70
     1
102
RTVSPost2010Prop37
 90
       50
102
RTVSPost2010PropOp37
 70
     1
102
RTVSPost2010Prop38
140
0.0
102
RTVSPost2010PropOp38
 70
     1
102
RTVSPost2010Prop39
140
1.0
102
RTVSPost2010PropOp39
 70
     1
102
RTVSPost2010Prop40
 90
        0
102
RTVSPost2010PropOp40
 70
     1
102
RTVSPost2010Prop41ColorIndex
 90
       18
102
RTVSPost2010Prop41ColorRGB
 90
        0
102
RTVSPost2010PropOp41
 70
     1
102
RTVSPost2010Prop42
 90
       50
102
RTVSPost2010PropOp42
 70
     1
102
RTVSPost2010Prop43
 90
        3
102
RTVSPost2010PropOp43
 70
     1
102
RTVSPost2010Prop44ColorIndex
 90
        5
102
RTVSPost2010Prop44ColorRGB
 90
      255
102
RTVSPost2010PropOp44
 70
     1
102
RTVSPost2010Prop45
280
     0
102
RTVSPost2010PropOp45
 70
     1
102
RTVSPost2010Prop46
 90
       50
102
RTVSPost2010PropOp46
 70
     1
102
RTVSPost2010Prop47
 90
       50
102
RTVSPost2010PropOp47
 70
     1
102
RTVSPost2010Prop48
 90
       50
102
RTVSPost2010PropOp48
 70
     1
102
RTVSPost2010Prop49
280
     0
102
RTVSPost2010PropOp49
 70
     1
102
RTVSPost2010Prop50
 90
       50
102
RTVSPost2010PropOp50
 70
     1
102
RTVSPost2010Prop51ColorIndex
 90
      256
102
RTVSPost2010Prop51ColorRGB
 90
-16777216
102
RTVSPost2010PropOp51
 70
     0
102
RTVSPost2010Prop52
140
1.0
102
RTVSPost2010PropOp52
 70
     0
102
RTVSPost2010Prop53
 90
        2
102
RTVSPost2010PropOp53
 70
     1
102
RTVSPost2010Prop54
  1
strokes_ogs.tif
102
RTVSPost2010PropOp54
 70
     1
102
RTVSPost2010Prop55
280
     0
102
RTVSPost2010PropOp55
 70
     1
102
RTVSPost2010Prop56
140
1.0
102
RTVSPost2010PropOp56
 70
     1
102
RTVSPost2010Prop57
140
1.0
102
RTVSPost2010PropOp57
 70
     1
  0
XRECORD
  5
190
102
{ACAD_REACTORS
330
18F
102
}
330
18F
100
AcDbXrecord
280
     1
102
RTVSPost2010Prop28
280
     0
102
RTVSPost2010PropOp28
 70
     1
102
RTVSPost2010Prop29
280
     1
102
RTVSPost2010PropOp29
 70
     1
102
RTVSPost2010Prop30
280
     1
102
RTVSPost2010PropOp30
 70
     1
102
RTVSPost2010Prop31
280
     0
102
RTVSPost2010PropOp31
 70
     1
102
RTVSPost2010Prop32
280
     0
102
RTVSPost2010PropOp32
 70
     1
102
RTVSPost2010Prop33
280
     0
102
RTVSPost2010PropOp33
 70
     1
102
RTVSPost2010Prop34
280
     0
102
RTVSPost2010PropOp34
 70
     1
102
RTVSPost2010Prop35
280
     0
102
RTVSPost2010PropOp35
 70
     1
102
RTVSPost2010Prop36
280
     0
102
RTVSPost2010PropOp36
 70
     1
102
RTVSPost2010Prop37
 90
       50
102
RTVSPost2010PropOp37
 70
     1
102
RTVSPost2010Prop38
140
0.0
102
RTVSPost2010PropOp38
 70
     1
102
RTVSPost2010Prop39
140
1.0
102
RTVSPost2010PropOp39
 70
     1
102
RTVSPost2010Prop40
 90
        0
102
RTVSPost2010PropOp40
 70
     1
102
RTVSPost2010Prop41ColorIndex
 90
       18
102
RTVSPost2010Prop41ColorRGB
 90
        0
102
RTVSPost2010PropOp41
 70
     1
102
RTVSPost2010Prop42
 90
       50
102
RTVSPost2010PropOp42
 70
     1
102
RTVSPost2010Prop43
 90
        3
102
RTVSPost2010PropOp43
 70
     1
102
RTVSPost2010Prop44ColorIndex
 90
        5
102
RTVSPost2010Prop44ColorRGB
 90
      255
102
RTVSPost2010PropOp44
 70
     1
102
RTVSPost2010Prop45
280
     0
102
RTVSPost2010PropOp45
 70
     1
102
RTVSPost2010Prop46
 90
       50
102
RTVSPost2010PropOp46
 70
     1
102
RTVSPost2010Prop47
 90
       50
102
RTVSPost2010PropOp47
 70
     1
102
RTVSPost2010Prop48
 90
       50
102
RTVSPost2010PropOp48
 70
     1
102
RTVSPost2010Prop49
280
     0
102
RTVSPost2010PropOp49
 70
     1
102
RTVSPost2010Prop50
 90
       50
102
RTVSPost2010PropOp50
 70
     1
102
RTVSPost2010Prop51ColorIndex
 90
      256
102
RTVSPost2010Prop51ColorRGB
 90
-16777216
102
RTVSPost2010PropOp51
 70
     0
102
RTVSPost2010Prop52
140
1.0
102
RTVSPost2010PropOp52
 70
     0
102
RTVSPost2010Prop53
 90
        2
102
RTVSPost2010PropOp53
 70
     1
102
RTVSPost2010Prop54
  1
strokes_ogs.tif
102
RTVSPost2010PropOp54
 70
     1
102
RTVSPost2010Prop55
280
     0
102
RTVSPost2010PropOp55
 70
     1
102
RTVSPost2010Prop56
140
1.0
102
RTVSPost2010PropOp56
 70
     1
102
RTVSPost2010Prop57
140
1.0
102
RTVSPost2010PropOp57
 70
     1
  0
XRECORD
  5
1AA
102
{ACAD_REACTORS
330
1A9
102
}
330
1A9
100
AcDbXrecord
280
     1
102
RTVSPost2010Prop28
280
     0
102
RTVSPost2010PropOp28
 70
     0
102
RTVSPost2010Prop29
280
     1
102
RTVSPost2010PropOp29
 70
     0
102
RTVSPost2010Prop30
280
     1
102
RTVSPost2010PropOp30
 70
     0
102
RTVSPost2010Prop31
280
     0
102
RTVSPost2010PropOp31
 70
     0
102
RTVSPost2010Prop32
280
     0
102
RTVSPost2010PropOp32
 70
     0
102
RTVSPost2010Prop33
280
     0
102
RTVSPost2010PropOp33
 70
     0
102
RTVSPost2010Prop34
280
     0
102
RTVSPost2010PropOp34
 70
     0
102
RTVSPost2010Prop35
280
     0
102
RTVSPost2010PropOp35
 70
     0
102
RTVSPost2010Prop36
280
     0
102
RTVSPost2010PropOp36
 70
     0
102
RTVSPost2010Prop37
 90
       50
102
RTVSPost2010PropOp37
 70
     0
102
RTVSPost2010Prop38
140
0.0
102
RTVSPost2010PropOp38
 70
     0
102
RTVSPost2010Prop39
140
1.0
102
RTVSPost2010PropOp39
 70
     0
102
RTVSPost2010Prop40
 90
        0
102
RTVSPost2010PropOp40
 70
     0
102
RTVSPost2010Prop41ColorIndex
 90
       18
102
RTVSPost2010Prop41ColorRGB
 90
        0
102
RTVSPost2010PropOp41
 70
     0
102
RTVSPost2010Prop42
 90
       50
102
RTVSPost2010PropOp42
 70
     0
102
RTVSPost2010Prop43
 90
        3
102
RTVSPost2010PropOp43
 70
     0
102
RTVSPost2010Prop44ColorIndex
 90
        5
102
RTVSPost2010Prop44ColorRGB
 90
      255
102
RTVSPost2010PropOp44
 70
     0
102
RTVSPost2010Prop45
280
     0
102
RTVSPost2010PropOp45
 70
     0
102
RTVSPost2010Prop46
 90
       50
102
RTVSPost2010PropOp46
 70
     0
102
RTVSPost2010Prop47
 90
       50
102
RTVSPost2010PropOp47
 70
     0
102
RTVSPost2010Prop48
 90
       50
102
RTVSPost2010PropOp48
 70
     0
102
RTVSPost2010Prop49
280
     0
102
RTVSPost2010PropOp49
 70
     0
102
RTVSPost2010Prop50
 90
       50
102
RTVSPost2010PropOp50
 70
     0
102
RTVSPost2010Prop51ColorIndex
 90
      256
102
RTVSPost2010Prop51ColorRGB
 90
-16777216
102
RTVSPost2010PropOp51
 70
     0
102
RTVSPost2010Prop52
140
1.0
102
RTVSPost2010PropOp52
 70
     0
102
RTVSPost2010Prop53
 90
        2
102
RTVSPost2010PropOp53
 70
     0
102
RTVSPost2010Prop54
  1
strokes_ogs.tif
102
RTVSPost2010PropOp54
 70
     0
102
RTVSPost2010Prop55
280
     0
102
RTVSPost2010PropOp55
 70
     0
102
RTVSPost2010Prop56
140
1.0
102
RTVSPost2010PropOp56
 70
     0
102
RTVSPost2010Prop57
140
1.0
102
RTVSPost2010PropOp57
 70
     0
  0
XRECORD
  5
198
102
{ACAD_REACTORS
330
197
102
}
330
197
100
AcDbXrecord
280
     1
102
RTVSPost2010Prop28
280
     0
102
RTVSPost2010PropOp28
 70
     1
102
RTVSPost2010Prop29
280
     1
102
RTVSPost2010PropOp29
 70
     1
102
RTVSPost2010Prop30
280
     1
102
RTVSPost2010PropOp30
 70
     1
102
RTVSPost2010Prop31
280
     0
102
RTVSPost2010PropOp31
 70
     1
102
RTVSPost2010Prop32
280
     0
102
RTVSPost2010PropOp32
 70
     1
102
RTVSPost2010Prop33
280
     0
102
RTVSPost2010PropOp33
 70
     1
102
RTVSPost2010Prop34
280
     0
102
RTVSPost2010PropOp34
 70
     1
102
RTVSPost2010Prop35
280
     0
102
RTVSPost2010PropOp35
 70
     1
102
RTVSPost2010Prop36
280
     0
102
RTVSPost2010PropOp36
 70
     1
102
RTVSPost2010Prop37
 90
       50
102
RTVSPost2010PropOp37
 70
     1
102
RTVSPost2010Prop38
140
0.0
102
RTVSPost2010PropOp38
 70
     1
102
RTVSPost2010Prop39
140
1.0
102
RTVSPost2010PropOp39
 70
     1
102
RTVSPost2010Prop40
 90
        0
102
RTVSPost2010PropOp40
 70
     1
102
RTVSPost2010Prop41ColorIndex
 90
       18
102
RTVSPost2010Prop41ColorRGB
 90
        0
102
RTVSPost2010PropOp41
 70
     1
102
RTVSPost2010Prop42
 90
       50
102
RTVSPost2010PropOp42
 70
     1
102
RTVSPost2010Prop43
 90
        3
102
RTVSPost2010PropOp43
 70
     1
102
RTVSPost2010Prop44ColorIndex
 90
        5
102
RTVSPost2010Prop44ColorRGB
 90
      255
102
RTVSPost2010PropOp44
 70
     1
102
RTVSPost2010Prop45
280
     0
102
RTVSPost2010PropOp45
 70
     1
102
RTVSPost2010Prop46
 90
       50
102
RTVSPost2010PropOp46
 70
     1
102
RTVSPost2010Prop47
 90
       50
102
RTVSPost2010PropOp47
 70
     1
102
RTVSPost2010Prop48
 90
       50
102
RTVSPost2010PropOp48
 70
     1
102
RTVSPost2010Prop49
280
     0
102
RTVSPost2010PropOp49
 70
     1
102
RTVSPost2010Prop50
 90
       50
102
RTVSPost2010PropOp50
 70
     1
102
RTVSPost2010Prop51ColorIndex
 90
      256
102
RTVSPost2010Prop51ColorRGB
 90
-16777216
102
RTVSPost2010PropOp51
 70
     0
102
RTVSPost2010Prop52
140
1.0
102
RTVSPost2010PropOp52
 70
     0
102
RTVSPost2010Prop53
 90
        2
102
RTVSPost2010PropOp53
 70
     1
102
RTVSPost2010Prop54
  1
strokes_ogs.tif
102
RTVSPost2010PropOp54
 70
     1
102
RTVSPost2010Prop55
280
     0
102
RTVSPost2010PropOp55
 70
     1
102
RTVSPost2010Prop56
140
1.0
102
RTVSPost2010PropOp56
 70
     1
102
RTVSPost2010Prop57
140
1.0
102
RTVSPost2010PropOp57
 70
     1
  0
XRECORD
  5
17C
102
{ACAD_REACTORS
330
17B
102
}
330
17B
100
AcDbXrecord
280
     1
102
RTVSPost2010Prop28
280
     0
102
RTVSPost2010PropOp28
 70
     1
102
RTVSPost2010Prop29
280
     1
102
RTVSPost2010PropOp29
 70
     1
102
RTVSPost2010Prop30
280
     1
102
RTVSPost2010PropOp30
 70
     1
102
RTVSPost2010Prop31
280
     0
102
RTVSPost2010PropOp31
 70
     1
102
RTVSPost2010Prop32
280
     0
102
RTVSPost2010PropOp32
 70
     1
102
RTVSPost2010Prop33
280
     0
102
RTVSPost2010PropOp33
 70
     1
102
RTVSPost2010Prop34
280
     0
102
RTVSPost2010PropOp34
 70
     1
102
RTVSPost2010Prop35
280
     0
102
RTVSPost2010PropOp35
 70
     1
102
RTVSPost2010Prop36
280
     0
102
RTVSPost2010PropOp36
 70
     1
102
RTVSPost2010Prop37
 90
       50
102
RTVSPost2010PropOp37
 70
     1
102
RTVSPost2010Prop38
140
0.0
102
RTVSPost2010PropOp38
 70
     1
102
RTVSPost2010Prop39
140
1.0
102
RTVSPost2010PropOp39
 70
     1
102
RTVSPost2010Prop40
 90
        0
102
RTVSPost2010PropOp40
 70
     1
102
RTVSPost2010Prop41ColorIndex
 90
       18
102
RTVSPost2010Prop41ColorRGB
 90
        0
102
RTVSPost2010PropOp41
 70
     1
102
RTVSPost2010Prop42
 90
       50
102
RTVSPost2010PropOp42
 70
     1
102
RTVSPost2010Prop43
 90
        3
102
RTVSPost2010PropOp43
 70
     1
102
RTVSPost2010Prop44ColorIndex
 90
        5
102
RTVSPost2010Prop44ColorRGB
 90
      255
102
RTVSPost2010PropOp44
 70
     1
102
RTVSPost2010Prop45
280
     0
102
RTVSPost2010PropOp45
 70
     1
102
RTVSPost2010Prop46
 90
       50
102
RTVSPost2010PropOp46
 70
     1
102
RTVSPost2010Prop47
 90
       50
102
RTVSPost2010PropOp47
 70
     1
102
RTVSPost2010Prop48
 90
       50
102
RTVSPost2010PropOp48
 70
     1
102
RTVSPost2010Prop49
280
     0
102
RTVSPost2010PropOp49
 70
     1
102
RTVSPost2010Prop50
 90
       50
102
RTVSPost2010PropOp50
 70
     1
102
RTVSPost2010Prop51ColorIndex
 90
      256
102
RTVSPost2010Prop51ColorRGB
 90
-16777216
102
RTVSPost2010PropOp51
 70
     0
102
RTVSPost2010Prop52
140
1.0
102
RTVSPost2010PropOp52
 70
     0
102
RTVSPost2010Prop53
 90
        2
102
RTVSPost2010PropOp53
 70
     1
102
RTVSPost2010Prop54
  1
strokes_ogs.tif
102
RTVSPost2010PropOp54
 70
     1
102
RTVSPost2010Prop55
280
     0
102
RTVSPost2010PropOp55
 70
     1
102
RTVSPost2010Prop56
140
1.0
102
RTVSPost2010PropOp56
 70
     1
102
RTVSPost2010Prop57
140
1.0
102
RTVSPost2010PropOp57
 70
     1
  0
XRECORD
  5
17E
102
{ACAD_REACTORS
330
17D
102
}
330
17D
100
AcDbXrecord
280
     1
102
RTVSPost2010Prop28
280
     0
102
RTVSPost2010PropOp28
 70
     1
102
RTVSPost2010Prop29
280
     1
102
RTVSPost2010PropOp29
 70
     1
102
RTVSPost2010Prop30
280
     1
102
RTVSPost2010PropOp30
 70
     1
102
RTVSPost2010Prop31
280
     0
102
RTVSPost2010PropOp31
 70
     1
102
RTVSPost2010Prop32
280
     0
102
RTVSPost2010PropOp32
 70
     1
102
RTVSPost2010Prop33
280
     0
102
RTVSPost2010PropOp33
 70
     1
102
RTVSPost2010Prop34
280
     0
102
RTVSPost2010PropOp34
 70
     1
102
RTVSPost2010Prop35
280
     0
102
RTVSPost2010PropOp35
 70
     1
102
RTVSPost2010Prop36
280
     0
102
RTVSPost2010PropOp36
 70
     1
102
RTVSPost2010Prop37
 90
       50
102
RTVSPost2010PropOp37
 70
     1
102
RTVSPost2010Prop38
140
0.0
102
RTVSPost2010PropOp38
 70
     1
102
RTVSPost2010Prop39
140
1.0
102
RTVSPost2010PropOp39
 70
     1
102
RTVSPost2010Prop40
 90
        0
102
RTVSPost2010PropOp40
 70
     1
102
RTVSPost2010Prop41ColorIndex
 90
       18
102
RTVSPost2010Prop41ColorRGB
 90
        0
102
RTVSPost2010PropOp41
 70
     1
102
RTVSPost2010Prop42
 90
       50
102
RTVSPost2010PropOp42
 70
     1
102
RTVSPost2010Prop43
 90
        3
102
RTVSPost2010PropOp43
 70
     1
102
RTVSPost2010Prop44ColorIndex
 90
        5
102
RTVSPost2010Prop44ColorRGB
 90
      255
102
RTVSPost2010PropOp44
 70
     1
102
RTVSPost2010Prop45
280
     0
102
RTVSPost2010PropOp45
 70
     1
102
RTVSPost2010Prop46
 90
       50
102
RTVSPost2010PropOp46
 70
     1
102
RTVSPost2010Prop47
 90
       50
102
RTVSPost2010PropOp47
 70
     1
102
RTVSPost2010Prop48
 90
       50
102
RTVSPost2010PropOp48
 70
     1
102
RTVSPost2010Prop49
280
     0
102
RTVSPost2010PropOp49
 70
     1
102
RTVSPost2010Prop50
 90
       50
102
RTVSPost2010PropOp50
 70
     1
102
RTVSPost2010Prop51ColorIndex
 90
      256
102
RTVSPost2010Prop51ColorRGB
 90
-16777216
102
RTVSPost2010PropOp51
 70
     0
102
RTVSPost2010Prop52
140
1.0
102
RTVSPost2010PropOp52
 70
     0
102
RTVSPost2010Prop53
 90
        2
102
RTVSPost2010PropOp53
 70
     1
102
RTVSPost2010Prop54
  1
strokes_ogs.tif
102
RTVSPost2010PropOp54
 70
     1
102
RTVSPost2010Prop55
280
     0
102
RTVSPost2010PropOp55
 70
     1
102
RTVSPost2010Prop56
140
1.0
102
RTVSPost2010PropOp56
 70
     1
102
RTVSPost2010Prop57
140
1.0
102
RTVSPost2010PropOp57
 70
     1
  0
XRECORD
  5
180
102
{ACAD_REACTORS
330
17F
102
}
330
17F
100
AcDbXrecord
280
     1
102
RTVSPost2010Prop28
280
     0
102
RTVSPost2010PropOp28
 70
     1
102
RTVSPost2010Prop29
280
     1
102
RTVSPost2010PropOp29
 70
     1
102
RTVSPost2010Prop30
280
     1
102
RTVSPost2010PropOp30
 70
     1
102
RTVSPost2010Prop31
280
     0
102
RTVSPost2010PropOp31
 70
     1
102
RTVSPost2010Prop32
280
     0
102
RTVSPost2010PropOp32
 70
     1
102
RTVSPost2010Prop33
280
     0
102
RTVSPost2010PropOp33
 70
     1
102
RTVSPost2010Prop34
280
     0
102
RTVSPost2010PropOp34
 70
     1
102
RTVSPost2010Prop35
280
     0
102
RTVSPost2010PropOp35
 70
     1
102
RTVSPost2010Prop36
280
     0
102
RTVSPost2010PropOp36
 70
     1
102
RTVSPost2010Prop37
 90
       50
102
RTVSPost2010PropOp37
 70
     1
102
RTVSPost2010Prop38
140
0.0
102
RTVSPost2010PropOp38
 70
     1
102
RTVSPost2010Prop39
140
1.0
102
RTVSPost2010PropOp39
 70
     1
102
RTVSPost2010Prop40
 90
        0
102
RTVSPost2010PropOp40
 70
     1
102
RTVSPost2010Prop41ColorIndex
 90
       18
102
RTVSPost2010Prop41ColorRGB
 90
        0
102
RTVSPost2010PropOp41
 70
     1
102
RTVSPost2010Prop42
 90
       50
102
RTVSPost2010PropOp42
 70
     1
102
RTVSPost2010Prop43
 90
        3
102
RTVSPost2010PropOp43
 70
     1
102
RTVSPost2010Prop44ColorIndex
 90
        5
102
RTVSPost2010Prop44ColorRGB
 90
      255
102
RTVSPost2010PropOp44
 70
     1
102
RTVSPost2010Prop45
280
     0
102
RTVSPost2010PropOp45
 70
     1
102
RTVSPost2010Prop46
 90
       50
102
RTVSPost2010PropOp46
 70
     1
102
RTVSPost2010Prop47
 90
       50
102
RTVSPost2010PropOp47
 70
     1
102
RTVSPost2010Prop48
 90
       50
102
RTVSPost2010PropOp48
 70
     1
102
RTVSPost2010Prop49
280
     0
102
RTVSPost2010PropOp49
 70
     1
102
RTVSPost2010Prop50
 90
       50
102
RTVSPost2010PropOp50
 70
     1
102
RTVSPost2010Prop51ColorIndex
 90
      256
102
RTVSPost2010Prop51ColorRGB
 90
-16777216
102
RTVSPost2010PropOp51
 70
     0
102
RTVSPost2010Prop52
140
1.0
102
RTVSPost2010PropOp52
 70
     0
102
RTVSPost2010Prop53
 90
        2
102
RTVSPost2010PropOp53
 70
     1
102
RTVSPost2010Prop54
  1
strokes_ogs.tif
102
RTVSPost2010PropOp54
 70
     1
102
RTVSPost2010Prop55
280
     0
102
RTVSPost2010PropOp55
 70
     1
102
RTVSPost2010Prop56
140
1.0
102
RTVSPost2010PropOp56
 70
     1
102
RTVSPost2010Prop57
140
1.0
102
RTVSPost2010PropOp57
 70
     1
  0
XRECORD
  5
182
102
{ACAD_REACTORS
330
181
102
}
330
181
100
AcDbXrecord
280
     1
102
RTVSPost2010Prop28
280
     0
102
RTVSPost2010PropOp28
 70
     1
102
RTVSPost2010Prop29
280
     1
102
RTVSPost2010PropOp29
 70
     1
102
RTVSPost2010Prop30
280
     1
102
RTVSPost2010PropOp30
 70
     1
102
RTVSPost2010Prop31
280
     0
102
RTVSPost2010PropOp31
 70
     1
102
RTVSPost2010Prop32
280
     0
102
RTVSPost2010PropOp32
 70
     1
102
RTVSPost2010Prop33
280
     0
102
RTVSPost2010PropOp33
 70
     1
102
RTVSPost2010Prop34
280
     0
102
RTVSPost2010PropOp34
 70
     1
102
RTVSPost2010Prop35
280
     0
102
RTVSPost2010PropOp35
 70
     1
102
RTVSPost2010Prop36
280
     0
102
RTVSPost2010PropOp36
 70
     1
102
RTVSPost2010Prop37
 90
       50
102
RTVSPost2010PropOp37
 70
     1
102
RTVSPost2010Prop38
140
0.0
102
RTVSPost2010PropOp38
 70
     1
102
RTVSPost2010Prop39
140
1.0
102
RTVSPost2010PropOp39
 70
     1
102
RTVSPost2010Prop40
 90
        0
102
RTVSPost2010PropOp40
 70
     1
102
RTVSPost2010Prop41ColorIndex
 90
       18
102
RTVSPost2010Prop41ColorRGB
 90
        0
102
RTVSPost2010PropOp41
 70
     1
102
RTVSPost2010Prop42
 90
       50
102
RTVSPost2010PropOp42
 70
     1
102
RTVSPost2010Prop43
 90
        3
102
RTVSPost2010PropOp43
 70
     1
102
RTVSPost2010Prop44ColorIndex
 90
        5
102
RTVSPost2010Prop44ColorRGB
 90
      255
102
RTVSPost2010PropOp44
 70
     1
102
RTVSPost2010Prop45
280
     0
102
RTVSPost2010PropOp45
 70
     1
102
RTVSPost2010Prop46
 90
       50
102
RTVSPost2010PropOp46
 70
     1
102
RTVSPost2010Prop47
 90
       50
102
RTVSPost2010PropOp47
 70
     1
102
RTVSPost2010Prop48
 90
       50
102
RTVSPost2010PropOp48
 70
     1
102
RTVSPost2010Prop49
280
     0
102
RTVSPost2010PropOp49
 70
     1
102
RTVSPost2010Prop50
 90
       50
102
RTVSPost2010PropOp50
 70
     1
102
RTVSPost2010Prop51ColorIndex
 90
      256
102
RTVSPost2010Prop51ColorRGB
 90
-16777216
102
RTVSPost2010PropOp51
 70
     0
102
RTVSPost2010Prop52
140
1.0
102
RTVSPost2010PropOp52
 70
     0
102
RTVSPost2010Prop53
 90
        2
102
RTVSPost2010PropOp53
 70
     1
102
RTVSPost2010Prop54
  1
strokes_ogs.tif
102
RTVSPost2010PropOp54
 70
     1
102
RTVSPost2010Prop55
280
     0
102
RTVSPost2010PropOp55
 70
     1
102
RTVSPost2010Prop56
140
1.0
102
RTVSPost2010PropOp56
 70
     1
102
RTVSPost2010Prop57
140
1.0
102
RTVSPost2010PropOp57
 70
     1
  0
XRECORD
  5
18A
102
{ACAD_REACTORS
330
189
102
}
330
189
100
AcDbXrecord
280
     1
102
RTVSPost2010Prop28
280
     0
102
RTVSPost2010PropOp28
 70
     1
102
RTVSPost2010Prop29
280
     1
102
RTVSPost2010PropOp29
 70
     1
102
RTVSPost2010Prop30
280
     1
102
RTVSPost2010PropOp30
 70
     1
102
RTVSPost2010Prop31
280
     0
102
RTVSPost2010PropOp31
 70
     1
102
RTVSPost2010Prop32
280
     0
102
RTVSPost2010PropOp32
 70
     1
102
RTVSPost2010Prop33
280
     0
102
RTVSPost2010PropOp33
 70
     1
102
RTVSPost2010Prop34
280
     0
102
RTVSPost2010PropOp34
 70
     1
102
RTVSPost2010Prop35
280
     0
102
RTVSPost2010PropOp35
 70
     1
102
RTVSPost2010Prop36
280
     0
102
RTVSPost2010PropOp36
 70
     1
102
RTVSPost2010Prop37
 90
       50
102
RTVSPost2010PropOp37
 70
     1
102
RTVSPost2010Prop38
140
0.0
102
RTVSPost2010PropOp38
 70
     1
102
RTVSPost2010Prop39
140
1.0
102
RTVSPost2010PropOp39
 70
     1
102
RTVSPost2010Prop40
 90
        0
102
RTVSPost2010PropOp40
 70
     1
102
RTVSPost2010Prop41ColorIndex
 90
       18
102
RTVSPost2010Prop41ColorRGB
 90
        0
102
RTVSPost2010PropOp41
 70
     1
102
RTVSPost2010Prop42
 90
       50
102
RTVSPost2010PropOp42
 70
     1
102
RTVSPost2010Prop43
 90
        3
102
RTVSPost2010PropOp43
 70
     1
102
RTVSPost2010Prop44ColorIndex
 90
        5
102
RTVSPost2010Prop44ColorRGB
 90
      255
102
RTVSPost2010PropOp44
 70
     1
102
RTVSPost2010Prop45
280
     0
102
RTVSPost2010PropOp45
 70
     1
102
RTVSPost2010Prop46
 90
       50
102
RTVSPost2010PropOp46
 70
     1
102
RTVSPost2010Prop47
 90
       50
102
RTVSPost2010PropOp47
 70
     1
102
RTVSPost2010Prop48
 90
       50
102
RTVSPost2010PropOp48
 70
     1
102
RTVSPost2010Prop49
280
     0
102
RTVSPost2010PropOp49
 70
     1
102
RTVSPost2010Prop50
 90
       50
102
RTVSPost2010PropOp50
 70
     1
102
RTVSPost2010Prop51ColorIndex
 90
      256
102
RTVSPost2010Prop51ColorRGB
 90
-16777216
102
RTVSPost2010PropOp51
 70
     0
102
RTVSPost2010Prop52
140
1.0
102
RTVSPost2010PropOp52
 70
     0
102
RTVSPost2010Prop53
 90
        2
102
RTVSPost2010PropOp53
 70
     1
102
RTVSPost2010Prop54
  1
strokes_ogs.tif
102
RTVSPost2010PropOp54
 70
     1
102
RTVSPost2010Prop55
280
     0
102
RTVSPost2010PropOp55
 70
     1
102
RTVSPost2010Prop56
140
1.0
102
RTVSPost2010PropOp56
 70
     1
102
RTVSPost2010Prop57
140
1.0
102
RTVSPost2010PropOp57
 70
     1
  0
XRECORD
  5
1A6
102
{ACAD_REACTORS
330
1A5
102
}
330
1A5
100
AcDbXrecord
280
     1
102
RTVSPost2010Prop28
280
     0
102
RTVSPost2010PropOp28
 70
     0
102
RTVSPost2010Prop29
280
     1
102
RTVSPost2010PropOp29
 70
     0
102
RTVSPost2010Prop30
280
     1
102
RTVSPost2010PropOp30
 70
     0
102
RTVSPost2010Prop31
280
     0
102
RTVSPost2010PropOp31
 70
     0
102
RTVSPost2010Prop32
280
     0
102
RTVSPost2010PropOp32
 70
     0
102
RTVSPost2010Prop33
280
     0
102
RTVSPost2010PropOp33
 70
     0
102
RTVSPost2010Prop34
280
     0
102
RTVSPost2010PropOp34
 70
     0
102
RTVSPost2010Prop35
280
     0
102
RTVSPost2010PropOp35
 70
     0
102
RTVSPost2010Prop36
280
     0
102
RTVSPost2010PropOp36
 70
     0
102
RTVSPost2010Prop37
 90
       50
102
RTVSPost2010PropOp37
 70
     0
102
RTVSPost2010Prop38
140
0.0
102
RTVSPost2010PropOp38
 70
     0
102
RTVSPost2010Prop39
140
1.0
102
RTVSPost2010PropOp39
 70
     0
102
RTVSPost2010Prop40
 90
        0
102
RTVSPost2010PropOp40
 70
     0
102
RTVSPost2010Prop41ColorIndex
 90
       18
102
RTVSPost2010Prop41ColorRGB
 90
        0
102
RTVSPost2010PropOp41
 70
     0
102
RTVSPost2010Prop42
 90
       50
102
RTVSPost2010PropOp42
 70
     0
102
RTVSPost2010Prop43
 90
        3
102
RTVSPost2010PropOp43
 70
     0
102
RTVSPost2010Prop44ColorIndex
 90
        5
102
RTVSPost2010Prop44ColorRGB
 90
      255
102
RTVSPost2010PropOp44
 70
     0
102
RTVSPost2010Prop45
280
     0
102
RTVSPost2010PropOp45
 70
     0
102
RTVSPost2010Prop46
 90
       50
102
RTVSPost2010PropOp46
 70
     0
102
RTVSPost2010Prop47
 90
       50
102
RTVSPost2010PropOp47
 70
     0
102
RTVSPost2010Prop48
 90
       50
102
RTVSPost2010PropOp48
 70
     0
102
RTVSPost2010Prop49
280
     0
102
RTVSPost2010PropOp49
 70
     0
102
RTVSPost2010Prop50
 90
       50
102
RTVSPost2010PropOp50
 70
     0
102
RTVSPost2010Prop51ColorIndex
 90
      256
102
RTVSPost2010Prop51ColorRGB
 90
-16777216
102
RTVSPost2010PropOp51
 70
     0
102
RTVSPost2010Prop52
140
1.0
102
RTVSPost2010PropOp52
 70
     0
102
RTVSPost2010Prop53
 90
        2
102
RTVSPost2010PropOp53
 70
     0
102
RTVSPost2010Prop54
  1
strokes_ogs.tif
102
RTVSPost2010PropOp54
 70
     0
102
RTVSPost2010Prop55
280
     0
102
RTVSPost2010PropOp55
 70
     0
102
RTVSPost2010Prop56
140
1.0
102
RTVSPost2010PropOp56
 70
     0
102
RTVSPost2010Prop57
140
1.0
102
RTVSPost2010PropOp57
 70
     0
  0
XRECORD
  5
196
102
{ACAD_REACTORS
330
195
102
}
330
195
100
AcDbXrecord
280
     1
102
RTVSPost2010Prop28
280
     0
102
RTVSPost2010PropOp28
 70
     1
102
RTVSPost2010Prop29
280
     1
102
RTVSPost2010PropOp29
 70
     1
102
RTVSPost2010Prop30
280
     1
102
RTVSPost2010PropOp30
 70
     1
102
RTVSPost2010Prop31
280
     0
102
RTVSPost2010PropOp31
 70
     1
102
RTVSPost2010Prop32
280
     0
102
RTVSPost2010PropOp32
 70
     1
102
RTVSPost2010Prop33
280
     0
102
RTVSPost2010PropOp33
 70
     1
102
RTVSPost2010Prop34
280
     0
102
RTVSPost2010PropOp34
 70
     1
102
RTVSPost2010Prop35
280
     0
102
RTVSPost2010PropOp35
 70
     1
102
RTVSPost2010Prop36
280
     0
102
RTVSPost2010PropOp36
 70
     1
102
RTVSPost2010Prop37
 90
       50
102
RTVSPost2010PropOp37
 70
     1
102
RTVSPost2010Prop38
140
0.0
102
RTVSPost2010PropOp38
 70
     1
102
RTVSPost2010Prop39
140
1.0
102
RTVSPost2010PropOp39
 70
     1
102
RTVSPost2010Prop40
 90
        0
102
RTVSPost2010PropOp40
 70
     1
102
RTVSPost2010Prop41ColorIndex
 90
       18
102
RTVSPost2010Prop41ColorRGB
 90
        0
102
RTVSPost2010PropOp41
 70
     1
102
RTVSPost2010Prop42
 90
       50
102
RTVSPost2010PropOp42
 70
     1
102
RTVSPost2010Prop43
 90
        3
102
RTVSPost2010PropOp43
 70
     1
102
RTVSPost2010Prop44ColorIndex
 90
        5
102
RTVSPost2010Prop44ColorRGB
 90
      255
102
RTVSPost2010PropOp44
 70
     1
102
RTVSPost2010Prop45
280
     0
102
RTVSPost2010PropOp45
 70
     1
102
RTVSPost2010Prop46
 90
       50
102
RTVSPost2010PropOp46
 70
     1
102
RTVSPost2010Prop47
 90
       50
102
RTVSPost2010PropOp47
 70
     1
102
RTVSPost2010Prop48
 90
       50
102
RTVSPost2010PropOp48
 70
     1
102
RTVSPost2010Prop49
280
     0
102
RTVSPost2010PropOp49
 70
     1
102
RTVSPost2010Prop50
 90
       50
102
RTVSPost2010PropOp50
 70
     1
102
RTVSPost2010Prop51ColorIndex
 90
      256
102
RTVSPost2010Prop51ColorRGB
 90
-16777216
102
RTVSPost2010PropOp51
 70
     0
102
RTVSPost2010Prop52
140
1.0
102
RTVSPost2010PropOp52
 70
     0
102
RTVSPost2010Prop53
 90
        2
102
RTVSPost2010PropOp53
 70
     1
102
RTVSPost2010Prop54
  1
strokes_ogs.tif
102
RTVSPost2010PropOp54
 70
     1
102
RTVSPost2010Prop55
280
     0
102
RTVSPost2010PropOp55
 70
     1
102
RTVSPost2010Prop56
140
1.0
102
RTVSPost2010PropOp56
 70
     1
102
RTVSPost2010Prop57
140
1.0
102
RTVSPost2010PropOp57
 70
     1
  0
XRECORD
  5
1A8
102
{ACAD_REACTORS
330
1A7
102
}
330
1A7
100
AcDbXrecord
280
     1
102
RTVSPost2010Prop28
280
     0
102
RTVSPost2010PropOp28
 70
     0
102
RTVSPost2010Prop29
280
     1
102
RTVSPost2010PropOp29
 70
     0
102
RTVSPost2010Prop30
280
     1
102
RTVSPost2010PropOp30
 70
     0
102
RTVSPost2010Prop31
280
     0
102
RTVSPost2010PropOp31
 70
     0
102
RTVSPost2010Prop32
280
     0
102
RTVSPost2010PropOp32
 70
     0
102
RTVSPost2010Prop33
280
     0
102
RTVSPost2010PropOp33
 70
     0
102
RTVSPost2010Prop34
280
     0
102
RTVSPost2010PropOp34
 70
     0
102
RTVSPost2010Prop35
280
     0
102
RTVSPost2010PropOp35
 70
     0
102
RTVSPost2010Prop36
280
     0
102
RTVSPost2010PropOp36
 70
     0
102
RTVSPost2010Prop37
 90
       50
102
RTVSPost2010PropOp37
 70
     0
102
RTVSPost2010Prop38
140
0.0
102
RTVSPost2010PropOp38
 70
     0
102
RTVSPost2010Prop39
140
1.0
102
RTVSPost2010PropOp39
 70
     0
102
RTVSPost2010Prop40
 90
        0
102
RTVSPost2010PropOp40
 70
     0
102
RTVSPost2010Prop41ColorIndex
 90
       18
102
RTVSPost2010Prop41ColorRGB
 90
        0
102
RTVSPost2010PropOp41
 70
     0
102
RTVSPost2010Prop42
 90
       50
102
RTVSPost2010PropOp42
 70
     0
102
RTVSPost2010Prop43
 90
        3
102
RTVSPost2010PropOp43
 70
     0
102
RTVSPost2010Prop44ColorIndex
 90
        5
102
RTVSPost2010Prop44ColorRGB
 90
      255
102
RTVSPost2010PropOp44
 70
     0
102
RTVSPost2010Prop45
280
     0
102
RTVSPost2010PropOp45
 70
     0
102
RTVSPost2010Prop46
 90
       50
102
RTVSPost2010PropOp46
 70
     0
102
RTVSPost2010Prop47
 90
       50
102
RTVSPost2010PropOp47
 70
     0
102
RTVSPost2010Prop48
 90
       50
102
RTVSPost2010PropOp48
 70
     0
102
RTVSPost2010Prop49
280
     0
102
RTVSPost2010PropOp49
 70
     0
102
RTVSPost2010Prop50
 90
       50
102
RTVSPost2010PropOp50
 70
     0
102
RTVSPost2010Prop51ColorIndex
 90
      256
102
RTVSPost2010Prop51ColorRGB
 90
-16777216
102
RTVSPost2010PropOp51
 70
     0
102
RTVSPost2010Prop52
140
1.0
102
RTVSPost2010PropOp52
 70
     0
102
RTVSPost2010Prop53
 90
        2
102
RTVSPost2010PropOp53
 70
     0
102
RTVSPost2010Prop54
  1
strokes_ogs.tif
102
RTVSPost2010PropOp54
 70
     0
102
RTVSPost2010Prop55
280
     0
102
RTVSPost2010PropOp55
 70
     0
102
RTVSPost2010Prop56
140
1.0
102
RTVSPost2010PropOp56
 70
     0
102
RTVSPost2010Prop57
140
1.0
102
RTVSPost2010PropOp57
 70
     0
  0
XRECORD
  5
18E
102
{ACAD_REACTORS
330
18D
102
}
330
18D
100
AcDbXrecord
280
     1
102
RTVSPost2010Prop28
280
     0
102
RTVSPost2010PropOp28
 70
     1
102
RTVSPost2010Prop29
280
     1
102
RTVSPost2010PropOp29
 70
     1
102
RTVSPost2010Prop30
280
     1
102
RTVSPost2010PropOp30
 70
     1
102
RTVSPost2010Prop31
280
     0
102
RTVSPost2010PropOp31
 70
     1
102
RTVSPost2010Prop32
280
     0
102
RTVSPost2010PropOp32
 70
     1
102
RTVSPost2010Prop33
280
     0
102
RTVSPost2010PropOp33
 70
     1
102
RTVSPost2010Prop34
280
     0
102
RTVSPost2010PropOp34
 70
     1
102
RTVSPost2010Prop35
280
     0
102
RTVSPost2010PropOp35
 70
     1
102
RTVSPost2010Prop36
280
     0
102
RTVSPost2010PropOp36
 70
     1
102
RTVSPost2010Prop37
 90
       50
102
RTVSPost2010PropOp37
 70
     1
102
RTVSPost2010Prop38
140
0.0
102
RTVSPost2010PropOp38
 70
     1
102
RTVSPost2010Prop39
140
1.0
102
RTVSPost2010PropOp39
 70
     1
102
RTVSPost2010Prop40
 90
        0
102
RTVSPost2010PropOp40
 70
     1
102
RTVSPost2010Prop41ColorIndex
 90
       18
102
RTVSPost2010Prop41ColorRGB
 90
        0
102
RTVSPost2010PropOp41
 70
     1
102
RTVSPost2010Prop42
 90
       50
102
RTVSPost2010PropOp42
 70
     1
102
RTVSPost2010Prop43
 90
        3
102
RTVSPost2010PropOp43
 70
     1
102
RTVSPost2010Prop44ColorIndex
 90
        5
102
RTVSPost2010Prop44ColorRGB
 90
      255
102
RTVSPost2010PropOp44
 70
     1
102
RTVSPost2010Prop45
280
     0
102
RTVSPost2010PropOp45
 70
     1
102
RTVSPost2010Prop46
 90
       50
102
RTVSPost2010PropOp46
 70
     1
102
RTVSPost2010Prop47
 90
       50
102
RTVSPost2010PropOp47
 70
     1
102
RTVSPost2010Prop48
 90
       50
102
RTVSPost2010PropOp48
 70
     1
102
RTVSPost2010Prop49
280
     0
102
RTVSPost2010PropOp49
 70
     1
102
RTVSPost2010Prop50
 90
       50
102
RTVSPost2010PropOp50
 70
     1
102
RTVSPost2010Prop51ColorIndex
 90
      256
102
RTVSPost2010Prop51ColorRGB
 90
-16777216
102
RTVSPost2010PropOp51
 70
     0
102
RTVSPost2010Prop52
140
1.0
102
RTVSPost2010PropOp52
 70
     0
102
RTVSPost2010Prop53
 90
        2
102
RTVSPost2010PropOp53
 70
     1
102
RTVSPost2010Prop54
  1
strokes_ogs.tif
102
RTVSPost2010PropOp54
 70
     1
102
RTVSPost2010Prop55
280
     0
102
RTVSPost2010PropOp55
 70
     1
102
RTVSPost2010Prop56
140
1.0
102
RTVSPost2010PropOp56
 70
     1
102
RTVSPost2010Prop57
140
1.0
102
RTVSPost2010PropOp57
 70
     1
  0
XRECORD
  5
1A4
102
{ACAD_REACTORS
330
1A3
102
}
330
1A3
100
AcDbXrecord
280
     1
102
RTVSPost2010Prop28
280
     0
102
RTVSPost2010PropOp28
 70
     1
102
RTVSPost2010Prop29
280
     1
102
RTVSPost2010PropOp29
 70
     1
102
RTVSPost2010Prop30
280
     1
102
RTVSPost2010PropOp30
 70
     1
102
RTVSPost2010Prop31
280
     0
102
RTVSPost2010PropOp31
 70
     1
102
RTVSPost2010Prop32
280
     0
102
RTVSPost2010PropOp32
 70
     1
102
RTVSPost2010Prop33
280
     0
102
RTVSPost2010PropOp33
 70
     1
102
RTVSPost2010Prop34
280
     0
102
RTVSPost2010PropOp34
 70
     1
102
RTVSPost2010Prop35
280
     0
102
RTVSPost2010PropOp35
 70
     1
102
RTVSPost2010Prop36
280
     0
102
RTVSPost2010PropOp36
 70
     1
102
RTVSPost2010Prop37
 90
       50
102
RTVSPost2010PropOp37
 70
     1
102
RTVSPost2010Prop38
140
0.0
102
RTVSPost2010PropOp38
 70
     1
102
RTVSPost2010Prop39
140
1.0
102
RTVSPost2010PropOp39
 70
     1
102
RTVSPost2010Prop40
 90
        0
102
RTVSPost2010PropOp40
 70
     1
102
RTVSPost2010Prop41ColorIndex
 90
       18
102
RTVSPost2010Prop41ColorRGB
 90
        0
102
RTVSPost2010PropOp41
 70
     1
102
RTVSPost2010Prop42
 90
       50
102
RTVSPost2010PropOp42
 70
     1
102
RTVSPost2010Prop43
 90
        3
102
RTVSPost2010PropOp43
 70
     1
102
RTVSPost2010Prop44ColorIndex
 90
        5
102
RTVSPost2010Prop44ColorRGB
 90
      255
102
RTVSPost2010PropOp44
 70
     1
102
RTVSPost2010Prop45
280
     0
102
RTVSPost2010PropOp45
 70
     1
102
RTVSPost2010Prop46
 90
       50
102
RTVSPost2010PropOp46
 70
     1
102
RTVSPost2010Prop47
 90
       50
102
RTVSPost2010PropOp47
 70
     1
102
RTVSPost2010Prop48
 90
       50
102
RTVSPost2010PropOp48
 70
     1
102
RTVSPost2010Prop49
280
     0
102
RTVSPost2010PropOp49
 70
     1
102
RTVSPost2010Prop50
 90
       50
102
RTVSPost2010PropOp50
 70
     1
102
RTVSPost2010Prop51ColorIndex
 90
      256
102
RTVSPost2010Prop51ColorRGB
 90
-16777216
102
RTVSPost2010PropOp51
 70
     0
102
RTVSPost2010Prop52
140
1.0
102
RTVSPost2010PropOp52
 70
     0
102
RTVSPost2010Prop53
 90
        2
102
RTVSPost2010PropOp53
 70
     1
102
RTVSPost2010Prop54
  1
strokes_ogs.tif
102
RTVSPost2010PropOp54
 70
     1
102
RTVSPost2010Prop55
280
     0
102
RTVSPost2010PropOp55
 70
     1
102
RTVSPost2010Prop56
140
1.0
102
RTVSPost2010PropOp56
 70
     1
102
RTVSPost2010Prop57
140
1.0
102
RTVSPost2010PropOp57
 70
     1
  0
XRECORD
  5
1A2
102
{ACAD_REACTORS
330
1A1
102
}
330
1A1
100
AcDbXrecord
280
     1
102
RTVSPost2010Prop28
280
     0
102
RTVSPost2010PropOp28
 70
     1
102
RTVSPost2010Prop29
280
     1
102
RTVSPost2010PropOp29
 70
     1
102
RTVSPost2010Prop30
280
     1
102
RTVSPost2010PropOp30
 70
     1
102
RTVSPost2010Prop31
280
     0
102
RTVSPost2010PropOp31
 70
     1
102
RTVSPost2010Prop32
280
     0
102
RTVSPost2010PropOp32
 70
     1
102
RTVSPost2010Prop33
280
     0
102
RTVSPost2010PropOp33
 70
     1
102
RTVSPost2010Prop34
280
     0
102
RTVSPost2010PropOp34
 70
     1
102
RTVSPost2010Prop35
280
     0
102
RTVSPost2010PropOp35
 70
     1
102
RTVSPost2010Prop36
280
     0
102
RTVSPost2010PropOp36
 70
     1
102
RTVSPost2010Prop37
 90
       50
102
RTVSPost2010PropOp37
 70
     1
102
RTVSPost2010Prop38
140
0.0
102
RTVSPost2010PropOp38
 70
     1
102
RTVSPost2010Prop39
140
1.0
102
RTVSPost2010PropOp39
 70
     1
102
RTVSPost2010Prop40
 90
        0
102
RTVSPost2010PropOp40
 70
     1
102
RTVSPost2010Prop41ColorIndex
 90
       18
102
RTVSPost2010Prop41ColorRGB
 90
        0
102
RTVSPost2010PropOp41
 70
     1
102
RTVSPost2010Prop42
 90
       50
102
RTVSPost2010PropOp42
 70
     1
102
RTVSPost2010Prop43
 90
        3
102
RTVSPost2010PropOp43
 70
     1
102
RTVSPost2010Prop44ColorIndex
 90
        5
102
RTVSPost2010Prop44ColorRGB
 90
      255
102
RTVSPost2010PropOp44
 70
     1
102
RTVSPost2010Prop45
280
     0
102
RTVSPost2010PropOp45
 70
     1
102
RTVSPost2010Prop46
 90
       50
102
RTVSPost2010PropOp46
 70
     1
102
RTVSPost2010Prop47
 90
       50
102
RTVSPost2010PropOp47
 70
     1
102
RTVSPost2010Prop48
 90
       50
102
RTVSPost2010PropOp48
 70
     1
102
RTVSPost2010Prop49
280
     0
102
RTVSPost2010PropOp49
 70
     1
102
RTVSPost2010Prop50
 90
       50
102
RTVSPost2010PropOp50
 70
     1
102
RTVSPost2010Prop51ColorIndex
 90
      256
102
RTVSPost2010Prop51ColorRGB
 90
-16777216
102
RTVSPost2010PropOp51
 70
     0
102
RTVSPost2010Prop52
140
1.0
102
RTVSPost2010PropOp52
 70
     0
102
RTVSPost2010Prop53
 90
        2
102
RTVSPost2010PropOp53
 70
     1
102
RTVSPost2010Prop54
  1
strokes_ogs.tif
102
RTVSPost2010PropOp54
 70
     1
102
RTVSPost2010Prop55
280
     0
102
RTVSPost2010PropOp55
 70
     1
102
RTVSPost2010Prop56
140
1.0
102
RTVSPost2010PropOp56
 70
     1
102
RTVSPost2010Prop57
140
1.0
102
RTVSPost2010PropOp57
 70
     1
  0
XRECORD
  5
19C
102
{ACAD_REACTORS
330
19B
102
}
330
19B
100
AcDbXrecord
280
     1
102
RTVSPost2010Prop28
280
     0
102
RTVSPost2010PropOp28
 70
     1
102
RTVSPost2010Prop29
280
     1
102
RTVSPost2010PropOp29
 70
     1
102
RTVSPost2010Prop30
280
     1
102
RTVSPost2010PropOp30
 70
     1
102
RTVSPost2010Prop31
280
     0
102
RTVSPost2010PropOp31
 70
     1
102
RTVSPost2010Prop32
280
     0
102
RTVSPost2010PropOp32
 70
     1
102
RTVSPost2010Prop33
280
     0
102
RTVSPost2010PropOp33
 70
     1
102
RTVSPost2010Prop34
280
     0
102
RTVSPost2010PropOp34
 70
     1
102
RTVSPost2010Prop35
280
     0
102
RTVSPost2010PropOp35
 70
     1
102
RTVSPost2010Prop36
280
     0
102
RTVSPost2010PropOp36
 70
     1
102
RTVSPost2010Prop37
 90
       50
102
RTVSPost2010PropOp37
 70
     1
102
RTVSPost2010Prop38
140
0.0
102
RTVSPost2010PropOp38
 70
     1
102
RTVSPost2010Prop39
140
1.0
102
RTVSPost2010PropOp39
 70
     1
102
RTVSPost2010Prop40
 90
        0
102
RTVSPost2010PropOp40
 70
     1
102
RTVSPost2010Prop41ColorIndex
 90
       18
102
RTVSPost2010Prop41ColorRGB
 90
        0
102
RTVSPost2010PropOp41
 70
     1
102
RTVSPost2010Prop42
 90
       50
102
RTVSPost2010PropOp42
 70
     1
102
RTVSPost2010Prop43
 90
        3
102
RTVSPost2010PropOp43
 70
     1
102
RTVSPost2010Prop44ColorIndex
 90
        5
102
RTVSPost2010Prop44ColorRGB
 90
      255
102
RTVSPost2010PropOp44
 70
     1
102
RTVSPost2010Prop45
280
     0
102
RTVSPost2010PropOp45
 70
     1
102
RTVSPost2010Prop46
 90
       50
102
RTVSPost2010PropOp46
 70
     1
102
RTVSPost2010Prop47
 90
       50
102
RTVSPost2010PropOp47
 70
     1
102
RTVSPost2010Prop48
 90
       50
102
RTVSPost2010PropOp48
 70
     1
102
RTVSPost2010Prop49
280
     0
102
RTVSPost2010PropOp49
 70
     1
102
RTVSPost2010Prop50
 90
       50
102
RTVSPost2010PropOp50
 70
     1
102
RTVSPost2010Prop51ColorIndex
 90
      256
102
RTVSPost2010Prop51ColorRGB
 90
-16777216
102
RTVSPost2010PropOp51
 70
     0
102
RTVSPost2010Prop52
140
1.0
102
RTVSPost2010PropOp52
 70
     0
102
RTVSPost2010Prop53
 90
        2
102
RTVSPost2010PropOp53
 70
     1
102
RTVSPost2010Prop54
  1
strokes_ogs.tif
102
RTVSPost2010PropOp54
 70
     1
102
RTVSPost2010Prop55
280
     0
102
RTVSPost2010PropOp55
 70
     1
102
RTVSPost2010Prop56
140
1.0
102
RTVSPost2010PropOp56
 70
     1
102
RTVSPost2010Prop57
140
1.0
102
RTVSPost2010PropOp57
 70
     1
  0
XRECORD
  5
19E
102
{ACAD_REACTORS
330
19D
102
}
330
19D
100
AcDbXrecord
280
     1
102
RTVSPost2010Prop28
280
     0
102
RTVSPost2010PropOp28
 70
     1
102
RTVSPost2010Prop29
280
     1
102
RTVSPost2010PropOp29
 70
     1
102
RTVSPost2010Prop30
280
     1
102
RTVSPost2010PropOp30
 70
     1
102
RTVSPost2010Prop31
280
     0
102
RTVSPost2010PropOp31
 70
     1
102
RTVSPost2010Prop32
280
     0
102
RTVSPost2010PropOp32
 70
     1
102
RTVSPost2010Prop33
280
     0
102
RTVSPost2010PropOp33
 70
     1
102
RTVSPost2010Prop34
280
     0
102
RTVSPost2010PropOp34
 70
     1
102
RTVSPost2010Prop35
280
     0
102
RTVSPost2010PropOp35
 70
     1
102
RTVSPost2010Prop36
280
     0
102
RTVSPost2010PropOp36
 70
     1
102
RTVSPost2010Prop37
 90
       50
102
RTVSPost2010PropOp37
 70
     1
102
RTVSPost2010Prop38
140
0.0
102
RTVSPost2010PropOp38
 70
     1
102
RTVSPost2010Prop39
140
1.0
102
RTVSPost2010PropOp39
 70
     1
102
RTVSPost2010Prop40
 90
        0
102
RTVSPost2010PropOp40
 70
     1
102
RTVSPost2010Prop41ColorIndex
 90
       18
102
RTVSPost2010Prop41ColorRGB
 90
        0
102
RTVSPost2010PropOp41
 70
     1
102
RTVSPost2010Prop42
 90
       50
102
RTVSPost2010PropOp42
 70
     1
102
RTVSPost2010Prop43
 90
        3
102
RTVSPost2010PropOp43
 70
     1
102
RTVSPost2010Prop44ColorIndex
 90
        5
102
RTVSPost2010Prop44ColorRGB
 90
      255
102
RTVSPost2010PropOp44
 70
     1
102
RTVSPost2010Prop45
280
     0
102
RTVSPost2010PropOp45
 70
     1
102
RTVSPost2010Prop46
 90
       50
102
RTVSPost2010PropOp46
 70
     1
102
RTVSPost2010Prop47
 90
       50
102
RTVSPost2010PropOp47
 70
     1
102
RTVSPost2010Prop48
 90
       50
102
RTVSPost2010PropOp48
 70
     1
102
RTVSPost2010Prop49
280
     0
102
RTVSPost2010PropOp49
 70
     1
102
RTVSPost2010Prop50
 90
       50
102
RTVSPost2010PropOp50
 70
     1
102
RTVSPost2010Prop51ColorIndex
 90
      256
102
RTVSPost2010Prop51ColorRGB
 90
-16777216
102
RTVSPost2010PropOp51
 70
     0
102
RTVSPost2010Prop52
140
1.0
102
RTVSPost2010PropOp52
 70
     0
102
RTVSPost2010Prop53
 90
        2
102
RTVSPost2010PropOp53
 70
     1
102
RTVSPost2010Prop54
  1
strokes_ogs.tif
102
RTVSPost2010PropOp54
 70
     1
102
RTVSPost2010Prop55
280
     0
102
RTVSPost2010PropOp55
 70
     1
102
RTVSPost2010Prop56
140
1.0
102
RTVSPost2010PropOp56
 70
     1
102
RTVSPost2010Prop57
140
1.0
102
RTVSPost2010PropOp57
 70
     1
  0
XRECORD
  5
194
102
{ACAD_REACTORS
330
193
102
}
330
193
100
AcDbXrecord
280
     1
102
RTVSPost2010Prop28
280
     0
102
RTVSPost2010PropOp28
 70
     1
102
RTVSPost2010Prop29
280
     1
102
RTVSPost2010PropOp29
 70
     1
102
RTVSPost2010Prop30
280
     1
102
RTVSPost2010PropOp30
 70
     1
102
RTVSPost2010Prop31
280
     0
102
RTVSPost2010PropOp31
 70
     1
102
RTVSPost2010Prop32
280
     0
102
RTVSPost2010PropOp32
 70
     1
102
RTVSPost2010Prop33
280
     0
102
RTVSPost2010PropOp33
 70
     1
102
RTVSPost2010Prop34
280
     0
102
RTVSPost2010PropOp34
 70
     1
102
RTVSPost2010Prop35
280
     0
102
RTVSPost2010PropOp35
 70
     1
102
RTVSPost2010Prop36
280
     0
102
RTVSPost2010PropOp36
 70
     1
102
RTVSPost2010Prop37
 90
       50
102
RTVSPost2010PropOp37
 70
     1
102
RTVSPost2010Prop38
140
0.0
102
RTVSPost2010PropOp38
 70
     1
102
RTVSPost2010Prop39
140
1.0
102
RTVSPost2010PropOp39
 70
     1
102
RTVSPost2010Prop40
 90
        0
102
RTVSPost2010PropOp40
 70
     1
102
RTVSPost2010Prop41ColorIndex
 90
       18
102
RTVSPost2010Prop41ColorRGB
 90
        0
102
RTVSPost2010PropOp41
 70
     1
102
RTVSPost2010Prop42
 90
       50
102
RTVSPost2010PropOp42
 70
     1
102
RTVSPost2010Prop43
 90
        3
102
RTVSPost2010PropOp43
 70
     1
102
RTVSPost2010Prop44ColorIndex
 90
        5
102
RTVSPost2010Prop44ColorRGB
 90
      255
102
RTVSPost2010PropOp44
 70
     1
102
RTVSPost2010Prop45
280
     0
102
RTVSPost2010PropOp45
 70
     1
102
RTVSPost2010Prop46
 90
       50
102
RTVSPost2010PropOp46
 70
     1
102
RTVSPost2010Prop47
 90
       50
102
RTVSPost2010PropOp47
 70
     1
102
RTVSPost2010Prop48
 90
       50
102
RTVSPost2010PropOp48
 70
     1
102
RTVSPost2010Prop49
280
     0
102
RTVSPost2010PropOp49
 70
     1
102
RTVSPost2010Prop50
 90
       50
102
RTVSPost2010PropOp50
 70
     1
102
RTVSPost2010Prop51ColorIndex
 90
      256
102
RTVSPost2010Prop51ColorRGB
 90
-16777216
102
RTVSPost2010PropOp51
 70
     0
102
RTVSPost2010Prop52
140
1.0
102
RTVSPost2010PropOp52
 70
     0
102
RTVSPost2010Prop53
 90
        2
102
RTVSPost2010PropOp53
 70
     1
102
RTVSPost2010Prop54
  1
strokes_ogs.tif
102
RTVSPost2010PropOp54
 70
     1
102
RTVSPost2010Prop55
280
     0
102
RTVSPost2010PropOp55
 70
     1
102
RTVSPost2010Prop56
140
1.0
102
RTVSPost2010PropOp56
 70
     1
102
RTVSPost2010Prop57
140
1.0
102
RTVSPost2010PropOp57
 70
     1
  0
XRECORD
  5
188
102
{ACAD_REACTORS
330
187
102
}
330
187
100
AcDbXrecord
280
     1
102
RTVSPost2010Prop28
280
     0
102
RTVSPost2010PropOp28
 70
     1
102
RTVSPost2010Prop29
280
     1
102
RTVSPost2010PropOp29
 70
     1
102
RTVSPost2010Prop30
280
     1
102
RTVSPost2010PropOp30
 70
     1
102
RTVSPost2010Prop31
280
     0
102
RTVSPost2010PropOp31
 70
     1
102
RTVSPost2010Prop32
280
     0
102
RTVSPost2010PropOp32
 70
     1
102
RTVSPost2010Prop33
280
     0
102
RTVSPost2010PropOp33
 70
     1
102
RTVSPost2010Prop34
280
     0
102
RTVSPost2010PropOp34
 70
     1
102
RTVSPost2010Prop35
280
     0
102
RTVSPost2010PropOp35
 70
     1
102
RTVSPost2010Prop36
280
     0
102
RTVSPost2010PropOp36
 70
     1
102
RTVSPost2010Prop37
 90
       50
102
RTVSPost2010PropOp37
 70
     1
102
RTVSPost2010Prop38
140
0.0
102
RTVSPost2010PropOp38
 70
     1
102
RTVSPost2010Prop39
140
1.0
102
RTVSPost2010PropOp39
 70
     1
102
RTVSPost2010Prop40
 90
        0
102
RTVSPost2010PropOp40
 70
     1
102
RTVSPost2010Prop41ColorIndex
 90
       18
102
RTVSPost2010Prop41ColorRGB
 90
        0
102
RTVSPost2010PropOp41
 70
     1
102
RTVSPost2010Prop42
 90
       50
102
RTVSPost2010PropOp42
 70
     1
102
RTVSPost2010Prop43
 90
        3
102
RTVSPost2010PropOp43
 70
     1
102
RTVSPost2010Prop44ColorIndex
 90
        5
102
RTVSPost2010Prop44ColorRGB
 90
      255
102
RTVSPost2010PropOp44
 70
     1
102
RTVSPost2010Prop45
280
     0
102
RTVSPost2010PropOp45
 70
     1
102
RTVSPost2010Prop46
 90
       50
102
RTVSPost2010PropOp46
 70
     1
102
RTVSPost2010Prop47
 90
       50
102
RTVSPost2010PropOp47
 70
     1
102
RTVSPost2010Prop48
 90
       50
102
RTVSPost2010PropOp48
 70
     1
102
RTVSPost2010Prop49
280
     0
102
RTVSPost2010PropOp49
 70
     1
102
RTVSPost2010Prop50
 90
       50
102
RTVSPost2010PropOp50
 70
     1
102
RTVSPost2010Prop51ColorIndex
 90
      256
102
RTVSPost2010Prop51ColorRGB
 90
-16777216
102
RTVSPost2010PropOp51
 70
     0
102
RTVSPost2010Prop52
140
1.0
102
RTVSPost2010PropOp52
 70
     0
102
RTVSPost2010Prop53
 90
        2
102
RTVSPost2010PropOp53
 70
     1
102
RTVSPost2010Prop54
  1
strokes_ogs.tif
102
RTVSPost2010PropOp54
 70
     1
102
RTVSPost2010Prop55
280
     0
102
RTVSPost2010PropOp55
 70
     1
102
RTVSPost2010Prop56
140
1.0
102
RTVSPost2010PropOp56
 70
     1
102
RTVSPost2010Prop57
140
1.0
102
RTVSPost2010PropOp57
 70
     1
  0
XRECORD
  5
1A0
102
{ACAD_REACTORS
330
19F
102
}
330
19F
100
AcDbXrecord
280
     1
102
RTVSPost2010Prop28
280
     0
102
RTVSPost2010PropOp28
 70
     1
102
RTVSPost2010Prop29
280
     1
102
RTVSPost2010PropOp29
 70
     1
102
RTVSPost2010Prop30
280
     1
102
RTVSPost2010PropOp30
 70
     1
102
RTVSPost2010Prop31
280
     0
102
RTVSPost2010PropOp31
 70
     1
102
RTVSPost2010Prop32
280
     0
102
RTVSPost2010PropOp32
 70
     1
102
RTVSPost2010Prop33
280
     0
102
RTVSPost2010PropOp33
 70
     1
102
RTVSPost2010Prop34
280
     0
102
RTVSPost2010PropOp34
 70
     1
102
RTVSPost2010Prop35
280
     0
102
RTVSPost2010PropOp35
 70
     1
102
RTVSPost2010Prop36
280
     0
102
RTVSPost2010PropOp36
 70
     1
102
RTVSPost2010Prop37
 90
       50
102
RTVSPost2010PropOp37
 70
     1
102
RTVSPost2010Prop38
140
0.0
102
RTVSPost2010PropOp38
 70
     1
102
RTVSPost2010Prop39
140
1.0
102
RTVSPost2010PropOp39
 70
     1
102
RTVSPost2010Prop40
 90
        0
102
RTVSPost2010PropOp40
 70
     1
102
RTVSPost2010Prop41ColorIndex
 90
       18
102
RTVSPost2010Prop41ColorRGB
 90
        0
102
RTVSPost2010PropOp41
 70
     1
102
RTVSPost2010Prop42
 90
       50
102
RTVSPost2010PropOp42
 70
     1
102
RTVSPost2010Prop43
 90
        3
102
RTVSPost2010PropOp43
 70
     1
102
RTVSPost2010Prop44ColorIndex
 90
        5
102
RTVSPost2010Prop44ColorRGB
 90
      255
102
RTVSPost2010PropOp44
 70
     1
102
RTVSPost2010Prop45
280
     0
102
RTVSPost2010PropOp45
 70
     1
102
RTVSPost2010Prop46
 90
       50
102
RTVSPost2010PropOp46
 70
     1
102
RTVSPost2010Prop47
 90
       50
102
RTVSPost2010PropOp47
 70
     1
102
RTVSPost2010Prop48
 90
       50
102
RTVSPost2010PropOp48
 70
     1
102
RTVSPost2010Prop49
280
     0
102
RTVSPost2010PropOp49
 70
     1
102
RTVSPost2010Prop50
 90
       50
102
RTVSPost2010PropOp50
 70
     1
102
RTVSPost2010Prop51ColorIndex
 90
      256
102
RTVSPost2010Prop51ColorRGB
 90
-16777216
102
RTVSPost2010PropOp51
 70
     0
102
RTVSPost2010Prop52
140
1.0
102
RTVSPost2010PropOp52
 70
     0
102
RTVSPost2010Prop53
 90
        2
102
RTVSPost2010PropOp53
 70
     1
102
RTVSPost2010Prop54
  1
strokes_ogs.tif
102
RTVSPost2010PropOp54
 70
     1
102
RTVSPost2010Prop55
280
     0
102
RTVSPost2010PropOp55
 70
     1
102
RTVSPost2010Prop56
140
1.0
102
RTVSPost2010PropOp56
 70
     1
102
RTVSPost2010Prop57
140
1.0
102
RTVSPost2010PropOp57
 70
     1
  0
ENDSEC
  0
EOF
