  0
SECTION
  2
HEADER
  9
$ACADVER
  1
AC1024
  9
$ACADMAINTVER
 70
   205
  9
$DWGCODEPAGE
  3
ANSI_1251
  9
$INSBASE
 10
0.0
 20
0.0
 30
0.0
  9
$EXTMIN
 10
1.000000000000000E+20
 20
1.000000000000000E+20
 30
1.000000000000000E+20
  9
$EXTMAX
 10
-1.000000000000000E+20
 20
-1.000000000000000E+20
 30
-1.000000000000000E+20
  9
$LIMMIN
 10
0.0
 20
0.0
  9
$LIMMAX
 10
12.0
 20
9.0
  9
$ORTHOMODE
 70
     0
  9
$REGENMODE
 70
     1
  9
$FILLMODE
 70
     1
  9
$QTEXTMODE
 70
     0
  9
$MIRRTEXT
 70
     1
  9
$LTSCALE
 40
1.0
  9
$ATTMODE
 70
     1
  9
$TEXTSIZE
 40
0.2
  9
$TRACEWID
 40
0.05
  9
$TEXTSTYLE
  7
Standard
  9
$CLAYER
  8
OracDecor_panel_moldings
  9
$CELTYPE
  6
ByLayer
  9
$CECOLOR
 62
   256
  9
$CELTSCALE
 40
1.0
  9
$DISPSILH
 70
     0
  9
$DIMSCALE
 40
1.0
  9
$DIMASZ
 40
0.18
  9
$DIMEXO
 40
0.0625
  9
$DIMDLI
 40
0.38
  9
$DIMRND
 40
0.0
  9
$DIMDLE
 40
0.0
  9
$DIMEXE
 40
0.18
  9
$DIMTP
 40
0.0
  9
$DIMTM
 40
0.0
  9
$DIMTXT
 40
0.18
  9
$DIMCEN
 40
0.09
  9
$DIMTSZ
 40
0.0
  9
$DIMTOL
 70
     0
  9
$DIMLIM
 70
     0
  9
$DIMTIH
 70
     1
  9
$DIMTOH
 70
     1
  9
$DIMSE1
 70
     0
  9
$DIMSE2
 70
     0
  9
$DIMTAD
 70
     0
  9
$DIMZIN
 70
     0
  9
$DIMBLK
  1

  9
$DIMASO
 70
     1
  9
$DIMSHO
 70
     1
  9
$DIMPOST
  1

  9
$DIMAPOST
  1

  9
$DIMALT
 70
     0
  9
$DIMALTD
 70
     2
  9
$DIMALTF
 40
25.4
  9
$DIMLFAC
 40
1.0
  9
$DIMTOFL
 70
     0
  9
$DIMTVP
 40
0.0
  9
$DIMTIX
 70
     0
  9
$DIMSOXD
 70
     0
  9
$DIMSAH
 70
     0
  9
$DIMBLK1
  1

  9
$DIMBLK2
  1

  9
$DIMSTYLE
  2
Standard
  9
$DIMCLRD
 70
     0
  9
$DIMCLRE
 70
     0
  9
$DIMCLRT
 70
     0
  9
$DIMTFAC
 40
1.0
  9
$DIMGAP
 40
0.09
  9
$DIMJUST
 70
     0
  9
$DIMSD1
 70
     0
  9
$DIMSD2
 70
     0
  9
$DIMTOLJ
 70
     1
  9
$DIMTZIN
 70
     0
  9
$DIMALTZ
 70
     0
  9
$DIMALTTZ
 70
     0
  9
$DIMUPT
 70
     0
  9
$DIMDEC
 70
     4
  9
$DIMTDEC
 70
     4
  9
$DIMALTU
 70
     2
  9
$DIMALTTD
 70
     2
  9
$DIMTXSTY
  7
Standard
  9
$DIMAUNIT
 70
     0
  9
$DIMADEC
 70
     0
  9
$DIMALTRND
 40
0.0
  9
$DIMAZIN
 70
     0
  9
$DIMDSEP
 70
    46
  9
$DIMATFIT
 70
     3
  9
$DIMFRAC
 70
     0
  9
$DIMLDRBLK
  1

  9
$DIMLUNIT
 70
     2
  9
$DIMLWD
 70
    -2
  9
$DIMLWE
 70
    -2
  9
$DIMTMOVE
 70
     0
  9
$DIMFXL
 40
1.0
  9
$DIMFXLON
 70
     0
  9
$DIMJOGANG
 40
0.7853981633974483
  9
$DIMTFILL
 70
     0
  9
$DIMTFILLCLR
 70
     0
  9
$DIMARCSYM
 70
     0
  9
$DIMLTYPE
  6

  9
$DIMLTEX1
  6

  9
$DIMLTEX2
  6

  9
$DIMTXTDIRECTION
 70
     0
  9
$LUNITS
 70
     2
  9
$LUPREC
 70
     4
  9
$SKETCHINC
 40
0.1
  9
$FILLETRAD
 40
0.5
  9
$AUNITS
 70
     0
  9
$AUPREC
 70
     0
  9
$MENU
  1
.
  9
$ELEVATION
 40
0.0
  9
$PELEVATION
 40
0.0
  9
$THICKNESS
 40
0.0
  9
$LIMCHECK
 70
     0
  9
$CHAMFERA
 40
0.5
  9
$CHAMFERB
 40
0.5
  9
$CHAMFERC
 40
1.0
  9
$CHAMFERD
 40
0.0
  9
$SKPOLY
 70
     0
  9
$TDCREATE
 40
2451380.930432396
  9
$TDUCREATE
 40
2451380.805432396
  9
$TDUPDATE
 40
2451380.966180555
  9
$TDUUPDATE
 40
2451380.841180556
  9
$TDINDWG
 40
0.0075632523
  9
$TDUSRTIMER
 40
0.0075542130
  9
$USRTIMER
 70
     1
  9
$ANGBASE
 50
0.0
  9
$ANGDIR
 70
     0
  9
$PDMODE
 70
     0
  9
$PDSIZE
 40
0.0
  9
$PLINEWID
 40
0.0
  9
$SPLFRAME
 70
     0
  9
$SPLINETYPE
 70
     6
  9
$SPLINESEGS
 70
     8
  9
$HANDSEED
  5
1C9
  9
$SURFTAB1
 70
     6
  9
$SURFTAB2
 70
     6
  9
$SURFTYPE
 70
     6
  9
$SURFU
 70
     6
  9
$SURFV
 70
     6
  9
$UCSBASE
  2

  9
$UCSNAME
  2

  9
$UCSORG
 10
0.0
 20
0.0
 30
0.0
  9
$UCSXDIR
 10
1.0
 20
0.0
 30
0.0
  9
$UCSYDIR
 10
0.0
 20
1.0
 30
0.0
  9
$UCSORTHOREF
  2

  9
$UCSORTHOVIEW
 70
     0
  9
$UCSORGTOP
 10
0.0
 20
0.0
 30
0.0
  9
$UCSORGBOTTOM
 10
0.0
 20
0.0
 30
0.0
  9
$UCSORGLEFT
 10
0.0
 20
0.0
 30
0.0
  9
$UCSORGRIGHT
 10
0.0
 20
0.0
 30
0.0
  9
$UCSORGFRONT
 10
0.0
 20
0.0
 30
0.0
  9
$UCSORGBACK
 10
0.0
 20
0.0
 30
0.0
  9
$PUCSBASE
  2

  9
$PUCSNAME
  2

  9
$PUCSORG
 10
0.0
 20
0.0
 30
0.0
  9
$PUCSXDIR
 10
1.0
 20
0.0
 30
0.0
  9
$PUCSYDIR
 10
0.0
 20
1.0
 30
0.0
  9
$PUCSORTHOREF
  2

  9
$PUCSORTHOVIEW
 70
     0
  9
$PUCSORGTOP
 10
0.0
 20
0.0
 30
0.0
  9
$PUCSORGBOTTOM
 10
0.0
 20
0.0
 30
0.0
  9
$PUCSORGLEFT
 10
0.0
 20
0.0
 30
0.0
  9
$PUCSORGRIGHT
 10
0.0
 20
0.0
 30
0.0
  9
$PUCSORGFRONT
 10
0.0
 20
0.0
 30
0.0
  9
$PUCSORGBACK
 10
0.0
 20
0.0
 30
0.0
  9
$USERI1
 70
     0
  9
$USERI2
 70
     0
  9
$USERI3
 70
     0
  9
$USERI4
 70
     0
  9
$USERI5
 70
     0
  9
$USERR1
 40
0.0
  9
$USERR2
 40
0.0
  9
$USERR3
 40
0.0
  9
$USERR4
 40
0.0
  9
$USERR5
 40
0.0
  9
$WORLDVIEW
 70
     1
  9
$SHADEDGE
 70
     3
  9
$SHADEDIF
 70
    70
  9
$TILEMODE
 70
     1
  9
$MAXACTVP
 70
    64
  9
$PINSBASE
 10
0.0
 20
0.0
 30
0.0
  9
$PLIMCHECK
 70
     0
  9
$PEXTMIN
 10
1.000000000000000E+20
 20
1.000000000000000E+20
 30
1.000000000000000E+20
  9
$PEXTMAX
 10
-1.000000000000000E+20
 20
-1.000000000000000E+20
 30
-1.000000000000000E+20
  9
$PLIMMIN
 10
0.0
 20
0.0
  9
$PLIMMAX
 10
12.0
 20
9.0
  9
$UNITMODE
 70
     0
  9
$VISRETAIN
 70
     1
  9
$PLINEGEN
 70
     0
  9
$PSLTSCALE
 70
     1
  9
$TREEDEPTH
 70
  3020
  9
$CMLSTYLE
  2
Standard
  9
$CMLJUST
 70
     0
  9
$CMLSCALE
 40
1.0
  9
$PROXYGRAPHICS
 70
     1
  9
$MEASUREMENT
 70
     1
  9
$CELWEIGHT
370
    -1
  9
$ENDCAPS
280
     0
  9
$JOINSTYLE
280
     0
  9
$LWDISPLAY
290
     0
  9
$INSUNITS
 70
     4
  9
$HYPERLINKBASE
  1

  9
$STYLESHEET
  1

  9
$XEDIT
290
     1
  9
$CEPSNTYPE
380
     0
  9
$PSTYLEMODE
290
     1
  9
$FINGERPRINTGUID
  2
{12F50282-3ED8-11D3-A8B7-0060B0F84BC6}
  9
$VERSIONGUID
  2
{12F50293-3ED8-11D3-A8B7-0060B0F84BC6}
  9
$EXTNAMES
290
     1
  9
$PSVPSCALE
 40
0.0
  9
$OLESTARTUP
290
     0
  9
$SORTENTS
280
   127
  9
$INDEXCTL
280
     0
  9
$HIDETEXT
280
     0
  9
$XCLIPFRAME
280
     2
  9
$HALOGAP
280
     0
  9
$OBSCOLOR
 70
   257
  9
$OBSLTYPE
280
     0
  9
$INTERSECTIONDISPLAY
280
     0
  9
$INTERSECTIONCOLOR
 70
   257
  9
$DIMASSOC
280
     1
  9
$PROJECTNAME
  1

  9
$CAMERADISPLAY
290
     0
  9
$LENSLENGTH
 40
50.0
  9
$CAMERAHEIGHT
 40
0.0
  9
$STEPSPERSEC
 40
2.0
  9
$STEPSIZE
 40
6.0
  9
$3DDWFPREC
 40
2.0
  9
$PSOLWIDTH
 40
0.25
  9
$PSOLHEIGHT
 40
4.0
  9
$LOFTANG1
 40
1.570796326794896
  9
$LOFTANG2
 40
1.570796326794896
  9
$LOFTMAG1
 40
0.0
  9
$LOFTMAG2
 40
0.0
  9
$LOFTPARAM
 70
     7
  9
$LOFTNORMALS
280
     1
  9
$LATITUDE
 40
37.795
  9
$LONGITUDE
 40
-122.394
  9
$NORTHDIRECTION
 40
0.0
  9
$TIMEZONE
 70
 -8000
  9
$LIGHTGLYPHDISPLAY
280
     1
  9
$TILEMODELIGHTSYNCH
280
     1
  9
$CMATERIAL
347
AB
  9
$SOLIDHIST
280
     0
  9
$SHOWHIST
280
     1
  9
$DWFFRAME
280
     2
  9
$DGNFRAME
280
     0
  9
$REALWORLDSCALE
290
     1
  9
$INTERFERECOLOR
 62
     1
  9
$INTERFEREOBJVS
345
CD
  9
$INTERFEREVPVS
346
CA
  9
$CSHADOW
280
     0
  9
$SHADOWPLANELOCATION
 40
0.0
  0
ENDSEC
  0
SECTION
  2
CLASSES
  0
CLASS
  1
ACDBDICTIONARYWDFLT
  2
AcDbDictionaryWithDefault
  3
ObjectDBX Classes
 90
        0
 91
        1
280
     0
281
     0
  0
CLASS
  1
ACDBPLACEHOLDER
  2
AcDbPlaceHolder
  3
ObjectDBX Classes
 90
        0
 91
        2
280
     0
281
     0
  0
CLASS
  1
LAYOUT
  2
AcDbLayout
  3
ObjectDBX Classes
 90
        0
 91
        3
280
     0
281
     0
  0
CLASS
  1
MATERIAL
  2
AcDbMaterial
  3
ObjectDBX Classes
 90
     1153
 91
        3
280
     0
281
     0
  0
CLASS
  1
VISUALSTYLE
  2
AcDbVisualStyle
  3
ObjectDBX Classes
 90
     4095
 91
       24
280
     0
281
     0
  0
CLASS
  1
TABLESTYLE
  2
AcDbTableStyle
  3
ObjectDBX Classes
 90
     4095
 91
        1
280
     0
281
     0
  0
CLASS
  1
SCALE
  2
AcDbScale
  3
ObjectDBX Classes
 90
     1153
 91
       17
280
     0
281
     0
  0
CLASS
  1
MLEADERSTYLE
  2
AcDbMLeaderStyle
  3
ACDB_MLEADERSTYLE_CLASS
 90
     4095
 91
        1
280
     0
281
     0
  0
CLASS
  1
ACDBSECTIONVIEWSTYLE
  2
AcDbSectionViewStyle
  3
ObjectDBX Classes
 90
     1025
 91
        1
280
     0
281
     0
  0
CLASS
  1
ACDBDETAILVIEWSTYLE
  2
AcDbDetailViewStyle
  3
ObjectDBX Classes
 90
     1025
 91
        1
280
     0
281
     0
  0
CLASS
  1
MESH
  2
AcDbSubDMesh
  3
ObjectDBX Classes
 90
        0
 91
        1
280
     0
281
     1
  0
CLASS
  1
DICTIONARYVAR
  2
AcDbDictionaryVar
  3
ObjectDBX Classes
 90
        0
 91
        9
280
     0
281
     0
  0
CLASS
  1
CELLSTYLEMAP
  2
AcDbCellStyleMap
  3
ObjectDBX Classes
 90
     1152
 91
        1
280
     0
281
     0
  0
ENDSEC
  0
SECTION
  2
TABLES
  0
TABLE
  2
VPORT
  5
8
330
0
100
AcDbSymbolTable
 70
     1
  0
VPORT
  5
A8
330
8
100
AcDbSymbolTableRecord
100
AcDbViewportTableRecord
  2
*Active
 70
     0
 10
0.0
 20
0.0
 11
1.0
 21
1.0
 12
0.0000074178460636
 22
61.64507675170899
 13
0.0
 23
0.0
 14
0.5
 24
0.5
 15
0.5
 25
0.5
 16
-1.0
 26
-1.0
 36
1.0
 17
0.0
 27
0.0
 37
0.0
 40
1163.999008490231
 41
1.507361695749538
 42
50.0
 43
0.0
 44
0.0
 50
0.0
 51
0.0
 71
     0
 72
   100
 73
     1
 74
     3
 75
     0
 76
     0
 77
     0
 78
     0
281
     0
 65
     1
110
0.0
120
0.0
130
0.0
111
1.0
121
0.0
131
0.0
112
0.0
122
1.0
132
0.0
 79
     0
146
0.0
348
C9
 60
     3
 61
     5
292
     1
282
     1
141
0.0
142
0.0
 63
   250
421
  3355443
  0
ENDTAB
  0
TABLE
  2
LTYPE
  5
5
330
0
100
AcDbSymbolTable
 70
     1
  0
LTYPE
  5
14
330
5
100
AcDbSymbolTableRecord
100
AcDbLinetypeTableRecord
  2
ByBlock
 70
     0
  3

 72
    65
 73
     0
 40
0.0
  0
LTYPE
  5
15
330
5
100
AcDbSymbolTableRecord
100
AcDbLinetypeTableRecord
  2
ByLayer
 70
     0
  3

 72
    65
 73
     0
 40
0.0
  0
LTYPE
  5
16
330
5
100
AcDbSymbolTableRecord
100
AcDbLinetypeTableRecord
  2
Continuous
 70
     0
  3
Solid line
 72
    65
 73
     0
 40
0.0
  0
ENDTAB
  0
TABLE
  2
LAYER
  5
2
330
0
100
AcDbSymbolTable
 70
     3
  0
LAYER
  5
10
330
2
100
AcDbSymbolTableRecord
100
AcDbLayerTableRecord
  2
0
 70
     0
 62
     7
  6
Continuous
370
    -3
390
F
347
BB
  0
LAYER
  5
2B
330
2
100
AcDbSymbolTableRecord
100
AcDbLayerTableRecord
  2
ASHADE
 70
     4
 62
     7
  6
Continuous
370
    -3
390
2D
347
BB
  0
LAYER
  5
F8
330
2
100
AcDbSymbolTableRecord
100
AcDbLayerTableRecord
  2
OracDecor_panel_moldings
 70
     0
 62
    24
420
 11541018
  6
Continuous
370
    -3
390
F
347
BB
  0
ENDTAB
  0
TABLE
  2
STYLE
  5
3
330
0
100
AcDbSymbolTable
 70
     2
  0
STYLE
  5
11
330
3
100
AcDbSymbolTableRecord
100
AcDbTextStyleTableRecord
  2
Standard
 70
     0
 40
0.0
 41
1.0
 50
0.0
 71
     0
 42
0.2
  3
txt
  4

  0
STYLE
  5
2C
330
3
100
AcDbSymbolTableRecord
100
AcDbTextStyleTableRecord
  2
ASHADE
 70
     0
 40
0.2
 41
1.0
 50
0.0
 71
     0
 42
0.2
  3
simplex
  4

  0
ENDTAB
  0
TABLE
  2
VIEW
  5
6
330
0
100
AcDbSymbolTable
 70
     0
  0
ENDTAB
  0
TABLE
  2
UCS
  5
7
330
0
100
AcDbSymbolTable
 70
     0
  0
ENDTAB
  0
TABLE
  2
APPID
  5
9
330
0
100
AcDbSymbolTable
 70
     6
  0
APPID
  5
12
330
9
100
AcDbSymbolTableRecord
100
AcDbRegAppTableRecord
  2
ACAD
 70
     0
  0
APPID
  5
8F
330
9
100
AcDbSymbolTableRecord
100
AcDbRegAppTableRecord
  2
AVE_RENDER
 70
     0
  0
APPID
  5
90
330
9
100
AcDbSymbolTableRecord
100
AcDbRegAppTableRecord
  2
AVE_ENTITY_MATERIAL
 70
     0
  0
APPID
  5
9C
330
9
100
AcDbSymbolTableRecord
100
AcDbRegAppTableRecord
  2
AVE_FINISH
 70
     0
  0
APPID
  5
9D
330
9
100
AcDbSymbolTableRecord
100
AcDbRegAppTableRecord
  2
AVE_MATERIAL
 70
     0
  0
APPID
  5
9E
330
9
100
AcDbSymbolTableRecord
100
AcDbRegAppTableRecord
  2
AVE_GLOBAL
 70
     0
  0
ENDTAB
  0
TABLE
  2
DIMSTYLE
  5
A
330
0
100
AcDbSymbolTable
 70
     1
100
AcDbDimStyleTable
 71
     0
  0
DIMSTYLE
105
27
330
A
100
AcDbSymbolTableRecord
100
AcDbDimStyleTableRecord
  2
Standard
 70
     0
340
11
  0
ENDTAB
  0
TABLE
  2
BLOCK_RECORD
  5
1
330
0
100
AcDbSymbolTable
 70
     6
  0
BLOCK_RECORD
  5
1F
330
1
100
AcDbSymbolTableRecord
100
AcDbBlockTableRecord
  2
*Model_Space
340
22
 70
     0
280
     1
281
     0
  0
BLOCK_RECORD
  5
1B
330
1
100
AcDbSymbolTableRecord
100
AcDbBlockTableRecord
  2
*Paper_Space
340
1E
 70
     0
280
     1
281
     0
  0
BLOCK_RECORD
  5
23
330
1
100
AcDbSymbolTableRecord
100
AcDbBlockTableRecord
  2
*Paper_Space0
340
26
 70
     0
280
     1
281
     0
  0
BLOCK_RECORD
  5
2E
330
1
100
AcDbSymbolTableRecord
100
AcDbBlockTableRecord
  2
direct
340
0
 70
     0
280
     1
281
     0
  0
BLOCK_RECORD
  5
42
330
1
100
AcDbSymbolTableRecord
100
AcDbBlockTableRecord
  2
overhead
340
0
 70
     0
280
     1
281
     0
  0
BLOCK_RECORD
  5
5F
330
1
100
AcDbSymbolTableRecord
100
AcDbBlockTableRecord
  2
sh_spot
340
0
 70
     0
280
     1
281
     0
  0
BLOCK_RECORD
  5
91
330
1
100
AcDbSymbolTableRecord
100
AcDbBlockTableRecord
  2
AVE_RENDER
340
0
102
{BLKREFS
331
94
331
95
331
96
331
97
331
98
331
99
331
9A
331
9B
102
}
 70
     0
280
     1
281
     0
  0
BLOCK_RECORD
  5
9F
330
1
100
AcDbSymbolTableRecord
100
AcDbBlockTableRecord
  2
AVE_GLOBAL
340
0
102
{BLKREFS
331
A2
102
}
 70
     0
280
     1
281
     0
  0
ENDTAB
  0
ENDSEC
  0
SECTION
  2
BLOCKS
  0
BLOCK
  5
20
330
1F
100
AcDbEntity
  8
0
100
AcDbBlockBegin
  2
*Model_Space
 70
     0
 10
0.0
 20
0.0
 30
0.0
  3
*Model_Space
  1

  0
ENDBLK
  5
21
330
1F
100
AcDbEntity
  8
0
100
AcDbBlockEnd
  0
BLOCK
  5
1C
330
1B
100
AcDbEntity
 67
     1
  8
0
100
AcDbBlockBegin
  2
*Paper_Space
 70
     0
 10
0.0
 20
0.0
 30
0.0
  3
*Paper_Space
  1

  0
ENDBLK
  5
1D
330
1B
100
AcDbEntity
 67
     1
  8
0
100
AcDbBlockEnd
  0
BLOCK
  5
24
330
23
100
AcDbEntity
 67
     1
  8
0
100
AcDbBlockBegin
  2
*Paper_Space0
 70
     0
 10
0.0
 20
0.0
 30
0.0
  3
*Paper_Space0
  1

  0
ENDBLK
  5
25
330
23
100
AcDbEntity
 67
     1
  8
0
100
AcDbBlockEnd
  0
BLOCK
  5
40
330
2E
100
AcDbEntity
  8
0
100
AcDbBlockBegin
  2
direct
 70
     2
 10
0.0
 20
0.0
 30
0.0
  3
direct
  1

  0
ATTDEF
  5
2F
330
2E
100
AcDbEntity
  8
ASHADE
  6
Continuous
 62
     1
100
AcDbText
 10
0.0
 20
-0.1
 30
0.0
 40
0.2
  1

  7
ASHADE
 72
     1
 11
0.0
 21
-0.1
 31
0.0
100
AcDbAttributeDefinition
280
     0
  3
Light Name
  2
SNAME
 70
     0
280
     0
  0
ARC
  5
30
330
2E
100
AcDbEntity
  8
ASHADE
  6
Continuous
 62
     7
100
AcDbCircle
 10
0.0
 20
0.0
 30
0.0
 40
0.3
100
AcDbArc
 50
205.6792886194569
 51
334.3207113805431
  0
ARC
  5
31
330
2E
100
AcDbEntity
  8
ASHADE
  6
Continuous
 62
     7
100
AcDbCircle
 10
0.0
 20
0.0
 30
0.0
 40
0.3
100
AcDbArc
 50
25.67928861945685
 51
154.3207113805431
  0
LINE
  5
32
330
2E
100
AcDbEntity
  8
ASHADE
  6
Continuous
 62
     7
100
AcDbLine
 10
-0.21
 20
0.2142428528562855
 30
0.0
 11
-0.21
 21
0.5
 31
0.0
  0
LINE
  5
33
330
2E
100
AcDbEntity
  8
ASHADE
  6
Continuous
 62
     7
100
AcDbLine
 10
-0.11
 20
0.2791057147390572
 30
0.0
 11
-0.11
 21
0.5
 31
0.0
  0
LINE
  5
34
330
2E
100
AcDbEntity
  8
ASHADE
  6
Continuous
 62
     7
100
AcDbLine
 10
0.21
 20
0.2142428528562855
 30
0.0
 11
0.21
 21
0.5
 31
0.0
  0
ATTDEF
  5
35
330
2E
100
AcDbEntity
  8
ASHADE
  6
Continuous
 62
     7
100
AcDbText
 10
0.0
 20
0.25
 30
0.0
 40
0.01
  1

100
AcDbAttributeDefinition
280
     0
  3
Look-at Y
  2
LAY
 70
     1
280
     0
  0
ATTDEF
  5
36
330
2E
100
AcDbEntity
  8
ASHADE
  6
Continuous
 62
     7
100
AcDbText
 10
0.0
 20
0.22
 30
0.0
 40
0.01
  1
1
100
AcDbAttributeDefinition
280
     0
  3
Light Intensity
  2
INTENSITY
 70
     1
280
     0
  0
ATTDEF
  5
37
330
2E
100
AcDbEntity
  8
ASHADE
  6
Continuous
 62
     7
100
AcDbText
 10
0.0
 20
0.16
 30
0.0
 40
0.01
  1
-1
100
AcDbAttributeDefinition
280
     0
  3
*not used*
  2
BEAMD
 70
     1
280
     0
  0
ATTDEF
  5
38
330
2E
100
AcDbEntity
  8
ASHADE
  6
Continuous
 62
     7
100
AcDbText
 10
0.0
 20
0.175
 30
0.0
 40
0.01
  1
-1
100
AcDbAttributeDefinition
280
     0
  3
*not used*
  2
CONED
 70
     1
280
     0
  0
ATTDEF
  5
39
330
2E
100
AcDbEntity
  8
ASHADE
  6
Continuous
 62
     7
100
AcDbText
 10
0.0
 20
0.19
 30
0.0
 40
0.01
  1
0
100
AcDbAttributeDefinition
280
     0
  3
Depth Map Size
  2
CONEA
 70
     1
280
     0
  0
ATTDEF
  5
3A
330
2E
100
AcDbEntity
  8
ASHADE
  6
Continuous
 62
     7
100
AcDbText
 10
0.0
 20
0.2050000000000001
 30
0.0
 40
0.01
  1
1,1,1
100
AcDbAttributeDefinition
280
     0
  3
Light Color (RGB)
  2
COLOR
 70
     1
280
     0
  0
ATTDEF
  5
3B
330
2E
100
AcDbEntity
  8
ASHADE
  6
Continuous
 62
     7
100
AcDbText
 10
0.0
 20
0.235
 30
0.0
 40
0.01
  1

100
AcDbAttributeDefinition
280
     0
  3
Look-at Z
  2
LAZ
 70
     1
280
     0
  0
LINE
  5
3C
330
2E
100
AcDbEntity
  8
ASHADE
  6
Continuous
 62
     7
100
AcDbLine
 10
0.0
 20
0.3
 30
0.0
 11
0.0
 21
0.5
 31
0.0
  0
LINE
  5
3D
330
2E
100
AcDbEntity
  8
ASHADE
  6
Continuous
 62
     7
100
AcDbLine
 10
0.11
 20
0.2791057147390572
 30
0.0
 11
0.11
 21
0.5
 31
0.0
  0
ATTDEF
  5
3E
330
2E
100
AcDbEntity
  8
ASHADE
  6
Continuous
 62
     7
100
AcDbText
 10
0.0
 20
0.265
 30
0.0
 40
0.01
  1

100
AcDbAttributeDefinition
280
     0
  3
Look-at X
  2
LAX
 70
     1
280
     0
  0
ATTDEF
  5
3F
330
2E
100
AcDbEntity
  8
ASHADE
  6
Continuous
 62
     7
100
AcDbText
 10
0.0
 20
0.28
 30
0.0
 40
0.01
  1

100
AcDbAttributeDefinition
280
     0
  3

  2
GNAME
 70
     1
280
     0
  0
ENDBLK
  5
41
330
2E
100
AcDbEntity
  8
0
100
AcDbBlockEnd
  0
BLOCK
  5
5D
330
42
100
AcDbEntity
  8
0
100
AcDbBlockBegin
  2
overhead
 70
     2
 10
0.0
 20
0.0
 30
0.0
  3
overhead
  1

  0
ATTDEF
  5
43
330
42
100
AcDbEntity
  8
ASHADE
  6
Continuous
 62
     1
100
AcDbText
 10
0.0
 20
-0.1
 30
0.0
 40
0.2
  1

  7
ASHADE
 72
     1
 11
0.0
 21
-0.1
 31
0.0
100
AcDbAttributeDefinition
280
     0
  3
Light Name
  2
SNAME
 70
     0
280
     0
  0
ARC
  5
44
330
42
100
AcDbEntity
  8
ASHADE
  6
Continuous
 62
     7
100
AcDbCircle
 10
0.0
 20
0.0
 30
0.0
 40
0.3
100
AcDbArc
 50
205.6792886194569
 51
334.3207113805431
  0
LINE
  5
45
330
42
100
AcDbEntity
  8
ASHADE
  6
Continuous
 62
     7
100
AcDbLine
 10
-0.2041413561583015
 20
-0.2198324514393848
 30
0.0
 11
-0.2721884748777353
 21
-0.2931099352525131
 31
0.0
  0
LINE
  5
46
330
42
100
AcDbEntity
  8
ASHADE
  6
Continuous
 62
     7
100
AcDbLine
 10
-0.1096591641591904
 20
-0.2792398032442862
 30
0.0
 11
-0.1279356915190555
 21
-0.3257797704516673
 31
0.0
  0
LINE
  5
47
330
42
100
AcDbEntity
  8
ASHADE
  6
Continuous
 62
     7
100
AcDbLine
 10
0.0
 20
-0.2999999999999999
 30
0.0
 11
0.0
 21
-0.4
 31
0.0
  0
LINE
  5
48
330
42
100
AcDbEntity
  8
ASHADE
  6
Continuous
 62
     7
100
AcDbLine
 10
0.1096591641591904
 20
-0.2792398032442862
 30
0.0
 11
0.1279356915190555
 21
-0.3257797704516673
 31
0.0
  0
LINE
  5
49
330
42
100
AcDbEntity
  8
ASHADE
  6
Continuous
 62
     7
100
AcDbLine
 10
0.2041413561583015
 20
-0.2198324514393848
 30
0.0
 11
0.2721884748777353
 21
-0.2931099352525131
 31
0.0
  0
ARC
  5
4A
330
42
100
AcDbEntity
  8
ASHADE
  6
Continuous
 62
     7
100
AcDbCircle
 10
0.0
 20
0.0
 30
0.0
 40
0.3
100
AcDbArc
 50
25.67928861945685
 51
154.3207113805431
  0
LINE
  5
4B
330
42
100
AcDbEntity
  8
ASHADE
  6
Continuous
 62
     7
100
AcDbLine
 10
-0.2703701166919155
 20
0.13
 30
0.0
 11
-0.3154318028072347
 21
0.1516666666666666
 31
0.0
  0
LINE
  5
4C
330
42
100
AcDbEntity
  8
ASHADE
  6
Continuous
 62
     7
100
AcDbLine
 10
-0.2703701166919155
 20
-0.13
 30
0.0
 11
-0.3154318028072347
 21
-0.1516666666666666
 31
0.0
  0
LINE
  5
4D
330
42
100
AcDbEntity
  8
ASHADE
  6
Continuous
 62
     7
100
AcDbLine
 10
-0.2041413561583015
 20
0.2198324514393849
 30
0.0
 11
-0.2721884748777353
 21
0.2931099352525131
 31
0.0
  0
LINE
  5
4E
330
42
100
AcDbEntity
  8
ASHADE
  6
Continuous
 62
     7
100
AcDbLine
 10
-0.1096591641591904
 20
0.2792398032442862
 30
0.0
 11
-0.1279356915190555
 21
0.3257797704516674
 31
0.0
  0
LINE
  5
4F
330
42
100
AcDbEntity
  8
ASHADE
  6
Continuous
 62
     7
100
AcDbLine
 10
0.2703701166919155
 20
-0.13
 30
0.0
 11
0.3154318028072347
 21
-0.1516666666666666
 31
0.0
  0
LINE
  5
50
330
42
100
AcDbEntity
  8
ASHADE
  6
Continuous
 62
     7
100
AcDbLine
 10
0.2703701166919155
 20
0.13
 30
0.0
 11
0.3154318028072347
 21
0.1516666666666666
 31
0.0
  0
LINE
  5
51
330
42
100
AcDbEntity
  8
ASHADE
  6
Continuous
 62
     7
100
AcDbLine
 10
0.0
 20
0.3
 30
0.0
 11
0.0
 21
0.4
 31
0.0
  0
ATTDEF
  5
52
330
42
100
AcDbEntity
  8
ASHADE
  6
Continuous
 62
     7
100
AcDbText
 10
0.0
 20
0.22
 30
0.0
 40
0.01
  1
1
100
AcDbAttributeDefinition
280
     0
  3
Light Intensity
  2
INTENSITY
 70
     1
280
     0
  0
ATTDEF
  5
53
330
42
100
AcDbEntity
  8
ASHADE
  6
Continuous
 62
     7
100
AcDbText
 10
0.0
 20
0.16
 30
0.0
 40
0.01
  1
-1
100
AcDbAttributeDefinition
280
     0
  3
*not used*
  2
BEAMD
 70
     1
280
     0
  0
ATTDEF
  5
54
330
42
100
AcDbEntity
  8
ASHADE
  6
Continuous
 62
     7
100
AcDbText
 10
0.0
 20
0.175
 30
0.0
 40
0.01
  1
-1
100
AcDbAttributeDefinition
280
     0
  3
*not used*
  2
CONED
 70
     1
280
     0
  0
ATTDEF
  5
55
330
42
100
AcDbEntity
  8
ASHADE
  6
Continuous
 62
     7
100
AcDbText
 10
0.0
 20
0.19
 30
0.0
 40
0.01
  1
0
100
AcDbAttributeDefinition
280
     0
  3
Depth Map Size
  2
CONEA
 70
     1
280
     0
  0
ATTDEF
  5
56
330
42
100
AcDbEntity
  8
ASHADE
  6
Continuous
 62
     7
100
AcDbText
 10
0.0
 20
0.2050000000000001
 30
0.0
 40
0.01
  1
1,1,1
100
AcDbAttributeDefinition
280
     0
  3
Light Color (RGB)
  2
COLOR
 70
     1
280
     0
  0
ATTDEF
  5
57
330
42
100
AcDbEntity
  8
ASHADE
  6
Continuous
 62
     7
100
AcDbText
 10
0.0
 20
0.235
 30
0.0
 40
0.01
  1

100
AcDbAttributeDefinition
280
     0
  3
Look-at Z
  2
LAZ
 70
     1
280
     0
  0
ATTDEF
  5
58
330
42
100
AcDbEntity
  8
ASHADE
  6
Continuous
 62
     7
100
AcDbText
 10
0.0
 20
0.25
 30
0.0
 40
0.01
  1

100
AcDbAttributeDefinition
280
     0
  3
Look-at Y
  2
LAY
 70
     1
280
     0
  0
ATTDEF
  5
59
330
42
100
AcDbEntity
  8
ASHADE
  6
Continuous
 62
     7
100
AcDbText
 10
0.0
 20
0.265
 30
0.0
 40
0.01
  1

100
AcDbAttributeDefinition
280
     0
  3
Look-at X
  2
LAX
 70
     1
280
     0
  0
ATTDEF
  5
5A
330
42
100
AcDbEntity
  8
ASHADE
  6
Continuous
 62
     7
100
AcDbText
 10
0.0
 20
0.28
 30
0.0
 40
0.01
  1

100
AcDbAttributeDefinition
280
     0
  3

  2
GNAME
 70
     1
280
     0
  0
LINE
  5
5B
330
42
100
AcDbEntity
  8
ASHADE
  6
Continuous
 62
     7
100
AcDbLine
 10
0.1096591641591904
 20
0.2792398032442862
 30
0.0
 11
0.1279356915190555
 21
0.3257797704516674
 31
0.0
  0
LINE
  5
5C
330
42
100
AcDbEntity
  8
ASHADE
  6
Continuous
 62
     7
100
AcDbLine
 10
0.2041413561583015
 20
0.2198324514393849
 30
0.0
 11
0.2721884748777353
 21
0.2931099352525131
 31
0.0
  0
ENDBLK
  5
5E
330
42
100
AcDbEntity
  8
0
100
AcDbBlockEnd
  0
BLOCK
  5
85
330
5F
100
AcDbEntity
  8
0
100
AcDbBlockBegin
  2
sh_spot
 70
     2
 10
0.0
 20
0.0
 30
0.0
  3
sh_spot
  1

  0
LINE
  5
60
330
5F
100
AcDbEntity
  8
ASHADE
  6
Continuous
 62
     7
100
AcDbLine
 10
0.25
 20
0.26
 30
0.0
 11
-0.25
 21
0.26
 31
0.0
  0
LINE
  5
61
330
5F
100
AcDbEntity
  8
ASHADE
  6
Continuous
 62
     7
100
AcDbLine
 10
-0.25
 20
-0.3399999999999999
 30
0.0
 11
0.25
 21
-0.3399999999999999
 31
0.0
  0
ATTDEF
  5
62
330
5F
100
AcDbEntity
  8
ASHADE
  6
Continuous
 62
     1
100
AcDbText
 10
0.0
 20
-0.1
 30
0.0
 40
0.2
  1

  7
ASHADE
 72
     1
 11
0.0
 21
-0.1
 31
0.0
100
AcDbAttributeDefinition
280
     0
  3
Light Name
  2
SNAME
 70
     0
280
     0
  0
LINE
  5
63
330
5F
100
AcDbEntity
  8
ASHADE
  6
Continuous
 62
     7
100
AcDbLine
 10
-0.25
 20
-0.13
 30
0.0
 11
-0.25
 21
-0.3399999999999999
 31
0.0
  0
LINE
  5
64
330
5F
100
AcDbEntity
  8
ASHADE
  6
Continuous
 62
     7
100
AcDbLine
 10
-0.25
 20
-0.18
 30
0.0
 11
-0.29
 21
-0.18
 31
0.0
  0
LINE
  5
65
330
5F
100
AcDbEntity
  8
ASHADE
  6
Continuous
 62
     7
100
AcDbLine
 10
-0.29
 20
-0.22
 30
0.0
 11
-0.25
 21
-0.22
 31
0.0
  0
LINE
  5
66
330
5F
100
AcDbEntity
  8
ASHADE
  6
Continuous
 62
     7
100
AcDbLine
 10
-0.29
 20
-0.18
 30
0.0
 11
-0.29
 21
-0.22
 31
0.0
  0
LINE
  5
67
330
5F
100
AcDbEntity
  8
ASHADE
  6
Continuous
 62
     7
100
AcDbLine
 10
-0.1045454545454545
 20
0.26
 30
0.0
 11
-0.15
 21
0.46
 31
0.0
  0
LINE
  5
68
330
5F
100
AcDbEntity
  8
ASHADE
  6
Continuous
 62
     7
100
AcDbLine
 10
-0.21
 20
0.26
 30
0.0
 11
-0.301304347826087
 21
0.46
 31
0.0
  0
LINE
  5
69
330
5F
100
AcDbEntity
  8
ASHADE
  6
Continuous
 62
     7
100
AcDbLine
 10
-0.25
 20
0.26
 30
0.0
 11
-0.25
 21
0.13
 31
0.0
  0
LINE
  5
6A
330
5F
100
AcDbEntity
  8
ASHADE
  6
Continuous
 62
     7
100
AcDbLine
 10
-0.25
 20
0.22
 30
0.0
 11
-0.29
 21
0.22
 31
0.0
  0
LINE
  5
6B
330
5F
100
AcDbEntity
  8
ASHADE
  6
Continuous
 62
     7
100
AcDbLine
 10
-0.29
 20
0.1799999999999999
 30
0.0
 11
-0.25
 21
0.1799999999999999
 31
0.0
  0
LINE
  5
6C
330
5F
100
AcDbEntity
  8
ASHADE
  6
Continuous
 62
     7
100
AcDbLine
 10
-0.29
 20
0.22
 30
0.0
 11
-0.29
 21
0.1799999999999999
 31
0.0
  0
ATTDEF
  5
6D
330
5F
100
AcDbEntity
  8
ASHADE
  6
Continuous
 62
     7
100
AcDbText
 10
0.0
 20
-0.24
 30
0.0
 40
0.01
  1
0
100
AcDbAttributeDefinition
280
     0
  3
Depth Map Size
  2
ZSIZE
 70
     1
280
     0
  0
ATTDEF
  5
6E
330
5F
100
AcDbEntity
  8
ASHADE
  6
Continuous
 62
     7
100
AcDbText
 10
0.0
 20
-0.3300000000000001
 30
0.0
 40
0.01
  1
0,0,0
100
AcDbAttributeDefinition
280
     0
  3
Look-from XYZ
  2
LFXYZ
 70
     1
280
     0
  0
ATTDEF
  5
6F
330
5F
100
AcDbEntity
  8
ASHADE
  6
Continuous
 62
     7
100
AcDbText
 10
0.0
 20
-0.315
 30
0.0
 40
0.01
  1
0.0
100
AcDbAttributeDefinition
280
     0
  3
Beam Distribution
  2
BEAMDI
 70
     1
280
     0
  0
ATTDEF
  5
70
330
5F
100
AcDbEntity
  8
ASHADE
  6
Continuous
 62
     7
100
AcDbText
 10
0.0
 20
-0.3
 30
0.0
 40
0.01
  1
0.0
100
AcDbAttributeDefinition
280
     0
  3
Cone Delta
  2
CONEDE
 70
     1
280
     0
  0
ATTDEF
  5
71
330
5F
100
AcDbEntity
  8
ASHADE
  6
Continuous
 62
     7
100
AcDbText
 10
0.0
 20
-0.2850000000000001
 30
0.0
 40
0.01
  1
10.0
100
AcDbAttributeDefinition
280
     0
  3
Cone Angle
  2
CONEAN
 70
     1
280
     0
  0
ATTDEF
  5
72
330
5F
100
AcDbEntity
  8
ASHADE
  6
Continuous
 62
     7
100
AcDbText
 10
0.0
 20
-0.27
 30
0.0
 40
0.01
  1
-1
100
AcDbAttributeDefinition
280
     0
  3
*not used*
  2
BIASMAX
 70
     1
280
     0
  0
ATTDEF
  5
73
330
5F
100
AcDbEntity
  8
ASHADE
  6
Continuous
 62
     7
100
AcDbText
 10
0.0
 20
-0.255
 30
0.0
 40
0.01
  1
-1
100
AcDbAttributeDefinition
280
     0
  3
*not used*
  2
BIASMIN
 70
     1
280
     0
  0
ATTDEF
  5
74
330
5F
100
AcDbEntity
  8
ASHADE
  6
Continuous
 62
     7
100
AcDbText
 10
0.0
 20
-0.225
 30
0.0
 40
0.01
  1
1,1,1
100
AcDbAttributeDefinition
280
     0
  3
Light Color (RGB)
  2
COLOR
 70
     1
280
     0
  0
ATTDEF
  5
75
330
5F
100
AcDbEntity
  8
ASHADE
  6
Continuous
 62
     7
100
AcDbText
 10
0.0
 20
-0.21
 30
0.0
 40
0.01
  1
1
100
AcDbAttributeDefinition
280
     0
  3
Light Intensity
  2
INTENSITY
 70
     1
280
     0
  0
ATTDEF
  5
76
330
5F
100
AcDbEntity
  8
ASHADE
  6
Continuous
 62
     7
100
AcDbText
 10
0.0
 20
-0.15
 30
0.0
 40
0.01
  1

100
AcDbAttributeDefinition
280
     0
  3

  2
GNAME
 70
     1
280
     0
  0
ATTDEF
  5
77
330
5F
100
AcDbEntity
  8
ASHADE
  6
Continuous
 62
     7
100
AcDbText
 10
0.0
 20
-0.195
 30
0.0
 40
0.01
  1

100
AcDbAttributeDefinition
280
     0
  3
Look-at Z
  2
LAZ
 70
     1
280
     0
  0
ATTDEF
  5
78
330
5F
100
AcDbEntity
  8
ASHADE
  6
Continuous
 62
     7
100
AcDbText
 10
0.0
 20
-0.18
 30
0.0
 40
0.01
  1

100
AcDbAttributeDefinition
280
     0
  3
Look-at Y
  2
LAY
 70
     1
280
     0
  0
ATTDEF
  5
79
330
5F
100
AcDbEntity
  8
ASHADE
  6
Continuous
 62
     7
100
AcDbText
 10
0.0
 20
-0.165
 30
0.0
 40
0.01
  1

100
AcDbAttributeDefinition
280
     0
  3
Look-at X
  2
LAX
 70
     1
280
     0
  0
LINE
  5
7A
330
5F
100
AcDbEntity
  8
ASHADE
  6
Continuous
 62
     7
100
AcDbLine
 10
0.25
 20
-0.3399999999999999
 30
0.0
 11
0.25
 21
-0.13
 31
0.0
  0
LINE
  5
7B
330
5F
100
AcDbEntity
  8
ASHADE
  6
Continuous
 62
     7
100
AcDbLine
 10
0.25
 20
-0.18
 30
0.0
 11
0.29
 21
-0.18
 31
0.0
  0
LINE
  5
7C
330
5F
100
AcDbEntity
  8
ASHADE
  6
Continuous
 62
     7
100
AcDbLine
 10
0.29
 20
-0.22
 30
0.0
 11
0.25
 21
-0.22
 31
0.0
  0
LINE
  5
7D
330
5F
100
AcDbEntity
  8
ASHADE
  6
Continuous
 62
     7
100
AcDbLine
 10
0.29
 20
-0.18
 30
0.0
 11
0.29
 21
-0.22
 31
0.0
  0
LINE
  5
7E
330
5F
100
AcDbEntity
  8
ASHADE
  6
Continuous
 62
     7
100
AcDbLine
 10
0.21
 20
0.26
 30
0.0
 11
0.301304347826087
 21
0.46
 31
0.0
  0
LINE
  5
7F
330
5F
100
AcDbEntity
  8
ASHADE
  6
Continuous
 62
     7
100
AcDbLine
 10
0.1045454545454545
 20
0.26
 30
0.0
 11
0.15
 21
0.46
 31
0.0
  0
LINE
  5
80
330
5F
100
AcDbEntity
  8
ASHADE
  6
Continuous
 62
     7
100
AcDbLine
 10
0.0
 20
0.26
 30
0.0
 11
0.0
 21
0.46
 31
0.0
  0
LINE
  5
81
330
5F
100
AcDbEntity
  8
ASHADE
  6
Continuous
 62
     7
100
AcDbLine
 10
0.25
 20
0.13
 30
0.0
 11
0.25
 21
0.26
 31
0.0
  0
LINE
  5
82
330
5F
100
AcDbEntity
  8
ASHADE
  6
Continuous
 62
     7
100
AcDbLine
 10
0.25
 20
0.22
 30
0.0
 11
0.29
 21
0.22
 31
0.0
  0
LINE
  5
83
330
5F
100
AcDbEntity
  8
ASHADE
  6
Continuous
 62
     7
100
AcDbLine
 10
0.29
 20
0.1799999999999999
 30
0.0
 11
0.25
 21
0.1799999999999999
 31
0.0
  0
LINE
  5
84
330
5F
100
AcDbEntity
  8
ASHADE
  6
Continuous
 62
     7
100
AcDbLine
 10
0.29
 20
0.22
 30
0.0
 11
0.29
 21
0.1799999999999999
 31
0.0
  0
ENDBLK
  5
86
330
5F
100
AcDbEntity
  8
0
100
AcDbBlockEnd
  0
BLOCK
  5
92
330
91
100
AcDbEntity
  8
ASHADE
100
AcDbBlockBegin
  2
AVE_RENDER
 70
     0
 10
0.0
 20
0.0
 30
0.0
  3
AVE_RENDER
  1
AVE_RENDER
  0
ENDBLK
  5
93
330
91
100
AcDbEntity
  8
0
100
AcDbBlockEnd
  0
BLOCK
  5
A0
330
9F
100
AcDbEntity
  8
ASHADE
100
AcDbBlockBegin
  2
AVE_GLOBAL
 70
     0
 10
0.0
 20
0.0
 30
0.0
  3
AVE_GLOBAL
  1
AVE_GLOBAL
  0
ENDBLK
  5
A1
330
9F
100
AcDbEntity
  8
0
100
AcDbBlockEnd
  0
ENDSEC
  0
SECTION
  2
ENTITIES
  0
INSERT
  5
94
330
1F
100
AcDbEntity
  8
ASHADE
 62
     1
100
AcDbBlockReference
  2
AVE_RENDER
 10
0.0
 20
0.0
 30
0.0
1001
AVE_RENDER
1002
{
1070
     7
1000
Pref
1070
    30
1070
    20
1070
     1
1070
     0
1000

1070
    10
1070
     1
1070
    10
1040
1.0
1070
     1
1040
0.3
1040
0.7
1040
0.0
1040
10.0
1010
-1.0
1020
-1.0
1030
-1.0
1040
0.3
1070
    49
1070
     0
1070
     0
1010
1.0
1020
1.0
1030
1.0
1040
45.0
1070
     1
1070
     0
1000
WCS
1040
0.0
1070
     0
1040
10.0
1002
}
  0
INSERT
  5
95
330
1F
100
AcDbEntity
  8
ASHADE
 62
     3
100
AcDbBlockReference
  2
AVE_RENDER
 10
0.0
 20
0.0
 30
0.0
1001
AVE_RENDER
1002
{
1070
     0
1000
Full Opt
1070
     0
1070
     1
1070
     1
1070
     1
1070
     0
1070
     0
1070
     0
1070
     1
1070
     1
1040
0.0001
1040
0.0001
1002
}
  0
INSERT
  5
96
330
1F
100
AcDbEntity
  8
ASHADE
 62
     4
100
AcDbBlockReference
  2
AVE_RENDER
 10
0.0
 20
0.0
 30
0.0
1001
AVE_RENDER
1002
{
1070
     0
1000
Quick Opt
1070
     0
1070
     1
1070
     1
1070
     1
1070
     0
1070
     0
1070
     1
1002
}
  0
INSERT
  5
97
330
1F
100
AcDbEntity
  8
ASHADE
 62
     5
100
AcDbBlockReference
  2
AVE_RENDER
 10
0.0
 20
0.0
 30
0.0
1001
AVE_RENDER
1002
{
1070
     1
1000
Scanl Opt
1070
     2
1070
     0
1070
     2
1040
2.0
1040
4.0
1070
     0
1070
     1
1070
     0
1040
0.03
1002
}
  0
INSERT
  5
98
330
1F
100
AcDbEntity
  8
ASHADE
 62
     6
100
AcDbBlockReference
  2
AVE_RENDER
 10
0.0
 20
0.0
 30
0.0
1001
AVE_RENDER
1002
{
1070
     2
1000
Raytr Opt
1070
     2
1070
     0
1070
     2
1040
2.0
1040
4.0
1070
     0
1070
     1
1070
     1
1040
0.03
1070
     3
1040
0.03
1002
}
  0
INSERT
  5
99
330
1F
100
AcDbEntity
  8
ASHADE
 62
     7
100
AcDbBlockReference
  2
AVE_RENDER
 10
0.0
 20
0.0
 30
0.0
1001
AVE_RENDER
1002
{
1070
     0
1000
RFile Opt
1070
     1
1070
   640
1070
   480
1070
 10000
1070
     1
1070
     8
1070
     8
1070
     0
1070
     0
1070
     0
1070
     0
1070
     0
1070
     0
1070
     0
1002
}
  0
INSERT
  5
9A
330
1F
100
AcDbEntity
  8
ASHADE
 62
     8
100
AcDbBlockReference
  2
AVE_RENDER
 10
0.0
 20
0.0
 30
0.0
1001
AVE_RENDER
1002
{
1070
     0
1000
Fog Opt
1070
     0
1070
     0
1040
0.0
1040
1.0
1040
0.0
1040
1.0
1010
0.5
1020
0.5
1030
0.5
1002
}
  0
INSERT
  5
9B
330
1F
100
AcDbEntity
  8
ASHADE
 62
     9
100
AcDbBlockReference
  2
AVE_RENDER
 10
0.0
 20
0.0
 30
0.0
1001
AVE_RENDER
1002
{
1070
     0
1000
BG Opt
1070
     0
1070
     1
1010
0.0
1020
0.0
1030
0.0
1010
1.0
1020
0.0
1030
0.0
1010
0.0
1020
1.0
1030
0.0
1010
0.0
1020
0.0
1030
1.0
1040
0.5
1040
0.33
1040
0.0
1000

1070
     1
1000

1070
     1
1070
     1
1040
1.0
1040
1.0
1040
0.0
1040
0.0
1070
     0
1002
}
  0
INSERT
  5
A2
330
1F
100
AcDbEntity
  8
ASHADE
 62
     1
100
AcDbBlockReference
  2
AVE_GLOBAL
 10
0.0
 20
0.0
 30
0.0
1001
AVE_MATERIAL
1002
{
1000
*GLOBAL*
1000
2
1000
Global finish.
1002
{
1002
}
1002
{
1070
    63
1002
{
1002
{
1010
-1.0
1020
-1.0
1030
-1.0
1002
}
1040
0.1000000014901161
1000

1040
0.0
1002
{
1002
}
1040
0.0
1002
{
1002
}
1040
0.0
1002
}
1002
{
1002
{
1010
-1.0
1020
-1.0
1030
-1.0
1002
}
1040
0.6999999880790711
1000

1040
0.0
1002
{
1002
}
1040
0.0
1002
{
1002
}
1040
0.0
1002
}
1002
{
1002
{
1010
-1.0
1020
-1.0
1030
-1.0
1002
}
1040
0.2000000029802322
1000

1040
0.0
1002
{
1002
}
1040
0.0
1002
{
1002
}
1040
0.0
1002
}
1002
{
1070
     0
1002
{
1070
     1
1002
{
1040
1.0
1040
1.0
1000

1040
0.0
1002
{
1002
}
1040
0.0
1002
{
1002
}
1040
0.0
1002
}
1002
}
1040
1.0
1040
0.0
1040
0.0
1002
}
1002
{
1040
1.0
1040
1.0
1000

1040
0.0
1002
{
1002
}
1040
0.0
1002
{
1002
}
1040
0.0
1002
}
1002
{
1040
0.5
1040
1.0
1000

1040
0.0
1002
{
1002
}
1040
0.0
1002
{
1002
}
1040
0.0
1002
}
1002
{
1070
     0
1040
0.0
1002
{
1002
}
1040
1.0
1002
{
1002
}
1040
0.0
1002
}
1002
{
1040
0.0
1002
{
1002
{
1010
0.0
1020
0.0
1030
0.0
1002
}
1040
1.0
1000

1040
0.0
1002
{
1002
}
1040
0.0
1002
{
1002
}
1040
0.0
1002
}
1002
}
1002
{
1002
{
1070
     1
1002
{
1040
0.0
1040
1.0
1000

1040
0.0
1002
{
1002
}
1040
0.0
1002
{
1002
}
1040
0.0
1002
}
1002
}
1040
0.0
1002
{
1002
}
1010
1.0
1020
0.0
1030
0.0
1010
0.0
1020
1.0
1030
0.0
1010
0.0
1020
0.0
1030
1.0
1070
     0
1002
}
1002
{
1002
{
1040
1.0
1040
1.0
1002
{
1070
     1
1002
{
1040
1.0
1040
1.0
1000

1040
0.0
1002
{
1002
}
1040
0.0
1002
{
1002
}
1040
0.0
1002
}
1002
}
1002
}
1070
     0
1040
0.0
1002
{
1002
}
1002
}
1002
{
1002
}
1002
}
1002
{
1071
        3
1070
     3
1070
     0
1002
{
1070
     2
1070
     0
1070
     0
1040
0.0
1002
}
1070
     0
1070
     2
1002
{
1002
}
1002
}
1002
{
1040
8030.0
1040
190.3000030517578
1040
0.3050000071525574
1040
228.0
1040
545.0
1040
14.0
1040
17.39999961853027
1040
0.4560000002384186
1002
}
1002
}
  0
MESH
  5
F9
330
1F
100
AcDbEntity
  8
OracDecor_panel_moldings
 62
    41
420
 14997145
160
             40904
310
C89F0000700400000C00000013000000020000003C00000006000000020000000000000000408F4000000080AF6FE4BF00000000AC110D400000000000408F400000000000C003BF00000000000000000C000000130000000A0000003C00000006000000020000000000000000408F400000008027A1ECBF000000007C230F
310
400000000000408F4000000080AF6FE4BF00000000AC110D400C00000013000000120000003C00000006000000020000000000000000408F4000000040050029C000000000000000000000000000408F400000008027A1ECBF000000007C230F400C000000130000001A0000003C0000000600000002000000000000000040
310
8F4000000040050029C000000000000000000000000000408F400000000000C003BF00000000000000000C00000013000000220000003C00000006000000020000000000000000408F40000000C0090018C000000000F20827400000000000408F40000000C0090018C000000080978843400C000000130000002A0000003C
310
00000006000000020000000000000000408F400000004005002AC0000000000000E03F0000000000408F40000000C0090018C000000080978843400C00000013000000320000003C00000006000000020000000000000000408F400000004005002AC0000000000000E03F0000000000408F40000000C0090018C000000000
310
F20827400C000000130000003A0000003C00000006000000020000000000000000408F40000000C0090018C000000000F20827400000000000408F4000000080E6E017C000000000CE8A26400C00000013000000420000003C00000006000000020000000000000000408F400000004005002AC0000000000000E03F000000
310
0000408F40000000407BF329C000000000001CD63F0C000000130000004A0000003C00000006000000020000000000000000408F40000000407BF329C000000000001CD63F0000000000408F4000000080E6E017C000000000CE8A26400C00000013000000520000003C00000006000000020000000000000000408F400000
310
0080E6E017C000000000CE8A26400000000000408F40000000C05E8517C000000000561426400C000000130000005A0000003C00000006000000020000000000000000408F40000000407BF329C000000000001CD63F0000000000408F40000000401ECF29C0000000008061CA3F0C00000013000000620000003C00000006
310
000000020000000000000000408F40000000401ECF29C0000000008061CA3F0000000000408F40000000C05E8517C000000000561426400C000000130000006A0000003C00000006000000020000000000000000408F40000000C05E8517C000000000561426400000000000408F40000000C001F316C000000000BCAC2540
310
0C00000013000000720000003C00000006000000020000000000000000408F40000000401ECF29C0000000008061CA3F0000000000408F40000000C07F9629C0000000000074B83F0C000000130000007A0000003C00000006000000020000000000000000408F40000000C07F9629C0000000000074B83F0000000000408F
310
40000000C001F316C000000000BCAC25400C00000013000000820000003C00000006000000020000000000000000408F40000000C0B73216C000000000525A25400000000000408F40000000C001F316C000000000BCAC25400C000000130000008A0000003C00000006000000020000000000000000408F4000000000264F
310
29C0000000000014993F0000000000408F40000000C07F9629C0000000000074B83F0C00000013000000920000003C00000006000000020000000000000000408F4000000000264F29C0000000000014993F0000000000408F40000000C0B73216C000000000525A25400C000000130000009A0000003C0000000600000002
310
0000000000000000408F4000000060365015C0000000001A2225400000000000408F40000000C0B73216C000000000525A25400C00000013000000A20000003C00000006000000020000000000000000408F4000000000264F29C0000000000014993F0000000000408F4000000040050029C000000000000000000C000000
310
13000000AA0000003C00000006000000020000000000000000408F4000000040050029C000000000000000000000000000408F4000000060365015C0000000001A2225400C00000013000000B20000003C00000006000000020000000000000000408F4000000060495914C0000000007E0725400000000000408F40000000
310
60365015C0000000001A2225400C00000013000000BA0000003C00000006000000020000000000000000408F4000000040050029C000000000000000000000000000408F4000000060495914C0000000007E0725400C00000013000000C20000003C00000006000000020000000000000000408F40000000C005ACF4BF0000
310
0000C69513400000000000408F40000000C07DA6F3BF00000000A82512400C00000013000000CA0000003C00000006000000020000000000000000408F4000000040050029C000000000000000000000000000408F40000000C005ACF4BF00000000C69513400C00000013000000D20000003C000000060000000200000000
310
00000000408F4000000040050029C000000000000000000000000000408F40000000C07DA6F3BF00000000A82512400C00000013000000DA0000003C00000006000000020000000000000000408F40000000C07786F4BF000000009A0B15400000000000408F40000000C005ACF4BF00000000C69513400C00000013000000
310
E20000003C00000006000000020000000000000000408F4000000060495914C0000000007E0725400000000000408F40000000C07786F4BF000000009A0B15400C00000013000000EA0000003C00000006000000020000000000000000408F40000000C07DA6F3BF00000000A82512400000000000408F40000000C08A80F1
310
BF0000000044CA10400C00000013000000F20000003C00000006000000020000000000000000408F4000000040050029C000000000000000000000000000408F40000000C08A80F1BF0000000044CA10400C00000013000000FA0000003C00000006000000020000000000000000408F400000008027A1ECBF000000007C23
310
0F400000000000408F40000000C08A80F1BF0000000044CA10400C00000013000000020100003C00000006000000020000000000000000408F4000000000BF84D5BF00000000AC740B400000000000408F400000000000C003BF00000000000000000C000000130000000A0100003C00000006000000020000000000000000
310
408F400000000000C003BF00000000000000000000000000408F400000000000E003BF00000000B82D09400C00000013000000120100003C00000006000000020000000000000000408F4000000000BF84D5BF00000000AC740B400000000000408F400000000000E003BF00000000B82D09400C000000130000001A010000
310
3C00000006000000020000000000000000408F4000000080AF6FE4BF00000000AC110D400000000000408F4000000000BF84D5BF00000000AC740B400C00000013000000220100003C00000006000000020000000000000000408F40000000C05DCCF0BF00000000DECB17400000000000408F40000000C05D37F3BF000000
310
00E87716400C000000130000002A0100003C00000006000000020000000000000000408F4000000000A036DDBF00000000AE3624400000000000408F40000000C05DCCF0BF00000000DECB17400C00000013000000320100003C00000006000000020000000000000000408F4000000060495914C0000000007E0725400000
310
000000408F4000000000A036DDBF00000000AE3624400C000000130000003A0100003C00000006000000020000000000000000408F4000000060495914C0000000007E0725400000000000408F40000000C05D37F3BF00000000E87716400C00000013000000420100003C00000006000000020000000000000000408F4000
310
0000C05D37F3BF00000000E87716400000000000408F40000000C07786F4BF000000009A0B15400C000000130000004A0100003C00000006000000020000000000000000408F4000000000474ED0BF0000000054B31A400000000000408F4000000000E0518FBF000000009A821B400C00000013000000520100003C000000
310
06000000020000000000000000408F4000000000000004BF00000000F63523400000000000408F4000000000E0518FBF000000009A821B400C000000130000005A0100003C00000006000000020000000000000000408F4000000000206EA1BF000000005E9323400000000000408F4000000000000004BF00000000F63523
310
400C00000013000000620100003C00000006000000020000000000000000408F4000000000206EA1BF000000005E9323400000000000408F4000000000474ED0BF0000000054B31A400C000000130000006A0100003C00000006000000020000000000000000408F4000000000474ED0BF0000000054B31A40000000000040
310
8F40000000803824E2BF00000000D8F419400C00000013000000720100003C00000006000000020000000000000000408F4000000000206EA1BF000000005E9323400000000000408F4000000000C0D1C0BF000000000EE423400C000000130000007A0100003C00000006000000020000000000000000408F4000000000C0
310
D1C0BF000000000EE423400000000000408F40000000803824E2BF00000000D8F419400C00000013000000820100003C00000006000000020000000000000000408F40000000803824E2BF00000000D8F419400000000000408F400000008063BDEABF000000009AF918400C000000130000008A0100003C00000006000000
310
020000000000000000408F40000000001CD9D1BF00000000141D24400000000000408F4000000000C0D1C0BF000000000EE423400C00000013000000920100003C00000006000000020000000000000000408F40000000001CD9D1BF00000000141D24400000000000408F400000008063BDEABF000000009AF918400C0000
310
00130000009A0100003C00000006000000020000000000000000408F400000008063BDEABF000000009AF918400000000000408F40000000C05DCCF0BF00000000DECB17400C00000013000000A20100003C00000006000000020000000000000000408F40000000001CD9D1BF00000000141D24400000000000408F400000
310
0000A036DDBF00000000AE3624400C00000013000000AA0100003C00000006000000020000000000000000408F4000000060080018C0000000A0686F61400000000000408F40000000E0E4E017C0000000E04A7761400C00000013000000B20100003C00000006000000020000000000000000408F40000000607AF329C000
310
0000E0E9D462400000000000408F40000000E0E4E017C0000000E04A7761400C00000013000000BA0100003C00000006000000020000000000000000408F400000006004002AC0000000A0F7CF62400000000000408F40000000607AF329C0000000E0E9D462400C00000013000000C20100003C0000000600000002000000
310
0000000000408F400000006004002AC0000000A0F7CF62400000000000408F4000000060080018C0000000A0686F61400C00000013000000CA0100003C00000006000000020000000000000000408F40000000E0E4E017C0000000E04A7761400000000000408F40000000605D8517C000000060B27E61400C000000130000
310
00D20100003C00000006000000020000000000000000408F40000000605D8517C000000060B27E61400000000000408F40000000601DCF29C0000000605FD962400C00000013000000DA0100003C00000006000000020000000000000000408F40000000607AF329C0000000E0E9D462400000000000408F40000000601DCF
310
29C0000000605FD962400C00000013000000E20100003C00000006000000020000000000000000408F400000006000F316C0000000E02B8561400000000000408F40000000605D8517C000000060B27E61400C00000013000000EA0100003C00000006000000020000000000000000408F400000006000F316C0000000E02B
310
8561400000000000408F40000000E07E9629C000000060E9DC62400C00000013000000F20100003C00000006000000020000000000000000408F40000000E07E9629C000000060E9DC62400000000000408F40000000601DCF29C0000000605FD962400C00000013000000FA0100003C000000060000000200000000000000
310
00408F4000000060B63216C0000000A0528A61400000000000408F400000006000F316C0000000E02B8561400C00000013000000020200003C00000006000000020000000000000000408F4000000060B63216C0000000A0528A61400000000000408F40000000E0244F29C0000000202FDF62400C000000130000000A0200
310
003C00000006000000020000000000000000408F40000000E0244F29C0000000202FDF62400000000000408F40000000E07E9629C000000060E9DC62400C00000013000000120200003C00000006000000020000000000000000408F40000000E0345015C000000020D68D61400000000000408F4000000060B63216C00000
310
00A0528A61400C000000130000001A0200003C00000006000000020000000000000000408F40000000E0345015C000000020D68D61400000000000408F4000000060040029C0000000A0F7DF62400C00000013000000220200003C00000006000000020000000000000000408F4000000060040029C0000000A0F7DF624000
310
00000000408F40000000E0244F29C0000000202FDF62400C000000130000002A0200003C00000006000000020000000000000000408F40000000E0475914C0000000E07F8F61400000000000408F40000000E0345015C000000020D68D61400C00000013000000320200003C00000006000000020000000000000000408F40
310
000000E0475914C0000000E07F8F61400000000000408F4000000060040029C0000000A0F7DF62400C000000130000003A0200003C00000006000000020000000000000000408F40000000E0475914C0000000E07F8F61400000000000408F4000000000FFABF4BF00000060843A62400C00000013000000420200003C0000
310
0006000000020000000000000000408F40000000407086F4BF000000E0324662400000000000408F4000000000FFABF4BF00000060843A62400C000000130000004A0200003C00000006000000020000000000000000408F40000000407086F4BF000000E0324662400000000000408F4000000060040029C0000000A0F7DF
310
62400C00000013000000520200003C00000006000000020000000000000000408F4000000000000001BF0000006098AC61400000000000408F4000000000406DA1BF000000E0C1A661400C000000130000005A0200003C00000006000000020000000000000000408F4000000000000001BF0000006098AC61400000000000
310
408F4000000000000001BF000000208D0262400C00000013000000620200003C00000006000000020000000000000000408F4000000000A484D5BF000000E0A80B62400000000000408F4000000000000001BF000000208D0262400C000000130000006A0200003C00000006000000020000000000000000408F4000000000
310
406DA1BF000000E0C1A661400000000000408F4000000000A484D5BF000000E0A80B62400C00000013000000720200003C00000006000000020000000000000000408F4000000000406DA1BF000000E0C1A661400000000000408F400000000090D1C0BF000000E0B6A161400C000000130000007A0200003C000000060000
310
00020000000000000000408F4000000000A46FE4BF000000E01C1262400000000000408F4000000000A484D5BF000000E0A80B62400C00000013000000820200003C00000006000000020000000000000000408F4000000000A46FE4BF000000E01C1262400000000000408F400000000090D1C0BF000000E0B6A161400C00
310
0000130000008A0200003C00000006000000020000000000000000408F400000000004D9D1BF00000060269E61400000000000408F400000000090D1C0BF000000E0B6A161400C00000013000000920200003C00000006000000020000000000000000408F40000000001AA1ECBF00000020641A62400000000000408F4000
310
000000A46FE4BF000000E01C1262400C000000130000009A0200003C00000006000000020000000000000000408F400000000004D9D1BF00000060269E61400000000000408F40000000001AA1ECBF00000020641A62400C00000013000000A20200003C00000006000000020000000000000000408F40000000008836DDBF
310
000000E08C9C61400000000000408F400000000004D9D1BF00000060269E61400C00000013000000AA0200003C00000006000000020000000000000000408F40000000008480F1BF00000060282462400000000000408F40000000001AA1ECBF00000020641A62400C00000013000000B20200003C00000006000000020000
310
000000000000408F40000000008836DDBF000000E08C9C61400000000000408F40000000008480F1BF00000060282462400C00000013000000BA0200003C00000006000000020000000000000000408F40000000008836DDBF000000E08C9C61400000000000408F40000000E0475914C0000000E07F8F61400C0000001300
310
0000C20200003C00000006000000020000000000000000408F400000000078A6F3BF00000060032F62400000000000408F40000000008480F1BF00000060282462400C00000013000000CA0200003C00000006000000020000000000000000408F40000000E0475914C0000000E07F8F61400000000000408F400000000078
310
A6F3BF00000060032F62400C00000013000000D20200003C00000006000000020000000000000000408F4000000000FFABF4BF00000060843A62400000000000408F400000000078A6F3BF00000060032F62400C00000013000000DA0200003C00000006000000020000000000000000408F400000004057CCF0BF00000020
310
355C62400000000000408F40000000405737F3BF00000060955162400C00000013000000E20200003C00000006000000020000000000000000408F400000004057CCF0BF00000020355C62400000000000408F4000000060040029C0000000A0F7DF62400C00000013000000EA0200003C0000000600000002000000000000
310
0000408F40000000405737F3BF00000060955162400000000000408F4000000060040029C0000000A0F7DF62400C00000013000000F20200003C00000006000000020000000000000000408F40000000405737F3BF00000060955162400000000000408F40000000407086F4BF000000E0324662400C00000013000000FA02
310
00003C00000006000000020000000000000000408F40000000802B24E2BF000000E07C6D62400000000000408F400000008056BDEABF00000020A36562400C00000013000000020300003C00000006000000020000000000000000408F40000000802B24E2BF000000E07C6D62400000000000408F4000000060040029C000
310
0000A0F7DF62400C000000130000000A0300003C00000006000000020000000000000000408F400000008056BDEABF00000020A36562400000000000408F4000000060040029C0000000A0F7DF62400C00000013000000120300003C00000006000000020000000000000000408F400000008056BDEABF00000020A3656240
310
0000000000408F400000004057CCF0BF00000020355C62400C000000130000001A0300003C00000006000000020000000000000000408F40000000002D4ED0BF000000E0707362400000000000408F40000000802B24E2BF000000E07C6D62400C00000013000000220300003C00000006000000020000000000000000408F
310
40000000002D4ED0BF000000E0707362400000000000408F4000000060040029C0000000A0F7DF62400C000000130000002A0300003C00000006000000020000000000000000408F40000000002D4ED0BF000000E0707362400000000000408F4000000000204F8FBF00000020EB7962400C00000013000000320300003C00
310
000006000000020000000000000000408F4000000000004000BF000000A0F7DF62400000000000408F4000000000204F8FBF00000020EB7962400C000000130000003A0300003C00000006000000020000000000000000408F4000000060040029C0000000A0F7DF62400000000000408F4000000000004000BF000000A0F7
310
DF62400C00000013000000420300003C00000006000000020000000000000000408F40000000007BCEE1BF000000A05EDA5A400000000000408F4000000000723FD8BF000000E091DD5A400C000000130000004A0300003C00000006000000020000000000000000408F4000000000723FD8BF000000E091DD5A4000000000
310
00408F4000000000703FD8BF000000A0B89E5B400C00000013000000520300003C00000006000000020000000000000000408F4000000000703FD8BF000000A0B89E5B400000000000408F40000000007BCEE1BF000000E0EBA15B400C000000130000005A0300003C00000006000000020000000000000000408F40000000
310
007BCEE1BF000000A05EDA5A400000000000408F40000000007BCEE1BF000000E0EBA15B400C00000013000000620300003C00000006000000020000000000000000408F4000000000723FD8BF000000E091DD5A400000000000408F4000000000749ECDBF000000A0B2E45A400C000000130000006A0300003C0000000600
310
0000020000000000000000408F4000000000689ECDBF000000E097975B400000000000408F4000000000749ECDBF000000A0B2E45A400C00000013000000720300003C00000006000000020000000000000000408F4000000000703FD8BF000000A0B89E5B400000000000408F4000000000689ECDBF000000E097975B400C
310
000000130000007A0300003C00000006000000020000000000000000408F40000000002C28C1BF000000E0C8EE5A400000000000408F4000000000749ECDBF000000A0B2E45A400C00000013000000820300003C00000006000000020000000000000000408F40000000002C28C1BF000000E0C8EE5A400000000000408F40
310
000000002828C1BF000000E0818D5B400C000000130000008A0300003C00000006000000020000000000000000408F40000000002828C1BF000000E0818D5B400000000000408F4000000000689ECDBF000000E097975B400C00000013000000920300003C00000006000000020000000000000000408F4000000000C89BB9
310
BF000000E075FA5A400000000000408F40000000002C28C1BF000000E0C8EE5A400C000000130000009A0300003C00000006000000020000000000000000408F4000000000C09BB9BF000000A0D4815B400000000000408F4000000000C89BB9BF000000E075FA5A400C00000013000000A20300003C000000060000000200
310
00000000000000408F4000000000C09BB9BF000000A0D4815B400000000000408F40000000002828C1BF000000E0818D5B400C00000013000000AA0300003C00000006000000020000000000000000408F40000000007BCEE1BF000000A05EDA5A400000000000408F4000000000485914C000000020D5C05A400C00000013
310
000000B20300003C00000006000000020000000000000000408F4000000000485914C0000000A075BB5B400000000000408F40000000007BCEE1BF000000E0EBA15B400C00000013000000BA0300003C00000006000000020000000000000000408F4000000000485914C000000020D5C05A400000000000408F4000000000
310
485914C0000000A075BB5B400C00000013000000C20300003C00000006000000020000000000000000408F4000000080355015C0000000A081BD5A400000000000408F4000000000485914C000000020D5C05A400C00000013000000CA0300003C00000006000000020000000000000000408F4000000000485914C0000000
310
A075BB5B400000000000408F4000000080355015C0000000E0C8BE5B400C00000013000000D20300003C00000006000000020000000000000000408F4000000080355015C0000000A081BD5A400000000000408F4000000080355015C0000000E0C8BE5B400C00000013000000DA0300003C00000006000000020000000000
310
000000408F4000000080355015C0000000A081BD5A400000000000408F4000000080B63216C0000000A07AB65A400C00000013000000E20300003C00000006000000020000000000000000408F40000000A0B63216C000000020D0C55B400000000000408F4000000080355015C0000000E0C8BE5B400C00000013000000EA
310
0300003C00000006000000020000000000000000408F4000000080B63216C0000000A07AB65A400000000000408F40000000A0B63216C000000020D0C55B400C00000013000000F20300003C00000006000000020000000000000000408F4000000080B63216C0000000A07AB65A400000000000408F400000008000F316C0
310
000000602DAC5A400C00000013000000FA0300003C00000006000000020000000000000000408F40000000A0B63216C000000020D0C55B400000000000408F40000000A000F316C0000000601DD05B400C00000013000000020400003C00000006000000020000000000000000408F400000008000F316C0000000602DAC5A
310
400000000000408F40000000A000F316C0000000601DD05B400C000000130000000A0400003C00000006000000020000000000000000408F400000008000F316C0000000602DAC5A400000000000408F40000000805D8517C0000000203A9F5A400C00000013000000120400003C0000000600000002000000000000000040
310
8F40000000A05D8517C0000000A010DD5B400000000000408F40000000A000F316C0000000601DD05B400C000000130000001A0400003C00000006000000020000000000000000408F40000000805D8517C0000000203A9F5A400000000000408F40000000A05D8517C0000000A010DD5B400C00000013000000220400003C
310
00000006000000020000000000000000408F4000000080E5E017C0000000E06A905A400000000000408F40000000805D8517C0000000203A9F5A400C000000130000002A0400003C00000006000000020000000000000000408F4000000060E5E017C0000000A0DFEB5B400000000000408F40000000A05D8517C0000000A0
310
10DD5B400C00000013000000320400003C00000006000000020000000000000000408F4000000080E5E017C0000000E06A905A400000000000408F4000000060E5E017C0000000A0DFEB5B400C000000130000003A0400003C00000006000000020000000000000000408F4000000080080018C0000000A0A6805A40000000
310
0000408F4000000080E5E017C0000000E06A905A400C00000013000000420400003C00000006000000020000000000000000408F40000000A0080018C0000000E0A3FB5B400000000000408F4000000060E5E017C0000000A0DFEB5B400C000000130000004A0400003C00000006000000020000000000000000408F400000
310
0080080018C0000000A0A6805A400000000000408F40000000A0080018C0000000E0A3FB5B400C00000013000000520400003C00000006000000020000000000000000408F4000000060080018C0000000A0686F61400000000000408F40000000A0080018C0000000E0A3FB5B400C000000130000005A0400003C00000006
310
000000020000000000000000408F400000006004002AC0000000A0F7CF62400000000000408F40000000A0080018C0000000E0A3FB5B400C00000013000000620400003C00000006000000020000000000000000408F400000006004002AC0000000A0F7CF62400000000000408F4000000080080018C0000000A0A6805A40
310
0C000000130000006A0400003C00000006000000020000000000000000408F4000000080080018C0000000A0A6805A400000000000408F4000000000090018C000000060769D53400C00000013000000720400003C00000006000000020000000000000000408F400000006004002AC0000000A0F7CF62400000000000408F
310
4000000000090018C000000060769D53400C000000130000007A0400003C00000006000000020000000000000000408F40000000A0090018C000000060792252400000000000408F4000000020E6E017C0000000603D3252400C00000013000000820400003C00000006000000020000000000000000408F4000000020E6E0
310
17C0000000603D3252400000000000408F40000000C0E5E017C000000060B28D53400C000000130000008A0400003C00000006000000020000000000000000408F4000000000090018C000000060769D53400000000000408F40000000C0E5E017C000000060B28D53400C00000013000000920400003C0000000600000002
310
0000000000000000408F40000000A0090018C000000060792252400000000000408F4000000000090018C000000060769D53400C000000130000009A0400003C00000006000000020000000000000000408F4000000020E6E017C0000000603D3252400000000000408F40000000005E8517C0000000A00C4152400C000000
310
13000000A20400003C00000006000000020000000000000000408F40000000005E8517C0000000A00C4152400000000000408F40000000005E8517C000000020E37E53400C00000013000000AA0400003C00000006000000020000000000000000408F40000000C0E5E017C000000060B28D53400000000000408F40000000
310
005E8517C000000020E37E53400C00000013000000B20400003C00000006000000020000000000000000408F400000002001F316C0000000E0FF4D52400000000000408F40000000005E8517C0000000A00C4152400C00000013000000BA0400003C00000006000000020000000000000000408F400000002001F316C00000
310
00E0FF4D52400000000000408F400000000001F316C0000000E0EF7153400C00000013000000C20400003C00000006000000020000000000000000408F40000000005E8517C000000020E37E53400000000000408F400000000001F316C0000000E0EF7153400C00000013000000CA0400003C000000060000000200000000
310
00000000408F400000000080CEE1BF00000060317C52400000000000408F4000000040485914C0000000A0A76252400C00000013000000D20400003C00000006000000020000000000000000408F400000000080CEE1BF00000060317C52400000000000408F40000000007DCEE1BF00000060BE4353400C00000013000000
310
DA0400003C00000006000000020000000000000000408F40000000A0485914C000000020485D53400000000000408F40000000007DCEE1BF00000060BE4353400C00000013000000E20400003C00000006000000020000000000000000408F4000000040485914C0000000A0A76252400000000000408F40000000A0485914
310
C000000020485D53400C00000013000000EA0400003C00000006000000020000000000000000408F4000000040485914C0000000A0A76252400000000000408F40000000A0355015C000000020545F52400C00000013000000F20400003C00000006000000020000000000000000408F40000000A0485914C000000020485D
310
53400000000000408F40000000A0355015C0000000609B6053400C00000013000000FA0400003C00000006000000020000000000000000408F40000000A0355015C000000020545F52400000000000408F40000000A0355015C0000000609B6053400C00000013000000020500003C00000006000000020000000000000000
310
408F4000000020B73216C0000000204D5852400000000000408F40000000A0355015C000000020545F52400C000000130000000A0500003C00000006000000020000000000000000408F4000000000B73216C0000000A0A26753400000000000408F40000000A0355015C0000000609B6053400C0000001300000012050000
310
3C00000006000000020000000000000000408F4000000020B73216C0000000204D5852400000000000408F4000000000B73216C0000000A0A26753400C000000130000001A0500003C00000006000000020000000000000000408F4000000020B73216C0000000204D5852400000000000408F400000002001F316C0000000
310
E0FF4D52400C00000013000000220500003C00000006000000020000000000000000408F4000000000B73216C0000000A0A26753400000000000408F400000000001F316C0000000E0EF7153400C000000130000002A0500003C00000006000000020000000000000000408F400000000080CEE1BF00000060317C52400000
310
000000408F4000000000783FD8BF000000A0647F52400C00000013000000320500003C00000006000000020000000000000000408F4000000000783FD8BF000000A0647F52400000000000408F4000000000743FD8BF000000208B4053400C000000130000003A0500003C00000006000000020000000000000000408F4000
310
000000743FD8BF000000208B4053400000000000408F40000000007DCEE1BF00000060BE4353400C00000013000000420500003C00000006000000020000000000000000408F4000000000783FD8BF000000A0647F52400000000000408F4000000000789ECDBF00000020858652400C000000130000004A0500003C000000
310
06000000020000000000000000408F4000000000749ECDBF000000A06A3953400000000000408F4000000000789ECDBF00000020858652400C00000013000000520500003C00000006000000020000000000000000408F4000000000743FD8BF000000208B4053400000000000408F4000000000749ECDBF000000A06A3953
310
400C000000130000005A0500003C00000006000000020000000000000000408F40000000003828C1BF000000609B9052400000000000408F4000000000789ECDBF00000020858652400C00000013000000620500003C00000006000000020000000000000000408F40000000003828C1BF000000609B905240000000000040
310
8F40000000003428C1BF00000060542F53400C000000130000006A0500003C00000006000000020000000000000000408F40000000003428C1BF00000060542F53400000000000408F4000000000749ECDBF000000A06A3953400C00000013000000720500003C00000006000000020000000000000000408F4000000000E0
310
9BB9BF00000060489C52400000000000408F40000000003828C1BF000000609B9052400C000000130000007A0500003C00000006000000020000000000000000408F4000000000D89BB9BF00000060A72353400000000000408F4000000000E09BB9BF00000060489C52400C00000013000000820500003C00000006000000
310
020000000000000000408F4000000000D89BB9BF00000060A72353400000000000408F40000000003428C1BF00000060542F53400C000000130000008A0500003C00000006000000020000000000000000408F40000000C0090018C000000080978843400000000000408F40000000C0E6E017C00000002020A843400C0000
310
0013000000920500003C00000006000000020000000000000000408F40000000C0E6E017C00000002020A843400000000000408F4000000020E6E017C000000080095F46400C000000130000009A0500003C00000006000000020000000000000000408F4000000060090018C000000020927E46400000000000408F400000
310
0020E6E017C000000080095F46400C00000013000000A20500003C00000006000000020000000000000000408F40000000C0090018C000000080978843400000000000408F4000000060090018C000000020927E46400C00000013000000AA0500003C00000006000000020000000000000000408F40000000C0E6E017C000
310
00002020A843400000000000408F40000000C05E8517C000000040BEC543400C00000013000000B20500003C00000006000000020000000000000000408F40000000C05E8517C000000040BEC543400000000000408F40000000605E8517C0000000406B4146400C00000013000000BA0500003C0000000600000002000000
310
0000000000408F4000000020E6E017C000000080095F46400000000000408F40000000605E8517C0000000406B4146400C00000013000000C20500003C00000006000000020000000000000000408F40000000C001F316C000000060A4DF43400000000000408F40000000C05E8517C000000040BEC543400C000000130000
310
00CA0500003C00000006000000020000000000000000408F40000000C001F316C000000060A4DF43400000000000408F400000006001F316C000000020852746400C00000013000000D20500003C00000006000000020000000000000000408F40000000605E8517C0000000406B4146400000000000408F400000006001F3
310
16C000000020852746400C00000013000000DA0500003C00000006000000020000000000000000408F40000000C001F316C000000060A4DF43400000000000408F40000000C0B73216C0000000A03FF443400C00000013000000E20500003C00000006000000020000000000000000408F4000000060B73216C000000000EA
310
1246400000000000408F40000000C0B73216C0000000A03FF443400C00000013000000EA0500003C00000006000000020000000000000000408F4000000060B73216C000000000EA1246400000000000408F400000006001F316C000000020852746400C00000013000000F20500003C000000060000000200000000000000
310
00408F4000000040365015C0000000804D0244400000000000408F40000000C0B73216C0000000A03FF443400C00000013000000FA0500003C00000006000000020000000000000000408F4000000040365015C0000000804D0244400000000000408F4000000040365015C000000000DC0446400C00000013000000020600
310
003C00000006000000020000000000000000408F4000000060B73216C000000000EA1246400000000000408F4000000040365015C000000000DC0446400C000000130000000A0600003C00000006000000020000000000000000408F4000000040495914C000000040F40844400000000000408F4000000040365015C00000
310
00804D0244400C00000013000000120600003C00000006000000020000000000000000408F4000000040495914C000000040F40844400000000000408F40000000C0485914C0000000E034FE45400C000000130000001A0600003C00000006000000020000000000000000408F40000000C0485914C0000000E034FE454000
310
00000000408F4000000040365015C000000000DC0446400C00000013000000220600003C00000006000000020000000000000000408F400000000083CEE1BF00000060073C44400000000000408F4000000040495914C000000040F40844400C000000130000002A0600003C00000006000000020000000000000000408F40
310
0000000083CEE1BF00000060073C44400000000000408F400000000080CEE1BF0000002022CB45400C00000013000000320600003C00000006000000020000000000000000408F40000000C0485914C0000000E034FE45400000000000408F400000000080CEE1BF0000002022CB45400C000000130000003A0600003C0000
310
0006000000020000000000000000408F400000000083CEE1BF00000060073C44400000000000408F40000000007D3FD8BF000000006E4244400C00000013000000420600003C00000006000000020000000000000000408F40000000007D3FD8BF000000006E4244400000000000408F40000000007A3FD8BF000000A0BBC4
310
45400C000000130000004A0600003C00000006000000020000000000000000408F40000000007A3FD8BF000000A0BBC445400000000000408F400000000080CEE1BF0000002022CB45400C00000013000000520600003C00000006000000020000000000000000408F40000000007D3FD8BF000000006E4244400000000000
310
408F4000000000829ECDBF000000A0AF5044400C000000130000005A0600003C00000006000000020000000000000000408F4000000000849ECDBF000000007AB645400000000000408F4000000000829ECDBF000000A0AF5044400C00000013000000620600003C00000006000000020000000000000000408F4000000000
310
7A3FD8BF000000A0BBC445400000000000408F4000000000849ECDBF000000007AB645400C000000130000006A0600003C00000006000000020000000000000000408F40000000004428C1BF00000060DB6444400000000000408F4000000000829ECDBF000000A0AF5044400C00000013000000720600003C000000060000
310
00020000000000000000408F40000000004428C1BF00000060DB6444400000000000408F40000000004028C1BF000000C04DA245400C000000130000007A0600003C00000006000000020000000000000000408F40000000004028C1BF000000C04DA245400000000000408F4000000000849ECDBF000000007AB645400C00
310
000013000000820600003C00000006000000020000000000000000408F4000000000F89BB9BF00000020367C44400000000000408F40000000004428C1BF00000060DB6444400C000000130000008A0600003C00000006000000020000000000000000408F4000000000F09BB9BF00000080F38A45400000000000408F4000
310
000000F89BB9BF00000020367C44400C00000013000000920600003C00000006000000020000000000000000408F4000000000F09BB9BF00000080F38A45400000000000408F40000000004028C1BF000000C04DA245400C000000130000009A0600003C00000006000000020000000000000000408F400000004005002AC0
310
000000000000E03F0000000000408F4000000060090018C000000020927E46400C00000013000000A20600003C00000006000000020000000000000000408F40000000A0090018C000000060792252400000000000408F4000000060090018C000000020927E46400C00000013000000AA0600003C00000006000000020000
310
000000000000408F400000004005002AC0000000000000E03F0000000000408F40000000A0090018C000000060792252400C00000013000000B20600003C00000006000000020000000000000000408F400000004005002AC0000000000000E03F0000000000408F400000006004002AC0000000A0F7CF62400C0000001300
310
0000BA0600003C00000006000000020000000000000000408F4000000000264F29C0000000000014993F0000000000408FC000000040234F29C0000000000014993F0C00000013000000C20600003C00000006000000020000000000000000408FC000000080020029C000000000000000000000000000408FC00000004023
310
4F29C0000000000014993F0C00000013000000CA0600003C00000006000000020000000000000000408F4000000040050029C000000000000000000000000000408FC000000080020029C000000000000000000C00000013000000D20600003C00000006000000020000000000000000408F40000000C07F9629C000000000
310
0074B83F0000000000408FC0000000007D9629C0000000000074B83F0C00000013000000DA0600003C00000006000000020000000000000000408FC0000000007D9629C0000000000074B83F0000000000408FC000000040234F29C0000000000014993F0C00000013000000E20600003C0000000600000002000000000000
310
0000408F40000000401ECF29C0000000008061CA3F0000000000408FC0000000801BCF29C0000000008061CA3F0C00000013000000EA0600003C00000006000000020000000000000000408FC0000000801BCF29C0000000008061CA3F0000000000408FC0000000007D9629C0000000000074B83F0C00000013000000F206
310
00003C00000006000000020000000000000000408F40000000407BF329C000000000001CD63F0000000000408FC00000008078F329C000000000001CD63F0C00000013000000FA0600003C00000006000000020000000000000000408FC00000008078F329C000000000001CD63F0000000000408FC0000000801BCF29C000
310
0000008061CA3F0C00000013000000020700003C00000006000000020000000000000000408F400000004005002AC0000000000000E03F0000000000408FC00000008002002AC0000000000000E03F0C000000130000000A0700003C00000006000000020000000000000000408FC00000008002002AC0000000000000E03F
310
0000000000408FC00000008078F329C000000000001CD63F0C00000013000000120700003C00000006000000020000000000000000408F400000006004002AC0000000A0F7CF62400000000000408FC00000006001002AC0000000A0F7CF62400C000000130000001A0700003C00000006000000020000000000000000408F
310
C00000008002002AC0000000000000E03F0000000000408FC00000006001002AC0000000A0F7CF62400C00000013000000220700003C00000006000000020000000000000000408F40000000607AF329C0000000E0E9D462400000000000408FC00000006077F329C0000000E0E9D462400C000000130000002A0700003C00
310
000006000000020000000000000000408FC00000006077F329C0000000E0E9D462400000000000408FC00000006001002AC0000000A0F7CF62400C00000013000000320700003C00000006000000020000000000000000408F40000000601DCF29C0000000605FD962400000000000408FC0000000601ACF29C0000000605F
310
D962400C000000130000003A0700003C00000006000000020000000000000000408FC00000006077F329C0000000E0E9D462400000000000408FC0000000601ACF29C0000000605FD962400C00000013000000420700003C00000006000000020000000000000000408F40000000E07E9629C000000060E9DC624000000000
310
00408FC0000000E07B9629C000000060E9DC62400C000000130000004A0700003C00000006000000020000000000000000408FC0000000E07B9629C000000060E9DC62400000000000408FC0000000601ACF29C0000000605FD962400C00000013000000520700003C00000006000000020000000000000000408F40000000
310
E0244F29C0000000202FDF62400000000000408FC0000000E0214F29C0000000202FDF62400C000000130000005A0700003C00000006000000020000000000000000408FC0000000E07B9629C000000060E9DC62400000000000408FC0000000E0214F29C0000000202FDF62400C00000013000000620700003C0000000600
310
0000020000000000000000408F4000000060040029C0000000A0F7DF62400000000000408FC000000060010029C0000000A0F7DF62400C000000130000006A0700003C00000006000000020000000000000000408FC000000060010029C0000000A0F7DF62400000000000408FC0000000E0214F29C0000000202FDF62400C
310
00000013000000720700003C00000006000000020000000000000000408F4000000000004000BF000000A0F7DF62400000000000408FC0000000000000E5BE000000A0F7DF62400C000000130000007A0700003C00000006000000020000000000000000408FC000000060010029C0000000A0F7DF62400000000000408FC0
310
000000000000E5BE000000A0F7DF62400C00000013000000820700003C00000006000000020000000000000000408F4000000000204F8FBF00000020EB7962400000000000408FC00000000020458FBF00000020EB7962400C000000130000008A0700003C00000006000000020000000000000000408FC00000000020458F
310
BF00000020EB7962400000000000408FC0000000000000E5BE000000A0F7DF62400C00000013000000920700003C00000006000000020000000000000000408F40000000002D4ED0BF000000E0707362400000000000408FC000000000D94DD0BF000000E0707362400C000000130000009A0700003C000000060000000200
310
00000000000000408FC000000000D94DD0BF000000E0707362400000000000408FC00000000020458FBF00000020EB7962400C00000013000000A20700003C00000006000000020000000000000000408F40000000802B24E2BF000000E07C6D62400000000000408FC0000000800124E2BF000000E07C6D62400C00000013
310
000000AA0700003C00000006000000020000000000000000408FC0000000800124E2BF000000E07C6D62400000000000408FC000000000D94DD0BF000000E0707362400C00000013000000B20700003C00000006000000020000000000000000408F400000008056BDEABF00000020A36562400000000000408FC000000080
310
2CBDEABF00000020A36562400C00000013000000BA0700003C00000006000000020000000000000000408FC0000000800124E2BF000000E07C6D62400000000000408FC0000000802CBDEABF00000020A36562400C00000013000000C20700003C00000006000000020000000000000000408F400000004057CCF0BF000000
310
20355C62400000000000408FC00000004042CCF0BF00000020355C62400C00000013000000CA0700003C00000006000000020000000000000000408FC00000004042CCF0BF00000020355C62400000000000408FC0000000802CBDEABF00000020A36562400C00000013000000D20700003C00000006000000020000000000
310
000000408F40000000405737F3BF00000060955162400000000000408FC0000000404237F3BF00000060955162400C00000013000000DA0700003C00000006000000020000000000000000408FC0000000404237F3BF00000060955162400000000000408FC00000004042CCF0BF00000020355C62400C00000013000000E2
310
0700003C00000006000000020000000000000000408F40000000407086F4BF000000E0324662400000000000408FC0000000405B86F4BF000000E0324662400C00000013000000EA0700003C00000006000000020000000000000000408FC0000000405B86F4BF000000E0324662400000000000408FC0000000404237F3BF
310
00000060955162400C00000013000000F20700003C00000006000000020000000000000000408F4000000000FFABF4BF00000060843A62400000000000408FC000000040EAABF4BF00000060843A62400C00000013000000FA0700003C00000006000000020000000000000000408FC000000040EAABF4BF00000060843A62
310
400000000000408FC0000000405B86F4BF000000E0324662400C00000013000000020800003C00000006000000020000000000000000408F400000000078A6F3BF00000060032F62400000000000408FC00000004063A6F3BF00000060032F62400C000000130000000A0800003C0000000600000002000000000000000040
310
8FC000000040EAABF4BF00000060843A62400000000000408FC00000004063A6F3BF00000060032F62400C00000013000000120800003C00000006000000020000000000000000408F40000000008480F1BF00000060282462400000000000408FC0000000406F80F1BF00000060282462400C000000130000001A0800003C
310
00000006000000020000000000000000408FC00000004063A6F3BF00000060032F62400000000000408FC0000000406F80F1BF00000060282462400C00000013000000220800003C00000006000000020000000000000000408F40000000001AA1ECBF00000020641A62400000000000408FC000000080F2A0ECBF00000020
310
641A62400C000000130000002A0800003C00000006000000020000000000000000408FC000000080F2A0ECBF00000020641A62400000000000408FC0000000406F80F1BF00000060282462400C00000013000000320800003C00000006000000020000000000000000408F4000000000A46FE4BF000000E01C126240000000
310
0000408FC0000000807A6FE4BF000000E01C1262400C000000130000003A0800003C00000006000000020000000000000000408FC0000000807A6FE4BF000000E01C1262400000000000408FC000000080F2A0ECBF00000020641A62400C00000013000000420800003C00000006000000020000000000000000408F400000
310
0000A484D5BF000000E0A80B62400000000000408FC0000000005184D5BF000000E0A80B62400C000000130000004A0800003C00000006000000020000000000000000408FC0000000005184D5BF000000E0A80B62400000000000408FC0000000807A6FE4BF000000E01C1262400C00000013000000520800003C00000006
310
000000020000000000000000408F4000000000000001BF000000208D0262400000000000408FC0000000000000E8BE000000208D0262400C000000130000005A0800003C00000006000000020000000000000000408FC0000000000000E8BE000000208D0262400000000000408FC0000000005184D5BF000000E0A80B6240
310
0C00000013000000620800003C00000006000000020000000000000000408F4000000000000001BF0000006098AC61400000000000408FC0000000000000E8BE0000006098AC61400C000000130000006A0800003C00000006000000020000000000000000408FC0000000000000E8BE000000208D0262400000000000408F
310
C0000000000000E8BE0000006098AC61400C00000013000000720800003C00000006000000020000000000000000408F4000000000406DA1BF000000E0C1A661400000000000408FC000000000A06AA1BF000000E0C1A661400C000000130000007A0800003C00000006000000020000000000000000408FC000000000A06A
310
A1BF000000E0C1A661400000000000408FC0000000000000E8BE0000006098AC61400C00000013000000820800003C00000006000000020000000000000000408F400000000090D1C0BF000000E0B6A161400000000000408FC000000000E8D0C0BF000000E0B6A161400C000000130000008A0800003C0000000600000002
310
0000000000000000408FC000000000A06AA1BF000000E0C1A661400000000000408FC000000000E8D0C0BF000000E0B6A161400C00000013000000920800003C00000006000000020000000000000000408F400000000004D9D1BF00000060269E61400000000000408FC000000000B0D8D1BF00000060269E61400C000000
310
130000009A0800003C00000006000000020000000000000000408FC000000000E8D0C0BF000000E0B6A161400000000000408FC000000000B0D8D1BF00000060269E61400C00000013000000A20800003C00000006000000020000000000000000408F40000000008836DDBF000000E08C9C61400000000000408FC0000000
310
003236DDBF000000E08C9C61400C00000013000000AA0800003C00000006000000020000000000000000408FC0000000003236DDBF000000E08C9C61400000000000408FC000000000B0D8D1BF00000060269E61400C00000013000000B20800003C00000006000000020000000000000000408F40000000E0475914C00000
310
00E07F8F61400000000000408FC000000060425914C0000000E07F8F61400C00000013000000BA0800003C00000006000000020000000000000000408FC000000060425914C0000000E07F8F61400000000000408FC0000000003236DDBF000000E08C9C61400C00000013000000C20800003C000000060000000200000000
310
00000000408F40000000E0345015C000000020D68D61400000000000408FC0000000E02F5015C000000020D68D61400C00000013000000CA0800003C00000006000000020000000000000000408FC0000000E02F5015C000000020D68D61400000000000408FC000000060425914C0000000E07F8F61400C00000013000000
310
D20800003C00000006000000020000000000000000408F4000000060B63216C0000000A0528A61400000000000408FC0000000E0B03216C0000000A0528A61400C00000013000000DA0800003C00000006000000020000000000000000408FC0000000E0B03216C0000000A0528A61400000000000408FC0000000E02F5015
310
C000000020D68D61400C00000013000000E20800003C00000006000000020000000000000000408F400000006000F316C0000000E02B8561400000000000408FC0000000E0FAF216C0000000E02B8561400C00000013000000EA0800003C00000006000000020000000000000000408FC0000000E0FAF216C0000000E02B85
310
61400000000000408FC0000000E0B03216C0000000A0528A61400C00000013000000F20800003C00000006000000020000000000000000408F40000000605D8517C000000060B27E61400000000000408FC0000000E0578517C000000060B27E61400C00000013000000FA0800003C00000006000000020000000000000000
310
408FC0000000E0578517C000000060B27E61400000000000408FC0000000E0FAF216C0000000E02B8561400C00000013000000020900003C00000006000000020000000000000000408F40000000E0E4E017C0000000E04A7761400000000000408FC0000000E0DFE017C0000000E04A7761400C000000130000000A090000
310
3C00000006000000020000000000000000408FC0000000E0578517C000000060B27E61400000000000408FC0000000E0DFE017C0000000E04A7761400C00000013000000120900003C00000006000000020000000000000000408F4000000060080018C0000000A0686F61400000000000408FC0000000E0020018C0000000
310
A0686F61400C000000130000001A0900003C00000006000000020000000000000000408FC0000000E0020018C0000000A0686F61400000000000408FC0000000E0DFE017C0000000E04A7761400C00000013000000220900003C00000006000000020000000000000000408F40000000A0080018C0000000E0A3FB5B400000
310
000000408FC000000060030018C0000000E0A3FB5B400C000000130000002A0900003C00000006000000020000000000000000408FC0000000E0020018C0000000A0686F61400000000000408FC000000060030018C0000000E0A3FB5B400C00000013000000320900003C00000006000000020000000000000000408F4000
310
000060E5E017C0000000A0DFEB5B400000000000408FC000000020E0E017C0000000A0DFEB5B400C000000130000003A0900003C00000006000000020000000000000000408FC000000020E0E017C0000000A0DFEB5B400000000000408FC000000060030018C0000000E0A3FB5B400C00000013000000420900003C000000
310
06000000020000000000000000408F40000000A05D8517C0000000A010DD5B400000000000408FC000000060588517C0000000A010DD5B400C000000130000004A0900003C00000006000000020000000000000000408FC000000060588517C0000000A010DD5B400000000000408FC000000020E0E017C0000000A0DFEB5B
310
400C00000013000000520900003C00000006000000020000000000000000408F40000000A000F316C0000000601DD05B400000000000408FC000000060FBF216C0000000601DD05B400C000000130000005A0900003C00000006000000020000000000000000408FC000000060FBF216C0000000601DD05B40000000000040
310
8FC000000060588517C0000000A010DD5B400C00000013000000620900003C00000006000000020000000000000000408F40000000A0B63216C000000020D0C55B400000000000408FC000000060B13216C000000020D0C55B400C000000130000006A0900003C00000006000000020000000000000000408FC000000060B1
310
3216C000000020D0C55B400000000000408FC000000060FBF216C0000000601DD05B400C00000013000000720900003C00000006000000020000000000000000408F4000000080355015C0000000E0C8BE5B400000000000408FC000000000305015C0000000E0C8BE5B400C000000130000007A0900003C00000006000000
310
020000000000000000408FC000000000305015C0000000E0C8BE5B400000000000408FC000000060B13216C000000020D0C55B400C00000013000000820900003C00000006000000020000000000000000408F4000000000485914C0000000A075BB5B400000000000408FC000000000435914C0000000A075BB5B400C0000
310
00130000008A0900003C00000006000000020000000000000000408FC000000000435914C0000000A075BB5B400000000000408FC000000000305015C0000000E0C8BE5B400C00000013000000920900003C00000006000000020000000000000000408F40000000007BCEE1BF000000E0EBA15B400000000000408FC00000
310
000051CEE1BF000000E0EBA15B400C000000130000009A0900003C00000006000000020000000000000000408FC00000000051CEE1BF000000E0EBA15B400000000000408FC000000000435914C0000000A075BB5B400C00000013000000A20900003C00000006000000020000000000000000408F4000000000703FD8BF00
310
0000A0B89E5B400000000000408FC0000000001C3FD8BF000000A0B89E5B400C00000013000000AA0900003C00000006000000020000000000000000408FC0000000001C3FD8BF000000A0B89E5B400000000000408FC00000000051CEE1BF000000E0EBA15B400C00000013000000B20900003C0000000600000002000000
310
0000000000408F4000000000689ECDBF000000E097975B400000000000408FC000000000C09DCDBF000000E097975B400C00000013000000BA0900003C00000006000000020000000000000000408FC0000000001C3FD8BF000000A0B89E5B400000000000408FC000000000C09DCDBF000000E097975B400C000000130000
310
00C20900003C00000006000000020000000000000000408F40000000002828C1BF000000E0818D5B400000000000408FC0000000008027C1BF000000E0818D5B400C00000013000000CA0900003C00000006000000020000000000000000408FC0000000008027C1BF000000E0818D5B400000000000408FC000000000C09D
310
CDBF000000E097975B400C00000013000000D20900003C00000006000000020000000000000000408F4000000000C09BB9BF000000A0D4815B400000000000408FC000000000709AB9BF000000A0D4815B400C00000013000000DA0900003C00000006000000020000000000000000408FC0000000008027C1BF000000E081
310
8D5B400000000000408FC000000000709AB9BF000000A0D4815B400C00000013000000E20900003C00000006000000020000000000000000408F4000000000C89BB9BF000000E075FA5A400000000000408FC000000000789AB9BF000000E075FA5A400C00000013000000EA0900003C000000060000000200000000000000
310
00408FC000000000789AB9BF000000E075FA5A400000000000408FC000000000709AB9BF000000A0D4815B400C00000013000000F20900003C00000006000000020000000000000000408F40000000002C28C1BF000000E0C8EE5A400000000000408FC0000000008427C1BF000000E0C8EE5A400C00000013000000FA0900
310
003C00000006000000020000000000000000408FC000000000789AB9BF000000E075FA5A400000000000408FC0000000008427C1BF000000E0C8EE5A400C00000013000000020A00003C00000006000000020000000000000000408F4000000000749ECDBF000000A0B2E45A400000000000408FC000000000CC9DCDBF0000
310
00A0B2E45A400C000000130000000A0A00003C00000006000000020000000000000000408FC000000000CC9DCDBF000000A0B2E45A400000000000408FC0000000008427C1BF000000E0C8EE5A400C00000013000000120A00003C00000006000000020000000000000000408F4000000000723FD8BF000000E091DD5A4000
310
00000000408FC0000000001E3FD8BF000000E091DD5A400C000000130000001A0A00003C00000006000000020000000000000000408FC0000000001E3FD8BF000000E091DD5A400000000000408FC000000000CC9DCDBF000000A0B2E45A400C00000013000000220A00003C00000006000000020000000000000000408F40
310
000000007BCEE1BF000000A05EDA5A400000000000408FC00000000051CEE1BF000000A05EDA5A400C000000130000002A0A00003C00000006000000020000000000000000408FC0000000001E3FD8BF000000E091DD5A400000000000408FC00000000051CEE1BF000000A05EDA5A400C00000013000000320A00003C0000
310
0006000000020000000000000000408F4000000000485914C000000020D5C05A400000000000408FC000000000435914C000000020D5C05A400C000000130000003A0A00003C00000006000000020000000000000000408FC00000000051CEE1BF000000A05EDA5A400000000000408FC000000000435914C000000020D5C0
310
5A400C00000013000000420A00003C00000006000000020000000000000000408F4000000080355015C0000000A081BD5A400000000000408FC000000000305015C0000000A081BD5A400C000000130000004A0A00003C00000006000000020000000000000000408FC000000000435914C000000020D5C05A400000000000
310
408FC000000000305015C0000000A081BD5A400C00000013000000520A00003C00000006000000020000000000000000408F4000000080B63216C0000000A07AB65A400000000000408FC000000080B13216C0000000A07AB65A400C000000130000005A0A00003C00000006000000020000000000000000408FC000000000
310
305015C0000000A081BD5A400000000000408FC000000080B13216C0000000A07AB65A400C00000013000000620A00003C00000006000000020000000000000000408F400000008000F316C0000000602DAC5A400000000000408FC000000080FBF216C0000000602DAC5A400C000000130000006A0A00003C000000060000
310
00020000000000000000408FC000000080B13216C0000000A07AB65A400000000000408FC000000080FBF216C0000000602DAC5A400C00000013000000720A00003C00000006000000020000000000000000408F40000000805D8517C0000000203A9F5A400000000000408FC000000080588517C0000000203A9F5A400C00
310
0000130000007A0A00003C00000006000000020000000000000000408FC000000080FBF216C0000000602DAC5A400000000000408FC000000080588517C0000000203A9F5A400C00000013000000820A00003C00000006000000020000000000000000408F4000000080E5E017C0000000E06A905A400000000000408FC000
310
000000E0E017C0000000E06A905A400C000000130000008A0A00003C00000006000000020000000000000000408FC000000000E0E017C0000000E06A905A400000000000408FC000000080588517C0000000203A9F5A400C00000013000000920A00003C00000006000000020000000000000000408F4000000080080018C0
310
000000A0A6805A400000000000408FC000000080030018C0000000A0A6805A400C000000130000009A0A00003C00000006000000020000000000000000408FC000000000E0E017C0000000E06A905A400000000000408FC000000080030018C0000000A0A6805A400C00000013000000A20A00003C00000006000000020000
310
000000000000408F4000000000090018C000000060769D53400000000000408FC0000000C0030018C000000060769D53400C00000013000000AA0A00003C00000006000000020000000000000000408FC000000080030018C0000000A0A6805A400000000000408FC0000000C0030018C000000060769D53400C0000001300
310
0000B20A00003C00000006000000020000000000000000408F40000000C0E5E017C000000060B28D53400000000000408FC000000080E0E017C000000060B28D53400C00000013000000BA0A00003C00000006000000020000000000000000408FC0000000C0030018C000000060769D53400000000000408FC000000080E0
310
E017C000000060B28D53400C00000013000000C20A00003C00000006000000020000000000000000408F40000000005E8517C000000020E37E53400000000000408FC0000000C0588517C000000020E37E53400C00000013000000CA0A00003C00000006000000020000000000000000408FC0000000C0588517C000000020
310
E37E53400000000000408FC000000080E0E017C000000060B28D53400C00000013000000D20A00003C00000006000000020000000000000000408F400000000001F316C0000000E0EF7153400000000000408FC0000000C0FBF216C0000000E0EF7153400C00000013000000DA0A00003C0000000600000002000000000000
310
0000408FC0000000C0588517C000000020E37E53400000000000408FC0000000C0FBF216C0000000E0EF7153400C00000013000000E20A00003C00000006000000020000000000000000408F4000000000B73216C0000000A0A26753400000000000408FC0000000C0B13216C0000000A0A26753400C00000013000000EA0A
310
00003C00000006000000020000000000000000408FC0000000C0FBF216C0000000E0EF7153400000000000408FC0000000C0B13216C0000000A0A26753400C00000013000000F20A00003C00000006000000020000000000000000408F40000000A0355015C0000000609B6053400000000000408FC0000000A0305015C000
310
0000609B6053400C00000013000000FA0A00003C00000006000000020000000000000000408FC0000000A0305015C0000000609B6053400000000000408FC0000000C0B13216C0000000A0A26753400C00000013000000020B00003C00000006000000020000000000000000408F40000000A0485914C000000020485D5340
310
0000000000408FC000000020435914C000000020485D53400C000000130000000A0B00003C00000006000000020000000000000000408FC000000020435914C000000020485D53400000000000408FC0000000A0305015C0000000609B6053400C00000013000000120B00003C00000006000000020000000000000000408F
310
40000000007DCEE1BF00000060BE4353400000000000408FC00000000053CEE1BF00000060BE4353400C000000130000001A0B00003C00000006000000020000000000000000408FC00000000053CEE1BF00000060BE4353400000000000408FC000000020435914C000000020485D53400C00000013000000220B00003C00
310
000006000000020000000000000000408F4000000000743FD8BF000000208B4053400000000000408FC000000000223FD8BF000000208B4053400C000000130000002A0B00003C00000006000000020000000000000000408FC00000000053CEE1BF00000060BE4353400000000000408FC000000000223FD8BF000000208B
310
4053400C00000013000000320B00003C00000006000000020000000000000000408F4000000000749ECDBF000000A06A3953400000000000408FC000000000CC9DCDBF000000A06A3953400C000000130000003A0B00003C00000006000000020000000000000000408FC000000000223FD8BF000000208B40534000000000
310
00408FC000000000CC9DCDBF000000A06A3953400C00000013000000420B00003C00000006000000020000000000000000408F40000000003428C1BF00000060542F53400000000000408FC0000000008C27C1BF00000060542F53400C000000130000004A0B00003C00000006000000020000000000000000408FC0000000
310
008C27C1BF00000060542F53400000000000408FC000000000CC9DCDBF000000A06A3953400C00000013000000520B00003C00000006000000020000000000000000408F4000000000D89BB9BF00000060A72353400000000000408FC000000000889AB9BF00000060A72353400C000000130000005A0B00003C0000000600
310
0000020000000000000000408FC0000000008C27C1BF00000060542F53400000000000408FC000000000889AB9BF00000060A72353400C00000013000000620B00003C00000006000000020000000000000000408F4000000000E09BB9BF00000060489C52400000000000408FC000000000909AB9BF00000060489C52400C
310
000000130000006A0B00003C00000006000000020000000000000000408FC000000000909AB9BF00000060489C52400000000000408FC000000000889AB9BF00000060A72353400C00000013000000720B00003C00000006000000020000000000000000408F40000000003828C1BF000000609B9052400000000000408FC0
310
000000009027C1BF000000609B9052400C000000130000007A0B00003C00000006000000020000000000000000408FC0000000009027C1BF000000609B9052400000000000408FC000000000909AB9BF00000060489C52400C00000013000000820B00003C00000006000000020000000000000000408F4000000000789ECD
310
BF00000020858652400000000000408FC000000000D09DCDBF00000020858652400C000000130000008A0B00003C00000006000000020000000000000000408FC000000000D09DCDBF00000020858652400000000000408FC0000000009027C1BF000000609B9052400C00000013000000920B00003C000000060000000200
310
00000000000000408F4000000000783FD8BF000000A0647F52400000000000408FC000000000243FD8BF000000A0647F52400C000000130000009A0B00003C00000006000000020000000000000000408FC000000000243FD8BF000000A0647F52400000000000408FC000000000D09DCDBF00000020858652400C00000013
310
000000A20B00003C00000006000000020000000000000000408F400000000080CEE1BF00000060317C52400000000000408FC00000008055CEE1BF00000060317C52400C00000013000000AA0B00003C00000006000000020000000000000000408FC00000008055CEE1BF00000060317C52400000000000408FC000000000
310
243FD8BF000000A0647F52400C00000013000000B20B00003C00000006000000020000000000000000408F4000000040485914C0000000A0A76252400000000000408FC000000000435914C0000000A0A76252400C00000013000000BA0B00003C00000006000000020000000000000000408FC000000000435914C0000000
310
A0A76252400000000000408FC00000008055CEE1BF00000060317C52400C00000013000000C20B00003C00000006000000020000000000000000408F40000000A0355015C000000020545F52400000000000408FC000000020305015C000000020545F52400C00000013000000CA0B00003C00000006000000020000000000
310
000000408FC000000000435914C0000000A0A76252400000000000408FC000000020305015C000000020545F52400C00000013000000D20B00003C00000006000000020000000000000000408F4000000020B73216C0000000204D5852400000000000408FC0000000A0B13216C0000000204D5852400C00000013000000DA
310
0B00003C00000006000000020000000000000000408FC0000000A0B13216C0000000204D5852400000000000408FC000000020305015C000000020545F52400C00000013000000E20B00003C00000006000000020000000000000000408F400000002001F316C0000000E0FF4D52400000000000408FC0000000A0FBF216C0
310
000000E0FF4D52400C00000013000000EA0B00003C00000006000000020000000000000000408FC0000000A0FBF216C0000000E0FF4D52400000000000408FC0000000A0B13216C0000000204D5852400C00000013000000F20B00003C00000006000000020000000000000000408F40000000005E8517C0000000A00C4152
310
400000000000408FC0000000A0588517C0000000A00C4152400C00000013000000FA0B00003C00000006000000020000000000000000408FC0000000A0588517C0000000A00C4152400000000000408FC0000000A0FBF216C0000000E0FF4D52400C00000013000000020C00003C0000000600000002000000000000000040
310
8F4000000020E6E017C0000000603D3252400000000000408FC000000020E1E017C0000000603D3252400C000000130000000A0C00003C00000006000000020000000000000000408FC000000020E1E017C0000000603D3252400000000000408FC0000000A0588517C0000000A00C4152400C00000013000000120C00003C
310
00000006000000020000000000000000408F40000000A0090018C000000060792252400000000000408FC000000040040018C000000060792252400C000000130000001A0C00003C00000006000000020000000000000000408FC000000020E1E017C0000000603D3252400000000000408FC000000040040018C000000060
310
792252400C00000013000000220C00003C00000006000000020000000000000000408F4000000060090018C000000020927E46400000000000408FC000000020040018C000000020927E46400C000000130000002A0C00003C00000006000000020000000000000000408FC000000040040018C00000006079225240000000
310
0000408FC000000020040018C000000020927E46400C00000013000000320C00003C00000006000000020000000000000000408F4000000020E6E017C000000080095F46400000000000408FC0000000E0E0E017C000000080095F46400C000000130000003A0C00003C00000006000000020000000000000000408FC00000
310
00E0E0E017C000000080095F46400000000000408FC000000020040018C000000020927E46400C00000013000000420C00003C00000006000000020000000000000000408F40000000605E8517C0000000406B4146400000000000408FC000000020598517C0000000406B4146400C000000130000004A0C00003C00000006
310
000000020000000000000000408FC0000000E0E0E017C000000080095F46400000000000408FC000000020598517C0000000406B4146400C00000013000000520C00003C00000006000000020000000000000000408F400000006001F316C000000020852746400000000000408FC000000020FCF216C00000002085274640
310
0C000000130000005A0C00003C00000006000000020000000000000000408FC000000020598517C0000000406B4146400000000000408FC000000020FCF216C000000020852746400C00000013000000620C00003C00000006000000020000000000000000408F4000000060B73216C000000000EA1246400000000000408F
310
C000000020B23216C000000000EA1246400C000000130000006A0C00003C00000006000000020000000000000000408FC000000020FCF216C000000020852746400000000000408FC000000020B23216C000000000EA1246400C00000013000000720C00003C00000006000000020000000000000000408F40000000403650
310
15C000000000DC0446400000000000408FC0000000C0305015C000000000DC0446400C000000130000007A0C00003C00000006000000020000000000000000408FC0000000C0305015C000000000DC0446400000000000408FC000000020B23216C000000000EA1246400C00000013000000820C00003C0000000600000002
310
0000000000000000408F40000000C0485914C0000000E034FE45400000000000408FC0000000C0435914C0000000E034FE45400C000000130000008A0C00003C00000006000000020000000000000000408FC0000000C0305015C000000000DC0446400000000000408FC0000000C0435914C0000000E034FE45400C000000
310
13000000920C00003C00000006000000020000000000000000408F400000000080CEE1BF0000002022CB45400000000000408FC00000000056CEE1BF0000002022CB45400C000000130000009A0C00003C00000006000000020000000000000000408FC00000000056CEE1BF0000002022CB45400000000000408FC0000000
310
C0435914C0000000E034FE45400C00000013000000A20C00003C00000006000000020000000000000000408F40000000007A3FD8BF000000A0BBC445400000000000408FC000000000283FD8BF000000A0BBC445400C00000013000000AA0C00003C00000006000000020000000000000000408FC00000000056CEE1BF0000
310
002022CB45400000000000408FC000000000283FD8BF000000A0BBC445400C00000013000000B20C00003C00000006000000020000000000000000408F4000000000849ECDBF000000007AB645400000000000408FC000000000DC9DCDBF000000007AB645400C00000013000000BA0C00003C000000060000000200000000
310
00000000408FC000000000DC9DCDBF000000007AB645400000000000408FC000000000283FD8BF000000A0BBC445400C00000013000000C20C00003C00000006000000020000000000000000408F40000000004028C1BF000000C04DA245400000000000408FC0000000009827C1BF000000C04DA245400C00000013000000
310
CA0C00003C00000006000000020000000000000000408FC000000000DC9DCDBF000000007AB645400000000000408FC0000000009827C1BF000000C04DA245400C00000013000000D20C00003C00000006000000020000000000000000408F4000000000F09BB9BF00000080F38A45400000000000408FC000000000A09AB9
310
BF00000080F38A45400C00000013000000DA0C00003C00000006000000020000000000000000408FC0000000009827C1BF000000C04DA245400000000000408FC000000000A09AB9BF00000080F38A45400C00000013000000E20C00003C00000006000000020000000000000000408F4000000000F89BB9BF00000020367C
310
44400000000000408FC000000000A49AB9BF00000020367C44400C00000013000000EA0C00003C00000006000000020000000000000000408FC000000000A49AB9BF00000020367C44400000000000408FC000000000A09AB9BF00000080F38A45400C00000013000000F20C00003C00000006000000020000000000000000
310
408F40000000004428C1BF00000060DB6444400000000000408FC0000000009A27C1BF00000060DB6444400C00000013000000FA0C00003C00000006000000020000000000000000408FC0000000009A27C1BF00000060DB6444400000000000408FC000000000A49AB9BF00000020367C44400C00000013000000020D0000
310
3C00000006000000020000000000000000408F4000000000829ECDBF000000A0AF5044400000000000408FC000000000DA9DCDBF000000A0AF5044400C000000130000000A0D00003C00000006000000020000000000000000408FC000000000DA9DCDBF000000A0AF5044400000000000408FC0000000009A27C1BF000000
310
60DB6444400C00000013000000120D00003C00000006000000020000000000000000408F40000000007D3FD8BF000000006E4244400000000000408FC000000000293FD8BF000000006E4244400C000000130000001A0D00003C00000006000000020000000000000000408FC000000000293FD8BF000000006E4244400000
310
000000408FC000000000DA9DCDBF000000A0AF5044400C00000013000000220D00003C00000006000000020000000000000000408F400000000083CEE1BF00000060073C44400000000000408FC00000008058CEE1BF00000060073C44400C000000130000002A0D00003C00000006000000020000000000000000408FC000
310
000000293FD8BF000000006E4244400000000000408FC00000008058CEE1BF00000060073C44400C00000013000000320D00003C00000006000000020000000000000000408F4000000040495914C000000040F40844400000000000408FC0000000C0435914C000000040F40844400C000000130000003A0D00003C000000
310
06000000020000000000000000408FC0000000C0435914C000000040F40844400000000000408FC00000008058CEE1BF00000060073C44400C00000013000000420D00003C00000006000000020000000000000000408F4000000040365015C0000000804D0244400000000000408FC000000040315015C0000000804D0244
310
400C000000130000004A0D00003C00000006000000020000000000000000408FC000000040315015C0000000804D0244400000000000408FC0000000C0435914C000000040F40844400C00000013000000520D00003C00000006000000020000000000000000408F40000000C0B73216C0000000A03FF44340000000000040
310
8FC0000000C0B23216C0000000A03FF443400C000000130000005A0D00003C00000006000000020000000000000000408FC000000040315015C0000000804D0244400000000000408FC0000000C0B23216C0000000A03FF443400C00000013000000620D00003C00000006000000020000000000000000408F40000000C001
310
F316C000000060A4DF43400000000000408FC0000000A0FCF216C000000060A4DF43400C000000130000006A0D00003C00000006000000020000000000000000408FC0000000A0FCF216C000000060A4DF43400000000000408FC0000000C0B23216C0000000A03FF443400C00000013000000720D00003C00000006000000
310
020000000000000000408F40000000C05E8517C000000040BEC543400000000000408FC0000000A0598517C000000040BEC543400C000000130000007A0D00003C00000006000000020000000000000000408FC0000000A0598517C000000040BEC543400000000000408FC0000000A0FCF216C000000060A4DF43400C0000
310
0013000000820D00003C00000006000000020000000000000000408F40000000C0E6E017C00000002020A843400000000000408FC000000060E1E017C00000002020A843400C000000130000008A0D00003C00000006000000020000000000000000408FC0000000A0598517C000000040BEC543400000000000408FC00000
310
0060E1E017C00000002020A843400C00000013000000920D00003C00000006000000020000000000000000408F40000000C0090018C000000080978843400000000000408FC0000000A0040018C000000080978843400C000000130000009A0D00003C00000006000000020000000000000000408FC0000000A0040018C000
310
000080978843400000000000408FC000000060E1E017C00000002020A843400C00000013000000A20D00003C00000006000000020000000000000000408F40000000C0090018C000000000F20827400000000000408FC000000080040018C000000000F20827400C00000013000000AA0D00003C0000000600000002000000
310
0000000000408FC000000080040018C000000000F20827400000000000408FC0000000A0040018C000000080978843400C00000013000000B20D00003C00000006000000020000000000000000408F4000000080E6E017C000000000CE8A26400000000000408FC000000040E1E017C000000000CE8A26400C000000130000
310
00BA0D00003C00000006000000020000000000000000408FC000000080040018C000000000F20827400000000000408FC000000040E1E017C000000000CE8A26400C00000013000000C20D00003C00000006000000020000000000000000408F40000000C05E8517C000000000561426400000000000408FC0000000805985
310
17C000000000561426400C00000013000000CA0D00003C00000006000000020000000000000000408FC000000040E1E017C000000000CE8A26400000000000408FC000000080598517C000000000561426400C00000013000000D20D00003C00000006000000020000000000000000408F40000000C001F316C000000000BC
310
AC25400000000000408FC000000080FCF216C000000000BCAC25400C00000013000000DA0D00003C00000006000000020000000000000000408FC000000080598517C000000000561426400000000000408FC000000080FCF216C000000000BCAC25400C00000013000000E20D00003C000000060000000200000000000000
310
00408F40000000C0B73216C000000000525A25400000000000408FC000000080B23216C000000000525A25400C00000013000000EA0D00003C00000006000000020000000000000000408FC000000080B23216C000000000525A25400000000000408FC000000080FCF216C000000000BCAC25400C00000013000000F20D00
310
003C00000006000000020000000000000000408F4000000060365015C0000000001A2225400000000000408FC000000060315015C0000000001A2225400C00000013000000FA0D00003C00000006000000020000000000000000408FC000000080B23216C000000000525A25400000000000408FC000000060315015C00000
310
00001A2225400C00000013000000020E00003C00000006000000020000000000000000408F4000000060495914C0000000007E0725400000000000408FC0000000E0435914C0000000007E0725400C000000130000000A0E00003C00000006000000020000000000000000408FC000000060315015C0000000001A22254000
310
00000000408FC0000000E0435914C0000000007E0725400C00000013000000120E00003C00000006000000020000000000000000408F4000000000A036DDBF00000000AE3624400000000000408FC0000000004C36DDBF00000000AE3624400C000000130000001A0E00003C00000006000000020000000000000000408FC0
310
000000004C36DDBF00000000AE3624400000000000408FC0000000E0435914C0000000007E0725400C00000013000000220E00003C00000006000000020000000000000000408F40000000001CD9D1BF00000000141D24400000000000408FC000000000C8D8D1BF00000000141D24400C000000130000002A0E00003C0000
310
0006000000020000000000000000408FC0000000004C36DDBF00000000AE3624400000000000408FC000000000C8D8D1BF00000000141D24400C00000013000000320E00003C00000006000000020000000000000000408F4000000000C0D1C0BF000000000EE423400000000000408FC00000000018D1C0BF000000000EE4
310
23400C000000130000003A0E00003C00000006000000020000000000000000408FC000000000C8D8D1BF00000000141D24400000000000408FC00000000018D1C0BF000000000EE423400C00000013000000420E00003C00000006000000020000000000000000408F4000000000206EA1BF000000005E9323400000000000
310
408FC000000000806BA1BF000000005E9323400C000000130000004A0E00003C00000006000000020000000000000000408FC000000000806BA1BF000000005E9323400000000000408FC00000000018D1C0BF000000000EE423400C00000013000000520E00003C00000006000000020000000000000000408F4000000000
310
000004BF00000000F63523400000000000408FC0000000000000F2BE00000000F63523400C000000130000005A0E00003C00000006000000020000000000000000408FC0000000000000F2BE00000000F63523400000000000408FC000000000806BA1BF000000005E9323400C00000013000000620E00003C000000060000
310
00020000000000000000408F4000000000E0518FBF000000009A821B400000000000408FC000000000E0478FBF000000009A821B400C000000130000006A0E00003C00000006000000020000000000000000408FC000000000E0478FBF000000009A821B400000000000408FC0000000000000F2BE00000000F63523400C00
310
000013000000720E00003C00000006000000020000000000000000408F4000000000474ED0BF0000000054B31A400000000000408FC000000000F34DD0BF0000000054B31A400C000000130000007A0E00003C00000006000000020000000000000000408FC000000000E0478FBF000000009A821B400000000000408FC000
310
000000F34DD0BF0000000054B31A400C00000013000000820E00003C00000006000000020000000000000000408F40000000803824E2BF00000000D8F419400000000000408FC0000000800E24E2BF00000000D8F419400C000000130000008A0E00003C00000006000000020000000000000000408FC0000000800E24E2BF
310
00000000D8F419400000000000408FC000000000F34DD0BF0000000054B31A400C00000013000000920E00003C00000006000000020000000000000000408F400000008063BDEABF000000009AF918400000000000408FC00000008039BDEABF000000009AF918400C000000130000009A0E00003C00000006000000020000
310
000000000000408FC0000000800E24E2BF00000000D8F419400000000000408FC00000008039BDEABF000000009AF918400C00000013000000A20E00003C00000006000000020000000000000000408F40000000C05DCCF0BF00000000DECB17400000000000408FC0000000C048CCF0BF00000000DECB17400C0000001300
310
0000AA0E00003C00000006000000020000000000000000408FC00000008039BDEABF000000009AF918400000000000408FC0000000C048CCF0BF00000000DECB17400C00000013000000B20E00003C00000006000000020000000000000000408F40000000C05D37F3BF00000000E87716400000000000408FC0000000C048
310
37F3BF00000000E87716400C00000013000000BA0E00003C00000006000000020000000000000000408FC0000000C04837F3BF00000000E87716400000000000408FC0000000C048CCF0BF00000000DECB17400C00000013000000C20E00003C00000006000000020000000000000000408F40000000C07786F4BF00000000
310
9A0B15400000000000408FC0000000C06286F4BF000000009A0B15400C00000013000000CA0E00003C00000006000000020000000000000000408FC0000000C06286F4BF000000009A0B15400000000000408FC0000000C04837F3BF00000000E87716400C00000013000000D20E00003C0000000600000002000000000000
310
0000408F40000000C005ACF4BF00000000C69513400000000000408FC0000000C0F0ABF4BF00000000C69513400C00000013000000DA0E00003C00000006000000020000000000000000408FC0000000C0F0ABF4BF00000000C69513400000000000408FC0000000C06286F4BF000000009A0B15400C00000013000000E20E
310
00003C00000006000000020000000000000000408F40000000C07DA6F3BF00000000A82512400000000000408FC0000000C068A6F3BF00000000A82512400C00000013000000EA0E00003C00000006000000020000000000000000408FC0000000C068A6F3BF00000000A82512400000000000408FC0000000C0F0ABF4BF00
310
000000C69513400C00000013000000F20E00003C00000006000000020000000000000000408F40000000C08A80F1BF0000000044CA10400000000000408FC0000000C07580F1BF0000000044CA10400C00000013000000FA0E00003C00000006000000020000000000000000408FC0000000C068A6F3BF00000000A8251240
310
0000000000408FC0000000C07580F1BF0000000044CA10400C00000013000000020F00003C00000006000000020000000000000000408F400000008027A1ECBF000000007C230F400000000000408FC000000080FDA0ECBF000000007C230F400C000000130000000A0F00003C00000006000000020000000000000000408F
310
C000000080FDA0ECBF000000007C230F400000000000408FC0000000C07580F1BF0000000044CA10400C00000013000000120F00003C00000006000000020000000000000000408F4000000080AF6FE4BF00000000AC110D400000000000408FC000000080876FE4BF00000000AC110D400C000000130000001A0F00003C00
310
000006000000020000000000000000408FC000000080FDA0ECBF000000007C230F400000000000408FC000000080876FE4BF00000000AC110D400C00000013000000220F00003C00000006000000020000000000000000408F4000000000BF84D5BF00000000AC740B400000000000408FC0000000006B84D5BF00000000AC
310
740B400C000000130000002A0F00003C00000006000000020000000000000000408FC0000000006B84D5BF00000000AC740B400000000000408FC000000080876FE4BF00000000AC110D400C00000013000000320F00003C00000006000000020000000000000000408F400000000000E003BF00000000B82D094000000000
310
00408FC00000000000C0F3BE00000000B82D09400C000000130000003A0F00003C00000006000000020000000000000000408FC0000000006B84D5BF00000000AC740B400000000000408FC00000000000C0F3BE00000000B82D09400C00000013000000420F00003C00000006000000020000000000000000408F40000000
310
0000C003BF00000000000000000000000000408FC0000000000080F3BE00000000000000000C000000130000004A0F00003C00000006000000020000000000000000408FC0000000000080F3BE00000000000000000000000000408FC00000000000C0F3BE00000000B82D09400C00000013000000520F00003C0000000600
310
0000020000000000000000408FC0000000000080F3BE00000000000000000000000000408FC000000080020029C000000000000000000C000000130000005A0F00003C00000006000000020000000000000000408FC000000080FDA0ECBF000000007C230F400000000000408FC000000080020029C000000000000000000C
310
00000013000000620F00003C00000006000000020000000000000000408FC0000000000080F3BE00000000000000000000000000408FC000000080876FE4BF00000000AC110D400C000000130000006A0F00003C00000006000000020000000000000000408FC000000080040018C000000000F20827400000000000408FC0
310
0000008002002AC0000000000000E03F0C00000013000000720F00003C00000006000000020000000000000000408FC0000000A0040018C000000080978843400000000000408FC00000008002002AC0000000000000E03F0C000000130000007A0F00003C00000006000000020000000000000000408FC000000040E1E017
310
C000000000CE8A26400000000000408FC00000008078F329C000000000001CD63F0C00000013000000820F00003C00000006000000020000000000000000408FC000000080598517C000000000561426400000000000408FC0000000801BCF29C0000000008061CA3F0C000000130000008A0F00003C000000060000000200
310
00000000000000408FC000000080FCF216C000000000BCAC25400000000000408FC0000000007D9629C0000000000074B83F0C00000013000000920F00003C00000006000000020000000000000000408FC000000080B23216C000000000525A25400000000000408FC000000040234F29C0000000000014993F0C00000013
310
0000009A0F00003C00000006000000020000000000000000408FC000000080020029C000000000000000000000000000408FC000000060315015C0000000001A2225400C00000013000000A20F00003C00000006000000020000000000000000408FC000000080020029C000000000000000000000000000408FC0000000E0
310
435914C0000000007E0725400C00000013000000AA0F00003C00000006000000020000000000000000408FC0000000C068A6F3BF00000000A82512400000000000408FC000000080020029C000000000000000000C00000013000000B20F00003C00000006000000020000000000000000408FC0000000C0F0ABF4BF000000
310
00C69513400000000000408FC000000080020029C000000000000000000C00000013000000BA0F00003C00000006000000020000000000000000408FC0000000C06286F4BF000000009A0B15400000000000408FC0000000E0435914C0000000007E0725400C00000013000000C20F00003C00000006000000020000000000
310
000000408FC0000000C07580F1BF0000000044CA10400000000000408FC000000080020029C000000000000000000C00000013000000CA0F00003C00000006000000020000000000000000408FC0000000000080F3BE00000000000000000000000000408FC0000000006B84D5BF00000000AC740B400C00000013000000D2
310
0F00003C00000006000000020000000000000000408FC0000000C04837F3BF00000000E87716400000000000408FC0000000E0435914C0000000007E0725400C00000013000000DA0F00003C00000006000000020000000000000000408FC0000000004C36DDBF00000000AE3624400000000000408FC0000000C048CCF0BF
310
00000000DECB17400C00000013000000E20F00003C00000006000000020000000000000000408FC000000000F34DD0BF0000000054B31A400000000000408FC000000000806BA1BF000000005E9323400C00000013000000EA0F00003C00000006000000020000000000000000408FC0000000800E24E2BF00000000D8F419
310
400000000000408FC00000000018D1C0BF000000000EE423400C00000013000000F20F00003C00000006000000020000000000000000408FC00000008039BDEABF000000009AF918400000000000408FC000000000C8D8D1BF00000000141D24400C00000013000000FA0F00003C0000000600000002000000000000000040
310
8FC00000006001002AC0000000A0F7CF62400000000000408FC0000000E0020018C0000000A0686F61400C00000013000000021000003C00000006000000020000000000000000408FC00000006077F329C0000000E0E9D462400000000000408FC0000000E0DFE017C0000000E04A7761400C000000130000000A1000003C
310
00000006000000020000000000000000408FC0000000E0578517C000000060B27E61400000000000408FC0000000601ACF29C0000000605FD962400C00000013000000121000003C00000006000000020000000000000000408FC0000000E0FAF216C0000000E02B8561400000000000408FC0000000E07B9629C000000060
310
E9DC62400C000000130000001A1000003C00000006000000020000000000000000408FC0000000E0B03216C0000000A0528A61400000000000408FC0000000E0214F29C0000000202FDF62400C00000013000000221000003C00000006000000020000000000000000408FC0000000E02F5015C000000020D68D6140000000
310
0000408FC000000060010029C0000000A0F7DF62400C000000130000002A1000003C00000006000000020000000000000000408FC000000060010029C0000000A0F7DF62400000000000408FC000000060425914C0000000E07F8F61400C00000013000000321000003C00000006000000020000000000000000408FC00000
310
0060010029C0000000A0F7DF62400000000000408FC0000000405B86F4BF000000E0324662400C000000130000003A1000003C00000006000000020000000000000000408FC000000060425914C0000000E07F8F61400000000000408FC000000040EAABF4BF00000060843A62400C00000013000000421000003C00000006
310
000000020000000000000000408FC000000000A06AA1BF000000E0C1A661400000000000408FC0000000005184D5BF000000E0A80B62400C000000130000004A1000003C00000006000000020000000000000000408FC000000000E8D0C0BF000000E0B6A161400000000000408FC0000000807A6FE4BF000000E01C126240
310
0C00000013000000521000003C00000006000000020000000000000000408FC000000000B0D8D1BF00000060269E61400000000000408FC000000080F2A0ECBF00000020641A62400C000000130000005A1000003C00000006000000020000000000000000408FC0000000003236DDBF000000E08C9C61400000000000408F
310
C0000000406F80F1BF00000060282462400C00000013000000621000003C00000006000000020000000000000000408FC000000060425914C0000000E07F8F61400000000000408FC00000004063A6F3BF00000060032F62400C000000130000006A1000003C00000006000000020000000000000000408FC0000000600100
310
29C0000000A0F7DF62400000000000408FC0000000404237F3BF00000060955162400C00000013000000721000003C00000006000000020000000000000000408FC000000060010029C0000000A0F7DF62400000000000408FC00000004042CCF0BF00000020355C62400C000000130000007A1000003C0000000600000002
310
0000000000000000408FC000000060010029C0000000A0F7DF62400000000000408FC0000000802CBDEABF00000020A36562400C00000013000000821000003C00000006000000020000000000000000408FC000000060010029C0000000A0F7DF62400000000000408FC0000000800124E2BF000000E07C6D62400C000000
310
130000008A1000003C00000006000000020000000000000000408FC000000060010029C0000000A0F7DF62400000000000408FC000000000D94DD0BF000000E0707362400C00000013000000921000003C00000006000000020000000000000000408FC00000000051CEE1BF000000E0EBA15B400000000000408FC0000000
310
0051CEE1BF000000A05EDA5A400C000000130000009A1000003C00000006000000020000000000000000408FC0000000001E3FD8BF000000E091DD5A400000000000408FC0000000001C3FD8BF000000A0B89E5B400C00000013000000A21000003C00000006000000020000000000000000408FC000000000CC9DCDBF0000
310
00A0B2E45A400000000000408FC000000000C09DCDBF000000E097975B400C00000013000000AA1000003C00000006000000020000000000000000408FC0000000008027C1BF000000E0818D5B400000000000408FC0000000008427C1BF000000E0C8EE5A400C00000013000000B21000003C000000060000000200000000
310
00000000408FC000000000435914C000000020D5C05A400000000000408FC000000000435914C0000000A075BB5B400C00000013000000BA1000003C00000006000000020000000000000000408FC000000000305015C0000000A081BD5A400000000000408FC000000000305015C0000000E0C8BE5B400C00000013000000
310
C21000003C00000006000000020000000000000000408FC000000080B13216C0000000A07AB65A400000000000408FC000000060B13216C000000020D0C55B400C00000013000000CA1000003C00000006000000020000000000000000408FC000000080FBF216C0000000602DAC5A400000000000408FC000000060FBF216
310
C0000000601DD05B400C00000013000000D21000003C00000006000000020000000000000000408FC000000080588517C0000000203A9F5A400000000000408FC000000060588517C0000000A010DD5B400C00000013000000DA1000003C00000006000000020000000000000000408FC000000000E0E017C0000000E06A90
310
5A400000000000408FC000000020E0E017C0000000A0DFEB5B400C00000013000000E21000003C00000006000000020000000000000000408FC000000080030018C0000000A0A6805A400000000000408FC000000060030018C0000000E0A3FB5B400C00000013000000EA1000003C00000006000000020000000000000000
310
408FC00000006001002AC0000000A0F7CF62400000000000408FC000000060030018C0000000E0A3FB5B400C00000013000000F21000003C00000006000000020000000000000000408FC00000006001002AC0000000A0F7CF62400000000000408FC000000080030018C0000000A0A6805A400C00000013000000FA100000
310
3C00000006000000020000000000000000408FC00000006001002AC0000000A0F7CF62400000000000408FC0000000C0030018C000000060769D53400C00000013000000021100003C00000006000000020000000000000000408FC0000000C0030018C000000060769D53400000000000408FC000000040040018C0000000
310
60792252400C000000130000000A1100003C00000006000000020000000000000000408FC000000020E1E017C0000000603D3252400000000000408FC000000080E0E017C000000060B28D53400C00000013000000121100003C00000006000000020000000000000000408FC0000000A0588517C0000000A00C4152400000
310
000000408FC0000000C0588517C000000020E37E53400C000000130000001A1100003C00000006000000020000000000000000408FC0000000A0FBF216C0000000E0FF4D52400000000000408FC0000000C0FBF216C0000000E0EF7153400C00000013000000221100003C00000006000000020000000000000000408FC000
310
000020435914C000000020485D53400000000000408FC000000000435914C0000000A0A76252400C000000130000002A1100003C00000006000000020000000000000000408FC00000000053CEE1BF00000060BE4353400000000000408FC00000008055CEE1BF00000060317C52400C00000013000000321100003C000000
310
06000000020000000000000000408FC0000000A0305015C0000000609B6053400000000000408FC000000020305015C000000020545F52400C000000130000003A1100003C00000006000000020000000000000000408FC0000000A0B13216C0000000204D5852400000000000408FC0000000C0B13216C0000000A0A26753
310
400C00000013000000421100003C00000006000000020000000000000000408FC000000000223FD8BF000000208B4053400000000000408FC000000000243FD8BF000000A0647F52400C000000130000004A1100003C00000006000000020000000000000000408FC000000000D09DCDBF0000002085865240000000000040
310
8FC000000000CC9DCDBF000000A06A3953400C00000013000000521100003C00000006000000020000000000000000408FC0000000008C27C1BF00000060542F53400000000000408FC0000000009027C1BF000000609B9052400C000000130000005A1100003C00000006000000020000000000000000408FC0000000A004
310
0018C000000080978843400000000000408FC000000020040018C000000020927E46400C00000013000000621100003C00000006000000020000000000000000408FC0000000E0E0E017C000000080095F46400000000000408FC000000060E1E017C00000002020A843400C000000130000006A1100003C00000006000000
310
020000000000000000408FC0000000A0598517C000000040BEC543400000000000408FC000000020598517C0000000406B4146400C00000013000000721100003C00000006000000020000000000000000408FC0000000A0FCF216C000000060A4DF43400000000000408FC000000020FCF216C000000020852746400C0000
310
00130000007A1100003C00000006000000020000000000000000408FC0000000C0B23216C0000000A03FF443400000000000408FC000000020B23216C000000000EA1246400C00000013000000821100003C00000006000000020000000000000000408FC000000040315015C0000000804D0244400000000000408FC00000
310
00C0305015C000000000DC0446400C000000130000008A1100003C00000006000000020000000000000000408FC0000000C0435914C000000040F40844400000000000408FC0000000C0435914C0000000E034FE45400C00000013000000921100003C00000006000000020000000000000000408FC00000000056CEE1BF00
310
00002022CB45400000000000408FC00000008058CEE1BF00000060073C44400C000000130000009A1100003C00000006000000020000000000000000408FC000000000293FD8BF000000006E4244400000000000408FC000000000283FD8BF000000A0BBC445400C00000013000000A21100003C0000000600000002000000
310
0000000000408FC000000000DA9DCDBF000000A0AF5044400000000000408FC000000000DC9DCDBF000000007AB645400C00000013000000AA1100003C00000006000000020000000000000000408FC0000000009827C1BF000000C04DA245400000000000408FC0000000009A27C1BF00000060DB6444400C000000130000
310
00B21100003C00000006000000020000000000000000408FC00000008002002AC0000000000000E03F0000000000408FC000000020040018C000000020927E46400C00000013000000BA1100003C00000006000000020000000000000000408FC00000008002002AC0000000000000E03F0000000000408FC0000000400400
310
18C00000006079225240
100
AcDbSubDMesh
 71
     2
 72
     0
 91
        0
 92
      276
 10
1000.0
 20
-12.65458679199219
 30
0.0244903564453125
 10
1000.0
 20
-12.50004005432129
 30
0.0
 10
1000.0
 20
-13.00004005432129
 30
0.5
 10
1000.0
 20
-12.97554969787597
 30
0.345458984375
 10
1000.0
 20
-12.90452766418457
 30
0.2061004638671875
 10
1000.0
 20
-12.79394340515137
 30
0.09552001953125
 10
1000.0
 20
-6.000037193298339
 30
11.51747131347656
 10
1000.0
 20
-13.00003337860107
 30
150.4989776611328
 10
1000.0
 20
-12.97554302215576
 30
150.6535491943359
 10
1000.0
 20
-0.0000324249267578
 30
141.3936004638672
 10
1000.0
 20
-0.0340366363525391
 30
141.2111663818359
 10
1000.0
 20
-6.000037193298339
 30
39.06712341308594
 10
1000.0
 20
-5.969630241394042
 30
39.31348037719727
 10
1000.0
 20
-6.000036716461181
 30
72.53865814208984
 10
1000.0
 20
-6.000035762786865
 30
44.98883438110351
 10
1000.0
 20
-5.737311363220214
 30
39.7472038269043
 10
1000.0
 20
-5.969627857208251
 30
72.78499603271484
 10
1000.0
 20
-6.000032424926757
 30
106.0101699829101
 10
1000.0
 20
-6.00003433227539
 30
78.46035003662109
 10
1000.0
 20
-5.549526691436767
 30
73.37970733642578
 10
1000.0
 20
-5.96962547302246
 30
106.2565231323242
 10
1000.0
 20
-6.000031948089599
 30
139.4815216064453
 10
1000.0
 20
-6.000032901763916
 30
111.9318771362304
 10
1000.0
 20
-5.969624996185302
 30
111.6855239868164
 10
1000.0
 20
-5.969623088836669
 30
139.7278900146484
 10
1000.0
 20
-0.4564533233642579
 30
140.8921966552734
 10
1000.0
 20
-5.087188243865966
 30
140.4843597412109
 10
1000.0
 20
-5.328326702117919
 30
140.432388305664
 10
1000.0
 20
-0.2788705825805664
 30
140.9421844482421
 10
1000.0
 20
-0.2547714710235596
 30
147.6075286865234
 10
1000.0
 20
-0.5669152736663819
 30
147.4214935302734
 10
1000.0
 20
-0.8356125354766845
 30
147.1761627197265
 10
1000.0
 20
-1.049887895584106
 30
146.8814849853515
 10
1000.0
 20
-1.201010942459106
 30
146.5494842529297
 10
1000.0
 20
-1.282821893692016
 30
146.1937103271484
 10
1000.0
 20
-1.291991233825683
 30
145.8286590576172
 10
1000.0
 20
-1.228141784667968
 30
145.4691619873047
 10
1000.0
 20
-1.093875885009765
 30
145.1299285888672
 10
1000.0
 20
-0.8946657180786132
 30
144.824722290039
 10
1000.0
 20
-0.6386280059814454
 30
144.5660247802734
 10
1000.0
 20
-0.3362207412719727
 30
144.3643646240234
 10
1000.0
 20
-5.737308979034423
 30
73.21874237060547
 10
1000.0
 20
-5.880241394042968
 30
73.01639556884765
 10
1000.0
 20
-5.549523830413818
 30
140.3225860595703
 10
1000.0
 20
-5.737306118011474
 30
140.1616058349609
 10
1000.0
 20
-5.880239009857177
 30
139.9592742919922
 10
1000.0
 20
-5.32832908630371
 30
106.9610366821289
 10
1000.0
 20
-5.549524307250976
 30
106.8512344360351
 10
1000.0
 20
-5.737306594848632
 30
106.6902694702148
 10
1000.0
 20
-5.880239486694335
 30
106.487922668457
 10
1000.0
 20
-5.880244255065917
 30
39.54486846923828
 10
1000.0
 20
-0.1313953399658203
 30
141.0535736083984
 10
1000.0
 20
-5.969629287719726
 30
11.27110290527344
 10
1000.0
 20
-0.894672155380249
 30
3.892326354980468
 10
1000.0
 20
-5.880244255065917
 30
11.03971862792969
 10
1000.0
 20
-0.6386334896087647
 30
3.633628845214843
 10
1000.0
 20
-12.50003337860107
 30
150.9989776611328
 10
1000.0
 20
-0.0000309944152832
 30
150.9989776611328
 10
1000.0
 20
-12.65457820892334
 30
150.9745025634765
 10
1000.0
 20
-12.79393672943115
 30
150.9034881591797
 10
1000.0
 20
-12.90452098846435
 30
150.7928924560547
 10
1000.0
 20
-5.087193965911865
 30
10.51463317871093
 10
1000.0
 20
-0.0340433120727539
 30
9.787826538085937
 10
1000.0
 20
-5.328332424163818
 30
10.56660461425781
 10
1000.0
 20
-5.549529075622558
 30
10.67640686035156
 10
1000.0
 20
-0.3362271785736084
 30
3.431968688964843
 10
1000.0
 20
-0.2788763046264648
 30
10.05679321289062
 10
1000.0
 20
-0.4564590454101563
 30
10.10679626464844
 10
1000.0
 20
-0.1314010620117187
 30
9.945419311523437
 10
1000.0
 20
-5.549527645111083
 30
44.14776611328124
 10
1000.0
 20
-0.5564589500427246
 30
40.46897506713867
 10
1000.0
 20
-5.087193489074707
 30
40.06995391845703
 10
1000.0
 20
-5.969627857208251
 30
44.74247741699218
 10
1000.0
 20
-5.32833194732666
 30
40.01799011230469
 10
1000.0
 20
-5.880242824554443
 30
44.51108551025391
 10
1000.0
 20
-5.73730993270874
 30
44.30875015258789
 10
1000.0
 20
-0.3788750171661377
 30
40.51898193359375
 10
1000.0
 20
-5.087191581726074
 30
43.98598861694336
 10
1000.0
 20
-0.1000356674194336
 30
43.08555603027343
 10
1000.0
 20
-0.1000361442565918
 30
40.97040176391601
 10
1000.0
 20
-5.32833194732666
 30
44.0379638671875
 10
1000.0
 20
-0.1340413093566894
 30
40.78794479370117
 10
1000.0
 20
-0.1340408325195312
 30
43.26799774169922
 10
1000.0
 20
-0.3788743019104004
 30
43.5369758605957
 10
1000.0
 20
-0.55645751953125
 30
43.58697891235351
 10
1000.0
 20
-0.2314000129699707
 30
43.42559814453125
 10
1000.0
 20
-5.549529075622558
 30
39.90819168090821
 10
1000.0
 20
-5.549526214599609
 30
77.61930084228516
 10
1000.0
 20
-0.55645751953125
 30
73.94051361083985
 10
1000.0
 20
-5.087189674377441
 30
73.5414810180664
 10
1000.0
 20
-5.969626426696777
 30
78.21401214599609
 10
1000.0
 20
-5.328329563140869
 30
73.48950958251953
 10
1000.0
 20
-5.880241394042968
 30
77.98261260986328
 10
1000.0
 20
-5.737308502197265
 30
77.78026580810546
 10
1000.0
 20
-0.3788738250732422
 30
73.99051666259765
 10
1000.0
 20
-5.087191104888916
 30
77.45752716064453
 10
1000.0
 20
-0.100034236907959
 30
76.55709075927735
 10
1000.0
 20
-0.1000347137451172
 30
74.4419174194336
 10
1000.0
 20
-5.328329563140869
 30
77.50948333740234
 10
1000.0
 20
-0.1340398788452148
 30
74.25948333740234
 10
1000.0
 20
-0.1340394020080566
 30
76.73952484130859
 10
1000.0
 20
-0.3788728713989258
 30
77.00849151611328
 10
1000.0
 20
-0.5564560890197754
 30
77.0584945678711
 10
1000.0
 20
-0.2313981056213379
 30
76.89713287353516
 10
1000.0
 20
-5.549524784088134
 30
111.0908279418945
 10
1000.0
 20
-0.556455135345459
 30
107.4120254516601
 10
1000.0
 20
-5.087188720703125
 30
107.0130081176758
 10
1000.0
 20
-5.880239963531494
 30
111.4541397094726
 10
1000.0
 20
-5.737307071685791
 30
111.2517929077148
 10
1000.0
 20
-0.3788723945617676
 30
107.4620285034179
 10
1000.0
 20
-5.087188720703125
 30
110.9290542602539
 10
1000.0
 20
-0.1000328063964844
 30
110.0286026000976
 10
1000.0
 20
-0.1000332832336426
 30
107.9134445190429
 10
1000.0
 20
-5.32832908630371
 30
110.9810104370117
 10
1000.0
 20
-0.1340384483337402
 30
107.7310104370117
 10
1000.0
 20
-0.134037971496582
 30
110.211051940918
 10
1000.0
 20
-0.3788719177246094
 30
110.4800186157226
 10
1000.0
 20
-0.556455135345459
 30
110.5300216674804
 10
1000.0
 20
-0.2313966751098633
 30
110.3686447143555
 10
1000.0
 20
-0.2547776699066162
 30
6.675125122070312
 10
1000.0
 20
-0.5669214725494385
 30
6.489105224609375
 10
1000.0
 20
-5.737311363220214
 30
10.83737182617187
 10
1000.0
 20
-0.8356187343597412
 30
6.243751525878906
 10
1000.0
 20
-1.049894094467163
 30
5.949089050292968
 10
1000.0
 20
-1.201017141342163
 30
5.617095947265625
 10
1000.0
 20
-1.282829046249389
 30
5.261329650878906
 10
1000.0
 20
-1.291997671127319
 30
4.896263122558593
 10
1000.0
 20
-1.228147268295288
 30
4.536773681640625
 10
1000.0
 20
-1.093882322311401
 30
4.197525024414062
 10
1000.0
 20
-0.2313985824584961
 30
74.10187530517578
 10
1000.0
 20
-0.2313981056213379
 30
107.5734024047851
 10
1000.0
 20
-0.2313997745513916
 30
40.6303596496582
 10
1000.0
 20
-0.000037670135498
 30
0.0
 10
1000.0
 20
-0.0000379085540771
 30
3.147323608398437
 10
1000.0
 20
-0.0000381469726563
 30
9.605392456054687
 10
1000.0
 20
-0.0152928829193115
 30
6.877540588378906
 10
1000.0
 20
-0.0152876377105713
 30
147.8099517822265
 10
1000.0
 20
-0.0000324249267578
 30
144.0797271728515
 10
-1000.0
 20
-0.0000185966491699
 30
0.0
 10
-1000.0
 20
-0.8946521282196044
 30
3.892326354980468
 10
-1000.0
 20
-6.000017166137695
 30
11.51747131347656
 10
-1000.0
 20
-6.000017642974853
 30
39.06712341308594
 10
-1000.0
 20
-13.00001907348633
 30
0.5
 10
-1000.0
 20
-5.969609260559082
 30
11.27110290527344
 10
-1000.0
 20
-12.97552871704101
 30
0.345458984375
 10
-1000.0
 20
-5.880224227905273
 30
11.03971862792969
 10
-1000.0
 20
-5.549509048461914
 30
10.67640686035156
 10
-1000.0
 20
-1.228127241134643
 30
4.536773681640625
 10
-1000.0
 20
-1.291977643966674
 30
4.896263122558593
 10
-1000.0
 20
-1.282809019088745
 30
5.261329650878906
 10
-1000.0
 20
-1.093862295150756
 30
4.197525024414062
 10
-1000.0
 20
-0.3362071514129639
 30
3.431968688964843
 10
-1000.0
 20
-1.200997114181518
 30
5.617095947265625
 10
-1000.0
 20
-0.4564390182495118
 30
10.10679626464844
 10
-1000.0
 20
-0.0152738094329834
 30
6.877540588378906
 10
-1000.0
 20
-0.0000171661376953
 30
9.605392456054687
 10
-1000.0
 20
-0.566901445388794
 30
6.489105224609375
 10
-1000.0
 20
-0.8355987071990966
 30
6.243751525878906
 10
-1000.0
 20
-0.2788562774658203
 30
10.05679321289062
 10
-1000.0
 20
-12.97552013397217
 30
150.6535491943359
 10
-1000.0
 20
-13.00001049041748
 30
150.4989776611328
 10
-1000.0
 20
-5.880218029022216
 30
139.9592742919922
 10
-1000.0
 20
-5.737285137176513
 30
140.1616058349609
 10
-1000.0
 20
-12.79391384124756
 30
150.9034881591797
 10
-1000.0
 20
-5.549502849578857
 30
140.3225860595703
 10
-1000.0
 20
-5.328307628631591
 30
140.432388305664
 10
-1000.0
 20
-12.50001049041748
 30
150.9989776611328
 10
-1000.0
 20
-5.087167263031005
 30
140.4843597412109
 10
-1000.0
 20
-1.291971445083618
 30
145.8286590576172
 10
-1000.0
 20
-1.282801866531372
 30
146.1937103271484
 10
-1000.0
 20
-0.0340166091918945
 30
141.2111663818359
 10
-1000.0
 20
-0.0000114440917969
 30
144.0797271728515
 10
-1000.0
 20
-0.3362009525299072
 30
144.3643646240234
 10
-1000.0
 20
-0.1313753128051758
 30
141.0535736083984
 10
-1000.0
 20
-0.6386082172393799
 30
144.5660247802734
 10
-1000.0
 20
-0.4564328193664551
 30
140.8921966552734
 10
-1000.0
 20
-1.228121995925903
 30
145.4691619873047
 10
-1000.0
 20
-1.200990915298461
 30
146.5494842529297
 10
-1000.0
 20
-0.5668952465057373
 30
147.4214935302734
 10
-1000.0
 20
-0.254751443862915
 30
147.6075286865234
 10
-1000.0
 20
-0.0152685642242432
 30
147.8099517822265
 10
-1000.0
 20
-0.378852367401123
 30
107.4620285034179
 10
-1000.0
 20
-0.3788518905639648
 30
110.4800186157226
 10
-1000.0
 20
-0.5564351081848145
 30
110.5300216674804
 10
-1000.0
 20
-0.2313780784606934
 30
107.5734024047851
 10
-1000.0
 20
-0.1340179443359375
 30
110.211051940918
 10
-1000.0
 20
-0.100013256072998
 30
107.9134445190429
 10
-1000.0
 20
-5.9696044921875
 30
106.2565231323242
 10
-1000.0
 20
-6.000013351440429
 30
106.0101699829101
 10
-1000.0
 20
-6.000014305114746
 30
78.46035003662109
 10
-1000.0
 20
-5.969608783721923
 30
72.78499603271484
 10
-1000.0
 20
-5.880220890045166
 30
73.01639556884765
 10
-1000.0
 20
-5.880221366882324
 30
77.98261260986328
 10
-1000.0
 20
-5.737287998199462
 30
73.21874237060547
 10
-1000.0
 20
-0.5564360618591309
 30
77.0584945678711
 10
-1000.0
 20
-5.087170124053955
 30
77.45752716064453
 10
-1000.0
 20
-5.328310489654541
 30
77.50948333740234
 10
-1000.0
 20
-5.549505710601806
 30
73.37970733642578
 10
-1000.0
 20
-0.3788533210754394
 30
77.00849151611328
 10
-1000.0
 20
-0.1340193748474121
 30
76.73952484130859
 10
-1000.0
 20
-5.969607830047607
 30
44.74247741699218
 10
-1000.0
 20
-5.880224704742431
 30
39.54486846923828
 10
-1000.0
 20
-5.880222797393798
 30
44.51108551025391
 10
-1000.0
 20
-5.737291812896728
 30
39.7472038269043
 10
-1000.0
 20
-5.737289905548095
 30
44.30875015258789
 10
-1000.0
 20
-5.328312873840332
 30
40.01799011230469
 10
-1000.0
 20
-5.328310966491699
 30
44.0379638671875
 10
-1000.0
 20
-0.5564374923706055
 30
43.58697891235351
 10
-1000.0
 20
-0.3788549900054932
 30
40.51898193359375
 10
-1000.0
 20
-0.2313797473907471
 30
40.6303596496582
 10
-1000.0
 20
-0.2313799858093262
 30
43.42559814453125
 10
-1000.0
 20
-0.1340208053588867
 30
43.26799774169922
 10
-1000.0
 20
-0.6386144161224366
 30
3.633628845214843
 10
-1000.0
 20
-12.50001907348633
 30
0.0
 10
-1000.0
 20
-12.90450668334961
 30
0.2061004638671875
 10
-1000.0
 20
-5.73729133605957
 30
10.83737182617187
 10
-1000.0
 20
-12.7939224243164
 30
0.09552001953125
 10
-1000.0
 20
-12.65456581115723
 30
0.0244903564453125
 10
-1000.0
 20
-5.32831335067749
 30
10.56660461425781
 10
-1000.0
 20
-5.087172985076904
 30
10.51463317871093
 10
-1000.0
 20
-0.000018835067749
 30
3.147323608398437
 10
-1000.0
 20
-1.049874067306518
 30
5.949089050292968
 10
-1000.0
 20
-0.2547576427459717
 30
6.675125122070312
 10
-1000.0
 20
-0.0340232849121094
 30
9.787826538085937
 10
-1000.0
 20
-0.1313810348510742
 30
9.945419311523437
 10
-1000.0
 20
-6.000010967254638
 30
139.4815216064453
 10
-1000.0
 20
-5.969604015350341
 30
139.7278900146484
 10
-1000.0
 20
-12.90449810028076
 30
150.7928924560547
 10
-1000.0
 20
-12.65455532073974
 30
150.9745025634765
 10
-1000.0
 20
-0.0000114440917969
 30
141.3936004638672
 10
-1000.0
 20
-0.2788505554199219
 30
140.9421844482421
 10
-1000.0
 20
-0.8946468830108642
 30
144.824722290039
 10
-1000.0
 20
-1.0938560962677
 30
145.1299285888672
 10
-1000.0
 20
-1.049867868423461
 30
146.8814849853515
 10
-1000.0
 20
-0.83559250831604
 30
147.1761627197265
 10
-1000.0
 20
-0.0000100135803223
 30
150.9989776611328
 10
-1000.0
 20
-0.5564351081848145
 30
107.4120254516601
 10
-1000.0
 20
-0.2313766479492187
 30
110.3686447143555
 10
-1000.0
 20
-0.1340184211730957
 30
107.7310104370117
 10
-1000.0
 20
-0.1000127792358398
 30
110.0286026000976
 10
-1000.0
 20
-5.087169647216796
 30
107.0130081176758
 10
-1000.0
 20
-5.087169647216796
 30
110.9290542602539
 10
-1000.0
 20
-5.32830810546875
 30
106.9610366821289
 10
-1000.0
 20
-5.32830810546875
 30
110.9810104370117
 10
-1000.0
 20
-5.549505233764648
 30
106.8512344360351
 10
-1000.0
 20
-5.54950475692749
 30
111.0908279418945
 10
-1000.0
 20
-5.737287521362304
 30
106.6902694702148
 10
-1000.0
 20
-5.737287044525146
 30
111.2517929077148
 10
-1000.0
 20
-5.880220413208007
 30
106.487922668457
 10
-1000.0
 20
-5.880219936370849
 30
111.4541397094726
 10
-1000.0
 20
-5.969604969024658
 30
111.6855239868164
 10
-1000.0
 20
-6.000012874603271
 30
111.9318771362304
 10
-1000.0
 20
-6.000016212463378
 30
72.53865814208984
 10
-1000.0
 20
-5.969606399536132
 30
78.21401214599609
 10
-1000.0
 20
-5.737288475036621
 30
77.78026580810546
 10
-1000.0
 20
-5.087169647216796
 30
73.5414810180664
 10
-1000.0
 20
-0.5564372539520264
 30
73.94051361083985
 10
-1000.0
 20
-5.328308582305908
 30
73.48950958251953
 10
-1000.0
 20
-5.549506187438964
 30
77.61930084228516
 10
-1000.0
 20
-0.3788537979125977
 30
73.99051666259765
 10
-1000.0
 20
-0.2313785552978516
 30
74.10187530517578
 10
-1000.0
 20
-0.2313780784606934
 30
76.89713287353516
 10
-1000.0
 20
-0.1340198516845703
 30
74.25948333740234
 10
-1000.0
 20
-0.1000146865844727
 30
74.4419174194336
 10
-1000.0
 20
-0.1000142097473144
 30
76.55709075927735
 10
-1000.0
 20
-5.96960973739624
 30
39.31348037719727
 10
-1000.0
 20
-6.00001573562622
 30
44.98883438110351
 10
-1000.0
 20
-5.54951000213623
 30
39.90819168090821
 10
-1000.0
 20
-5.549507617950439
 30
44.14776611328124
 10
-1000.0
 20
-5.087172508239746
 30
40.06995391845703
 10
-1000.0
 20
-5.087172508239746
 30
43.98598861694336
 10
-1000.0
 20
-0.556438684463501
 30
40.46897506713867
 10
-1000.0
 20
-0.3788547515869141
 30
43.5369758605957
 10
-1000.0
 20
-0.1340210437774658
 30
40.78794479370117
 10
-1000.0
 20
-0.1000158786773682
 30
40.97040176391601
 10
-1000.0
 20
-0.1000156402587891
 30
43.08555603027343
 93
     1430
 90
        4
 90
      132
 90
       55
 90
       53
 90
        1
 90
        3
 90
        6
 90
       11
 90
        2
 90
        4
 90
       52
 90
        6
 90
        2
 90
        3
 90
        4
 90
       54
 90
       52
 90
        3
 90
        4
 90
        4
 90
      121
 90
       54
 90
        4
 90
        5
 90
        4
 90
       64
 90
      121
 90
        5
 90
        0
 90
        4
 90
       63
 90
       64
 90
        0
 90
        1
 90
        3
 90
       61
 90
       63
 90
        1
 90
        3
 90
      127
 90
      126
 90
        1
 90
        4
 90
      126
 90
      125
 90
       61
 90
        1
 90
        3
 90
      128
 90
      127
 90
        1
 90
        3
 90
        1
 90
       53
 90
      128
 90
        3
 90
       65
 90
      132
 90
      133
 90
        3
 90
      132
 90
       65
 90
       55
 90
        4
 90
      124
 90
      123
 90
       67
 90
       61
 90
        3
 90
      125
 90
      124
 90
       61
 90
        4
 90
      119
 90
      135
 90
      134
 90
       62
 90
        4
 90
      120
 90
      119
 90
       62
 90
       68
 90
        4
 90
      122
 90
      120
 90
       68
 90
       66
 90
        4
 90
      123
 90
      122
 90
       66
 90
       67
 90
        4
 90
       21
 90
       24
 90
        8
 90
        7
 90
        4
 90
       24
 90
       45
 90
       60
 90
        8
 90
        4
 90
       45
 90
       44
 90
       59
 90
       60
 90
        4
 90
       44
 90
       43
 90
       58
 90
       59
 90
        4
 90
       43
 90
       27
 90
       56
 90
       58
 90
        3
 90
       27
 90
       26
 90
       56
 90
        4
 90
       26
 90
       35
 90
       34
 90
       56
 90
        4
 90
       10
 90
        9
 90
      137
 90
       40
 90
        4
 90
       51
 90
       10
 90
       40
 90
       39
 90
        4
 90
       28
 90
       51
 90
       39
 90
       38
 90
        4
 90
       25
 90
       28
 90
       38
 90
       37
 90
        4
 90
       26
 90
       25
 90
       37
 90
       36
 90
        3
 90
       26
 90
       36
 90
       35
 90
        3
 90
       33
 90
       32
 90
       56
 90
        3
 90
       56
 90
       34
 90
       33
 90
        3
 90
       31
 90
       30
 90
       56
 90
        3
 90
       32
 90
       31
 90
       56
 90
        3
 90
       30
 90
       29
 90
       56
 90
        4
 90
       29
 90
      136
 90
       57
 90
       56
 90
        4
 90
      105
 90
      109
 90
      116
 90
      117
 90
        4
 90
      109
 90
      130
 90
      118
 90
      116
 90
        4
 90
      130
 90
      114
 90
      115
 90
      118
 90
        4
 90
      114
 90
      112
 90
      111
 90
      115
 90
        4
 90
      106
 90
      105
 90
      117
 90
      110
 90
        4
 90
       46
 90
      106
 90
      110
 90
      113
 90
        4
 90
       47
 90
       46
 90
      113
 90
      104
 90
        4
 90
       48
 90
       47
 90
      104
 90
      108
 90
        4
 90
       49
 90
       48
 90
      108
 90
      107
 90
        4
 90
       20
 90
       49
 90
      107
 90
       23
 90
        4
 90
       17
 90
       20
 90
       23
 90
       22
 90
        3
 90
       22
 90
       21
 90
        7
 90
        3
 90
       17
 90
       22
 90
        7
 90
        3
 90
       18
 90
       17
 90
        7
 90
        4
 90
       13
 90
       16
 90
       90
 90
       18
 90
        4
 90
       16
 90
       42
 90
       92
 90
       90
 90
        4
 90
       42
 90
       41
 90
       93
 90
       92
 90
        4
 90
       89
 90
       88
 90
      102
 90
       95
 90
        4
 90
       91
 90
       89
 90
       95
 90
       98
 90
        4
 90
       19
 90
       91
 90
       98
 90
       87
 90
        4
 90
       41
 90
       19
 90
       87
 90
       93
 90
        4
 90
       88
 90
       94
 90
      101
 90
      102
 90
        4
 90
       94
 90
      129
 90
      103
 90
      101
 90
        4
 90
      129
 90
       99
 90
      100
 90
      103
 90
        4
 90
       99
 90
       97
 90
       96
 90
      100
 90
        4
 90
       11
 90
       12
 90
       72
 90
       14
 90
        4
 90
       12
 90
       50
 90
       74
 90
       72
 90
        4
 90
       50
 90
       15
 90
       75
 90
       74
 90
        4
 90
       15
 90
       86
 90
       69
 90
       75
 90
        4
 90
       86
 90
       73
 90
       80
 90
       69
 90
        4
 90
       73
 90
       71
 90
       77
 90
       80
 90
        4
 90
       71
 90
       70
 90
       84
 90
       77
 90
        4
 90
       70
 90
       76
 90
       83
 90
       84
 90
        4
 90
       76
 90
      131
 90
       85
 90
       83
 90
        4
 90
      131
 90
       81
 90
       82
 90
       85
 90
        4
 90
       81
 90
       79
 90
       78
 90
       82
 90
        3
 90
       11
 90
       14
 90
        2
 90
        3
 90
       14
 90
       13
 90
        2
 90
        4
 90
       13
 90
       18
 90
        7
 90
        2
 90
        4
 90
        1
 90
        0
 90
      217
 90
      213
 90
        4
 90
        0
 90
        5
 90
      216
 90
      217
 90
        4
 90
        5
 90
        4
 90
      214
 90
      216
 90
        4
 90
        4
 90
        3
 90
      144
 90
      214
 90
        4
 90
        3
 90
        2
 90
      142
 90
      144
 90
        4
 90
        2
 90
        7
 90
      160
 90
      142
 90
        4
 90
        7
 90
        8
 90
      159
 90
      160
 90
        4
 90
        8
 90
       60
 90
      227
 90
      159
 90
        4
 90
       60
 90
       59
 90
      163
 90
      227
 90
        4
 90
       59
 90
       58
 90
      228
 90
      163
 90
        4
 90
       58
 90
       56
 90
      166
 90
      228
 90
        4
 90
       56
 90
       57
 90
      235
 90
      166
 90
        4
 90
       57
 90
      136
 90
      180
 90
      235
 90
        4
 90
      136
 90
       29
 90
      179
 90
      180
 90
        4
 90
       29
 90
       30
 90
      178
 90
      179
 90
        4
 90
       30
 90
       31
 90
      234
 90
      178
 90
        4
 90
       31
 90
       32
 90
      233
 90
      234
 90
        4
 90
       32
 90
       33
 90
      177
 90
      233
 90
        4
 90
       33
 90
       34
 90
      169
 90
      177
 90
        4
 90
       34
 90
       35
 90
      168
 90
      169
 90
        4
 90
       35
 90
       36
 90
      176
 90
      168
 90
        4
 90
       36
 90
       37
 90
      232
 90
      176
 90
        4
 90
       37
 90
       38
 90
      231
 90
      232
 90
        4
 90
       38
 90
       39
 90
      174
 90
      231
 90
        4
 90
       39
 90
       40
 90
      172
 90
      174
 90
        4
 90
       40
 90
      137
 90
      171
 90
      172
 90
        4
 90
      137
 90
        9
 90
      229
 90
      171
 90
        4
 90
        9
 90
       10
 90
      170
 90
      229
 90
        4
 90
       10
 90
       51
 90
      173
 90
      170
 90
        4
 90
       51
 90
       28
 90
      230
 90
      173
 90
        4
 90
       28
 90
       25
 90
      175
 90
      230
 90
        4
 90
       25
 90
       26
 90
      167
 90
      175
 90
        4
 90
       26
 90
       27
 90
      165
 90
      167
 90
        4
 90
       27
 90
       43
 90
      164
 90
      165
 90
        4
 90
       43
 90
       44
 90
      162
 90
      164
 90
        4
 90
       44
 90
       45
 90
      161
 90
      162
 90
        4
 90
       45
 90
       24
 90
      226
 90
      161
 90
        4
 90
       24
 90
       21
 90
      225
 90
      226
 90
        4
 90
       21
 90
       22
 90
      251
 90
      225
 90
        4
 90
       22
 90
       23
 90
      250
 90
      251
 90
        4
 90
       23
 90
      107
 90
      249
 90
      250
 90
        4
 90
      107
 90
      108
 90
      247
 90
      249
 90
        4
 90
      108
 90
      104
 90
      245
 90
      247
 90
        4
 90
      104
 90
      113
 90
      243
 90
      245
 90
        4
 90
      113
 90
      110
 90
      241
 90
      243
 90
        4
 90
      110
 90
      117
 90
      183
 90
      241
 90
        4
 90
      117
 90
      116
 90
      182
 90
      183
 90
        4
 90
      116
 90
      118
 90
      237
 90
      182
 90
        4
 90
      118
 90
      115
 90
      185
 90
      237
 90
        4
 90
      115
 90
      111
 90
      239
 90
      185
 90
        4
 90
      111
 90
      112
 90
      186
 90
      239
 90
        4
 90
      112
 90
      114
 90
      238
 90
      186
 90
        4
 90
      114
 90
      130
 90
      184
 90
      238
 90
        4
 90
      130
 90
      109
 90
      181
 90
      184
 90
        4
 90
      109
 90
      105
 90
      236
 90
      181
 90
        4
 90
      105
 90
      106
 90
      240
 90
      236
 90
        4
 90
      106
 90
       46
 90
      242
 90
      240
 90
        4
 90
       46
 90
       47
 90
      244
 90
      242
 90
        4
 90
       47
 90
       48
 90
      246
 90
      244
 90
        4
 90
       48
 90
       49
 90
      248
 90
      246
 90
        4
 90
       49
 90
       20
 90
      187
 90
      248
 90
        4
 90
       20
 90
       17
 90
      188
 90
      187
 90
        4
 90
       17
 90
       18
 90
      189
 90
      188
 90
        4
 90
       18
 90
       90
 90
      253
 90
      189
 90
        4
 90
       90
 90
       92
 90
      192
 90
      253
 90
        4
 90
       92
 90
       93
 90
      254
 90
      192
 90
        4
 90
       93
 90
       87
 90
      258
 90
      254
 90
        4
 90
       87
 90
       98
 90
      196
 90
      258
 90
        4
 90
       98
 90
       95
 90
      195
 90
      196
 90
        4
 90
       95
 90
      102
 90
      194
 90
      195
 90
        4
 90
      102
 90
      101
 90
      198
 90
      194
 90
        4
 90
      101
 90
      103
 90
      261
 90
      198
 90
        4
 90
      103
 90
      100
 90
      199
 90
      261
 90
        4
 90
      100
 90
       96
 90
      264
 90
      199
 90
        4
 90
       96
 90
       97
 90
      263
 90
      264
 90
        4
 90
       97
 90
       99
 90
      262
 90
      263
 90
        4
 90
       99
 90
      129
 90
      260
 90
      262
 90
        4
 90
      129
 90
       94
 90
      259
 90
      260
 90
        4
 90
       94
 90
       88
 90
      256
 90
      259
 90
        4
 90
       88
 90
       89
 90
      255
 90
      256
 90
        4
 90
       89
 90
       91
 90
      257
 90
      255
 90
        4
 90
       91
 90
       19
 90
      197
 90
      257
 90
        4
 90
       19
 90
       41
 90
      193
 90
      197
 90
        4
 90
       41
 90
       42
 90
      191
 90
      193
 90
        4
 90
       42
 90
       16
 90
      190
 90
      191
 90
        4
 90
       16
 90
       13
 90
      252
 90
      190
 90
        4
 90
       13
 90
       14
 90
      266
 90
      252
 90
        4
 90
       14
 90
       72
 90
      200
 90
      266
 90
        4
 90
       72
 90
       74
 90
      202
 90
      200
 90
        4
 90
       74
 90
       75
 90
      204
 90
      202
 90
        4
 90
       75
 90
       69
 90
      268
 90
      204
 90
        4
 90
       69
 90
       80
 90
      206
 90
      268
 90
        4
 90
       80
 90
       77
 90
      270
 90
      206
 90
        4
 90
       77
 90
       84
 90
      207
 90
      270
 90
        4
 90
       84
 90
       83
 90
      272
 90
      207
 90
        4
 90
       83
 90
       85
 90
      210
 90
      272
 90
        4
 90
       85
 90
       82
 90
      211
 90
      210
 90
        4
 90
       82
 90
       78
 90
      275
 90
      211
 90
        4
 90
       78
 90
       79
 90
      274
 90
      275
 90
        4
 90
       79
 90
       81
 90
      273
 90
      274
 90
        4
 90
       81
 90
      131
 90
      209
 90
      273
 90
        4
 90
      131
 90
       76
 90
      208
 90
      209
 90
        4
 90
       76
 90
       70
 90
      271
 90
      208
 90
        4
 90
       70
 90
       71
 90
      269
 90
      271
 90
        4
 90
       71
 90
       73
 90
      205
 90
      269
 90
        4
 90
       73
 90
       86
 90
      267
 90
      205
 90
        4
 90
       86
 90
       15
 90
      203
 90
      267
 90
        4
 90
       15
 90
       50
 90
      201
 90
      203
 90
        4
 90
       50
 90
       12
 90
      265
 90
      201
 90
        4
 90
       12
 90
       11
 90
      141
 90
      265
 90
        4
 90
       11
 90
        6
 90
      140
 90
      141
 90
        4
 90
        6
 90
       52
 90
      143
 90
      140
 90
        4
 90
       52
 90
       54
 90
      145
 90
      143
 90
        4
 90
       54
 90
      121
 90
      215
 90
      145
 90
        4
 90
      121
 90
       64
 90
      146
 90
      215
 90
        4
 90
       64
 90
       63
 90
      218
 90
      146
 90
        4
 90
       63
 90
       61
 90
      219
 90
      218
 90
        4
 90
       61
 90
       67
 90
      153
 90
      219
 90
        4
 90
       67
 90
       66
 90
      158
 90
      153
 90
        4
 90
       66
 90
       68
 90
      224
 90
      158
 90
        4
 90
       68
 90
       62
 90
      223
 90
      224
 90
        4
 90
       62
 90
      134
 90
      155
 90
      223
 90
        4
 90
      134
 90
      135
 90
      154
 90
      155
 90
        4
 90
      135
 90
      119
 90
      222
 90
      154
 90
        4
 90
      119
 90
      120
 90
      156
 90
      222
 90
        4
 90
      120
 90
      122
 90
      157
 90
      156
 90
        4
 90
      122
 90
      123
 90
      221
 90
      157
 90
        4
 90
      123
 90
      124
 90
      152
 90
      221
 90
        4
 90
      124
 90
      125
 90
      149
 90
      152
 90
        4
 90
      125
 90
      126
 90
      148
 90
      149
 90
        4
 90
      126
 90
      127
 90
      147
 90
      148
 90
        4
 90
      127
 90
      128
 90
      150
 90
      147
 90
        4
 90
      128
 90
       53
 90
      139
 90
      150
 90
        4
 90
       53
 90
       55
 90
      212
 90
      139
 90
        4
 90
       55
 90
       65
 90
      151
 90
      212
 90
        4
 90
       65
 90
      133
 90
      220
 90
      151
 90
        4
 90
      133
 90
      132
 90
      138
 90
      220
 90
        4
 90
      132
 90
        1
 90
      213
 90
      138
 90
        4
 90
      138
 90
      213
 90
      139
 90
      212
 90
        3
 90
      140
 90
      142
 90
      141
 90
        4
 90
      143
 90
      144
 90
      142
 90
      140
 90
        4
 90
      145
 90
      214
 90
      144
 90
      143
 90
        4
 90
      215
 90
      216
 90
      214
 90
      145
 90
        4
 90
      146
 90
      217
 90
      216
 90
      215
 90
        4
 90
      218
 90
      213
 90
      217
 90
      146
 90
        3
 90
      219
 90
      213
 90
      218
 90
        3
 90
      147
 90
      213
 90
      148
 90
        4
 90
      148
 90
      213
 90
      219
 90
      149
 90
        3
 90
      150
 90
      213
 90
      147
 90
        3
 90
      213
 90
      150
 90
      139
 90
        3
 90
      151
 90
      220
 90
      138
 90
        3
 90
      138
 90
      212
 90
      151
 90
        4
 90
      152
 90
      219
 90
      153
 90
      221
 90
        3
 90
      149
 90
      219
 90
      152
 90
        4
 90
      222
 90
      223
 90
      155
 90
      154
 90
        4
 90
      156
 90
      224
 90
      223
 90
      222
 90
        4
 90
      157
 90
      158
 90
      224
 90
      156
 90
        4
 90
      221
 90
      153
 90
      158
 90
      157
 90
        4
 90
      225
 90
      160
 90
      159
 90
      226
 90
        4
 90
      226
 90
      159
 90
      227
 90
      161
 90
        4
 90
      161
 90
      227
 90
      163
 90
      162
 90
        4
 90
      162
 90
      163
 90
      228
 90
      164
 90
        4
 90
      164
 90
      228
 90
      166
 90
      165
 90
        3
 90
      165
 90
      166
 90
      167
 90
        4
 90
      167
 90
      166
 90
      169
 90
      168
 90
        4
 90
      170
 90
      172
 90
      171
 90
      229
 90
        4
 90
      173
 90
      174
 90
      172
 90
      170
 90
        4
 90
      230
 90
      231
 90
      174
 90
      173
 90
        4
 90
      175
 90
      232
 90
      231
 90
      230
 90
        4
 90
      167
 90
      176
 90
      232
 90
      175
 90
        3
 90
      167
 90
      168
 90
      176
 90
        3
 90
      177
 90
      166
 90
      233
 90
        3
 90
      166
 90
      177
 90
      169
 90
        3
 90
      234
 90
      166
 90
      178
 90
        3
 90
      233
 90
      166
 90
      234
 90
        3
 90
      178
 90
      166
 90
      179
 90
        4
 90
      179
 90
      166
 90
      235
 90
      180
 90
        4
 90
      236
 90
      183
 90
      182
 90
      181
 90
        4
 90
      181
 90
      182
 90
      237
 90
      184
 90
        4
 90
      184
 90
      237
 90
      185
 90
      238
 90
        4
 90
      238
 90
      185
 90
      239
 90
      186
 90
        4
 90
      240
 90
      241
 90
      183
 90
      236
 90
        4
 90
      242
 90
      243
 90
      241
 90
      240
 90
        4
 90
      244
 90
      245
 90
      243
 90
      242
 90
        4
 90
      246
 90
      247
 90
      245
 90
      244
 90
        4
 90
      248
 90
      249
 90
      247
 90
      246
 90
        4
 90
      187
 90
      250
 90
      249
 90
      248
 90
        4
 90
      188
 90
      251
 90
      250
 90
      187
 90
        3
 90
      251
 90
      160
 90
      225
 90
        3
 90
      188
 90
      160
 90
      251
 90
        3
 90
      189
 90
      160
 90
      188
 90
        4
 90
      252
 90
      189
 90
      253
 90
      190
 90
        4
 90
      190
 90
      253
 90
      192
 90
      191
 90
        4
 90
      191
 90
      192
 90
      254
 90
      193
 90
        4
 90
      255
 90
      195
 90
      194
 90
      256
 90
        4
 90
      257
 90
      196
 90
      195
 90
      255
 90
        4
 90
      197
 90
      258
 90
      196
 90
      257
 90
        4
 90
      193
 90
      254
 90
      258
 90
      197
 90
        4
 90
      256
 90
      194
 90
      198
 90
      259
 90
        4
 90
      259
 90
      198
 90
      261
 90
      260
 90
        4
 90
      260
 90
      261
 90
      199
 90
      262
 90
        4
 90
      262
 90
      199
 90
      264
 90
      263
 90
        4
 90
      141
 90
      266
 90
      200
 90
      265
 90
        4
 90
      265
 90
      200
 90
      202
 90
      201
 90
        4
 90
      201
 90
      202
 90
      204
 90
      203
 90
        4
 90
      203
 90
      204
 90
      268
 90
      267
 90
        4
 90
      267
 90
      268
 90
      206
 90
      205
 90
        4
 90
      205
 90
      206
 90
      270
 90
      269
 90
        4
 90
      269
 90
      270
 90
      207
 90
      271
 90
        4
 90
      271
 90
      207
 90
      272
 90
      208
 90
        4
 90
      208
 90
      272
 90
      210
 90
      209
 90
        4
 90
      209
 90
      210
 90
      211
 90
      273
 90
        4
 90
      273
 90
      211
 90
      275
 90
      274
 90
        3
 90
      141
 90
      142
 90
      266
 90
        3
 90
      266
 90
      142
 90
      252
 90
        4
 90
      252
 90
      142
 90
      160
 90
      189
 94
      568
 90
       55
 90
      132
 90
       53
 90
       55
 90
        1
 90
       53
 90
        1
 90
      132
 90
        6
 90
       11
 90
        2
 90
       11
 90
        2
 90
        6
 90
        6
 90
       52
 90
        2
 90
        3
 90
        3
 90
       52
 90
       52
 90
       54
 90
        3
 90
        4
 90
        4
 90
       54
 90
       54
 90
      121
 90
        4
 90
        5
 90
        5
 90
      121
 90
       64
 90
      121
 90
        0
 90
        5
 90
        0
 90
       64
 90
       63
 90
       64
 90
        0
 90
        1
 90
        1
 90
       63
 90
       61
 90
       63
 90
        1
 90
       61
 90
      126
 90
      127
 90
        1
 90
      126
 90
        1
 90
      127
 90
      125
 90
      126
 90
       61
 90
      125
 90
      127
 90
      128
 90
        1
 90
      128
 90
       53
 90
      128
 90
       65
 90
      132
 90
      132
 90
      133
 90
       65
 90
      133
 90
       55
 90
       65
 90
      123
 90
      124
 90
       67
 90
      123
 90
       61
 90
       67
 90
       61
 90
      124
 90
      124
 90
      125
 90
      119
 90
      135
 90
      134
 90
      135
 90
       62
 90
      134
 90
       62
 90
      119
 90
      119
 90
      120
 90
       62
 90
       68
 90
       68
 90
      120
 90
      120
 90
      122
 90
       66
 90
       68
 90
       66
 90
      122
 90
      122
 90
      123
 90
       66
 90
       67
 90
       21
 90
       24
 90
        8
 90
       24
 90
        7
 90
        8
 90
        7
 90
       21
 90
       24
 90
       45
 90
       45
 90
       60
 90
        8
 90
       60
 90
       44
 90
       45
 90
       44
 90
       59
 90
       59
 90
       60
 90
       43
 90
       44
 90
       43
 90
       58
 90
       58
 90
       59
 90
       27
 90
       43
 90
       27
 90
       56
 90
       56
 90
       58
 90
       26
 90
       27
 90
       26
 90
       56
 90
       26
 90
       35
 90
       34
 90
       35
 90
       34
 90
       56
 90
        9
 90
       10
 90
        9
 90
      137
 90
       40
 90
      137
 90
       10
 90
       40
 90
       10
 90
       51
 90
       39
 90
       40
 90
       39
 90
       51
 90
       28
 90
       51
 90
       38
 90
       39
 90
       28
 90
       38
 90
       25
 90
       28
 90
       37
 90
       38
 90
       25
 90
       37
 90
       25
 90
       26
 90
       36
 90
       37
 90
       26
 90
       36
 90
       35
 90
       36
 90
       32
 90
       33
 90
       32
 90
       56
 90
       33
 90
       56
 90
       33
 90
       34
 90
       30
 90
       31
 90
       30
 90
       56
 90
       31
 90
       56
 90
       31
 90
       32
 90
       29
 90
       30
 90
       29
 90
       56
 90
       29
 90
      136
 90
       57
 90
      136
 90
       56
 90
       57
 90
      105
 90
      109
 90
      109
 90
      116
 90
      116
 90
      117
 90
      105
 90
      117
 90
      109
 90
      130
 90
      118
 90
      130
 90
      116
 90
      118
 90
      114
 90
      130
 90
      114
 90
      115
 90
      115
 90
      118
 90
      112
 90
      114
 90
      111
 90
      112
 90
      111
 90
      115
 90
      105
 90
      106
 90
      110
 90
      117
 90
      106
 90
      110
 90
       46
 90
      106
 90
      110
 90
      113
 90
       46
 90
      113
 90
       46
 90
       47
 90
      104
 90
      113
 90
       47
 90
      104
 90
       47
 90
       48
 90
      104
 90
      108
 90
       48
 90
      108
 90
       48
 90
       49
 90
      107
 90
      108
 90
       49
 90
      107
 90
       20
 90
       49
 90
       23
 90
      107
 90
       20
 90
       23
 90
       17
 90
       20
 90
       22
 90
       23
 90
       17
 90
       22
 90
       21
 90
       22
 90
        7
 90
       22
 90
        7
 90
       17
 90
       17
 90
       18
 90
        7
 90
       18
 90
       13
 90
       16
 90
       16
 90
       90
 90
       18
 90
       90
 90
       13
 90
       18
 90
       16
 90
       42
 90
       42
 90
       92
 90
       90
 90
       92
 90
       41
 90
       42
 90
       41
 90
       93
 90
       92
 90
       93
 90
       88
 90
       89
 90
       88
 90
      102
 90
       95
 90
      102
 90
       89
 90
       95
 90
       89
 90
       91
 90
       95
 90
       98
 90
       91
 90
       98
 90
       19
 90
       91
 90
       87
 90
       98
 90
       19
 90
       87
 90
       19
 90
       41
 90
       87
 90
       93
 90
       88
 90
       94
 90
       94
 90
      101
 90
      101
 90
      102
 90
       94
 90
      129
 90
      103
 90
      129
 90
      101
 90
      103
 90
       99
 90
      129
 90
       99
 90
      100
 90
      100
 90
      103
 90
       97
 90
       99
 90
       96
 90
       97
 90
       96
 90
      100
 90
       11
 90
       12
 90
       12
 90
       72
 90
       14
 90
       72
 90
       11
 90
       14
 90
       12
 90
       50
 90
       50
 90
       74
 90
       72
 90
       74
 90
       15
 90
       50
 90
       15
 90
       75
 90
       74
 90
       75
 90
       15
 90
       86
 90
       69
 90
       86
 90
       69
 90
       75
 90
       73
 90
       86
 90
       73
 90
       80
 90
       69
 90
       80
 90
       71
 90
       73
 90
       71
 90
       77
 90
       77
 90
       80
 90
       70
 90
       71
 90
       70
 90
       84
 90
       77
 90
       84
 90
       70
 90
       76
 90
       76
 90
       83
 90
       83
 90
       84
 90
       76
 90
      131
 90
       85
 90
      131
 90
       83
 90
       85
 90
       81
 90
      131
 90
       81
 90
       82
 90
       82
 90
       85
 90
       79
 90
       81
 90
       78
 90
       79
 90
       78
 90
       82
 90
        2
 90
       14
 90
       13
 90
       14
 90
        2
 90
       13
 90
        2
 90
        7
 90
        0
 90
      217
 90
      213
 90
      217
 90
        1
 90
      213
 90
        5
 90
      216
 90
      216
 90
      217
 90
        4
 90
      214
 90
      214
 90
      216
 90
        3
 90
      144
 90
      144
 90
      214
 90
        2
 90
      142
 90
      142
 90
      144
 90
        7
 90
      160
 90
      142
 90
      160
 90
        8
 90
      159
 90
      159
 90
      160
 90
       60
 90
      227
 90
      159
 90
      227
 90
       59
 90
      163
 90
      163
 90
      227
 90
       58
 90
      228
 90
      163
 90
      228
 90
       56
 90
      166
 90
      166
 90
      228
 90
       57
 90
      235
 90
      166
 90
      235
 90
      136
 90
      180
 90
      180
 90
      235
 90
       29
 90
      179
 90
      179
 90
      180
 90
       30
 90
      178
 90
      178
 90
      179
 90
       31
 90
      234
 90
      178
 90
      234
 90
       32
 90
      233
 90
      233
 90
      234
 90
       33
 90
      177
 90
      177
 90
      233
 90
       34
 90
      169
 90
      169
 90
      177
 90
       35
 90
      168
 90
      168
 90
      169
 90
       36
 90
      176
 90
      168
 90
      176
 90
       37
 90
      232
 90
      176
 90
      232
 90
       38
 90
      231
 90
      231
 90
      232
 90
       39
 90
      174
 90
      174
 90
      231
 90
       40
 90
      172
 90
      172
 90
      174
 90
      137
 90
      171
 90
      171
 90
      172
 90
        9
 90
      229
 90
      171
 90
      229
 90
       10
 90
      170
 90
      170
 90
      229
 90
       51
 90
      173
 90
      170
 90
      173
 90
       28
 90
      230
 90
      173
 90
      230
 90
       25
 90
      175
 90
      175
 90
      230
 90
       26
 90
      167
 90
      167
 90
      175
 90
       27
 90
      165
 90
      165
 90
      167
 90
       43
 90
      164
 90
      164
 90
      165
 90
       44
 90
      162
 90
      162
 90
      164
 90
       45
 90
      161
 90
      161
 90
      162
 90
       24
 90
      226
 90
      161
 90
      226
 90
       21
 90
      225
 90
      225
 90
      226
 90
       22
 90
      251
 90
      225
 90
      251
 90
       23
 90
      250
 90
      250
 90
      251
 90
      107
 90
      249
 90
      249
 90
      250
 90
      108
 90
      247
 90
      247
 90
      249
 90
      104
 90
      245
 90
      245
 90
      247
 90
      113
 90
      243
 90
      243
 90
      245
 90
      110
 90
      241
 90
      241
 90
      243
 90
      117
 90
      183
 90
      183
 90
      241
 90
      116
 90
      182
 90
      182
 90
      183
 90
      118
 90
      237
 90
      182
 90
      237
 90
      115
 90
      185
 90
      185
 90
      237
 90
      111
 90
      239
 90
      185
 90
      239
 90
      112
 90
      186
 90
      186
 90
      239
 90
      114
 90
      238
 90
      186
 90
      238
 90
      130
 90
      184
 90
      184
 90
      238
 90
      109
 90
      181
 90
      181
 90
      184
 90
      105
 90
      236
 90
      181
 90
      236
 90
      106
 90
      240
 90
      236
 90
      240
 90
       46
 90
      242
 90
      240
 90
      242
 90
       47
 90
      244
 90
      242
 90
      244
 90
       48
 90
      246
 90
      244
 90
      246
 90
       49
 90
      248
 90
      246
 90
      248
 90
       20
 90
      187
 90
      187
 90
      248
 90
       17
 90
      188
 90
      187
 90
      188
 90
       18
 90
      189
 90
      188
 90
      189
 90
       90
 90
      253
 90
      189
 90
      253
 90
       92
 90
      192
 90
      192
 90
      253
 90
       93
 90
      254
 90
      192
 90
      254
 90
       87
 90
      258
 90
      254
 90
      258
 90
       98
 90
      196
 90
      196
 90
      258
 90
       95
 90
      195
 90
      195
 90
      196
 90
      102
 90
      194
 90
      194
 90
      195
 90
      101
 90
      198
 90
      194
 90
      198
 90
      103
 90
      261
 90
      198
 90
      261
 90
      100
 90
      199
 90
      199
 90
      261
 90
       96
 90
      264
 90
      199
 90
      264
 90
       97
 90
      263
 90
      263
 90
      264
 90
       99
 90
      262
 90
      262
 90
      263
 90
      129
 90
      260
 90
      260
 90
      262
 90
       94
 90
      259
 90
      259
 90
      260
 90
       88
 90
      256
 90
      256
 90
      259
 90
       89
 90
      255
 90
      255
 90
      256
 90
       91
 90
      257
 90
      255
 90
      257
 90
       19
 90
      197
 90
      197
 90
      257
 90
       41
 90
      193
 90
      193
 90
      197
 90
       42
 90
      191
 90
      191
 90
      193
 90
       16
 90
      190
 90
      190
 90
      191
 90
       13
 90
      252
 90
      190
 90
      252
 90
       14
 90
      266
 90
      252
 90
      266
 90
       72
 90
      200
 90
      200
 90
      266
 90
       74
 90
      202
 90
      200
 90
      202
 90
       75
 90
      204
 90
      202
 90
      204
 90
       69
 90
      268
 90
      204
 90
      268
 90
       80
 90
      206
 90
      206
 90
      268
 90
       77
 90
      270
 90
      206
 90
      270
 90
       84
 90
      207
 90
      207
 90
      270
 90
       83
 90
      272
 90
      207
 90
      272
 90
       85
 90
      210
 90
      210
 90
      272
 90
       82
 90
      211
 90
      210
 90
      211
 90
       78
 90
      275
 90
      211
 90
      275
 90
       79
 90
      274
 90
      274
 90
      275
 90
       81
 90
      273
 90
      273
 90
      274
 90
      131
 90
      209
 90
      209
 90
      273
 90
       76
 90
      208
 90
      208
 90
      209
 90
       70
 90
      271
 90
      208
 90
      271
 90
       71
 90
      269
 90
      269
 90
      271
 90
       73
 90
      205
 90
      205
 90
      269
 90
       86
 90
      267
 90
      205
 90
      267
 90
       15
 90
      203
 90
      203
 90
      267
 90
       50
 90
      201
 90
      201
 90
      203
 90
       12
 90
      265
 90
      201
 90
      265
 90
       11
 90
      141
 90
      141
 90
      265
 90
        6
 90
      140
 90
      140
 90
      141
 90
       52
 90
      143
 90
      140
 90
      143
 90
       54
 90
      145
 90
      143
 90
      145
 90
      121
 90
      215
 90
      145
 90
      215
 90
       64
 90
      146
 90
      146
 90
      215
 90
       63
 90
      218
 90
      146
 90
      218
 90
       61
 90
      219
 90
      218
 90
      219
 90
       67
 90
      153
 90
      153
 90
      219
 90
       66
 90
      158
 90
      153
 90
      158
 90
       68
 90
      224
 90
      158
 90
      224
 90
       62
 90
      223
 90
      223
 90
      224
 90
      134
 90
      155
 90
      155
 90
      223
 90
      135
 90
      154
 90
      154
 90
      155
 90
      119
 90
      222
 90
      154
 90
      222
 90
      120
 90
      156
 90
      156
 90
      222
 90
      122
 90
      157
 90
      156
 90
      157
 90
      123
 90
      221
 90
      157
 90
      221
 90
      124
 90
      152
 90
      152
 90
      221
 90
      125
 90
      149
 90
      149
 90
      152
 90
      126
 90
      148
 90
      148
 90
      149
 90
      127
 90
      147
 90
      147
 90
      148
 90
      128
 90
      150
 90
      147
 90
      150
 90
       53
 90
      139
 90
      139
 90
      150
 90
       55
 90
      212
 90
      139
 90
      212
 90
       65
 90
      151
 90
      151
 90
      212
 90
      133
 90
      220
 90
      151
 90
      220
 90
      132
 90
      138
 90
      138
 90
      220
 90
      138
 90
      213
 90
      139
 90
      213
 90
      138
 90
      212
 90
      140
 90
      142
 90
      141
 90
      142
 90
      143
 90
      144
 90
      145
 90
      214
 90
      215
 90
      216
 90
      146
 90
      217
 90
      213
 90
      218
 90
      213
 90
      219
 90
      147
 90
      213
 90
      148
 90
      213
 90
      149
 90
      219
 90
      150
 90
      213
 90
      138
 90
      151
 90
      152
 90
      219
 90
      153
 90
      221
 90
      222
 90
      223
 90
      156
 90
      224
 90
      157
 90
      158
 90
      160
 90
      225
 90
      159
 90
      226
 90
      161
 90
      227
 90
      162
 90
      163
 90
      164
 90
      228
 90
      165
 90
      166
 90
      166
 90
      167
 90
      166
 90
      169
 90
      167
 90
      168
 90
      170
 90
      172
 90
      173
 90
      174
 90
      230
 90
      231
 90
      175
 90
      232
 90
      167
 90
      176
 90
      166
 90
      177
 90
      166
 90
      233
 90
      166
 90
      234
 90
      166
 90
      178
 90
      166
 90
      179
 90
      183
 90
      236
 90
      181
 90
      182
 90
      184
 90
      237
 90
      185
 90
      238
 90
      240
 90
      241
 90
      242
 90
      243
 90
      244
 90
      245
 90
      246
 90
      247
 90
      248
 90
      249
 90
      187
 90
      250
 90
      188
 90
      251
 90
      160
 90
      251
 90
      160
 90
      188
 90
      160
 90
      189
 90
      189
 90
      252
 90
      190
 90
      253
 90
      191
 90
      192
 90
      193
 90
      254
 90
      195
 90
      255
 90
      194
 90
      256
 90
      196
 90
      257
 90
      197
 90
      258
 90
      198
 90
      259
 90
      260
 90
      261
 90
      199
 90
      262
 90
      141
 90
      266
 90
      200
 90
      265
 90
      201
 90
      202
 90
      203
 90
      204
 90
      267
 90
      268
 90
      205
 90
      206
 90
      269
 90
      270
 90
      207
 90
      271
 90
      208
 90
      272
 90
      209
 90
      210
 90
      211
 90
      273
 90
      142
 90
      266
 90
      142
 90
      252
 95
      568
140
0.0
140
0.0
140
0.0
140
0.0
140
0.0
140
0.0
140
0.0
140
0.0
140
0.0
140
0.0
140
0.0
140
0.0
140
0.0
140
0.0
140
0.0
140
0.0
140
0.0
140
0.0
140
0.0
140
0.0
140
0.0
140
0.0
140
0.0
140
0.0
140
0.0
140
0.0
140
0.0
140
0.0
140
0.0
140
0.0
140
0.0
140
0.0
140
0.0
140
0.0
140
0.0
140
0.0
140
0.0
140
0.0
140
0.0
140
0.0
140
0.0
140
0.0
140
0.0
140
0.0
140
0.0
140
0.0
140
0.0
140
0.0
140
0.0
140
0.0
140
0.0
140
0.0
140
0.0
140
0.0
140
0.0
140
0.0
140
0.0
140
0.0
140
0.0
140
0.0
140
0.0
140
0.0
140
0.0
140
0.0
140
0.0
140
0.0
140
0.0
140
0.0
140
0.0
140
0.0
140
0.0
140
0.0
140
0.0
140
0.0
140
0.0
140
0.0
140
0.0
140
0.0
140
0.0
140
0.0
140
0.0
140
0.0
140
0.0
140
0.0
140
0.0
140
0.0
140
0.0
140
0.0
140
0.0
140
0.0
140
0.0
140
0.0
140
0.0
140
0.0
140
0.0
140
0.0
140
0.0
140
0.0
140
0.0
140
0.0
140
0.0
140
0.0
140
0.0
140
0.0
140
0.0
140
0.0
140
0.0
140
0.0
140
0.0
140
0.0
140
0.0
140
0.0
140
0.0
140
0.0
140
0.0
140
0.0
140
0.0
140
0.0
140
0.0
140
0.0
140
0.0
140
0.0
140
0.0
140
0.0
140
0.0
140
0.0
140
0.0
140
0.0
140
0.0
140
0.0
140
0.0
140
0.0
140
0.0
140
0.0
140
0.0
140
0.0
140
0.0
140
0.0
140
0.0
140
0.0
140
0.0
140
0.0
140
0.0
140
0.0
140
0.0
140
0.0
140
0.0
140
0.0
140
0.0
140
0.0
140
0.0
140
0.0
140
0.0
140
0.0
140
0.0
140
0.0
140
0.0
140
0.0
140
0.0
140
0.0
140
0.0
140
0.0
140
0.0
140
0.0
140
0.0
140
0.0
140
0.0
140
0.0
140
0.0
140
0.0
140
0.0
140
0.0
140
0.0
140
0.0
140
0.0
140
0.0
140
0.0
140
0.0
140
0.0
140
0.0
140
0.0
140
0.0
140
0.0
140
0.0
140
0.0
140
0.0
140
0.0
140
0.0
140
0.0
140
0.0
140
0.0
140
0.0
140
0.0
140
0.0
140
0.0
140
0.0
140
0.0
140
0.0
140
0.0
140
0.0
140
0.0
140
0.0
140
0.0
140
0.0
140
0.0
140
0.0
140
0.0
140
0.0
140
0.0
140
0.0
140
0.0
140
0.0
140
0.0
140
0.0
140
0.0
140
0.0
140
0.0
140
0.0
140
0.0
140
0.0
140
0.0
140
0.0
140
0.0
140
0.0
140
0.0
140
0.0
140
0.0
140
0.0
140
0.0
140
0.0
140
0.0
140
0.0
140
0.0
140
0.0
140
0.0
140
0.0
140
0.0
140
0.0
140
0.0
140
0.0
140
0.0
140
0.0
140
0.0
140
0.0
140
0.0
140
0.0
140
0.0
140
0.0
140
0.0
140
0.0
140
0.0
140
0.0
140
0.0
140
0.0
140
0.0
140
0.0
140
0.0
140
0.0
140
0.0
140
0.0
140
0.0
140
0.0
140
0.0
140
0.0
140
0.0
140
0.0
140
0.0
140
0.0
140
0.0
140
0.0
140
0.0
140
0.0
140
0.0
140
0.0
140
0.0
140
0.0
140
0.0
140
0.0
140
0.0
140
0.0
140
0.0
140
0.0
140
0.0
140
0.0
140
0.0
140
0.0
140
0.0
140
0.0
140
0.0
140
0.0
140
0.0
140
0.0
140
0.0
140
0.0
140
0.0
140
0.0
140
0.0
140
0.0
140
0.0
140
0.0
140
0.0
140
0.0
140
0.0
140
0.0
140
0.0
140
0.0
140
0.0
140
0.0
140
0.0
140
0.0
140
0.0
140
0.0
140
0.0
140
0.0
140
0.0
140
0.0
140
0.0
140
0.0
140
0.0
140
0.0
140
0.0
140
0.0
140
0.0
140
0.0
140
0.0
140
0.0
140
0.0
140
0.0
140
0.0
140
0.0
140
0.0
140
0.0
140
0.0
140
0.0
140
0.0
140
0.0
140
0.0
140
0.0
140
0.0
140
0.0
140
0.0
140
0.0
140
0.0
140
0.0
140
0.0
140
0.0
140
0.0
140
0.0
140
0.0
140
0.0
140
0.0
140
0.0
140
0.0
140
0.0
140
0.0
140
0.0
140
0.0
140
0.0
140
0.0
140
0.0
140
0.0
140
0.0
140
0.0
140
0.0
140
0.0
140
0.0
140
0.0
140
0.0
140
0.0
140
0.0
140
0.0
140
0.0
140
0.0
140
0.0
140
0.0
140
0.0
140
0.0
140
0.0
140
0.0
140
0.0
140
0.0
140
0.0
140
0.0
140
0.0
140
0.0
140
0.0
140
0.0
140
0.0
140
0.0
140
0.0
140
0.0
140
0.0
140
0.0
140
0.0
140
0.0
140
0.0
140
0.0
140
0.0
140
0.0
140
0.0
140
0.0
140
0.0
140
0.0
140
0.0
140
0.0
140
0.0
140
0.0
140
0.0
140
0.0
140
0.0
140
0.0
140
0.0
140
0.0
140
0.0
140
0.0
140
0.0
140
0.0
140
0.0
140
0.0
140
0.0
140
0.0
140
0.0
140
0.0
140
0.0
140
0.0
140
0.0
140
0.0
140
0.0
140
0.0
140
0.0
140
0.0
140
0.0
140
0.0
140
0.0
140
0.0
140
0.0
140
0.0
140
0.0
140
0.0
140
0.0
140
0.0
140
0.0
140
0.0
140
0.0
140
0.0
140
0.0
140
0.0
140
0.0
140
0.0
140
0.0
140
0.0
140
0.0
140
0.0
140
0.0
140
0.0
140
0.0
140
0.0
140
0.0
140
0.0
140
0.0
140
0.0
140
0.0
140
0.0
140
0.0
140
0.0
140
0.0
140
0.0
140
0.0
140
0.0
140
0.0
140
0.0
140
0.0
140
0.0
140
0.0
140
0.0
140
0.0
140
0.0
140
0.0
140
0.0
140
0.0
140
0.0
140
0.0
140
0.0
140
0.0
140
0.0
140
0.0
140
0.0
140
0.0
140
0.0
140
0.0
140
0.0
140
0.0
140
0.0
140
0.0
140
0.0
140
0.0
140
0.0
140
0.0
140
0.0
140
0.0
140
0.0
140
0.0
140
0.0
140
0.0
140
0.0
140
0.0
140
0.0
140
0.0
140
0.0
140
0.0
140
0.0
140
0.0
140
0.0
140
0.0
140
0.0
140
0.0
140
0.0
140
0.0
140
0.0
140
0.0
140
0.0
140
0.0
140
0.0
140
0.0
140
0.0
140
0.0
140
0.0
140
0.0
140
0.0
140
0.0
140
0.0
140
0.0
140
0.0
140
0.0
140
0.0
140
0.0
140
0.0
140
0.0
140
0.0
140
0.0
140
0.0
140
0.0
140
0.0
140
0.0
140
0.0
140
0.0
140
0.0
140
0.0
140
0.0
140
0.0
140
0.0
140
0.0
140
0.0
140
0.0
140
0.0
140
0.0
140
0.0
140
0.0
140
0.0
140
0.0
140
0.0
140
0.0
140
0.0
140
0.0
140
0.0
140
0.0
140
0.0
140
0.0
 90
        0
  0
POLYLINE
  5
FA
330
1F
100
AcDbEntity
  8
OracDecor_panel_moldings
 62
    61
420
 14083225
100
AcDb2dPolyline
 66
     1
 10
0.0
 20
0.0
 30
-0.0000003094330054
 70
     1
210
-0.9999999999999769
220
0.0000001788139343
230
-0.0000001192092896
  0
VERTEX
  5
FB
330
FA
100
AcDbEntity
  8
OracDecor_panel_moldings
 62
    61
420
 14083225
100
AcDbVertex
100
AcDb2dVertex
 10
-0.6386143565177918
 20
3.633628845214843
 30
-0.0000003094330054
  0
VERTEX
  5
FC
330
FA
100
AcDbEntity
  8
OracDecor_panel_moldings
 62
    61
420
 14083225
100
AcDbVertex
100
AcDb2dVertex
 10
-0.8946520686149597
 20
3.892326354980468
 30
-0.0000003094330054
  0
VERTEX
  5
FD
330
FA
100
AcDbEntity
  8
OracDecor_panel_moldings
 62
    61
420
 14083225
100
AcDbVertex
100
AcDb2dVertex
 10
-1.093862295150756
 20
4.197525024414062
 30
-0.0000003094330054
  0
VERTEX
  5
FE
330
FA
100
AcDbEntity
  8
OracDecor_panel_moldings
 62
    61
420
 14083225
100
AcDbVertex
100
AcDb2dVertex
 10
-1.228127241134643
 20
4.536773681640625
 30
-0.0000003094330054
  0
VERTEX
  5
FF
330
FA
100
AcDbEntity
  8
OracDecor_panel_moldings
 62
    61
420
 14083225
100
AcDbVertex
100
AcDb2dVertex
 10
-1.291977643966674
 20
4.896263122558593
 30
-0.0000003094330054
  0
VERTEX
  5
100
330
FA
100
AcDbEntity
  8
OracDecor_panel_moldings
 62
    61
420
 14083225
100
AcDbVertex
100
AcDb2dVertex
 10
-1.282809019088745
 20
5.261329650878906
 30
-0.0000003094330054
  0
VERTEX
  5
101
330
FA
100
AcDbEntity
  8
OracDecor_panel_moldings
 62
    61
420
 14083225
100
AcDbVertex
100
AcDb2dVertex
 10
-1.200997114181518
 20
5.617095947265625
 30
-0.0000003094330054
  0
VERTEX
  5
102
330
FA
100
AcDbEntity
  8
OracDecor_panel_moldings
 62
    61
420
 14083225
100
AcDbVertex
100
AcDb2dVertex
 10
-1.049874067306518
 20
5.949089050292968
 30
-0.0000003094330054
  0
VERTEX
  5
103
330
FA
100
AcDbEntity
  8
OracDecor_panel_moldings
 62
    61
420
 14083225
100
AcDbVertex
100
AcDb2dVertex
 10
-0.8355987668037414
 20
6.243751525878906
 30
-0.0000003094330054
  0
VERTEX
  5
104
330
FA
100
AcDbEntity
  8
OracDecor_panel_moldings
 62
    61
420
 14083225
100
AcDbVertex
100
AcDb2dVertex
 10
-0.5669015049934388
 20
6.489105224609375
 30
-0.0000003094330054
  0
VERTEX
  5
105
330
FA
100
AcDbEntity
  8
OracDecor_panel_moldings
 62
    61
420
 14083225
100
AcDbVertex
100
AcDb2dVertex
 10
-0.2547577023506164
 20
6.675125122070312
 30
-0.0000003094330054
  0
VERTEX
  5
106
330
FA
100
AcDbEntity
  8
OracDecor_panel_moldings
 62
    61
420
 14083225
100
AcDbVertex
100
AcDb2dVertex
 10
-0.0152738718315959
 20
6.877540588378906
 30
-0.0000003094330054
  0
VERTEX
  5
107
330
FA
100
AcDbEntity
  8
OracDecor_panel_moldings
 62
    61
420
 14083225
100
AcDbVertex
100
AcDb2dVertex
 10
-0.0000171091651282
 20
9.605392456054687
 30
-0.0000003094330054
  0
VERTEX
  5
108
330
FA
100
AcDbEntity
  8
OracDecor_panel_moldings
 62
    61
420
 14083225
100
AcDbVertex
100
AcDb2dVertex
 10
-0.0340232364833355
 20
9.787826538085937
 30
-0.0000003094330054
  0
VERTEX
  5
109
330
FA
100
AcDbEntity
  8
OracDecor_panel_moldings
 62
    61
420
 14083225
100
AcDbVertex
100
AcDb2dVertex
 10
-0.1313809901475906
 20
9.945419311523437
 30
-0.0000003094330054
  0
VERTEX
  5
10A
330
FA
100
AcDbEntity
  8
OracDecor_panel_moldings
 62
    61
420
 14083225
100
AcDbVertex
100
AcDb2dVertex
 10
-0.2788562476634979
 20
10.05679321289062
 30
-0.0000003094330054
  0
VERTEX
  5
10B
330
FA
100
AcDbEntity
  8
OracDecor_panel_moldings
 62
    61
420
 14083225
100
AcDbVertex
100
AcDb2dVertex
 10
-0.4564389884471894
 20
10.10679626464844
 30
-0.0000003094330054
  0
VERTEX
  5
10C
330
FA
100
AcDbEntity
  8
OracDecor_panel_moldings
 62
    61
420
 14083225
100
AcDbVertex
100
AcDb2dVertex
 10
-5.087172985076904
 20
10.51463317871093
 30
-0.0000003094330054
  0
VERTEX
  5
10D
330
FA
100
AcDbEntity
  8
OracDecor_panel_moldings
 62
    61
420
 14083225
100
AcDbVertex
100
AcDb2dVertex
 10
-5.32831335067749
 20
10.56660461425781
 30
-0.0000003094330054
  0
VERTEX
  5
10E
330
FA
100
AcDbEntity
  8
OracDecor_panel_moldings
 62
    61
420
 14083225
100
AcDbVertex
100
AcDb2dVertex
 10
-5.549509048461914
 20
10.67640686035156
 30
-0.0000003094330054
  0
VERTEX
  5
10F
330
FA
100
AcDbEntity
  8
OracDecor_panel_moldings
 62
    61
420
 14083225
100
AcDbVertex
100
AcDb2dVertex
 10
-5.73729133605957
 20
10.83737182617187
 30
-0.0000003094330054
  0
VERTEX
  5
110
330
FA
100
AcDbEntity
  8
OracDecor_panel_moldings
 62
    61
420
 14083225
100
AcDbVertex
100
AcDb2dVertex
 10
-5.880224227905273
 20
11.03971862792969
 30
-0.0000003094330054
  0
VERTEX
  5
111
330
FA
100
AcDbEntity
  8
OracDecor_panel_moldings
 62
    61
420
 14083225
100
AcDbVertex
100
AcDb2dVertex
 10
-5.969609260559082
 20
11.27110290527344
 30
-0.0000003094330054
  0
VERTEX
  5
112
330
FA
100
AcDbEntity
  8
OracDecor_panel_moldings
 62
    61
420
 14083225
100
AcDbVertex
100
AcDb2dVertex
 10
-6.000017166137695
 20
11.51747131347656
 30
-0.0000003094330054
  0
VERTEX
  5
113
330
FA
100
AcDbEntity
  8
OracDecor_panel_moldings
 62
    61
420
 14083225
100
AcDbVertex
100
AcDb2dVertex
 10
-6.000017642974853
 20
39.06712341308594
 30
-0.0000003094330054
  0
VERTEX
  5
114
330
FA
100
AcDbEntity
  8
OracDecor_panel_moldings
 62
    61
420
 14083225
100
AcDbVertex
100
AcDb2dVertex
 10
-5.96960973739624
 20
39.31348037719727
 30
-0.0000003094330054
  0
VERTEX
  5
115
330
FA
100
AcDbEntity
  8
OracDecor_panel_moldings
 62
    61
420
 14083225
100
AcDbVertex
100
AcDb2dVertex
 10
-5.880224704742431
 20
39.54486846923828
 30
-0.0000003094330054
  0
VERTEX
  5
116
330
FA
100
AcDbEntity
  8
OracDecor_panel_moldings
 62
    61
420
 14083225
100
AcDbVertex
100
AcDb2dVertex
 10
-5.737291812896728
 20
39.7472038269043
 30
-0.0000003094330054
  0
VERTEX
  5
117
330
FA
100
AcDbEntity
  8
OracDecor_panel_moldings
 62
    61
420
 14083225
100
AcDbVertex
100
AcDb2dVertex
 10
-5.54951000213623
 20
39.90819168090821
 30
-0.0000003094330054
  0
VERTEX
  5
118
330
FA
100
AcDbEntity
  8
OracDecor_panel_moldings
 62
    61
420
 14083225
100
AcDbVertex
100
AcDb2dVertex
 10
-5.328312873840332
 20
40.01799011230469
 30
-0.0000003094330054
  0
VERTEX
  5
119
330
FA
100
AcDbEntity
  8
OracDecor_panel_moldings
 62
    61
420
 14083225
100
AcDbVertex
100
AcDb2dVertex
 10
-5.087172508239746
 20
40.06995391845703
 30
-0.0000003094330054
  0
VERTEX
  5
11A
330
FA
100
AcDbEntity
  8
OracDecor_panel_moldings
 62
    61
420
 14083225
100
AcDbVertex
100
AcDb2dVertex
 10
-0.5564388036727906
 20
40.46897506713867
 30
-0.0000003094330054
  0
VERTEX
  5
11B
330
FA
100
AcDbEntity
  8
OracDecor_panel_moldings
 62
    61
420
 14083225
100
AcDbVertex
100
AcDb2dVertex
 10
-0.3788550794124603
 20
40.51898193359375
 30
-0.0000003094330054
  0
VERTEX
  5
11C
330
FA
100
AcDbEntity
  8
OracDecor_panel_moldings
 62
    61
420
 14083225
100
AcDbVertex
100
AcDb2dVertex
 10
-0.2313798516988754
 20
40.6303596496582
 30
-0.0000003094330054
  0
VERTEX
  5
11D
330
FA
100
AcDbEntity
  8
OracDecor_panel_moldings
 62
    61
420
 14083225
100
AcDbVertex
100
AcDb2dVertex
 10
-0.1340211629867554
 20
40.78794479370117
 30
-0.0000003094330054
  0
VERTEX
  5
11E
330
FA
100
AcDbEntity
  8
OracDecor_panel_moldings
 62
    61
420
 14083225
100
AcDbVertex
100
AcDb2dVertex
 10
-0.1000159978866577
 20
40.97040176391601
 30
-0.0000003094330054
  0
VERTEX
  5
11F
330
FA
100
AcDbEntity
  8
OracDecor_panel_moldings
 62
    61
420
 14083225
100
AcDbVertex
100
AcDb2dVertex
 10
-0.1000156179070473
 20
43.08555603027343
 30
-0.0000003094330054
  0
VERTEX
  5
120
330
FA
100
AcDbEntity
  8
OracDecor_panel_moldings
 62
    61
420
 14083225
100
AcDbVertex
100
AcDb2dVertex
 10
-0.1340207904577255
 20
43.26799774169922
 30
-0.0000003094330054
  0
VERTEX
  5
121
330
FA
100
AcDbEntity
  8
OracDecor_panel_moldings
 62
    61
420
 14083225
100
AcDbVertex
100
AcDb2dVertex
 10
-0.231379970908165
 20
43.42559814453125
 30
-0.0000003094330054
  0
VERTEX
  5
122
330
FA
100
AcDbEntity
  8
OracDecor_panel_moldings
 62
    61
420
 14083225
100
AcDbVertex
100
AcDb2dVertex
 10
-0.3788547515869141
 20
43.5369758605957
 30
-0.0000003094330054
  0
VERTEX
  5
123
330
FA
100
AcDbEntity
  8
OracDecor_panel_moldings
 62
    61
420
 14083225
100
AcDbVertex
100
AcDb2dVertex
 10
-0.5564374923706055
 20
43.58697891235351
 30
-0.0000003094330054
  0
VERTEX
  5
124
330
FA
100
AcDbEntity
  8
OracDecor_panel_moldings
 62
    61
420
 14083225
100
AcDbVertex
100
AcDb2dVertex
 10
-5.087172508239746
 20
43.98598861694336
 30
-0.0000003094330054
  0
VERTEX
  5
125
330
FA
100
AcDbEntity
  8
OracDecor_panel_moldings
 62
    61
420
 14083225
100
AcDbVertex
100
AcDb2dVertex
 10
-5.328310966491699
 20
44.0379638671875
 30
-0.0000003094330054
  0
VERTEX
  5
126
330
FA
100
AcDbEntity
  8
OracDecor_panel_moldings
 62
    61
420
 14083225
100
AcDbVertex
100
AcDb2dVertex
 10
-5.549507617950439
 20
44.14776611328124
 30
-0.0000003094330054
  0
VERTEX
  5
127
330
FA
100
AcDbEntity
  8
OracDecor_panel_moldings
 62
    61
420
 14083225
100
AcDbVertex
100
AcDb2dVertex
 10
-5.737289905548095
 20
44.30875015258789
 30
-0.0000003094330054
  0
VERTEX
  5
128
330
FA
100
AcDbEntity
  8
OracDecor_panel_moldings
 62
    61
420
 14083225
100
AcDbVertex
100
AcDb2dVertex
 10
-5.880222797393798
 20
44.51108551025391
 30
-0.0000003094330054
  0
VERTEX
  5
129
330
FA
100
AcDbEntity
  8
OracDecor_panel_moldings
 62
    61
420
 14083225
100
AcDbVertex
100
AcDb2dVertex
 10
-5.969607830047607
 20
44.74247741699218
 30
-0.0000003094330054
  0
VERTEX
  5
12A
330
FA
100
AcDbEntity
  8
OracDecor_panel_moldings
 62
    61
420
 14083225
100
AcDbVertex
100
AcDb2dVertex
 10
-6.00001573562622
 20
44.98883438110351
 30
-0.0000003094330054
  0
VERTEX
  5
12B
330
FA
100
AcDbEntity
  8
OracDecor_panel_moldings
 62
    61
420
 14083225
100
AcDbVertex
100
AcDb2dVertex
 10
-6.000016212463378
 20
72.53865814208984
 30
-0.0000003094330054
  0
VERTEX
  5
12C
330
FA
100
AcDbEntity
  8
OracDecor_panel_moldings
 62
    61
420
 14083225
100
AcDbVertex
100
AcDb2dVertex
 10
-5.969608783721923
 20
72.78499603271484
 30
-0.0000003094330054
  0
VERTEX
  5
12D
330
FA
100
AcDbEntity
  8
OracDecor_panel_moldings
 62
    61
420
 14083225
100
AcDbVertex
100
AcDb2dVertex
 10
-5.880220890045166
 20
73.01639556884765
 30
-0.0000003094330054
  0
VERTEX
  5
12E
330
FA
100
AcDbEntity
  8
OracDecor_panel_moldings
 62
    61
420
 14083225
100
AcDbVertex
100
AcDb2dVertex
 10
-5.737287998199462
 20
73.21874237060547
 30
-0.0000003094330054
  0
VERTEX
  5
12F
330
FA
100
AcDbEntity
  8
OracDecor_panel_moldings
 62
    61
420
 14083225
100
AcDbVertex
100
AcDb2dVertex
 10
-5.549505710601806
 20
73.37970733642578
 30
-0.0000003094330054
  0
VERTEX
  5
130
330
FA
100
AcDbEntity
  8
OracDecor_panel_moldings
 62
    61
420
 14083225
100
AcDbVertex
100
AcDb2dVertex
 10
-5.328308582305908
 20
73.48950958251953
 30
-0.0000003094330054
  0
VERTEX
  5
131
330
FA
100
AcDbEntity
  8
OracDecor_panel_moldings
 62
    61
420
 14083225
100
AcDbVertex
100
AcDb2dVertex
 10
-5.087169647216796
 20
73.5414810180664
 30
-0.0000003094330054
  0
VERTEX
  5
132
330
FA
100
AcDbEntity
  8
OracDecor_panel_moldings
 62
    61
420
 14083225
100
AcDbVertex
100
AcDb2dVertex
 10
-0.556437373161316
 20
73.94051361083985
 30
-0.0000003094330054
  0
VERTEX
  5
133
330
FA
100
AcDbEntity
  8
OracDecor_panel_moldings
 62
    61
420
 14083225
100
AcDbVertex
100
AcDb2dVertex
 10
-0.3788537085056305
 20
73.99051666259765
 30
-0.0000003094330054
  0
VERTEX
  5
134
330
FA
100
AcDbEntity
  8
OracDecor_panel_moldings
 62
    61
420
 14083225
100
AcDbVertex
100
AcDb2dVertex
 10
-0.2313784509897232
 20
74.10187530517578
 30
-0.0000003094330054
  0
VERTEX
  5
135
330
FA
100
AcDbEntity
  8
OracDecor_panel_moldings
 62
    61
420
 14083225
100
AcDbVertex
100
AcDb2dVertex
 10
-0.1340197622776031
 20
74.25948333740234
 30
-0.0000003094330054
  0
VERTEX
  5
136
330
FA
100
AcDbEntity
  8
OracDecor_panel_moldings
 62
    61
420
 14083225
100
AcDbVertex
100
AcDb2dVertex
 10
-0.1000146046280861
 20
74.4419174194336
 30
-0.0000003094330054
  0
VERTEX
  5
137
330
FA
100
AcDbEntity
  8
OracDecor_panel_moldings
 62
    61
420
 14083225
100
AcDbVertex
100
AcDb2dVertex
 10
-0.100014217197895
 20
76.55709075927735
 30
-0.0000003094330054
  0
VERTEX
  5
138
330
FA
100
AcDbEntity
  8
OracDecor_panel_moldings
 62
    61
420
 14083225
100
AcDbVertex
100
AcDb2dVertex
 10
-0.1340193897485733
 20
76.73952484130859
 30
-0.0000003094330054
  0
VERTEX
  5
139
330
FA
100
AcDbEntity
  8
OracDecor_panel_moldings
 62
    61
420
 14083225
100
AcDbVertex
100
AcDb2dVertex
 10
-0.2313781082630157
 20
76.89713287353516
 30
-0.0000003094330054
  0
VERTEX
  5
13A
330
FA
100
AcDbEntity
  8
OracDecor_panel_moldings
 62
    61
420
 14083225
100
AcDbVertex
100
AcDb2dVertex
 10
-0.3788533508777618
 20
77.00849151611328
 30
-0.0000003094330054
  0
VERTEX
  5
13B
330
FA
100
AcDbEntity
  8
OracDecor_panel_moldings
 62
    61
420
 14083225
100
AcDbVertex
100
AcDb2dVertex
 10
-0.5564361214637757
 20
77.0584945678711
 30
-0.0000003094330054
  0
VERTEX
  5
13C
330
FA
100
AcDbEntity
  8
OracDecor_panel_moldings
 62
    61
420
 14083225
100
AcDbVertex
100
AcDb2dVertex
 10
-5.087170124053955
 20
77.45752716064453
 30
-0.0000003094330054
  0
VERTEX
  5
13D
330
FA
100
AcDbEntity
  8
OracDecor_panel_moldings
 62
    61
420
 14083225
100
AcDbVertex
100
AcDb2dVertex
 10
-5.328310489654541
 20
77.50948333740234
 30
-0.0000003094330054
  0
VERTEX
  5
13E
330
FA
100
AcDbEntity
  8
OracDecor_panel_moldings
 62
    61
420
 14083225
100
AcDbVertex
100
AcDb2dVertex
 10
-5.549506187438964
 20
77.61930084228516
 30
-0.0000003094330054
  0
VERTEX
  5
13F
330
FA
100
AcDbEntity
  8
OracDecor_panel_moldings
 62
    61
420
 14083225
100
AcDbVertex
100
AcDb2dVertex
 10
-5.737288475036621
 20
77.78026580810546
 30
-0.0000003094330054
  0
VERTEX
  5
140
330
FA
100
AcDbEntity
  8
OracDecor_panel_moldings
 62
    61
420
 14083225
100
AcDbVertex
100
AcDb2dVertex
 10
-5.880221366882324
 20
77.98261260986328
 30
-0.0000003094330054
  0
VERTEX
  5
141
330
FA
100
AcDbEntity
  8
OracDecor_panel_moldings
 62
    61
420
 14083225
100
AcDbVertex
100
AcDb2dVertex
 10
-5.969606399536132
 20
78.21401214599609
 30
-0.0000003094330054
  0
VERTEX
  5
142
330
FA
100
AcDbEntity
  8
OracDecor_panel_moldings
 62
    61
420
 14083225
100
AcDbVertex
100
AcDb2dVertex
 10
-6.000014305114746
 20
78.46035003662109
 30
-0.0000003094330054
  0
VERTEX
  5
143
330
FA
100
AcDbEntity
  8
OracDecor_panel_moldings
 62
    61
420
 14083225
100
AcDbVertex
100
AcDb2dVertex
 10
-6.000013351440429
 20
106.0101699829101
 30
-0.0000003094330054
  0
VERTEX
  5
144
330
FA
100
AcDbEntity
  8
OracDecor_panel_moldings
 62
    61
420
 14083225
100
AcDbVertex
100
AcDb2dVertex
 10
-5.9696044921875
 20
106.2565231323242
 30
-0.0000003094330054
  0
VERTEX
  5
145
330
FA
100
AcDbEntity
  8
OracDecor_panel_moldings
 62
    61
420
 14083225
100
AcDbVertex
100
AcDb2dVertex
 10
-5.880220413208007
 20
106.487922668457
 30
-0.0000003094330054
  0
VERTEX
  5
146
330
FA
100
AcDbEntity
  8
OracDecor_panel_moldings
 62
    61
420
 14083225
100
AcDbVertex
100
AcDb2dVertex
 10
-5.737287521362304
 20
106.6902694702148
 30
-0.0000003094330054
  0
VERTEX
  5
147
330
FA
100
AcDbEntity
  8
OracDecor_panel_moldings
 62
    61
420
 14083225
100
AcDbVertex
100
AcDb2dVertex
 10
-5.549505233764648
 20
106.8512344360351
 30
-0.0000003094330054
  0
VERTEX
  5
148
330
FA
100
AcDbEntity
  8
OracDecor_panel_moldings
 62
    61
420
 14083225
100
AcDbVertex
100
AcDb2dVertex
 10
-5.32830810546875
 20
106.9610366821289
 30
-0.0000003094330054
  0
VERTEX
  5
149
330
FA
100
AcDbEntity
  8
OracDecor_panel_moldings
 62
    61
420
 14083225
100
AcDbVertex
100
AcDb2dVertex
 10
-5.087169647216796
 20
107.0130081176758
 30
-0.0000003094330054
  0
VERTEX
  5
14A
330
FA
100
AcDbEntity
  8
OracDecor_panel_moldings
 62
    61
420
 14083225
100
AcDbVertex
100
AcDb2dVertex
 10
-0.5564350485801697
 20
107.4120254516601
 30
-0.0000003094330054
  0
VERTEX
  5
14B
330
FA
100
AcDbEntity
  8
OracDecor_panel_moldings
 62
    61
420
 14083225
100
AcDbVertex
100
AcDb2dVertex
 10
-0.3788523077964783
 20
107.4620285034179
 30
-0.0000003094330054
  0
VERTEX
  5
14C
330
FA
100
AcDbEntity
  8
OracDecor_panel_moldings
 62
    61
420
 14083225
100
AcDbVertex
100
AcDb2dVertex
 10
-0.2313780188560486
 20
107.5734024047851
 30
-0.0000003094330054
  0
VERTEX
  5
14D
330
FA
100
AcDbEntity
  8
OracDecor_panel_moldings
 62
    61
420
 14083225
100
AcDbVertex
100
AcDb2dVertex
 10
-0.1340183615684509
 20
107.7310104370117
 30
-0.0000003094330054
  0
VERTEX
  5
14E
330
FA
100
AcDbEntity
  8
OracDecor_panel_moldings
 62
    61
420
 14083225
100
AcDbVertex
100
AcDb2dVertex
 10
-0.1000132039189339
 20
107.9134445190429
 30
-0.0000003094330054
  0
VERTEX
  5
14F
330
FA
100
AcDbEntity
  8
OracDecor_panel_moldings
 62
    61
420
 14083225
100
AcDbVertex
100
AcDb2dVertex
 10
-0.1000128239393234
 20
110.0286026000976
 30
-0.0000003094330054
  0
VERTEX
  5
150
330
FA
100
AcDbEntity
  8
OracDecor_panel_moldings
 62
    61
420
 14083225
100
AcDbVertex
100
AcDb2dVertex
 10
-0.1340179890394211
 20
110.211051940918
 30
-0.0000003094330054
  0
VERTEX
  5
151
330
FA
100
AcDbEntity
  8
OracDecor_panel_moldings
 62
    61
420
 14083225
100
AcDbVertex
100
AcDb2dVertex
 10
-0.2313767075538635
 20
110.3686447143555
 30
-0.0000003094330054
  0
VERTEX
  5
152
330
FA
100
AcDbEntity
  8
OracDecor_panel_moldings
 62
    61
420
 14083225
100
AcDbVertex
100
AcDb2dVertex
 10
-0.3788519501686096
 20
110.4800186157226
 30
-0.0000003094330054
  0
VERTEX
  5
153
330
FA
100
AcDbEntity
  8
OracDecor_panel_moldings
 62
    61
420
 14083225
100
AcDbVertex
100
AcDb2dVertex
 10
-0.5564351677894593
 20
110.5300216674804
 30
-0.0000003094330054
  0
VERTEX
  5
154
330
FA
100
AcDbEntity
  8
OracDecor_panel_moldings
 62
    61
420
 14083225
100
AcDbVertex
100
AcDb2dVertex
 10
-5.087169647216796
 20
110.9290542602539
 30
-0.0000003094330054
  0
VERTEX
  5
155
330
FA
100
AcDbEntity
  8
OracDecor_panel_moldings
 62
    61
420
 14083225
100
AcDbVertex
100
AcDb2dVertex
 10
-5.32830810546875
 20
110.9810104370117
 30
-0.0000003094330054
  0
VERTEX
  5
156
330
FA
100
AcDbEntity
  8
OracDecor_panel_moldings
 62
    61
420
 14083225
100
AcDbVertex
100
AcDb2dVertex
 10
-5.54950475692749
 20
111.0908279418945
 30
-0.0000003094330054
  0
VERTEX
  5
157
330
FA
100
AcDbEntity
  8
OracDecor_panel_moldings
 62
    61
420
 14083225
100
AcDbVertex
100
AcDb2dVertex
 10
-5.737287044525146
 20
111.2517929077148
 30
-0.0000003094330054
  0
VERTEX
  5
158
330
FA
100
AcDbEntity
  8
OracDecor_panel_moldings
 62
    61
420
 14083225
100
AcDbVertex
100
AcDb2dVertex
 10
-5.880219936370849
 20
111.4541397094726
 30
-0.0000003094330054
  0
VERTEX
  5
159
330
FA
100
AcDbEntity
  8
OracDecor_panel_moldings
 62
    61
420
 14083225
100
AcDbVertex
100
AcDb2dVertex
 10
-5.969604969024658
 20
111.6855239868164
 30
-0.0000003094330054
  0
VERTEX
  5
15A
330
FA
100
AcDbEntity
  8
OracDecor_panel_moldings
 62
    61
420
 14083225
100
AcDbVertex
100
AcDb2dVertex
 10
-6.000012874603271
 20
111.9318771362304
 30
-0.0000003094330054
  0
VERTEX
  5
15B
330
FA
100
AcDbEntity
  8
OracDecor_panel_moldings
 62
    61
420
 14083225
100
AcDbVertex
100
AcDb2dVertex
 10
-6.000010967254638
 20
139.4815216064453
 30
-0.0000003094330054
  0
VERTEX
  5
15C
330
FA
100
AcDbEntity
  8
OracDecor_panel_moldings
 62
    61
420
 14083225
100
AcDbVertex
100
AcDb2dVertex
 10
-5.969604015350341
 20
139.7278900146484
 30
-0.0000003094330054
  0
VERTEX
  5
15D
330
FA
100
AcDbEntity
  8
OracDecor_panel_moldings
 62
    61
420
 14083225
100
AcDbVertex
100
AcDb2dVertex
 10
-5.880218029022216
 20
139.9592742919922
 30
-0.0000003094330054
  0
VERTEX
  5
15E
330
FA
100
AcDbEntity
  8
OracDecor_panel_moldings
 62
    61
420
 14083225
100
AcDbVertex
100
AcDb2dVertex
 10
-5.737285137176513
 20
140.1616058349609
 30
-0.0000003094330054
  0
VERTEX
  5
15F
330
FA
100
AcDbEntity
  8
OracDecor_panel_moldings
 62
    61
420
 14083225
100
AcDbVertex
100
AcDb2dVertex
 10
-5.549502849578857
 20
140.3225860595703
 30
-0.0000003094330054
  0
VERTEX
  5
160
330
FA
100
AcDbEntity
  8
OracDecor_panel_moldings
 62
    61
420
 14083225
100
AcDbVertex
100
AcDb2dVertex
 10
-5.328307628631591
 20
140.432388305664
 30
-0.0000003094330054
  0
VERTEX
  5
161
330
FA
100
AcDbEntity
  8
OracDecor_panel_moldings
 62
    61
420
 14083225
100
AcDbVertex
100
AcDb2dVertex
 10
-5.087167263031005
 20
140.4843597412109
 30
-0.0000003094330054
  0
VERTEX
  5
162
330
FA
100
AcDbEntity
  8
OracDecor_panel_moldings
 62
    61
420
 14083225
100
AcDbVertex
100
AcDb2dVertex
 10
-0.4564327895641327
 20
140.8921966552734
 30
-0.0000003094330054
  0
VERTEX
  5
163
330
FA
100
AcDbEntity
  8
OracDecor_panel_moldings
 62
    61
420
 14083225
100
AcDbVertex
100
AcDb2dVertex
 10
-0.2788505256175995
 20
140.9421844482421
 30
-0.0000003094330054
  0
VERTEX
  5
164
330
FA
100
AcDbEntity
  8
OracDecor_panel_moldings
 62
    61
420
 14083225
100
AcDbVertex
100
AcDb2dVertex
 10
-0.1313752830028534
 20
141.0535736083984
 30
-0.0000003094330054
  0
VERTEX
  5
165
330
FA
100
AcDbEntity
  8
OracDecor_panel_moldings
 62
    61
420
 14083225
100
AcDbVertex
100
AcDb2dVertex
 10
-0.0340165831148625
 20
141.2111663818359
 30
-0.0000003094330054
  0
VERTEX
  5
166
330
FA
100
AcDbEntity
  8
OracDecor_panel_moldings
 62
    61
420
 14083225
100
AcDbVertex
100
AcDb2dVertex
 10
-0.0000114257172754
 20
141.3936004638672
 30
-0.0000003094330054
  0
VERTEX
  5
167
330
FA
100
AcDbEntity
  8
OracDecor_panel_moldings
 62
    61
420
 14083225
100
AcDbVertex
100
AcDb2dVertex
 10
-0.0000115431321319
 20
144.0797271728515
 30
-0.0000003094330054
  0
VERTEX
  5
168
330
FA
100
AcDbEntity
  8
OracDecor_panel_moldings
 62
    61
420
 14083225
100
AcDbVertex
100
AcDb2dVertex
 10
-0.3362008333206177
 20
144.3643646240234
 30
-0.0000003094330054
  0
VERTEX
  5
169
330
FA
100
AcDbEntity
  8
OracDecor_panel_moldings
 62
    61
420
 14083225
100
AcDbVertex
100
AcDb2dVertex
 10
-0.6386080980300904
 20
144.5660247802734
 30
-0.0000003094330054
  0
VERTEX
  5
16A
330
FA
100
AcDbEntity
  8
OracDecor_panel_moldings
 62
    61
420
 14083225
100
AcDbVertex
100
AcDb2dVertex
 10
-0.8946467638015747
 20
144.824722290039
 30
-0.0000003094330054
  0
VERTEX
  5
16B
330
FA
100
AcDbEntity
  8
OracDecor_panel_moldings
 62
    61
420
 14083225
100
AcDbVertex
100
AcDb2dVertex
 10
-1.09385597705841
 20
145.1299285888672
 30
-0.0000003094330054
  0
VERTEX
  5
16C
330
FA
100
AcDbEntity
  8
OracDecor_panel_moldings
 62
    61
420
 14083225
100
AcDbVertex
100
AcDb2dVertex
 10
-1.228121876716613
 20
145.4691619873047
 30
-0.0000003094330054
  0
VERTEX
  5
16D
330
FA
100
AcDbEntity
  8
OracDecor_panel_moldings
 62
    61
420
 14083225
100
AcDbVertex
100
AcDb2dVertex
 10
-1.291971325874328
 20
145.8286590576172
 30
-0.0000003094330054
  0
VERTEX
  5
16E
330
FA
100
AcDbEntity
  8
OracDecor_panel_moldings
 62
    61
420
 14083225
100
AcDbVertex
100
AcDb2dVertex
 10
-1.282801866531372
 20
146.1937103271484
 30
-0.0000003094330054
  0
VERTEX
  5
16F
330
FA
100
AcDbEntity
  8
OracDecor_panel_moldings
 62
    61
420
 14083225
100
AcDbVertex
100
AcDb2dVertex
 10
-1.200990915298461
 20
146.5494842529297
 30
-0.0000003094330054
  0
VERTEX
  5
170
330
FA
100
AcDbEntity
  8
OracDecor_panel_moldings
 62
    61
420
 14083225
100
AcDbVertex
100
AcDb2dVertex
 10
-1.049867868423461
 20
146.8814849853515
 30
-0.0000003094330054
  0
VERTEX
  5
171
330
FA
100
AcDbEntity
  8
OracDecor_panel_moldings
 62
    61
420
 14083225
100
AcDbVertex
100
AcDb2dVertex
 10
-0.83559250831604
 20
147.1761627197265
 30
-0.0000003094330054
  0
VERTEX
  5
172
330
FA
100
AcDbEntity
  8
OracDecor_panel_moldings
 62
    61
420
 14083225
100
AcDbVertex
100
AcDb2dVertex
 10
-0.5668952465057373
 20
147.4214935302734
 30
-0.0000003094330054
  0
VERTEX
  5
173
330
FA
100
AcDbEntity
  8
OracDecor_panel_moldings
 62
    61
420
 14083225
100
AcDbVertex
100
AcDb2dVertex
 10
-0.254751443862915
 20
147.6075286865234
 30
-0.0000003094330054
  0
VERTEX
  5
174
330
FA
100
AcDbEntity
  8
OracDecor_panel_moldings
 62
    61
420
 14083225
100
AcDbVertex
100
AcDb2dVertex
 10
-0.0152685875073075
 20
147.8099517822265
 30
-0.0000003094330054
  0
VERTEX
  5
175
330
FA
100
AcDbEntity
  8
OracDecor_panel_moldings
 62
    61
420
 14083225
100
AcDbVertex
100
AcDb2dVertex
 10
-0.0000099382332337
 20
150.9989776611328
 30
-0.0000003094330054
  0
VERTEX
  5
176
330
FA
100
AcDbEntity
  8
OracDecor_panel_moldings
 62
    61
420
 14083225
100
AcDbVertex
100
AcDb2dVertex
 10
-12.50001049041748
 20
150.9989776611328
 30
-0.0000003094330054
  0
VERTEX
  5
177
330
FA
100
AcDbEntity
  8
OracDecor_panel_moldings
 62
    61
420
 14083225
100
AcDbVertex
100
AcDb2dVertex
 10
-12.65455532073974
 20
150.9745025634765
 30
-0.0000003094330054
  0
VERTEX
  5
178
330
FA
100
AcDbEntity
  8
OracDecor_panel_moldings
 62
    61
420
 14083225
100
AcDbVertex
100
AcDb2dVertex
 10
-12.79391384124756
 20
150.9034881591797
 30
-0.0000003094330054
  0
VERTEX
  5
179
330
FA
100
AcDbEntity
  8
OracDecor_panel_moldings
 62
    61
420
 14083225
100
AcDbVertex
100
AcDb2dVertex
 10
-12.90449810028076
 20
150.7928924560547
 30
-0.0000003094330054
  0
VERTEX
  5
17A
330
FA
100
AcDbEntity
  8
OracDecor_panel_moldings
 62
    61
420
 14083225
100
AcDbVertex
100
AcDb2dVertex
 10
-12.97552013397217
 20
150.6535491943359
 30
-0.0000003094330054
  0
VERTEX
  5
17B
330
FA
100
AcDbEntity
  8
OracDecor_panel_moldings
 62
    61
420
 14083225
100
AcDbVertex
100
AcDb2dVertex
 10
-13.00001049041748
 20
150.4989776611328
 30
-0.0000003094330054
  0
VERTEX
  5
17C
330
FA
100
AcDbEntity
  8
OracDecor_panel_moldings
 62
    61
420
 14083225
100
AcDbVertex
100
AcDb2dVertex
 10
-13.00001907348633
 20
0.4999986588954926
 30
-0.0000003094330054
  0
VERTEX
  5
17D
330
FA
100
AcDbEntity
  8
OracDecor_panel_moldings
 62
    61
420
 14083225
100
AcDbVertex
100
AcDb2dVertex
 10
-12.97552871704101
 20
0.3454576432704925
 30
-0.0000003094330054
  0
VERTEX
  5
17E
330
FA
100
AcDbEntity
  8
OracDecor_panel_moldings
 62
    61
420
 14083225
100
AcDbVertex
100
AcDb2dVertex
 10
-12.90450668334961
 20
0.20609912276268
 30
-0.0000003094330054
  0
VERTEX
  5
17F
330
FA
100
AcDbEntity
  8
OracDecor_panel_moldings
 62
    61
420
 14083225
100
AcDbVertex
100
AcDb2dVertex
 10
-12.7939224243164
 20
0.0955187007784844
 30
-0.0000003094330054
  0
VERTEX
  5
180
330
FA
100
AcDbEntity
  8
OracDecor_panel_moldings
 62
    61
420
 14083225
100
AcDbVertex
100
AcDb2dVertex
 10
-12.65456581115723
 20
0.0244890488684178
 30
-0.0000003094330054
  0
VERTEX
  5
181
330
FA
100
AcDbEntity
  8
OracDecor_panel_moldings
 62
    61
420
 14083225
100
AcDbVertex
100
AcDb2dVertex
 10
-12.50001907348633
 20
-0.0000012914524632
 30
-0.0000003094330054
  0
VERTEX
  5
182
330
FA
100
AcDbEntity
  8
OracDecor_panel_moldings
 62
    61
420
 14083225
100
AcDbVertex
100
AcDb2dVertex
 10
-0.0000185966491699
 20
-0.0000000000019213
 30
-0.0000003094330054
  0
VERTEX
  5
183
330
FA
100
AcDbEntity
  8
OracDecor_panel_moldings
 62
    61
420
 14083225
100
AcDbVertex
100
AcDb2dVertex
 10
-0.0000187342229765
 20
3.147323608398437
 30
-0.0000003094330054
  0
VERTEX
  5
184
330
FA
100
AcDbEntity
  8
OracDecor_panel_moldings
 62
    61
420
 14083225
100
AcDbVertex
100
AcDb2dVertex
 10
-0.3362070620059967
 20
3.431968688964843
 30
-0.0000003094330054
  0
SEQEND
  5
185
330
FA
100
AcDbEntity
  8
OracDecor_panel_moldings
 62
    61
420
 14083225
  0
ENDSEC
  0
SECTION
  2
OBJECTS
  0
DICTIONARY
  5
C
330
0
100
AcDbDictionary
281
     1
  3
ACAD_COLOR
350
DC
  3
ACAD_DETAILVIEWSTYLE
350
F5
  3
ACAD_GROUP
350
D
  3
ACAD_LAYOUT
350
1A
  3
ACAD_MATERIAL
350
AA
  3
ACAD_MLEADERSTYLE
350
F1
  3
ACAD_MLINESTYLE
350
17
  3
ACAD_PLOTSETTINGS
350
19
  3
ACAD_PLOTSTYLENAME
350
E
  3
ACAD_SCALELIST
350
DF
  3
ACAD_SECTIONVIEWSTYLE
350
F3
  3
ACAD_TABLESTYLE
350
DD
  3
ACAD_VISUALSTYLE
350
C3
  3
ACDB_RECOMPOSE_DATA
350
192
  3
AcDbVariableDictionary
350
186
  0
DICTIONARY
  5
DC
102
{ACAD_REACTORS
330
C
102
}
330
C
100
AcDbDictionary
281
     1
  0
DICTIONARY
  5
F5
102
{ACAD_REACTORS
330
C
102
}
330
C
100
AcDbDictionary
281
     1
  3
Imperial24
350
F6
  0
DICTIONARY
  5
D
102
{ACAD_REACTORS
330
C
102
}
330
C
100
AcDbDictionary
281
     1
  0
DICTIONARY
  5
1A
102
{ACAD_REACTORS
330
C
102
}
330
C
100
AcDbDictionary
281
     1
  3
Layout1
350
1E
  3
Layout2
350
26
  3
Model
350
22
  0
DICTIONARY
  5
AA
102
{ACAD_REACTORS
330
C
102
}
330
C
100
AcDbDictionary
281
     1
  3
ByBlock
350
B3
  3
ByLayer
350
AB
  3
Global
350
BB
  0
DICTIONARY
  5
F1
102
{ACAD_REACTORS
330
C
102
}
330
C
100
AcDbDictionary
281
     1
  3
Standard
350
F2
  0
DICTIONARY
  5
17
102
{ACAD_REACTORS
330
C
102
}
330
C
100
AcDbDictionary
281
     1
  3
Standard
350
18
  0
DICTIONARY
  5
19
102
{ACAD_REACTORS
330
C
102
}
330
C
100
AcDbDictionary
281
     1
  0
ACDBDICTIONARYWDFLT
  5
E
102
{ACAD_REACTORS
330
C
102
}
330
C
100
AcDbDictionary
281
     1
  3
ByLayer
350
2D
  3
Normal
350
F
100
AcDbDictionaryWithDefault
340
F
  0
DICTIONARY
  5
DF
102
{ACAD_REACTORS
330
C
102
}
330
C
100
AcDbDictionary
281
     1
  3
A0
350
E0
  3
A1
350
E1
  3
A2
350
E2
  3
A3
350
E3
  3
A4
350
E4
  3
A5
350
E5
  3
A6
350
E6
  3
A7
350
E7
  3
A8
350
E8
  3
A9
350
E9
  3
B0
350
EA
  3
B1
350
EB
  3
B2
350
EC
  3
B3
350
ED
  3
B4
350
EE
  3
B5
350
EF
  3
B6
350
F0
  0
DICTIONARY
  5
F3
102
{ACAD_REACTORS
330
C
102
}
330
C
100
AcDbDictionary
281
     1
  3
Imperial24
350
F4
  0
DICTIONARY
  5
DD
102
{ACAD_REACTORS
330
C
102
}
330
C
100
AcDbDictionary
281
     1
  3
Standard
350
DE
  0
DICTIONARY
  5
C3
102
{ACAD_REACTORS
330
C
102
}
330
C
100
AcDbDictionary
281
     1
  3
2dWireframe
350
C9
  3
Basic
350
C8
  3
Brighten
350
CF
  3
ColorChange
350
D3
  3
Conceptual
350
CC
  3
Dim
350
CE
  3
EdgeColorOff
350
DB
  3
Facepattern
350
D2
  3
Flat
350
C4
  3
FlatWithEdges
350
C5
  3
Gouraud
350
C6
  3
GouraudWithEdges
350
C7
  3
Hidden
350
CB
  3
JitterOff
350
D9
  3
Linepattern
350
D1
  3
OverhangOff
350
DA
  3
Realistic
350
CD
  3
Shaded
350
D8
  3
Shaded with edges
350
D7
  3
Shades of Gray
350
D4
  3
Sketchy
350
D5
  3
Thicken
350
D0
  3
Wireframe
350
CA
  3
X-Ray
350
D6
  0
XRECORD
  5
192
102
{ACAD_REACTORS
330
C
102
}
330
C
100
AcDbXrecord
280
     1
 90
        1
330
DE
  0
DICTIONARY
  5
186
102
{ACAD_REACTORS
330
C
102
}
330
C
100
AcDbDictionary
281
     1
  3
CANNOSCALE
350
18C
  3
CMLEADERSTYLE
350
188
  3
CTABLESTYLE
350
187
  3
CVIEWDETAILSTYLE
350
189
  3
CVIEWSECTIONSTYLE
350
18A
  3
LAYEREVAL
350
18E
  3
LAYERNOTIFY
350
18F
  3
LIGHTINGUNITS
350
18D
  3
MSLTSCALE
350
18B
  0
ACDBDETAILVIEWSTYLE
  5
F6
102
{ACAD_XDICTIONARY
360
1C7
102
}
102
{ACAD_REACTORS
330
F5
102
}
330
F5
100
AcDbModelDocViewStyle
 70
     0
  3
Imperial24
290
     0
100
AcDbDetailViewStyle
 70
     0
 71
     0
 90
        3
 71
     1
340
11
 62
   256
 40
0.24
340
0
 62
   256
 40
0.24
300

 40
0.36
280
     3
 71
     2
340
16
 90
       25
 62
   256
 71
     3
340
11
 62
   256
 40
0.24
 90
        1
 40
0.75
 90
        1
300
%<\AcVar ViewType \f "%tc1">% %<\AcVar ViewDetailId>%\PSCALE %<\AcVar ViewScale \f "%sn">%
 71
     4
340
16
 90
       25
 62
   256
340
16
 90
       25
 62
   256
280
     0
  0
LAYOUT
  5
1E
102
{ACAD_REACTORS
330
1A
102
}
330
1A
100
AcDbPlotSettings
  1

  2
\\KTXNTBDC\CASF2PN1
  4

  6

 40
0.0
 41
0.0
 42
0.0
 43
0.0
 44
0.0
 45
0.0
 46
0.0
 47
0.0
 48
0.0
 49
0.0
140
0.0
141
0.0
142
1.0
143
1.0
 70
   688
 72
     0
 73
     0
 74
     5
  7

 75
    16
147
1.0
 76
     0
 77
     2
 78
   300
148
0.0
149
0.0
100
AcDbLayout
  1
Layout1
 70
     1
 71
     1
 10
0.0
 20
0.0
 11
12.0
 21
9.0
 12
0.0
 22
0.0
 32
0.0
 14
1.000000000000000E+20
 24
1.000000000000000E+20
 34
1.000000000000000E+20
 15
-1.000000000000000E+20
 25
-1.000000000000000E+20
 35
-1.000000000000000E+20
146
0.0
 13
0.0
 23
0.0
 33
0.0
 16
1.0
 26
0.0
 36
0.0
 17
0.0
 27
1.0
 37
0.0
 76
     0
330
1B
  0
LAYOUT
  5
26
102
{ACAD_REACTORS
330
1A
102
}
330
1A
100
AcDbPlotSettings
  1

  2
\\KTXNTBDC\CASF2PN1
  4

  6

 40
0.0
 41
0.0
 42
0.0
 43
0.0
 44
0.0
 45
0.0
 46
0.0
 47
0.0
 48
0.0
 49
0.0
140
0.0
141
0.0
142
1.0
143
1.0
 70
   688
 72
     0
 73
     0
 74
     5
  7

 75
    16
147
1.0
 76
     0
 77
     2
 78
   300
148
0.0
149
0.0
100
AcDbLayout
  1
Layout2
 70
     1
 71
     2
 10
0.0
 20
0.0
 11
12.0
 21
9.0
 12
0.0
 22
0.0
 32
0.0
 14
0.0
 24
0.0
 34
0.0
 15
0.0
 25
0.0
 35
0.0
146
0.0
 13
0.0
 23
0.0
 33
0.0
 16
1.0
 26
0.0
 36
0.0
 17
0.0
 27
1.0
 37
0.0
 76
     0
330
23
  0
LAYOUT
  5
22
102
{ACAD_REACTORS
330
1A
102
}
330
1A
100
AcDbPlotSettings
  1

  2
\\KTXNTBDC\CASF2PN1
  4

  6

 40
0.0
 41
0.0
 42
0.0
 43
0.0
 44
0.0
 45
0.0
 46
0.0
 47
0.0
 48
0.0
 49
0.0
140
0.0
141
0.0
142
1.0
143
1.0
 70
  1712
 72
     0
 73
     0
 74
     0
  7

 75
     0
147
1.0
 76
     0
 77
     2
 78
   300
148
0.0
149
0.0
100
AcDbLayout
  1
Model
 70
     1
 71
     0
 10
0.0
 20
0.0
 11
12.0
 21
9.0
 12
0.0
 22
0.0
 32
0.0
 14
0.0
 24
0.0
 34
0.0
 15
0.0
 25
0.0
 35
0.0
146
0.0
 13
0.0
 23
0.0
 33
0.0
 16
1.0
 26
0.0
 36
0.0
 17
0.0
 27
1.0
 37
0.0
 76
     0
330
1F
  0
MATERIAL
  5
B3
102
{ACAD_XDICTIONARY
360
B4
102
}
102
{ACAD_REACTORS
330
AA
102
}
330
AA
100
AcDbMaterial
  1
ByBlock
 72
     0
 43
0.0208333333333333
 43
0.0
 43
0.0
 43
0.0
 43
0.0
 43
0.0208333333333333
 43
0.0
 43
0.0
 43
0.0
 43
0.0
 43
1.0
 43
0.0
 43
0.0
 43
0.0
 43
0.0
 43
1.0
 77
     0
 47
0.0208333333333333
 47
0.0
 47
0.0
 47
0.0
 47
0.0
 47
0.0208333333333333
 47
0.0
 47
0.0
 47
0.0
 47
0.0
 47
1.0
 47
0.0
 47
0.0
 47
0.0
 47
0.0
 47
1.0
171
     0
 49
0.0208333333333333
 49
0.0
 49
0.0
 49
0.0
 49
0.0
 49
0.0208333333333333
 49
0.0
 49
0.0
 49
0.0
 49
0.0
 49
1.0
 49
0.0
 49
0.0
 49
0.0
 49
0.0
 49
1.0
175
     0
142
0.0208333333333333
142
0.0
142
0.0
142
0.0
142
0.0
142
0.0208333333333333
142
0.0
142
0.0
142
0.0
142
0.0
142
1.0
142
0.0
142
0.0
142
0.0
142
0.0
142
1.0
179
     0
144
0.0208333333333333
144
0.0
144
0.0
144
0.0
144
0.0
144
0.0208333333333333
144
0.0
144
0.0
144
0.0
144
0.0
144
1.0
144
0.0
144
0.0
144
0.0
144
0.0
144
1.0
147
0.0208333333333333
147
0.0
147
0.0
147
0.0
147
0.0
147
0.0208333333333333
147
0.0
147
0.0
147
0.0
147
0.0
147
1.0
147
0.0
147
0.0
147
0.0
147
0.0
147
1.0
  0
MATERIAL
  5
AB
102
{ACAD_XDICTIONARY
360
AC
102
}
102
{ACAD_REACTORS
330
AA
102
}
330
AA
100
AcDbMaterial
  1
ByLayer
 72
     0
 43
0.0208333333333333
 43
0.0
 43
0.0
 43
0.0
 43
0.0
 43
0.0208333333333333
 43
0.0
 43
0.0
 43
0.0
 43
0.0
 43
1.0
 43
0.0
 43
0.0
 43
0.0
 43
0.0
 43
1.0
 77
     0
 47
0.0208333333333333
 47
0.0
 47
0.0
 47
0.0
 47
0.0
 47
0.0208333333333333
 47
0.0
 47
0.0
 47
0.0
 47
0.0
 47
1.0
 47
0.0
 47
0.0
 47
0.0
 47
0.0
 47
1.0
171
     0
 49
0.0208333333333333
 49
0.0
 49
0.0
 49
0.0
 49
0.0
 49
0.0208333333333333
 49
0.0
 49
0.0
 49
0.0
 49
0.0
 49
1.0
 49
0.0
 49
0.0
 49
0.0
 49
0.0
 49
1.0
175
     0
142
0.0208333333333333
142
0.0
142
0.0
142
0.0
142
0.0
142
0.0208333333333333
142
0.0
142
0.0
142
0.0
142
0.0
142
1.0
142
0.0
142
0.0
142
0.0
142
0.0
142
1.0
179
     0
144
0.0208333333333333
144
0.0
144
0.0
144
0.0
144
0.0
144
0.0208333333333333
144
0.0
144
0.0
144
0.0
144
0.0
144
1.0
144
0.0
144
0.0
144
0.0
144
0.0
144
1.0
147
0.0208333333333333
147
0.0
147
0.0
147
0.0
147
0.0
147
0.0208333333333333
147
0.0
147
0.0
147
0.0
147
0.0
147
1.0
147
0.0
147
0.0
147
0.0
147
0.0
147
1.0
  0
MATERIAL
  5
BB
102
{ACAD_XDICTIONARY
360
BC
102
}
102
{ACAD_REACTORS
330
AA
102
}
330
AA
100
AcDbMaterial
  1
Global
 72
     0
 43
0.0208333333333333
 43
0.0
 43
0.0
 43
0.0
 43
0.0
 43
0.0208333333333333
 43
0.0
 43
0.0
 43
0.0
 43
0.0
 43
1.0
 43
0.0
 43
0.0
 43
0.0
 43
0.0
 43
1.0
 77
     0
 47
0.0208333333333333
 47
0.0
 47
0.0
 47
0.0
 47
0.0
 47
0.0208333333333333
 47
0.0
 47
0.0
 47
0.0
 47
0.0
 47
1.0
 47
0.0
 47
0.0
 47
0.0
 47
0.0
 47
1.0
171
     0
 49
0.0208333333333333
 49
0.0
 49
0.0
 49
0.0
 49
0.0
 49
0.0208333333333333
 49
0.0
 49
0.0
 49
0.0
 49
0.0
 49
1.0
 49
0.0
 49
0.0
 49
0.0
 49
0.0
 49
1.0
175
     0
142
0.0208333333333333
142
0.0
142
0.0
142
0.0
142
0.0
142
0.0208333333333333
142
0.0
142
0.0
142
0.0
142
0.0
142
1.0
142
0.0
142
0.0
142
0.0
142
0.0
142
1.0
179
     0
144
0.0208333333333333
144
0.0
144
0.0
144
0.0
144
0.0
144
0.0208333333333333
144
0.0
144
0.0
144
0.0
144
0.0
144
1.0
144
0.0
144
0.0
144
0.0
144
0.0
144
1.0
147
0.0208333333333333
147
0.0
147
0.0
147
0.0
147
0.0
147
0.0208333333333333
147
0.0
147
0.0
147
0.0
147
0.0
147
1.0
147
0.0
147
0.0
147
0.0
147
0.0
147
1.0
  0
MLEADERSTYLE
  5
F2
102
{ACAD_XDICTIONARY
360
1C3
102
}
102
{ACAD_REACTORS
330
F1
102
}
330
F1
100
AcDbMLeaderStyle
179
     2
170
     2
171
     1
172
     0
 90
        2
 40
0.0
 41
0.0
173
     1
 91
-1056964608
340
14
 92
       -2
290
     1
 42
0.09
291
     1
 43
0.36
  3
Standard
 44
0.18
300

342
11
174
     1
178
     6
175
     1
176
     0
 93
-1056964608
 45
0.18
292
     0
297
     0
 46
0.18
 94
-1056964608
 47
1.0
 49
1.0
140
1.0
293
     1
141
0.0
294
     1
177
     0
142
1.0
295
     0
296
     0
143
0.125
271
     0
272
     9
273
     9
  0
MLINESTYLE
  5
18
102
{ACAD_REACTORS
330
17
102
}
330
17
100
AcDbMlineStyle
  2
STANDARD
 70
     0
  3

 62
   256
 51
90.0
 52
90.0
 71
     2
 49
0.5
 62
   256
  6
BYLAYER
 49
-0.5
 62
   256
  6
BYLAYER
  0
ACDBPLACEHOLDER
  5
2D
102
{ACAD_REACTORS
330
E
102
}
330
E
  0
ACDBPLACEHOLDER
  5
F
102
{ACAD_REACTORS
330
E
102
}
330
E
  0
SCALE
  5
E0
102
{ACAD_REACTORS
330
DF
102
}
330
DF
100
AcDbScale
 70
     0
300
1:1
140
1.0
141
1.0
290
     1
  0
SCALE
  5
E1
102
{ACAD_REACTORS
330
DF
102
}
330
DF
100
AcDbScale
 70
     0
300
1/128" = 1'-0"
140
0.0078125
141
12.0
290
     0
  0
SCALE
  5
E2
102
{ACAD_REACTORS
330
DF
102
}
330
DF
100
AcDbScale
 70
     0
300
1/64" = 1'-0"
140
0.015625
141
12.0
290
     0
  0
SCALE
  5
E3
102
{ACAD_REACTORS
330
DF
102
}
330
DF
100
AcDbScale
 70
     0
300
1/32" = 1'-0"
140
0.03125
141
12.0
290
     0
  0
SCALE
  5
E4
102
{ACAD_REACTORS
330
DF
102
}
330
DF
100
AcDbScale
 70
     0
300
1/16" = 1'-0"
140
0.0625
141
12.0
290
     0
  0
SCALE
  5
E5
102
{ACAD_REACTORS
330
DF
102
}
330
DF
100
AcDbScale
 70
     0
300
3/32" = 1'-0"
140
0.09375
141
12.0
290
     0
  0
SCALE
  5
E6
102
{ACAD_REACTORS
330
DF
102
}
330
DF
100
AcDbScale
 70
     0
300
1/8" = 1'-0"
140
0.125
141
12.0
290
     0
  0
SCALE
  5
E7
102
{ACAD_REACTORS
330
DF
102
}
330
DF
100
AcDbScale
 70
     0
300
3/16" = 1'-0"
140
0.1875
141
12.0
290
     0
  0
SCALE
  5
E8
102
{ACAD_REACTORS
330
DF
102
}
330
DF
100
AcDbScale
 70
     0
300
1/4" = 1'-0"
140
0.25
141
12.0
290
     0
  0
SCALE
  5
E9
102
{ACAD_REACTORS
330
DF
102
}
330
DF
100
AcDbScale
 70
     0
300
3/8" = 1'-0"
140
0.375
141
12.0
290
     0
  0
SCALE
  5
EA
102
{ACAD_REACTORS
330
DF
102
}
330
DF
100
AcDbScale
 70
     0
300
1/2" = 1'-0"
140
0.5
141
12.0
290
     0
  0
SCALE
  5
EB
102
{ACAD_REACTORS
330
DF
102
}
330
DF
100
AcDbScale
 70
     0
300
3/4" = 1'-0"
140
0.75
141
12.0
290
     0
  0
SCALE
  5
EC
102
{ACAD_REACTORS
330
DF
102
}
330
DF
100
AcDbScale
 70
     0
300
1" = 1'-0"
140
1.0
141
12.0
290
     0
  0
SCALE
  5
ED
102
{ACAD_REACTORS
330
DF
102
}
330
DF
100
AcDbScale
 70
     0
300
1-1/2" = 1'-0"
140
1.5
141
12.0
290
     0
  0
SCALE
  5
EE
102
{ACAD_REACTORS
330
DF
102
}
330
DF
100
AcDbScale
 70
     0
300
3" = 1'-0"
140
3.0
141
12.0
290
     0
  0
SCALE
  5
EF
102
{ACAD_REACTORS
330
DF
102
}
330
DF
100
AcDbScale
 70
     0
300
6" = 1'-0"
140
6.0
141
12.0
290
     0
  0
SCALE
  5
F0
102
{ACAD_REACTORS
330
DF
102
}
330
DF
100
AcDbScale
 70
     0
300
1'-0" = 1'-0"
140
12.0
141
12.0
290
     0
  0
ACDBSECTIONVIEWSTYLE
  5
F4
102
{ACAD_XDICTIONARY
360
1C5
102
}
102
{ACAD_REACTORS
330
F3
102
}
330
F3
100
AcDbModelDocViewStyle
 70
     0
  3
Imperial24
290
     0
100
AcDbSectionViewStyle
 70
     0
 71
     0
 90
       78
 71
     1
340
11
 62
   256
 40
0.24
340
0
340
0
 62
   256
 40
0.24
300
I, O, Q, S, X, Z
 40
0.48
 90
        3
 40
0.18
 90
        1
 71
     2
340
16
 90
       25
 62
   256
340
16
 90
       50
 62
   256
 40
0.24
 40
0.0
 40
0.24
 71
     3
340
11
 62
   256
 40
0.24
 90
        1
 40
0.75
 90
        1
300
%<\AcVar ViewType \f "%tc1">% %<\AcVar ViewSectionStartId>%-%<\AcVar ViewSectionEndId>%\PSCALE %<\AcVar ViewScale \f "%sn">%
 71
     4
 62
   256
 62
   257
300
ANSI31
 40
1.0
 90
        0
290
     0
290
     0
 90
        6
 40
0.0
 40
1.570796326794896
 40
0.2617993877991494
 40
1.308996938995747
 40
-0.2617993877991494
 40
1.832595714594046
  0
TABLESTYLE
  5
DE
102
{ACAD_XDICTIONARY
360
190
102
}
102
{ACAD_REACTORS
330
DD
102
}
330
DD
100
AcDbTableStyle
280
     0
  3
Standard
 70
     0
 71
     0
 40
0.06
 41
0.06
280
     0
281
     0
  7
Standard
140
0.18
170
     2
 62
     0
 63
     7
283
     0
 90
      512
 91
        0
  1

274
    -2
284
     1
 64
     0
275
    -2
285
     1
 65
     0
276
    -2
286
     1
 66
     0
277
    -2
287
     1
 67
     0
278
    -2
288
     1
 68
     0
279
    -2
289
     1
 69
     0
  7
Standard
140
0.25
170
     5
 62
     0
 63
     7
283
     0
 90
      512
 91
        0
  1

274
    -2
284
     1
 64
     0
275
    -2
285
     1
 65
     0
276
    -2
286
     1
 66
     0
277
    -2
287
     1
 67
     0
278
    -2
288
     1
 68
     0
279
    -2
289
     1
 69
     0
  7
Standard
140
0.18
170
     5
 62
     0
 63
     7
283
     0
 90
      512
 91
        0
  1

274
    -2
284
     1
 64
     0
275
    -2
285
     1
 65
     0
276
    -2
286
     1
 66
     0
277
    -2
287
     1
 67
     0
278
    -2
288
     1
 68
     0
279
    -2
289
     1
 69
     0
  0
VISUALSTYLE
  5
C9
102
{ACAD_XDICTIONARY
360
19D
102
}
102
{ACAD_REACTORS
330
C3
102
}
330
C3
100
AcDbVisualStyle
  2
2dWireframe
 70
     4
177
     2
291
     0
 71
     0
176
     1
 72
     2
176
     1
 73
     0
176
     1
 90
        0
176
     1
 40
0.6
176
     1
 41
30.0
176
     1
 63
     7
421
 16777215
176
     1
 74
     1
176
     1
 91
        4
176
     1
 64
     7
176
     1
 65
   257
176
     1
 75
     1
176
     1
175
     1
176
     1
 42
1.0
176
     1
 92
        0
176
     1
 66
   257
176
     1
 43
1.0
176
     1
 76
     1
176
     1
 77
     6
176
     1
 78
     2
176
     1
 67
     7
176
     1
 79
     5
176
     1
170
     0
176
     1
171
     0
176
     1
290
     0
176
     1
 93
        1
176
     1
 44
0.0
176
     1
173
     0
176
     1
1001
ACAD
1000
AcDbSavedByObjectVersion
1070
     0
  0
VISUALSTYLE
  5
C8
102
{ACAD_XDICTIONARY
360
19B
102
}
102
{ACAD_REACTORS
330
C3
102
}
330
C3
100
AcDbVisualStyle
  2
Basic
 70
     7
177
     2
291
     1
 71
     1
176
     1
 72
     0
176
     1
 73
     1
176
     1
 90
        0
176
     1
 40
0.6
176
     1
 41
30.0
176
     1
 63
     7
421
 16777215
176
     1
 74
     0
176
     1
 91
        4
176
     1
 64
     7
176
     1
 65
   257
176
     1
 75
     1
176
     1
175
     1
176
     1
 42
1.0
176
     1
 92
        8
176
     1
 66
     7
176
     1
 43
1.0
176
     1
 76
     1
176
     1
 77
     6
176
     1
 78
     2
176
     1
 67
     7
176
     1
 79
     5
176
     1
170
     0
176
     1
171
     0
176
     1
290
     0
176
     1
 93
        1
176
     1
 44
0.0
176
     1
173
     0
176
     1
1001
ACAD
1000
AcDbSavedByObjectVersion
1070
     0
  0
VISUALSTYLE
  5
CF
102
{ACAD_XDICTIONARY
360
1A9
102
}
102
{ACAD_REACTORS
330
C3
102
}
330
C3
100
AcDbVisualStyle
  2
Brighten
 70
    12
177
     2
291
     1
 71
     2
176
     1
 72
     2
176
     1
 73
     0
176
     1
 90
        0
176
     1
 40
0.6
176
     1
 41
30.0
176
     1
 63
     7
421
 16777215
176
     1
 74
     1
176
     1
 91
        4
176
     1
 64
     7
176
     1
 65
   257
176
     1
 75
     1
176
     1
175
     1
176
     1
 42
1.0
176
     1
 92
        8
176
     1
 66
     7
176
     1
 43
1.0
176
     1
 76
     1
176
     1
 77
     6
176
     1
 78
     2
176
     1
 67
     7
176
     1
 79
     5
176
     1
170
     0
176
     1
171
     0
176
     1
290
     0
176
     1
 93
        1
176
     1
 44
50.0
176
     1
173
     0
176
     1
1001
ACAD
1000
AcDbSavedByObjectVersion
1070
     0
  0
VISUALSTYLE
  5
D3
102
{ACAD_XDICTIONARY
360
1B1
102
}
102
{ACAD_REACTORS
330
C3
102
}
330
C3
100
AcDbVisualStyle
  2
ColorChange
 70
    16
177
     2
291
     1
 71
     2
176
     1
 72
     2
176
     1
 73
     3
176
     1
 90
        0
176
     1
 40
0.6
176
     1
 41
30.0
176
     1
 63
     8
421
  8421504
176
     1
 74
     1
176
     1
 91
        4
176
     1
 64
     7
176
     1
 65
   257
176
     1
 75
     1
176
     1
175
     1
176
     1
 42
1.0
176
     1
 92
        8
176
     1
 66
     8
424
  8421504
176
     1
 43
1.0
176
     1
 76
     1
176
     1
 77
     6
176
     1
 78
     2
176
     1
 67
     7
176
     1
 79
     5
176
     1
170
     0
176
     1
171
     0
176
     1
290
     0
176
     1
 93
        1
176
     1
 44
0.0
176
     1
173
     0
176
     1
1001
ACAD
1000
AcDbSavedByObjectVersion
1070
     0
  0
VISUALSTYLE
  5
CC
102
{ACAD_XDICTIONARY
360
1A3
102
}
102
{ACAD_REACTORS
330
C3
102
}
330
C3
100
AcDbVisualStyle
  2
Conceptual
 70
     9
177
     2
291
     0
 71
     3
176
     1
 72
     2
176
     1
 73
     0
176
     1
 90
        0
176
     1
 40
0.6
176
     1
 41
30.0
176
     1
 63
     7
421
 16777215
176
     1
 74
     2
176
     1
 91
        2
176
     1
 64
     7
176
     1
 65
   257
176
     1
 75
     1
176
     1
175
     1
176
     1
 42
179.0
176
     1
 92
        8
176
     1
 66
     7
176
     1
 43
1.0
176
     1
 76
     1
176
     1
 77
     6
176
     1
 78
     2
176
     1
 67
     7
176
     1
 79
     3
176
     1
170
     0
176
     1
171
     0
176
     1
290
     0
176
     1
 93
        1
176
     1
 44
0.0
176
     1
173
     0
176
     1
1001
ACAD
1000
AcDbSavedByObjectVersion
1070
     0
  0
VISUALSTYLE
  5
CE
102
{ACAD_XDICTIONARY
360
1A7
102
}
102
{ACAD_REACTORS
330
C3
102
}
330
C3
100
AcDbVisualStyle
  2
Dim
 70
    11
177
     2
291
     1
 71
     2
176
     1
 72
     2
176
     1
 73
     0
176
     1
 90
        0
176
     1
 40
0.6
176
     1
 41
30.0
176
     1
 63
     7
421
 16777215
176
     1
 74
     1
176
     1
 91
        4
176
     1
 64
     7
176
     1
 65
   257
176
     1
 75
     1
176
     1
175
     1
176
     1
 42
1.0
176
     1
 92
        8
176
     1
 66
     7
176
     1
 43
1.0
176
     1
 76
     1
176
     1
 77
     6
176
     1
 78
     2
176
     1
 67
     7
176
     1
 79
     5
176
     1
170
     0
176
     1
171
     0
176
     1
290
     0
176
     1
 93
        1
176
     1
 44
-50.0
176
     1
173
     0
176
     1
1001
ACAD
1000
AcDbSavedByObjectVersion
1070
     0
  0
VISUALSTYLE
  5
DB
102
{ACAD_XDICTIONARY
360
1C1
102
}
102
{ACAD_REACTORS
330
C3
102
}
330
C3
100
AcDbVisualStyle
  2
EdgeColorOff
 70
    22
177
     2
291
     1
 71
     2
176
     0
 72
     2
176
     0
 73
     0
176
     0
 90
        0
176
     0
 40
0.6
176
     0
 41
30.0
176
     0
 63
     7
421
 16777215
176
     0
 74
     1
176
     0
 91
        4
176
     0
 64
     7
176
     0
 65
   257
176
     0
 75
     1
176
     0
175
     1
176
     0
 42
1.0
176
     0
 92
        8
176
     2
 66
     7
176
     0
 43
1.0
176
     0
 76
     1
176
     0
 77
     6
176
     0
 78
     2
176
     0
 67
     7
176
     0
 79
     5
176
     0
170
     0
176
     0
171
     0
176
     0
290
     0
176
     0
 93
        1
176
     0
 44
0.0
176
     0
173
     0
176
     0
1001
ACAD
1000
AcDbSavedByObjectVersion
1070
     0
  0
VISUALSTYLE
  5
D2
102
{ACAD_XDICTIONARY
360
1AF
102
}
102
{ACAD_REACTORS
330
C3
102
}
330
C3
100
AcDbVisualStyle
  2
Facepattern
 70
    15
177
     2
291
     1
 71
     2
176
     1
 72
     2
176
     1
 73
     0
176
     1
 90
        0
176
     1
 40
0.6
176
     1
 41
30.0
176
     1
 63
     7
421
 16777215
176
     1
 74
     1
176
     1
 91
        4
176
     1
 64
     7
176
     1
 65
   257
176
     1
 75
     1
176
     1
175
     1
176
     1
 42
1.0
176
     1
 92
        8
176
     1
 66
     7
176
     1
 43
1.0
176
     1
 76
     1
176
     1
 77
     6
176
     1
 78
     2
176
     1
 67
     7
176
     1
 79
     5
176
     1
170
     0
176
     1
171
     0
176
     1
290
     0
176
     1
 93
        1
176
     1
 44
0.0
176
     1
173
     0
176
     1
1001
ACAD
1000
AcDbSavedByObjectVersion
1070
     0
  0
VISUALSTYLE
  5
C4
102
{ACAD_XDICTIONARY
360
193
102
}
102
{ACAD_REACTORS
330
C3
102
}
330
C3
100
AcDbVisualStyle
  2
Flat
 70
     0
177
     2
291
     1
 71
     2
176
     1
 72
     1
176
     1
 73
     1
176
     1
 90
        2
176
     1
 40
0.6
176
     1
 41
30.0
176
     1
 63
     7
421
 16777215
176
     1
 74
     0
176
     1
 91
        0
176
     1
 64
     7
176
     1
 65
   257
176
     1
 75
     1
176
     1
175
     1
176
     1
 42
1.0
176
     1
 92
        8
176
     1
 66
     7
176
     1
 43
1.0
176
     1
 76
     1
176
     1
 77
     6
176
     1
 78
     2
176
     1
 67
     7
176
     1
 79
     5
176
     1
170
     0
176
     1
171
     0
176
     1
290
     0
176
     1
 93
       13
176
     1
 44
0.0
176
     1
173
     0
176
     1
1001
ACAD
1000
AcDbSavedByObjectVersion
1070
     0
  0
VISUALSTYLE
  5
C5
102
{ACAD_XDICTIONARY
360
195
102
}
102
{ACAD_REACTORS
330
C3
102
}
330
C3
100
AcDbVisualStyle
  2
FlatWithEdges
 70
     1
177
     2
291
     1
 71
     2
176
     1
 72
     1
176
     1
 73
     1
176
     1
 90
        2
176
     1
 40
0.6
176
     1
 41
30.0
176
     1
 63
     7
421
 16777215
176
     1
 74
     1
176
     1
 91
        0
176
     1
 64
     7
176
     1
 65
   257
176
     1
 75
     1
176
     1
175
     1
176
     1
 42
1.0
176
     1
 92
        0
176
     1
 66
   257
176
     1
 43
1.0
176
     1
 76
     1
176
     1
 77
     6
176
     1
 78
     2
176
     1
 67
     7
176
     1
 79
     5
176
     1
170
     0
176
     1
171
     0
176
     1
290
     0
176
     1
 93
       13
176
     1
 44
0.0
176
     1
173
     0
176
     1
1001
ACAD
1000
AcDbSavedByObjectVersion
1070
     0
  0
VISUALSTYLE
  5
C6
102
{ACAD_XDICTIONARY
360
197
102
}
102
{ACAD_REACTORS
330
C3
102
}
330
C3
100
AcDbVisualStyle
  2
Gouraud
 70
     2
177
     2
291
     1
 71
     2
176
     1
 72
     2
176
     1
 73
     1
176
     1
 90
        2
176
     1
 40
0.6
176
     1
 41
30.0
176
     1
 63
     7
421
 16777215
176
     1
 74
     0
176
     1
 91
        0
176
     1
 64
     7
176
     1
 65
   257
176
     1
 75
     1
176
     1
175
     1
176
     1
 42
1.0
176
     1
 92
        0
176
     1
 66
     7
176
     1
 43
1.0
176
     1
 76
     1
176
     1
 77
     6
176
     1
 78
     2
176
     1
 67
     7
176
     1
 79
     5
176
     1
170
     0
176
     1
171
     0
176
     1
290
     0
176
     1
 93
       13
176
     1
 44
0.0
176
     1
173
     0
176
     1
1001
ACAD
1000
AcDbSavedByObjectVersion
1070
     0
  0
VISUALSTYLE
  5
C7
102
{ACAD_XDICTIONARY
360
199
102
}
102
{ACAD_REACTORS
330
C3
102
}
330
C3
100
AcDbVisualStyle
  2
GouraudWithEdges
 70
     3
177
     2
291
     1
 71
     2
176
     1
 72
     2
176
     1
 73
     1
176
     1
 90
        2
176
     1
 40
0.6
176
     1
 41
30.0
176
     1
 63
     7
421
 16777215
176
     1
 74
     1
176
     1
 91
        0
176
     1
 64
     7
176
     1
 65
   257
176
     1
 75
     1
176
     1
175
     1
176
     1
 42
1.0
176
     1
 92
        0
176
     1
 66
   257
176
     1
 43
1.0
176
     1
 76
     1
176
     1
 77
     6
176
     1
 78
     2
176
     1
 67
     7
176
     1
 79
     5
176
     1
170
     0
176
     1
171
     0
176
     1
290
     0
176
     1
 93
       13
176
     1
 44
0.0
176
     1
173
     0
176
     1
1001
ACAD
1000
AcDbSavedByObjectVersion
1070
     0
  0
VISUALSTYLE
  5
CB
102
{ACAD_XDICTIONARY
360
1A1
102
}
102
{ACAD_REACTORS
330
C3
102
}
330
C3
100
AcDbVisualStyle
  2
Hidden
 70
     6
177
     2
291
     0
 71
     1
176
     1
 72
     2
176
     1
 73
     2
176
     1
 90
        0
176
     1
 40
0.6
176
     1
 41
30.0
176
     1
 63
     7
421
 16777215
176
     1
 74
     2
176
     1
 91
        2
176
     1
 64
     7
176
     1
 65
   257
176
     1
 75
     2
176
     1
175
     1
176
     1
 42
40.0
176
     1
 92
        0
176
     1
 66
   257
176
     1
 43
1.0
176
     1
 76
     1
176
     1
 77
     6
176
     1
 78
     2
176
     1
 67
     7
176
     1
 79
     3
176
     1
170
     0
176
     1
171
     0
176
     1
290
     0
176
     1
 93
        1
176
     1
 44
0.0
176
     1
173
     0
176
     1
1001
ACAD
1000
AcDbSavedByObjectVersion
1070
     0
  0
VISUALSTYLE
  5
D9
102
{ACAD_XDICTIONARY
360
1BD
102
}
102
{ACAD_REACTORS
330
C3
102
}
330
C3
100
AcDbVisualStyle
  2
JitterOff
 70
    20
177
     2
291
     1
 71
     2
176
     0
 72
     2
176
     0
 73
     0
176
     0
 90
        0
176
     0
 40
0.6
176
     0
 41
30.0
176
     0
 63
     7
421
 16777215
176
     0
 74
     1
176
     0
 91
        4
176
     0
 64
     7
176
     0
 65
   257
176
     0
 75
     1
176
     0
175
     1
176
     0
 42
1.0
176
     0
 92
       10
176
     2
 66
     7
176
     0
 43
1.0
176
     0
 76
     1
176
     0
 77
     6
176
     0
 78
     2
176
     0
 67
     7
176
     0
 79
     5
176
     0
170
     0
176
     0
171
     0
176
     0
290
     0
176
     0
 93
        1
176
     0
 44
0.0
176
     0
173
     0
176
     0
1001
ACAD
1000
AcDbSavedByObjectVersion
1070
     0
  0
VISUALSTYLE
  5
D1
102
{ACAD_XDICTIONARY
360
1AD
102
}
102
{ACAD_REACTORS
330
C3
102
}
330
C3
100
AcDbVisualStyle
  2
Linepattern
 70
    14
177
     2
291
     1
 71
     2
176
     1
 72
     2
176
     1
 73
     0
176
     1
 90
        0
176
     1
 40
0.6
176
     1
 41
30.0
176
     1
 63
     7
421
 16777215
176
     1
 74
     1
176
     1
 91
        4
176
     1
 64
     7
176
     1
 65
   257
176
     1
 75
     7
176
     1
175
     7
176
     1
 42
1.0
176
     1
 92
        8
176
     1
 66
     7
176
     1
 43
1.0
176
     1
 76
     1
176
     1
 77
     6
176
     1
 78
     2
176
     1
 67
     7
176
     1
 79
     5
176
     1
170
     0
176
     1
171
     0
176
     1
290
     0
176
     1
 93
        1
176
     1
 44
0.0
176
     1
173
     0
176
     1
1001
ACAD
1000
AcDbSavedByObjectVersion
1070
     0
  0
VISUALSTYLE
  5
DA
102
{ACAD_XDICTIONARY
360
1BF
102
}
102
{ACAD_REACTORS
330
C3
102
}
330
C3
100
AcDbVisualStyle
  2
OverhangOff
 70
    21
177
     2
291
     1
 71
     2
176
     0
 72
     2
176
     0
 73
     0
176
     0
 90
        0
176
     0
 40
0.6
176
     0
 41
30.0
176
     0
 63
     7
421
 16777215
176
     0
 74
     1
176
     0
 91
        4
176
     0
 64
     7
176
     0
 65
   257
176
     0
 75
     1
176
     0
175
     1
176
     0
 42
1.0
176
     0
 92
        9
176
     2
 66
     7
176
     0
 43
1.0
176
     0
 76
     1
176
     0
 77
     6
176
     0
 78
     2
176
     0
 67
     7
176
     0
 79
     5
176
     0
170
     0
176
     0
171
     0
176
     0
290
     0
176
     0
 93
        1
176
     0
 44
0.0
176
     0
173
     0
176
     0
1001
ACAD
1000
AcDbSavedByObjectVersion
1070
     0
  0
VISUALSTYLE
  5
CD
102
{ACAD_XDICTIONARY
360
1A5
102
}
102
{ACAD_REACTORS
330
C3
102
}
330
C3
100
AcDbVisualStyle
  2
Realistic
 70
     8
177
     2
291
     0
 71
     2
176
     1
 72
     3
176
     1
 73
     0
176
     1
 90
        2
176
     1
 40
0.6
176
     1
 41
30.0
176
     1
 63
     7
421
 16777215
176
     1
 74
     0
176
     1
 91
        0
176
     1
 64
     7
176
     1
 65
   257
176
     1
 75
     1
176
     1
175
     1
176
     1
 42
1.0
176
     1
 92
        8
176
     1
 66
   257
176
     1
 43
1.0
176
     1
 76
     1
176
     1
 77
     6
176
     1
 78
     2
176
     1
 67
     7
176
     1
 79
     3
176
     1
170
     0
176
     1
171
     0
176
     1
290
     0
176
     1
 93
       13
176
     1
 44
0.0
176
     1
173
     0
176
     1
1001
ACAD
1000
AcDbSavedByObjectVersion
1070
     0
  0
VISUALSTYLE
  5
D8
102
{ACAD_XDICTIONARY
360
1BB
102
}
102
{ACAD_REACTORS
330
C3
102
}
330
C3
100
AcDbVisualStyle
  2
Shaded
 70
    27
177
     2
291
     0
 71
     2
176
     1
 72
     2
176
     1
 73
     1
176
     1
 90
        2
176
     1
 40
0.6
176
     1
 41
30.0
176
     1
 63
     7
421
 16777215
176
     1
 74
     0
176
     1
 91
        4
176
     1
 64
     7
176
     1
 65
   257
176
     1
 75
     1
176
     1
175
     1
176
     1
 42
1.0
176
     1
 92
        8
176
     1
 66
   257
176
     1
 43
1.0
176
     1
 76
     1
176
     1
 77
     6
176
     1
 78
     2
176
     1
 67
     8
425
  7895160
176
     1
 79
     3
176
     1
170
     0
176
     1
171
     0
176
     1
290
     0
176
     1
 93
        5
176
     1
 44
0.0
176
     1
173
     0
176
     1
1001
ACAD
1000
AcDbSavedByObjectVersion
1070
     0
  0
VISUALSTYLE
  5
D7
102
{ACAD_XDICTIONARY
360
1B9
102
}
102
{ACAD_REACTORS
330
C3
102
}
330
C3
100
AcDbVisualStyle
  2
Shaded with edges
 70
    26
177
     2
291
     0
 71
     2
176
     1
 72
     2
176
     1
 73
     1
176
     1
 90
        2
176
     1
 40
0.6
176
     1
 41
30.0
176
     1
 63
     7
421
 16777215
176
     1
 74
     1
176
     1
 91
       10
176
     1
 64
     7
176
     1
 65
   257
176
     1
 75
     2
176
     1
175
     1
176
     1
 42
1.0
176
     1
 92
        8
176
     1
 66
   257
176
     1
 43
1.0
176
     1
 76
     1
176
     1
 77
     6
176
     1
 78
     2
176
     1
 67
     7
176
     1
 79
     3
176
     1
170
     0
176
     1
171
     0
176
     1
290
     0
176
     1
 93
        5
176
     1
 44
0.0
176
     1
173
     0
176
     1
1001
ACAD
1000
AcDbSavedByObjectVersion
1070
     0
  0
VISUALSTYLE
  5
D4
102
{ACAD_XDICTIONARY
360
1B3
102
}
102
{ACAD_REACTORS
330
C3
102
}
330
C3
100
AcDbVisualStyle
  2
Shades of Gray
 70
    23
177
     2
291
     0
 71
     2
176
     1
 72
     2
176
     1
 73
     3
176
     1
 90
        0
176
     1
 40
0.6
176
     1
 41
30.0
176
     1
 63
     7
421
 16777215
176
     1
 74
     2
176
     1
 91
        2
176
     1
 64
     7
176
     1
 65
     7
176
     1
 75
     1
176
     1
175
     1
176
     1
 42
40.0
176
     1
 92
        8
176
     1
 66
     7
176
     1
 43
1.0
176
     1
 76
     1
176
     1
 77
     6
176
     1
 78
     2
176
     1
 67
     7
176
     1
 79
     3
176
     1
170
     0
176
     1
171
     0
176
     1
290
     0
176
     1
 93
        1
176
     1
 44
0.0
176
     1
173
     0
176
     1
1001
ACAD
1000
AcDbSavedByObjectVersion
1070
     0
  0
VISUALSTYLE
  5
D5
102
{ACAD_XDICTIONARY
360
1B5
102
}
102
{ACAD_REACTORS
330
C3
102
}
330
C3
100
AcDbVisualStyle
  2
Sketchy
 70
    24
177
     2
291
     0
 71
     1
176
     1
 72
     2
176
     1
 73
     2
176
     1
 90
        0
176
     1
 40
0.6
176
     1
 41
30.0
176
     1
 63
     7
421
 16777215
176
     1
 74
     2
176
     1
 91
        2
176
     1
 64
     7
176
     1
 65
     7
176
     1
 75
     1
176
     1
175
     1
176
     1
 42
40.0
176
     1
 92
       11
176
     1
 66
     7
176
     1
 43
1.0
176
     1
 76
     1
176
     1
 77
     6
176
     1
 78
     2
176
     1
 67
     7
176
     1
 79
     6
176
     1
170
     0
176
     1
171
     0
176
     1
290
     0
176
     1
 93
        1
176
     1
 44
0.0
176
     1
173
     0
176
     1
1001
ACAD
1000
AcDbSavedByObjectVersion
1070
     0
  0
VISUALSTYLE
  5
D0
102
{ACAD_XDICTIONARY
360
1AB
102
}
102
{ACAD_REACTORS
330
C3
102
}
330
C3
100
AcDbVisualStyle
  2
Thicken
 70
    13
177
     2
291
     1
 71
     2
176
     1
 72
     2
176
     1
 73
     0
176
     1
 90
        0
176
     1
 40
0.6
176
     1
 41
30.0
176
     1
 63
     7
421
 16777215
176
     1
 74
     1
176
     1
 91
        4
176
     1
 64
     7
176
     1
 65
   257
176
     1
 75
     1
176
     1
175
     1
176
     1
 42
1.0
176
     1
 92
       12
176
     1
 66
     7
176
     1
 43
1.0
176
     1
 76
     1
176
     1
 77
     6
176
     1
 78
     2
176
     1
 67
     7
176
     1
 79
     5
176
     1
170
     0
176
     1
171
     0
176
     1
290
     0
176
     1
 93
        1
176
     1
 44
0.0
176
     1
173
     0
176
     1
1001
ACAD
1000
AcDbSavedByObjectVersion
1070
     0
  0
VISUALSTYLE
  5
CA
102
{ACAD_XDICTIONARY
360
19F
102
}
102
{ACAD_REACTORS
330
C3
102
}
330
C3
100
AcDbVisualStyle
  2
Wireframe
 70
     5
177
     2
291
     0
 71
     0
176
     1
 72
     2
176
     1
 73
     0
176
     1
 90
        0
176
     1
 40
0.6
176
     1
 41
30.0
176
     1
 63
     7
421
 16777215
176
     1
 74
     1
176
     1
 91
        4
176
     1
 64
     7
176
     1
 65
   257
176
     1
 75
     1
176
     1
175
     1
176
     1
 42
1.0
176
     1
 92
        0
176
     1
 66
   257
176
     1
 43
1.0
176
     1
 76
     1
176
     1
 77
     6
176
     1
 78
     2
176
     1
 67
     7
176
     1
 79
     3
176
     1
170
     0
176
     1
171
     0
176
     1
290
     0
176
     1
 93
        1
176
     1
 44
0.0
176
     1
173
     0
176
     1
1001
ACAD
1000
AcDbSavedByObjectVersion
1070
     0
  0
VISUALSTYLE
  5
D6
102
{ACAD_XDICTIONARY
360
1B7
102
}
102
{ACAD_REACTORS
330
C3
102
}
330
C3
100
AcDbVisualStyle
  2
X-Ray
 70
    25
177
     2
291
     0
 71
     2
176
     1
 72
     2
176
     1
 73
     1
176
     1
 90
        1
176
     1
 40
0.5
176
     1
 41
30.0
176
     1
 63
     7
421
 16777215
176
     1
 74
     1
176
     1
 91
        0
176
     1
 64
     7
176
     1
 65
   257
176
     1
 75
     1
176
     1
175
     1
176
     1
 42
1.0
176
     1
 92
        8
176
     1
 66
     7
176
     1
 43
1.0
176
     1
 76
     1
176
     1
 77
     6
176
     1
 78
     2
176
     1
 67
     7
176
     1
 79
     3
176
     1
170
     0
176
     1
171
     0
176
     1
290
     0
176
     1
 93
       13
176
     1
 44
0.0
176
     1
173
     0
176
     1
1001
ACAD
1000
AcDbSavedByObjectVersion
1070
     0
  0
DICTIONARYVAR
  5
18C
102
{ACAD_REACTORS
330
186
102
}
330
186
100
DictionaryVariables
280
     0
  1
1:1
  0
DICTIONARYVAR
  5
188
102
{ACAD_REACTORS
330
186
102
}
330
186
100
DictionaryVariables
280
     0
  1
STANDARD
  0
DICTIONARYVAR
  5
187
102
{ACAD_REACTORS
330
186
102
}
330
186
100
DictionaryVariables
280
     0
  1
STANDARD
  0
DICTIONARYVAR
  5
189
102
{ACAD_REACTORS
330
186
102
}
330
186
100
DictionaryVariables
280
     0
  1
Imperial24
  0
DICTIONARYVAR
  5
18A
102
{ACAD_REACTORS
330
186
102
}
330
186
100
DictionaryVariables
280
     0
  1
Imperial24
  0
DICTIONARYVAR
  5
18E
102
{ACAD_REACTORS
330
186
102
}
330
186
100
DictionaryVariables
280
     0
  1
1
  0
DICTIONARYVAR
  5
18F
102
{ACAD_REACTORS
330
186
102
}
330
186
100
DictionaryVariables
280
     0
  1
15
  0
DICTIONARYVAR
  5
18D
102
{ACAD_REACTORS
330
186
102
}
330
186
100
DictionaryVariables
280
     0
  1
0
  0
DICTIONARYVAR
  5
18B
102
{ACAD_REACTORS
330
186
102
}
330
186
100
DictionaryVariables
280
     0
  1
0
  0
DICTIONARY
  5
1C7
330
F6
100
AcDbDictionary
280
     1
281
     1
  3
ACAD_XREC_ROUNDTRIP
360
1C8
  0
DICTIONARY
  5
B4
330
B3
100
AcDbDictionary
280
     1
281
     1
  3
BUMPTILE
360
B6
  3
DIFFUSETILE
360
B5
  3
OPACITYTILE
360
B9
  3
REFLECTIONTILE
360
B8
  3
REFRACTIONTILE
360
BA
  3
SPECULARTILE
360
B7
  0
DICTIONARY
  5
AC
330
AB
100
AcDbDictionary
280
     1
281
     1
  3
BUMPTILE
360
AE
  3
DIFFUSETILE
360
AD
  3
OPACITYTILE
360
B1
  3
REFLECTIONTILE
360
B0
  3
REFRACTIONTILE
360
B2
  3
SPECULARTILE
360
AF
  0
DICTIONARY
  5
BC
330
BB
100
AcDbDictionary
280
     1
281
     1
  3
BUMPTILE
360
BE
  3
DIFFUSETILE
360
BD
  3
OPACITYTILE
360
C1
  3
REFLECTIONTILE
360
C0
  3
REFRACTIONTILE
360
C2
  3
SPECULARTILE
360
BF
  0
DICTIONARY
  5
1C3
330
F2
100
AcDbDictionary
280
     1
281
     1
  3
ACAD_XREC_ROUNDTRIP
360
1C4
  0
DICTIONARY
  5
1C5
330
F4
100
AcDbDictionary
280
     1
281
     1
  3
ACAD_XREC_ROUNDTRIP
360
1C6
  0
DICTIONARY
  5
190
330
DE
100
AcDbDictionary
280
     1
281
     1
  3
ACAD_ROUNDTRIP_2008_TABLESTYLE_CELLSTYLEMAP
360
191
  0
DICTIONARY
  5
19D
330
C9
100
AcDbDictionary
280
     1
281
     1
  3
ACAD_XREC_ROUNDTRIP
360
19E
  0
DICTIONARY
  5
19B
330
C8
100
AcDbDictionary
280
     1
281
     1
  3
ACAD_XREC_ROUNDTRIP
360
19C
  0
DICTIONARY
  5
1A9
330
CF
100
AcDbDictionary
280
     1
281
     1
  3
ACAD_XREC_ROUNDTRIP
360
1AA
  0
DICTIONARY
  5
1B1
330
D3
100
AcDbDictionary
280
     1
281
     1
  3
ACAD_XREC_ROUNDTRIP
360
1B2
  0
DICTIONARY
  5
1A3
330
CC
100
AcDbDictionary
280
     1
281
     1
  3
ACAD_XREC_ROUNDTRIP
360
1A4
  0
DICTIONARY
  5
1A7
330
CE
100
AcDbDictionary
280
     1
281
     1
  3
ACAD_XREC_ROUNDTRIP
360
1A8
  0
DICTIONARY
  5
1C1
330
DB
100
AcDbDictionary
280
     1
281
     1
  3
ACAD_XREC_ROUNDTRIP
360
1C2
  0
DICTIONARY
  5
1AF
330
D2
100
AcDbDictionary
280
     1
281
     1
  3
ACAD_XREC_ROUNDTRIP
360
1B0
  0
DICTIONARY
  5
193
330
C4
100
AcDbDictionary
280
     1
281
     1
  3
ACAD_XREC_ROUNDTRIP
360
194
  0
DICTIONARY
  5
195
330
C5
100
AcDbDictionary
280
     1
281
     1
  3
ACAD_XREC_ROUNDTRIP
360
196
  0
DICTIONARY
  5
197
330
C6
100
AcDbDictionary
280
     1
281
     1
  3
ACAD_XREC_ROUNDTRIP
360
198
  0
DICTIONARY
  5
199
330
C7
100
AcDbDictionary
280
     1
281
     1
  3
ACAD_XREC_ROUNDTRIP
360
19A
  0
DICTIONARY
  5
1A1
330
CB
100
AcDbDictionary
280
     1
281
     1
  3
ACAD_XREC_ROUNDTRIP
360
1A2
  0
DICTIONARY
  5
1BD
330
D9
100
AcDbDictionary
280
     1
281
     1
  3
ACAD_XREC_ROUNDTRIP
360
1BE
  0
DICTIONARY
  5
1AD
330
D1
100
AcDbDictionary
280
     1
281
     1
  3
ACAD_XREC_ROUNDTRIP
360
1AE
  0
DICTIONARY
  5
1BF
330
DA
100
AcDbDictionary
280
     1
281
     1
  3
ACAD_XREC_ROUNDTRIP
360
1C0
  0
DICTIONARY
  5
1A5
330
CD
100
AcDbDictionary
280
     1
281
     1
  3
ACAD_XREC_ROUNDTRIP
360
1A6
  0
DICTIONARY
  5
1BB
330
D8
100
AcDbDictionary
280
     1
281
     1
  3
ACAD_XREC_ROUNDTRIP
360
1BC
  0
DICTIONARY
  5
1B9
330
D7
100
AcDbDictionary
280
     1
281
     1
  3
ACAD_XREC_ROUNDTRIP
360
1BA
  0
DICTIONARY
  5
1B3
330
D4
100
AcDbDictionary
280
     1
281
     1
  3
ACAD_XREC_ROUNDTRIP
360
1B4
  0
DICTIONARY
  5
1B5
330
D5
100
AcDbDictionary
280
     1
281
     1
  3
ACAD_XREC_ROUNDTRIP
360
1B6
  0
DICTIONARY
  5
1AB
330
D0
100
AcDbDictionary
280
     1
281
     1
  3
ACAD_XREC_ROUNDTRIP
360
1AC
  0
DICTIONARY
  5
19F
330
CA
100
AcDbDictionary
280
     1
281
     1
  3
ACAD_XREC_ROUNDTRIP
360
1A0
  0
DICTIONARY
  5
1B7
330
D6
100
AcDbDictionary
280
     1
281
     1
  3
ACAD_XREC_ROUNDTRIP
360
1B8
  0
XRECORD
  5
1C8
102
{ACAD_REACTORS
330
1C7
102
}
330
1C7
100
AcDbXrecord
280
     1
102
DISPLAYNAME
  1
Imperial24
102
FLAGS
 90
        0
  0
XRECORD
  5
B6
102
{ACAD_REACTORS
330
B4
102
}
330
B4
100
AcDbXrecord
280
     1
270
     1
271
     1
  0
XRECORD
  5
B5
102
{ACAD_REACTORS
330
B4
102
}
330
B4
100
AcDbXrecord
280
     1
270
     1
271
     1
  0
XRECORD
  5
B9
102
{ACAD_REACTORS
330
B4
102
}
330
B4
100
AcDbXrecord
280
     1
270
     1
271
     1
  0
XRECORD
  5
B8
102
{ACAD_REACTORS
330
B4
102
}
330
B4
100
AcDbXrecord
280
     1
270
     1
271
     1
  0
XRECORD
  5
BA
102
{ACAD_REACTORS
330
B4
102
}
330
B4
100
AcDbXrecord
280
     1
270
     1
271
     1
  0
XRECORD
  5
B7
102
{ACAD_REACTORS
330
B4
102
}
330
B4
100
AcDbXrecord
280
     1
270
     1
271
     1
  0
XRECORD
  5
AE
102
{ACAD_REACTORS
330
AC
102
}
330
AC
100
AcDbXrecord
280
     1
270
     1
271
     1
  0
XRECORD
  5
AD
102
{ACAD_REACTORS
330
AC
102
}
330
AC
100
AcDbXrecord
280
     1
270
     1
271
     1
  0
XRECORD
  5
B1
102
{ACAD_REACTORS
330
AC
102
}
330
AC
100
AcDbXrecord
280
     1
270
     1
271
     1
  0
XRECORD
  5
B0
102
{ACAD_REACTORS
330
AC
102
}
330
AC
100
AcDbXrecord
280
     1
270
     1
271
     1
  0
XRECORD
  5
B2
102
{ACAD_REACTORS
330
AC
102
}
330
AC
100
AcDbXrecord
280
     1
270
     1
271
     1
  0
XRECORD
  5
AF
102
{ACAD_REACTORS
330
AC
102
}
330
AC
100
AcDbXrecord
280
     1
270
     1
271
     1
  0
XRECORD
  5
BE
102
{ACAD_REACTORS
330
BC
102
}
330
BC
100
AcDbXrecord
280
     1
270
     1
271
     1
  0
XRECORD
  5
BD
102
{ACAD_REACTORS
330
BC
102
}
330
BC
100
AcDbXrecord
280
     1
270
     1
271
     1
  0
XRECORD
  5
C1
102
{ACAD_REACTORS
330
BC
102
}
330
BC
100
AcDbXrecord
280
     1
270
     1
271
     1
  0
XRECORD
  5
C0
102
{ACAD_REACTORS
330
BC
102
}
330
BC
100
AcDbXrecord
280
     1
270
     1
271
     1
  0
XRECORD
  5
C2
102
{ACAD_REACTORS
330
BC
102
}
330
BC
100
AcDbXrecord
280
     1
270
     1
271
     1
  0
XRECORD
  5
BF
102
{ACAD_REACTORS
330
BC
102
}
330
BC
100
AcDbXrecord
280
     1
270
     1
271
     1
  0
XRECORD
  5
1C4
102
{ACAD_REACTORS
330
1C3
102
}
330
1C3
100
AcDbXrecord
280
     1
102
ACAD_ROUNDTRIP_2012_MLEADER_STYLE
298
     1
  0
XRECORD
  5
1C6
102
{ACAD_REACTORS
330
1C5
102
}
330
1C5
100
AcDbXrecord
280
     1
102
DISPLAYNAME
  1
Imperial24
102
FLAGS
 90
        0
  0
CELLSTYLEMAP
  5
191
102
{ACAD_REACTORS
330
190
102
}
330
190
100
AcDbCellStyleMap
 90
        3
300
CELLSTYLE
  1
TABLEFORMAT_BEGIN
 90
        5
170
     1
 91
        0
 92
    32768
 62
   257
 93
        1
300
CONTENTFORMAT
  1
CONTENTFORMAT_BEGIN
 90
        0
 91
        0
 92
      512
 93
        0
300

 40
0.0
140
1.0
 94
        5
 62
     0
340
11
144
0.25
309
CONTENTFORMAT_END
171
     0
 94
        0
309
TABLEFORMAT_END
  1
CELLSTYLE_BEGIN
 90
        1
 91
        1
300
_TITLE
309
CELLSTYLE_END
300
CELLSTYLE
  1
TABLEFORMAT_BEGIN
 90
        5
170
     1
 91
        0
 92
        0
 62
   257
 93
        1
300
CONTENTFORMAT
  1
CONTENTFORMAT_BEGIN
 90
        0
 91
        0
 92
      512
 93
        0
300

 40
0.0
140
1.0
 94
        5
 62
     0
340
11
144
0.18
309
CONTENTFORMAT_END
171
     0
 94
        0
309
TABLEFORMAT_END
  1
CELLSTYLE_BEGIN
 90
        2
 91
        1
300
_HEADER
309
CELLSTYLE_END
300
CELLSTYLE
  1
TABLEFORMAT_BEGIN
 90
        5
170
     1
 91
        0
 92
        0
 62
   257
 93
        1
300
CONTENTFORMAT
  1
CONTENTFORMAT_BEGIN
 90
        0
 91
        0
 92
      512
 93
        0
300

 40
0.0
140
1.0
 94
        2
 62
     0
340
11
144
0.18
309
CONTENTFORMAT_END
171
     0
 94
        0
309
TABLEFORMAT_END
  1
CELLSTYLE_BEGIN
 90
        3
 91
        2
300
_DATA
309
CELLSTYLE_END
  0
XRECORD
  5
19E
102
{ACAD_REACTORS
330
19D
102
}
330
19D
100
AcDbXrecord
280
     1
102
RTVSPost2010Prop28
280
     1
102
RTVSPost2010PropOp28
 70
     1
102
RTVSPost2010Prop29
280
     1
102
RTVSPost2010PropOp29
 70
     1
102
RTVSPost2010Prop30
280
     0
102
RTVSPost2010PropOp30
 70
     1
102
RTVSPost2010Prop31
280
     0
102
RTVSPost2010PropOp31
 70
     1
102
RTVSPost2010Prop32
280
     0
102
RTVSPost2010PropOp32
 70
     1
102
RTVSPost2010Prop33
280
     0
102
RTVSPost2010PropOp33
 70
     1
102
RTVSPost2010Prop34
280
     0
102
RTVSPost2010PropOp34
 70
     1
102
RTVSPost2010Prop35
280
     0
102
RTVSPost2010PropOp35
 70
     1
102
RTVSPost2010Prop36
280
     0
102
RTVSPost2010PropOp36
 70
     1
102
RTVSPost2010Prop37
 90
       50
102
RTVSPost2010PropOp37
 70
     1
102
RTVSPost2010Prop38
140
0.0
102
RTVSPost2010PropOp38
 70
     1
102
RTVSPost2010Prop39
140
1.0
102
RTVSPost2010PropOp39
 70
     1
102
RTVSPost2010Prop40
 90
        0
102
RTVSPost2010PropOp40
 70
     1
102
RTVSPost2010Prop41ColorIndex
 90
       18
102
RTVSPost2010Prop41ColorRGB
 90
        0
102
RTVSPost2010PropOp41
 70
     1
102
RTVSPost2010Prop42
 90
       50
102
RTVSPost2010PropOp42
 70
     1
102
RTVSPost2010Prop43
 90
        3
102
RTVSPost2010PropOp43
 70
     1
102
RTVSPost2010Prop44ColorIndex
 90
        5
102
RTVSPost2010Prop44ColorRGB
 90
      255
102
RTVSPost2010PropOp44
 70
     1
102
RTVSPost2010Prop45
280
     0
102
RTVSPost2010PropOp45
 70
     1
102
RTVSPost2010Prop46
 90
       50
102
RTVSPost2010PropOp46
 70
     1
102
RTVSPost2010Prop47
 90
       50
102
RTVSPost2010PropOp47
 70
     1
102
RTVSPost2010Prop48
 90
       50
102
RTVSPost2010PropOp48
 70
     1
102
RTVSPost2010Prop49
280
     0
102
RTVSPost2010PropOp49
 70
     1
102
RTVSPost2010Prop50
 90
       50
102
RTVSPost2010PropOp50
 70
     1
102
RTVSPost2010Prop51ColorIndex
 90
      256
102
RTVSPost2010Prop51ColorRGB
 90
-16777216
102
RTVSPost2010PropOp51
 70
     0
102
RTVSPost2010Prop52
140
1.0
102
RTVSPost2010PropOp52
 70
     0
102
RTVSPost2010Prop53
 90
        2
102
RTVSPost2010PropOp53
 70
     1
102
RTVSPost2010Prop54
  1
strokes_ogs.tif
102
RTVSPost2010PropOp54
 70
     1
102
RTVSPost2010Prop55
280
     0
102
RTVSPost2010PropOp55
 70
     1
102
RTVSPost2010Prop56
140
1.0
102
RTVSPost2010PropOp56
 70
     1
102
RTVSPost2010Prop57
140
1.0
102
RTVSPost2010PropOp57
 70
     1
  0
XRECORD
  5
19C
102
{ACAD_REACTORS
330
19B
102
}
330
19B
100
AcDbXrecord
280
     1
102
RTVSPost2010Prop28
280
     0
102
RTVSPost2010PropOp28
 70
     1
102
RTVSPost2010Prop29
280
     1
102
RTVSPost2010PropOp29
 70
     1
102
RTVSPost2010Prop30
280
     1
102
RTVSPost2010PropOp30
 70
     1
102
RTVSPost2010Prop31
280
     0
102
RTVSPost2010PropOp31
 70
     1
102
RTVSPost2010Prop32
280
     0
102
RTVSPost2010PropOp32
 70
     1
102
RTVSPost2010Prop33
280
     0
102
RTVSPost2010PropOp33
 70
     1
102
RTVSPost2010Prop34
280
     0
102
RTVSPost2010PropOp34
 70
     1
102
RTVSPost2010Prop35
280
     0
102
RTVSPost2010PropOp35
 70
     1
102
RTVSPost2010Prop36
280
     0
102
RTVSPost2010PropOp36
 70
     1
102
RTVSPost2010Prop37
 90
       50
102
RTVSPost2010PropOp37
 70
     1
102
RTVSPost2010Prop38
140
0.0
102
RTVSPost2010PropOp38
 70
     1
102
RTVSPost2010Prop39
140
1.0
102
RTVSPost2010PropOp39
 70
     1
102
RTVSPost2010Prop40
 90
        0
102
RTVSPost2010PropOp40
 70
     1
102
RTVSPost2010Prop41ColorIndex
 90
       18
102
RTVSPost2010Prop41ColorRGB
 90
        0
102
RTVSPost2010PropOp41
 70
     1
102
RTVSPost2010Prop42
 90
       50
102
RTVSPost2010PropOp42
 70
     1
102
RTVSPost2010Prop43
 90
        3
102
RTVSPost2010PropOp43
 70
     1
102
RTVSPost2010Prop44ColorIndex
 90
        5
102
RTVSPost2010Prop44ColorRGB
 90
      255
102
RTVSPost2010PropOp44
 70
     1
102
RTVSPost2010Prop45
280
     0
102
RTVSPost2010PropOp45
 70
     1
102
RTVSPost2010Prop46
 90
       50
102
RTVSPost2010PropOp46
 70
     1
102
RTVSPost2010Prop47
 90
       50
102
RTVSPost2010PropOp47
 70
     1
102
RTVSPost2010Prop48
 90
       50
102
RTVSPost2010PropOp48
 70
     1
102
RTVSPost2010Prop49
280
     0
102
RTVSPost2010PropOp49
 70
     1
102
RTVSPost2010Prop50
 90
       50
102
RTVSPost2010PropOp50
 70
     1
102
RTVSPost2010Prop51ColorIndex
 90
      256
102
RTVSPost2010Prop51ColorRGB
 90
-16777216
102
RTVSPost2010PropOp51
 70
     0
102
RTVSPost2010Prop52
140
1.0
102
RTVSPost2010PropOp52
 70
     0
102
RTVSPost2010Prop53
 90
        2
102
RTVSPost2010PropOp53
 70
     1
102
RTVSPost2010Prop54
  1
strokes_ogs.tif
102
RTVSPost2010PropOp54
 70
     1
102
RTVSPost2010Prop55
280
     0
102
RTVSPost2010PropOp55
 70
     1
102
RTVSPost2010Prop56
140
1.0
102
RTVSPost2010PropOp56
 70
     1
102
RTVSPost2010Prop57
140
1.0
102
RTVSPost2010PropOp57
 70
     1
  0
XRECORD
  5
1AA
102
{ACAD_REACTORS
330
1A9
102
}
330
1A9
100
AcDbXrecord
280
     1
102
RTVSPost2010Prop28
280
     0
102
RTVSPost2010PropOp28
 70
     1
102
RTVSPost2010Prop29
280
     1
102
RTVSPost2010PropOp29
 70
     1
102
RTVSPost2010Prop30
280
     1
102
RTVSPost2010PropOp30
 70
     1
102
RTVSPost2010Prop31
280
     0
102
RTVSPost2010PropOp31
 70
     1
102
RTVSPost2010Prop32
280
     0
102
RTVSPost2010PropOp32
 70
     1
102
RTVSPost2010Prop33
280
     0
102
RTVSPost2010PropOp33
 70
     1
102
RTVSPost2010Prop34
280
     0
102
RTVSPost2010PropOp34
 70
     1
102
RTVSPost2010Prop35
280
     0
102
RTVSPost2010PropOp35
 70
     1
102
RTVSPost2010Prop36
280
     0
102
RTVSPost2010PropOp36
 70
     1
102
RTVSPost2010Prop37
 90
       50
102
RTVSPost2010PropOp37
 70
     1
102
RTVSPost2010Prop38
140
0.0
102
RTVSPost2010PropOp38
 70
     1
102
RTVSPost2010Prop39
140
1.0
102
RTVSPost2010PropOp39
 70
     1
102
RTVSPost2010Prop40
 90
        0
102
RTVSPost2010PropOp40
 70
     1
102
RTVSPost2010Prop41ColorIndex
 90
       18
102
RTVSPost2010Prop41ColorRGB
 90
        0
102
RTVSPost2010PropOp41
 70
     1
102
RTVSPost2010Prop42
 90
       50
102
RTVSPost2010PropOp42
 70
     1
102
RTVSPost2010Prop43
 90
        3
102
RTVSPost2010PropOp43
 70
     1
102
RTVSPost2010Prop44ColorIndex
 90
        5
102
RTVSPost2010Prop44ColorRGB
 90
      255
102
RTVSPost2010PropOp44
 70
     1
102
RTVSPost2010Prop45
280
     0
102
RTVSPost2010PropOp45
 70
     1
102
RTVSPost2010Prop46
 90
       50
102
RTVSPost2010PropOp46
 70
     1
102
RTVSPost2010Prop47
 90
       50
102
RTVSPost2010PropOp47
 70
     1
102
RTVSPost2010Prop48
 90
       50
102
RTVSPost2010PropOp48
 70
     1
102
RTVSPost2010Prop49
280
     0
102
RTVSPost2010PropOp49
 70
     1
102
RTVSPost2010Prop50
 90
       50
102
RTVSPost2010PropOp50
 70
     1
102
RTVSPost2010Prop51ColorIndex
 90
      256
102
RTVSPost2010Prop51ColorRGB
 90
-16777216
102
RTVSPost2010PropOp51
 70
     0
102
RTVSPost2010Prop52
140
1.0
102
RTVSPost2010PropOp52
 70
     0
102
RTVSPost2010Prop53
 90
        2
102
RTVSPost2010PropOp53
 70
     1
102
RTVSPost2010Prop54
  1
strokes_ogs.tif
102
RTVSPost2010PropOp54
 70
     1
102
RTVSPost2010Prop55
280
     0
102
RTVSPost2010PropOp55
 70
     1
102
RTVSPost2010Prop56
140
1.0
102
RTVSPost2010PropOp56
 70
     1
102
RTVSPost2010Prop57
140
1.0
102
RTVSPost2010PropOp57
 70
     1
  0
XRECORD
  5
1B2
102
{ACAD_REACTORS
330
1B1
102
}
330
1B1
100
AcDbXrecord
280
     1
102
RTVSPost2010Prop28
280
     0
102
RTVSPost2010PropOp28
 70
     1
102
RTVSPost2010Prop29
280
     1
102
RTVSPost2010PropOp29
 70
     1
102
RTVSPost2010Prop30
280
     1
102
RTVSPost2010PropOp30
 70
     1
102
RTVSPost2010Prop31
280
     0
102
RTVSPost2010PropOp31
 70
     1
102
RTVSPost2010Prop32
280
     0
102
RTVSPost2010PropOp32
 70
     1
102
RTVSPost2010Prop33
280
     0
102
RTVSPost2010PropOp33
 70
     1
102
RTVSPost2010Prop34
280
     0
102
RTVSPost2010PropOp34
 70
     1
102
RTVSPost2010Prop35
280
     0
102
RTVSPost2010PropOp35
 70
     1
102
RTVSPost2010Prop36
280
     0
102
RTVSPost2010PropOp36
 70
     1
102
RTVSPost2010Prop37
 90
       50
102
RTVSPost2010PropOp37
 70
     1
102
RTVSPost2010Prop38
140
0.0
102
RTVSPost2010PropOp38
 70
     1
102
RTVSPost2010Prop39
140
1.0
102
RTVSPost2010PropOp39
 70
     1
102
RTVSPost2010Prop40
 90
        0
102
RTVSPost2010PropOp40
 70
     1
102
RTVSPost2010Prop41ColorIndex
 90
       18
102
RTVSPost2010Prop41ColorRGB
 90
        0
102
RTVSPost2010PropOp41
 70
     1
102
RTVSPost2010Prop42
 90
       50
102
RTVSPost2010PropOp42
 70
     1
102
RTVSPost2010Prop43
 90
        3
102
RTVSPost2010PropOp43
 70
     1
102
RTVSPost2010Prop44ColorIndex
 90
        5
102
RTVSPost2010Prop44ColorRGB
 90
      255
102
RTVSPost2010PropOp44
 70
     1
102
RTVSPost2010Prop45
280
     0
102
RTVSPost2010PropOp45
 70
     1
102
RTVSPost2010Prop46
 90
       50
102
RTVSPost2010PropOp46
 70
     1
102
RTVSPost2010Prop47
 90
       50
102
RTVSPost2010PropOp47
 70
     1
102
RTVSPost2010Prop48
 90
       50
102
RTVSPost2010PropOp48
 70
     1
102
RTVSPost2010Prop49
280
     0
102
RTVSPost2010PropOp49
 70
     1
102
RTVSPost2010Prop50
 90
       50
102
RTVSPost2010PropOp50
 70
     1
102
RTVSPost2010Prop51ColorIndex
 90
      256
102
RTVSPost2010Prop51ColorRGB
 90
-16777216
102
RTVSPost2010PropOp51
 70
     0
102
RTVSPost2010Prop52
140
1.0
102
RTVSPost2010PropOp52
 70
     0
102
RTVSPost2010Prop53
 90
        2
102
RTVSPost2010PropOp53
 70
     1
102
RTVSPost2010Prop54
  1
strokes_ogs.tif
102
RTVSPost2010PropOp54
 70
     1
102
RTVSPost2010Prop55
280
     0
102
RTVSPost2010PropOp55
 70
     1
102
RTVSPost2010Prop56
140
1.0
102
RTVSPost2010PropOp56
 70
     1
102
RTVSPost2010Prop57
140
1.0
102
RTVSPost2010PropOp57
 70
     1
  0
XRECORD
  5
1A4
102
{ACAD_REACTORS
330
1A3
102
}
330
1A3
100
AcDbXrecord
280
     1
102
RTVSPost2010Prop28
280
     0
102
RTVSPost2010PropOp28
 70
     1
102
RTVSPost2010Prop29
280
     1
102
RTVSPost2010PropOp29
 70
     1
102
RTVSPost2010Prop30
280
     1
102
RTVSPost2010PropOp30
 70
     1
102
RTVSPost2010Prop31
280
     0
102
RTVSPost2010PropOp31
 70
     1
102
RTVSPost2010Prop32
280
     0
102
RTVSPost2010PropOp32
 70
     1
102
RTVSPost2010Prop33
280
     0
102
RTVSPost2010PropOp33
 70
     1
102
RTVSPost2010Prop34
280
     0
102
RTVSPost2010PropOp34
 70
     1
102
RTVSPost2010Prop35
280
     0
102
RTVSPost2010PropOp35
 70
     1
102
RTVSPost2010Prop36
280
     0
102
RTVSPost2010PropOp36
 70
     1
102
RTVSPost2010Prop37
 90
       50
102
RTVSPost2010PropOp37
 70
     1
102
RTVSPost2010Prop38
140
0.0
102
RTVSPost2010PropOp38
 70
     1
102
RTVSPost2010Prop39
140
1.0
102
RTVSPost2010PropOp39
 70
     1
102
RTVSPost2010Prop40
 90
        0
102
RTVSPost2010PropOp40
 70
     1
102
RTVSPost2010Prop41ColorIndex
 90
       18
102
RTVSPost2010Prop41ColorRGB
 90
        0
102
RTVSPost2010PropOp41
 70
     1
102
RTVSPost2010Prop42
 90
       50
102
RTVSPost2010PropOp42
 70
     1
102
RTVSPost2010Prop43
 90
        3
102
RTVSPost2010PropOp43
 70
     1
102
RTVSPost2010Prop44ColorIndex
 90
        5
102
RTVSPost2010Prop44ColorRGB
 90
      255
102
RTVSPost2010PropOp44
 70
     1
102
RTVSPost2010Prop45
280
     0
102
RTVSPost2010PropOp45
 70
     1
102
RTVSPost2010Prop46
 90
       50
102
RTVSPost2010PropOp46
 70
     1
102
RTVSPost2010Prop47
 90
       50
102
RTVSPost2010PropOp47
 70
     1
102
RTVSPost2010Prop48
 90
       50
102
RTVSPost2010PropOp48
 70
     1
102
RTVSPost2010Prop49
280
     0
102
RTVSPost2010PropOp49
 70
     1
102
RTVSPost2010Prop50
 90
       50
102
RTVSPost2010PropOp50
 70
     1
102
RTVSPost2010Prop51ColorIndex
 90
      256
102
RTVSPost2010Prop51ColorRGB
 90
-16777216
102
RTVSPost2010PropOp51
 70
     0
102
RTVSPost2010Prop52
140
1.0
102
RTVSPost2010PropOp52
 70
     0
102
RTVSPost2010Prop53
 90
        2
102
RTVSPost2010PropOp53
 70
     1
102
RTVSPost2010Prop54
  1
strokes_ogs.tif
102
RTVSPost2010PropOp54
 70
     1
102
RTVSPost2010Prop55
280
     0
102
RTVSPost2010PropOp55
 70
     1
102
RTVSPost2010Prop56
140
1.0
102
RTVSPost2010PropOp56
 70
     1
102
RTVSPost2010Prop57
140
1.0
102
RTVSPost2010PropOp57
 70
     1
  0
XRECORD
  5
1A8
102
{ACAD_REACTORS
330
1A7
102
}
330
1A7
100
AcDbXrecord
280
     1
102
RTVSPost2010Prop28
280
     0
102
RTVSPost2010PropOp28
 70
     1
102
RTVSPost2010Prop29
280
     1
102
RTVSPost2010PropOp29
 70
     1
102
RTVSPost2010Prop30
280
     1
102
RTVSPost2010PropOp30
 70
     1
102
RTVSPost2010Prop31
280
     0
102
RTVSPost2010PropOp31
 70
     1
102
RTVSPost2010Prop32
280
     0
102
RTVSPost2010PropOp32
 70
     1
102
RTVSPost2010Prop33
280
     0
102
RTVSPost2010PropOp33
 70
     1
102
RTVSPost2010Prop34
280
     0
102
RTVSPost2010PropOp34
 70
     1
102
RTVSPost2010Prop35
280
     0
102
RTVSPost2010PropOp35
 70
     1
102
RTVSPost2010Prop36
280
     0
102
RTVSPost2010PropOp36
 70
     1
102
RTVSPost2010Prop37
 90
       50
102
RTVSPost2010PropOp37
 70
     1
102
RTVSPost2010Prop38
140
0.0
102
RTVSPost2010PropOp38
 70
     1
102
RTVSPost2010Prop39
140
1.0
102
RTVSPost2010PropOp39
 70
     1
102
RTVSPost2010Prop40
 90
        0
102
RTVSPost2010PropOp40
 70
     1
102
RTVSPost2010Prop41ColorIndex
 90
       18
102
RTVSPost2010Prop41ColorRGB
 90
        0
102
RTVSPost2010PropOp41
 70
     1
102
RTVSPost2010Prop42
 90
       50
102
RTVSPost2010PropOp42
 70
     1
102
RTVSPost2010Prop43
 90
        3
102
RTVSPost2010PropOp43
 70
     1
102
RTVSPost2010Prop44ColorIndex
 90
        5
102
RTVSPost2010Prop44ColorRGB
 90
      255
102
RTVSPost2010PropOp44
 70
     1
102
RTVSPost2010Prop45
280
     0
102
RTVSPost2010PropOp45
 70
     1
102
RTVSPost2010Prop46
 90
       50
102
RTVSPost2010PropOp46
 70
     1
102
RTVSPost2010Prop47
 90
       50
102
RTVSPost2010PropOp47
 70
     1
102
RTVSPost2010Prop48
 90
       50
102
RTVSPost2010PropOp48
 70
     1
102
RTVSPost2010Prop49
280
     0
102
RTVSPost2010PropOp49
 70
     1
102
RTVSPost2010Prop50
 90
       50
102
RTVSPost2010PropOp50
 70
     1
102
RTVSPost2010Prop51ColorIndex
 90
      256
102
RTVSPost2010Prop51ColorRGB
 90
-16777216
102
RTVSPost2010PropOp51
 70
     0
102
RTVSPost2010Prop52
140
1.0
102
RTVSPost2010PropOp52
 70
     0
102
RTVSPost2010Prop53
 90
        2
102
RTVSPost2010PropOp53
 70
     1
102
RTVSPost2010Prop54
  1
strokes_ogs.tif
102
RTVSPost2010PropOp54
 70
     1
102
RTVSPost2010Prop55
280
     0
102
RTVSPost2010PropOp55
 70
     1
102
RTVSPost2010Prop56
140
1.0
102
RTVSPost2010PropOp56
 70
     1
102
RTVSPost2010Prop57
140
1.0
102
RTVSPost2010PropOp57
 70
     1
  0
XRECORD
  5
1C2
102
{ACAD_REACTORS
330
1C1
102
}
330
1C1
100
AcDbXrecord
280
     1
102
RTVSPost2010Prop28
280
     0
102
RTVSPost2010PropOp28
 70
     0
102
RTVSPost2010Prop29
280
     1
102
RTVSPost2010PropOp29
 70
     0
102
RTVSPost2010Prop30
280
     1
102
RTVSPost2010PropOp30
 70
     0
102
RTVSPost2010Prop31
280
     0
102
RTVSPost2010PropOp31
 70
     0
102
RTVSPost2010Prop32
280
     0
102
RTVSPost2010PropOp32
 70
     0
102
RTVSPost2010Prop33
280
     0
102
RTVSPost2010PropOp33
 70
     0
102
RTVSPost2010Prop34
280
     0
102
RTVSPost2010PropOp34
 70
     0
102
RTVSPost2010Prop35
280
     0
102
RTVSPost2010PropOp35
 70
     0
102
RTVSPost2010Prop36
280
     0
102
RTVSPost2010PropOp36
 70
     0
102
RTVSPost2010Prop37
 90
       50
102
RTVSPost2010PropOp37
 70
     0
102
RTVSPost2010Prop38
140
0.0
102
RTVSPost2010PropOp38
 70
     0
102
RTVSPost2010Prop39
140
1.0
102
RTVSPost2010PropOp39
 70
     0
102
RTVSPost2010Prop40
 90
        0
102
RTVSPost2010PropOp40
 70
     0
102
RTVSPost2010Prop41ColorIndex
 90
       18
102
RTVSPost2010Prop41ColorRGB
 90
        0
102
RTVSPost2010PropOp41
 70
     0
102
RTVSPost2010Prop42
 90
       50
102
RTVSPost2010PropOp42
 70
     0
102
RTVSPost2010Prop43
 90
        3
102
RTVSPost2010PropOp43
 70
     0
102
RTVSPost2010Prop44ColorIndex
 90
        5
102
RTVSPost2010Prop44ColorRGB
 90
      255
102
RTVSPost2010PropOp44
 70
     0
102
RTVSPost2010Prop45
280
     0
102
RTVSPost2010PropOp45
 70
     0
102
RTVSPost2010Prop46
 90
       50
102
RTVSPost2010PropOp46
 70
     0
102
RTVSPost2010Prop47
 90
       50
102
RTVSPost2010PropOp47
 70
     0
102
RTVSPost2010Prop48
 90
       50
102
RTVSPost2010PropOp48
 70
     0
102
RTVSPost2010Prop49
280
     0
102
RTVSPost2010PropOp49
 70
     0
102
RTVSPost2010Prop50
 90
       50
102
RTVSPost2010PropOp50
 70
     0
102
RTVSPost2010Prop51ColorIndex
 90
      256
102
RTVSPost2010Prop51ColorRGB
 90
-16777216
102
RTVSPost2010PropOp51
 70
     0
102
RTVSPost2010Prop52
140
1.0
102
RTVSPost2010PropOp52
 70
     0
102
RTVSPost2010Prop53
 90
        2
102
RTVSPost2010PropOp53
 70
     0
102
RTVSPost2010Prop54
  1
strokes_ogs.tif
102
RTVSPost2010PropOp54
 70
     0
102
RTVSPost2010Prop55
280
     0
102
RTVSPost2010PropOp55
 70
     0
102
RTVSPost2010Prop56
140
1.0
102
RTVSPost2010PropOp56
 70
     0
102
RTVSPost2010Prop57
140
1.0
102
RTVSPost2010PropOp57
 70
     0
  0
XRECORD
  5
1B0
102
{ACAD_REACTORS
330
1AF
102
}
330
1AF
100
AcDbXrecord
280
     1
102
RTVSPost2010Prop28
280
     0
102
RTVSPost2010PropOp28
 70
     1
102
RTVSPost2010Prop29
280
     1
102
RTVSPost2010PropOp29
 70
     1
102
RTVSPost2010Prop30
280
     1
102
RTVSPost2010PropOp30
 70
     1
102
RTVSPost2010Prop31
280
     0
102
RTVSPost2010PropOp31
 70
     1
102
RTVSPost2010Prop32
280
     0
102
RTVSPost2010PropOp32
 70
     1
102
RTVSPost2010Prop33
280
     0
102
RTVSPost2010PropOp33
 70
     1
102
RTVSPost2010Prop34
280
     0
102
RTVSPost2010PropOp34
 70
     1
102
RTVSPost2010Prop35
280
     0
102
RTVSPost2010PropOp35
 70
     1
102
RTVSPost2010Prop36
280
     0
102
RTVSPost2010PropOp36
 70
     1
102
RTVSPost2010Prop37
 90
       50
102
RTVSPost2010PropOp37
 70
     1
102
RTVSPost2010Prop38
140
0.0
102
RTVSPost2010PropOp38
 70
     1
102
RTVSPost2010Prop39
140
1.0
102
RTVSPost2010PropOp39
 70
     1
102
RTVSPost2010Prop40
 90
        0
102
RTVSPost2010PropOp40
 70
     1
102
RTVSPost2010Prop41ColorIndex
 90
       18
102
RTVSPost2010Prop41ColorRGB
 90
        0
102
RTVSPost2010PropOp41
 70
     1
102
RTVSPost2010Prop42
 90
       50
102
RTVSPost2010PropOp42
 70
     1
102
RTVSPost2010Prop43
 90
        3
102
RTVSPost2010PropOp43
 70
     1
102
RTVSPost2010Prop44ColorIndex
 90
        5
102
RTVSPost2010Prop44ColorRGB
 90
      255
102
RTVSPost2010PropOp44
 70
     1
102
RTVSPost2010Prop45
280
     0
102
RTVSPost2010PropOp45
 70
     1
102
RTVSPost2010Prop46
 90
       50
102
RTVSPost2010PropOp46
 70
     1
102
RTVSPost2010Prop47
 90
       50
102
RTVSPost2010PropOp47
 70
     1
102
RTVSPost2010Prop48
 90
       50
102
RTVSPost2010PropOp48
 70
     1
102
RTVSPost2010Prop49
280
     0
102
RTVSPost2010PropOp49
 70
     1
102
RTVSPost2010Prop50
 90
       50
102
RTVSPost2010PropOp50
 70
     1
102
RTVSPost2010Prop51ColorIndex
 90
      256
102
RTVSPost2010Prop51ColorRGB
 90
-16777216
102
RTVSPost2010PropOp51
 70
     0
102
RTVSPost2010Prop52
140
1.0
102
RTVSPost2010PropOp52
 70
     0
102
RTVSPost2010Prop53
 90
        2
102
RTVSPost2010PropOp53
 70
     1
102
RTVSPost2010Prop54
  1
strokes_ogs.tif
102
RTVSPost2010PropOp54
 70
     1
102
RTVSPost2010Prop55
280
     0
102
RTVSPost2010PropOp55
 70
     1
102
RTVSPost2010Prop56
140
1.0
102
RTVSPost2010PropOp56
 70
     1
102
RTVSPost2010Prop57
140
1.0
102
RTVSPost2010PropOp57
 70
     1
  0
XRECORD
  5
194
102
{ACAD_REACTORS
330
193
102
}
330
193
100
AcDbXrecord
280
     1
102
RTVSPost2010Prop28
280
     0
102
RTVSPost2010PropOp28
 70
     1
102
RTVSPost2010Prop29
280
     1
102
RTVSPost2010PropOp29
 70
     1
102
RTVSPost2010Prop30
280
     1
102
RTVSPost2010PropOp30
 70
     1
102
RTVSPost2010Prop31
280
     0
102
RTVSPost2010PropOp31
 70
     1
102
RTVSPost2010Prop32
280
     0
102
RTVSPost2010PropOp32
 70
     1
102
RTVSPost2010Prop33
280
     0
102
RTVSPost2010PropOp33
 70
     1
102
RTVSPost2010Prop34
280
     0
102
RTVSPost2010PropOp34
 70
     1
102
RTVSPost2010Prop35
280
     0
102
RTVSPost2010PropOp35
 70
     1
102
RTVSPost2010Prop36
280
     0
102
RTVSPost2010PropOp36
 70
     1
102
RTVSPost2010Prop37
 90
       50
102
RTVSPost2010PropOp37
 70
     1
102
RTVSPost2010Prop38
140
0.0
102
RTVSPost2010PropOp38
 70
     1
102
RTVSPost2010Prop39
140
1.0
102
RTVSPost2010PropOp39
 70
     1
102
RTVSPost2010Prop40
 90
        0
102
RTVSPost2010PropOp40
 70
     1
102
RTVSPost2010Prop41ColorIndex
 90
       18
102
RTVSPost2010Prop41ColorRGB
 90
        0
102
RTVSPost2010PropOp41
 70
     1
102
RTVSPost2010Prop42
 90
       50
102
RTVSPost2010PropOp42
 70
     1
102
RTVSPost2010Prop43
 90
        3
102
RTVSPost2010PropOp43
 70
     1
102
RTVSPost2010Prop44ColorIndex
 90
        5
102
RTVSPost2010Prop44ColorRGB
 90
      255
102
RTVSPost2010PropOp44
 70
     1
102
RTVSPost2010Prop45
280
     0
102
RTVSPost2010PropOp45
 70
     1
102
RTVSPost2010Prop46
 90
       50
102
RTVSPost2010PropOp46
 70
     1
102
RTVSPost2010Prop47
 90
       50
102
RTVSPost2010PropOp47
 70
     1
102
RTVSPost2010Prop48
 90
       50
102
RTVSPost2010PropOp48
 70
     1
102
RTVSPost2010Prop49
280
     0
102
RTVSPost2010PropOp49
 70
     1
102
RTVSPost2010Prop50
 90
       50
102
RTVSPost2010PropOp50
 70
     1
102
RTVSPost2010Prop51ColorIndex
 90
      256
102
RTVSPost2010Prop51ColorRGB
 90
-16777216
102
RTVSPost2010PropOp51
 70
     0
102
RTVSPost2010Prop52
140
1.0
102
RTVSPost2010PropOp52
 70
     0
102
RTVSPost2010Prop53
 90
        2
102
RTVSPost2010PropOp53
 70
     1
102
RTVSPost2010Prop54
  1
strokes_ogs.tif
102
RTVSPost2010PropOp54
 70
     1
102
RTVSPost2010Prop55
280
     0
102
RTVSPost2010PropOp55
 70
     1
102
RTVSPost2010Prop56
140
1.0
102
RTVSPost2010PropOp56
 70
     1
102
RTVSPost2010Prop57
140
1.0
102
RTVSPost2010PropOp57
 70
     1
  0
XRECORD
  5
196
102
{ACAD_REACTORS
330
195
102
}
330
195
100
AcDbXrecord
280
     1
102
RTVSPost2010Prop28
280
     0
102
RTVSPost2010PropOp28
 70
     1
102
RTVSPost2010Prop29
280
     1
102
RTVSPost2010PropOp29
 70
     1
102
RTVSPost2010Prop30
280
     1
102
RTVSPost2010PropOp30
 70
     1
102
RTVSPost2010Prop31
280
     0
102
RTVSPost2010PropOp31
 70
     1
102
RTVSPost2010Prop32
280
     0
102
RTVSPost2010PropOp32
 70
     1
102
RTVSPost2010Prop33
280
     0
102
RTVSPost2010PropOp33
 70
     1
102
RTVSPost2010Prop34
280
     0
102
RTVSPost2010PropOp34
 70
     1
102
RTVSPost2010Prop35
280
     0
102
RTVSPost2010PropOp35
 70
     1
102
RTVSPost2010Prop36
280
     0
102
RTVSPost2010PropOp36
 70
     1
102
RTVSPost2010Prop37
 90
       50
102
RTVSPost2010PropOp37
 70
     1
102
RTVSPost2010Prop38
140
0.0
102
RTVSPost2010PropOp38
 70
     1
102
RTVSPost2010Prop39
140
1.0
102
RTVSPost2010PropOp39
 70
     1
102
RTVSPost2010Prop40
 90
        0
102
RTVSPost2010PropOp40
 70
     1
102
RTVSPost2010Prop41ColorIndex
 90
       18
102
RTVSPost2010Prop41ColorRGB
 90
        0
102
RTVSPost2010PropOp41
 70
     1
102
RTVSPost2010Prop42
 90
       50
102
RTVSPost2010PropOp42
 70
     1
102
RTVSPost2010Prop43
 90
        3
102
RTVSPost2010PropOp43
 70
     1
102
RTVSPost2010Prop44ColorIndex
 90
        5
102
RTVSPost2010Prop44ColorRGB
 90
      255
102
RTVSPost2010PropOp44
 70
     1
102
RTVSPost2010Prop45
280
     0
102
RTVSPost2010PropOp45
 70
     1
102
RTVSPost2010Prop46
 90
       50
102
RTVSPost2010PropOp46
 70
     1
102
RTVSPost2010Prop47
 90
       50
102
RTVSPost2010PropOp47
 70
     1
102
RTVSPost2010Prop48
 90
       50
102
RTVSPost2010PropOp48
 70
     1
102
RTVSPost2010Prop49
280
     0
102
RTVSPost2010PropOp49
 70
     1
102
RTVSPost2010Prop50
 90
       50
102
RTVSPost2010PropOp50
 70
     1
102
RTVSPost2010Prop51ColorIndex
 90
      256
102
RTVSPost2010Prop51ColorRGB
 90
-16777216
102
RTVSPost2010PropOp51
 70
     0
102
RTVSPost2010Prop52
140
1.0
102
RTVSPost2010PropOp52
 70
     0
102
RTVSPost2010Prop53
 90
        2
102
RTVSPost2010PropOp53
 70
     1
102
RTVSPost2010Prop54
  1
strokes_ogs.tif
102
RTVSPost2010PropOp54
 70
     1
102
RTVSPost2010Prop55
280
     0
102
RTVSPost2010PropOp55
 70
     1
102
RTVSPost2010Prop56
140
1.0
102
RTVSPost2010PropOp56
 70
     1
102
RTVSPost2010Prop57
140
1.0
102
RTVSPost2010PropOp57
 70
     1
  0
XRECORD
  5
198
102
{ACAD_REACTORS
330
197
102
}
330
197
100
AcDbXrecord
280
     1
102
RTVSPost2010Prop28
280
     0
102
RTVSPost2010PropOp28
 70
     1
102
RTVSPost2010Prop29
280
     1
102
RTVSPost2010PropOp29
 70
     1
102
RTVSPost2010Prop30
280
     1
102
RTVSPost2010PropOp30
 70
     1
102
RTVSPost2010Prop31
280
     0
102
RTVSPost2010PropOp31
 70
     1
102
RTVSPost2010Prop32
280
     0
102
RTVSPost2010PropOp32
 70
     1
102
RTVSPost2010Prop33
280
     0
102
RTVSPost2010PropOp33
 70
     1
102
RTVSPost2010Prop34
280
     0
102
RTVSPost2010PropOp34
 70
     1
102
RTVSPost2010Prop35
280
     0
102
RTVSPost2010PropOp35
 70
     1
102
RTVSPost2010Prop36
280
     0
102
RTVSPost2010PropOp36
 70
     1
102
RTVSPost2010Prop37
 90
       50
102
RTVSPost2010PropOp37
 70
     1
102
RTVSPost2010Prop38
140
0.0
102
RTVSPost2010PropOp38
 70
     1
102
RTVSPost2010Prop39
140
1.0
102
RTVSPost2010PropOp39
 70
     1
102
RTVSPost2010Prop40
 90
        0
102
RTVSPost2010PropOp40
 70
     1
102
RTVSPost2010Prop41ColorIndex
 90
       18
102
RTVSPost2010Prop41ColorRGB
 90
        0
102
RTVSPost2010PropOp41
 70
     1
102
RTVSPost2010Prop42
 90
       50
102
RTVSPost2010PropOp42
 70
     1
102
RTVSPost2010Prop43
 90
        3
102
RTVSPost2010PropOp43
 70
     1
102
RTVSPost2010Prop44ColorIndex
 90
        5
102
RTVSPost2010Prop44ColorRGB
 90
      255
102
RTVSPost2010PropOp44
 70
     1
102
RTVSPost2010Prop45
280
     0
102
RTVSPost2010PropOp45
 70
     1
102
RTVSPost2010Prop46
 90
       50
102
RTVSPost2010PropOp46
 70
     1
102
RTVSPost2010Prop47
 90
       50
102
RTVSPost2010PropOp47
 70
     1
102
RTVSPost2010Prop48
 90
       50
102
RTVSPost2010PropOp48
 70
     1
102
RTVSPost2010Prop49
280
     0
102
RTVSPost2010PropOp49
 70
     1
102
RTVSPost2010Prop50
 90
       50
102
RTVSPost2010PropOp50
 70
     1
102
RTVSPost2010Prop51ColorIndex
 90
      256
102
RTVSPost2010Prop51ColorRGB
 90
-16777216
102
RTVSPost2010PropOp51
 70
     0
102
RTVSPost2010Prop52
140
1.0
102
RTVSPost2010PropOp52
 70
     0
102
RTVSPost2010Prop53
 90
        2
102
RTVSPost2010PropOp53
 70
     1
102
RTVSPost2010Prop54
  1
strokes_ogs.tif
102
RTVSPost2010PropOp54
 70
     1
102
RTVSPost2010Prop55
280
     0
102
RTVSPost2010PropOp55
 70
     1
102
RTVSPost2010Prop56
140
1.0
102
RTVSPost2010PropOp56
 70
     1
102
RTVSPost2010Prop57
140
1.0
102
RTVSPost2010PropOp57
 70
     1
  0
XRECORD
  5
19A
102
{ACAD_REACTORS
330
199
102
}
330
199
100
AcDbXrecord
280
     1
102
RTVSPost2010Prop28
280
     0
102
RTVSPost2010PropOp28
 70
     1
102
RTVSPost2010Prop29
280
     1
102
RTVSPost2010PropOp29
 70
     1
102
RTVSPost2010Prop30
280
     1
102
RTVSPost2010PropOp30
 70
     1
102
RTVSPost2010Prop31
280
     0
102
RTVSPost2010PropOp31
 70
     1
102
RTVSPost2010Prop32
280
     0
102
RTVSPost2010PropOp32
 70
     1
102
RTVSPost2010Prop33
280
     0
102
RTVSPost2010PropOp33
 70
     1
102
RTVSPost2010Prop34
280
     0
102
RTVSPost2010PropOp34
 70
     1
102
RTVSPost2010Prop35
280
     0
102
RTVSPost2010PropOp35
 70
     1
102
RTVSPost2010Prop36
280
     0
102
RTVSPost2010PropOp36
 70
     1
102
RTVSPost2010Prop37
 90
       50
102
RTVSPost2010PropOp37
 70
     1
102
RTVSPost2010Prop38
140
0.0
102
RTVSPost2010PropOp38
 70
     1
102
RTVSPost2010Prop39
140
1.0
102
RTVSPost2010PropOp39
 70
     1
102
RTVSPost2010Prop40
 90
        0
102
RTVSPost2010PropOp40
 70
     1
102
RTVSPost2010Prop41ColorIndex
 90
       18
102
RTVSPost2010Prop41ColorRGB
 90
        0
102
RTVSPost2010PropOp41
 70
     1
102
RTVSPost2010Prop42
 90
       50
102
RTVSPost2010PropOp42
 70
     1
102
RTVSPost2010Prop43
 90
        3
102
RTVSPost2010PropOp43
 70
     1
102
RTVSPost2010Prop44ColorIndex
 90
        5
102
RTVSPost2010Prop44ColorRGB
 90
      255
102
RTVSPost2010PropOp44
 70
     1
102
RTVSPost2010Prop45
280
     0
102
RTVSPost2010PropOp45
 70
     1
102
RTVSPost2010Prop46
 90
       50
102
RTVSPost2010PropOp46
 70
     1
102
RTVSPost2010Prop47
 90
       50
102
RTVSPost2010PropOp47
 70
     1
102
RTVSPost2010Prop48
 90
       50
102
RTVSPost2010PropOp48
 70
     1
102
RTVSPost2010Prop49
280
     0
102
RTVSPost2010PropOp49
 70
     1
102
RTVSPost2010Prop50
 90
       50
102
RTVSPost2010PropOp50
 70
     1
102
RTVSPost2010Prop51ColorIndex
 90
      256
102
RTVSPost2010Prop51ColorRGB
 90
-16777216
102
RTVSPost2010PropOp51
 70
     0
102
RTVSPost2010Prop52
140
1.0
102
RTVSPost2010PropOp52
 70
     0
102
RTVSPost2010Prop53
 90
        2
102
RTVSPost2010PropOp53
 70
     1
102
RTVSPost2010Prop54
  1
strokes_ogs.tif
102
RTVSPost2010PropOp54
 70
     1
102
RTVSPost2010Prop55
280
     0
102
RTVSPost2010PropOp55
 70
     1
102
RTVSPost2010Prop56
140
1.0
102
RTVSPost2010PropOp56
 70
     1
102
RTVSPost2010Prop57
140
1.0
102
RTVSPost2010PropOp57
 70
     1
  0
XRECORD
  5
1A2
102
{ACAD_REACTORS
330
1A1
102
}
330
1A1
100
AcDbXrecord
280
     1
102
RTVSPost2010Prop28
280
     0
102
RTVSPost2010PropOp28
 70
     1
102
RTVSPost2010Prop29
280
     1
102
RTVSPost2010PropOp29
 70
     1
102
RTVSPost2010Prop30
280
     1
102
RTVSPost2010PropOp30
 70
     1
102
RTVSPost2010Prop31
280
     0
102
RTVSPost2010PropOp31
 70
     1
102
RTVSPost2010Prop32
280
     0
102
RTVSPost2010PropOp32
 70
     1
102
RTVSPost2010Prop33
280
     0
102
RTVSPost2010PropOp33
 70
     1
102
RTVSPost2010Prop34
280
     0
102
RTVSPost2010PropOp34
 70
     1
102
RTVSPost2010Prop35
280
     0
102
RTVSPost2010PropOp35
 70
     1
102
RTVSPost2010Prop36
280
     0
102
RTVSPost2010PropOp36
 70
     1
102
RTVSPost2010Prop37
 90
       50
102
RTVSPost2010PropOp37
 70
     1
102
RTVSPost2010Prop38
140
0.0
102
RTVSPost2010PropOp38
 70
     1
102
RTVSPost2010Prop39
140
1.0
102
RTVSPost2010PropOp39
 70
     1
102
RTVSPost2010Prop40
 90
        0
102
RTVSPost2010PropOp40
 70
     1
102
RTVSPost2010Prop41ColorIndex
 90
       18
102
RTVSPost2010Prop41ColorRGB
 90
        0
102
RTVSPost2010PropOp41
 70
     1
102
RTVSPost2010Prop42
 90
       50
102
RTVSPost2010PropOp42
 70
     1
102
RTVSPost2010Prop43
 90
        3
102
RTVSPost2010PropOp43
 70
     1
102
RTVSPost2010Prop44ColorIndex
 90
        5
102
RTVSPost2010Prop44ColorRGB
 90
      255
102
RTVSPost2010PropOp44
 70
     1
102
RTVSPost2010Prop45
280
     0
102
RTVSPost2010PropOp45
 70
     1
102
RTVSPost2010Prop46
 90
       50
102
RTVSPost2010PropOp46
 70
     1
102
RTVSPost2010Prop47
 90
       50
102
RTVSPost2010PropOp47
 70
     1
102
RTVSPost2010Prop48
 90
       50
102
RTVSPost2010PropOp48
 70
     1
102
RTVSPost2010Prop49
280
     0
102
RTVSPost2010PropOp49
 70
     1
102
RTVSPost2010Prop50
 90
       50
102
RTVSPost2010PropOp50
 70
     1
102
RTVSPost2010Prop51ColorIndex
 90
      256
102
RTVSPost2010Prop51ColorRGB
 90
-16777216
102
RTVSPost2010PropOp51
 70
     0
102
RTVSPost2010Prop52
140
1.0
102
RTVSPost2010PropOp52
 70
     0
102
RTVSPost2010Prop53
 90
        2
102
RTVSPost2010PropOp53
 70
     1
102
RTVSPost2010Prop54
  1
strokes_ogs.tif
102
RTVSPost2010PropOp54
 70
     1
102
RTVSPost2010Prop55
280
     0
102
RTVSPost2010PropOp55
 70
     1
102
RTVSPost2010Prop56
140
1.0
102
RTVSPost2010PropOp56
 70
     1
102
RTVSPost2010Prop57
140
1.0
102
RTVSPost2010PropOp57
 70
     1
  0
XRECORD
  5
1BE
102
{ACAD_REACTORS
330
1BD
102
}
330
1BD
100
AcDbXrecord
280
     1
102
RTVSPost2010Prop28
280
     0
102
RTVSPost2010PropOp28
 70
     0
102
RTVSPost2010Prop29
280
     1
102
RTVSPost2010PropOp29
 70
     0
102
RTVSPost2010Prop30
280
     1
102
RTVSPost2010PropOp30
 70
     0
102
RTVSPost2010Prop31
280
     0
102
RTVSPost2010PropOp31
 70
     0
102
RTVSPost2010Prop32
280
     0
102
RTVSPost2010PropOp32
 70
     0
102
RTVSPost2010Prop33
280
     0
102
RTVSPost2010PropOp33
 70
     0
102
RTVSPost2010Prop34
280
     0
102
RTVSPost2010PropOp34
 70
     0
102
RTVSPost2010Prop35
280
     0
102
RTVSPost2010PropOp35
 70
     0
102
RTVSPost2010Prop36
280
     0
102
RTVSPost2010PropOp36
 70
     0
102
RTVSPost2010Prop37
 90
       50
102
RTVSPost2010PropOp37
 70
     0
102
RTVSPost2010Prop38
140
0.0
102
RTVSPost2010PropOp38
 70
     0
102
RTVSPost2010Prop39
140
1.0
102
RTVSPost2010PropOp39
 70
     0
102
RTVSPost2010Prop40
 90
        0
102
RTVSPost2010PropOp40
 70
     0
102
RTVSPost2010Prop41ColorIndex
 90
       18
102
RTVSPost2010Prop41ColorRGB
 90
        0
102
RTVSPost2010PropOp41
 70
     0
102
RTVSPost2010Prop42
 90
       50
102
RTVSPost2010PropOp42
 70
     0
102
RTVSPost2010Prop43
 90
        3
102
RTVSPost2010PropOp43
 70
     0
102
RTVSPost2010Prop44ColorIndex
 90
        5
102
RTVSPost2010Prop44ColorRGB
 90
      255
102
RTVSPost2010PropOp44
 70
     0
102
RTVSPost2010Prop45
280
     0
102
RTVSPost2010PropOp45
 70
     0
102
RTVSPost2010Prop46
 90
       50
102
RTVSPost2010PropOp46
 70
     0
102
RTVSPost2010Prop47
 90
       50
102
RTVSPost2010PropOp47
 70
     0
102
RTVSPost2010Prop48
 90
       50
102
RTVSPost2010PropOp48
 70
     0
102
RTVSPost2010Prop49
280
     0
102
RTVSPost2010PropOp49
 70
     0
102
RTVSPost2010Prop50
 90
       50
102
RTVSPost2010PropOp50
 70
     0
102
RTVSPost2010Prop51ColorIndex
 90
      256
102
RTVSPost2010Prop51ColorRGB
 90
-16777216
102
RTVSPost2010PropOp51
 70
     0
102
RTVSPost2010Prop52
140
1.0
102
RTVSPost2010PropOp52
 70
     0
102
RTVSPost2010Prop53
 90
        2
102
RTVSPost2010PropOp53
 70
     0
102
RTVSPost2010Prop54
  1
strokes_ogs.tif
102
RTVSPost2010PropOp54
 70
     0
102
RTVSPost2010Prop55
280
     0
102
RTVSPost2010PropOp55
 70
     0
102
RTVSPost2010Prop56
140
1.0
102
RTVSPost2010PropOp56
 70
     0
102
RTVSPost2010Prop57
140
1.0
102
RTVSPost2010PropOp57
 70
     0
  0
XRECORD
  5
1AE
102
{ACAD_REACTORS
330
1AD
102
}
330
1AD
100
AcDbXrecord
280
     1
102
RTVSPost2010Prop28
280
     0
102
RTVSPost2010PropOp28
 70
     1
102
RTVSPost2010Prop29
280
     1
102
RTVSPost2010PropOp29
 70
     1
102
RTVSPost2010Prop30
280
     1
102
RTVSPost2010PropOp30
 70
     1
102
RTVSPost2010Prop31
280
     0
102
RTVSPost2010PropOp31
 70
     1
102
RTVSPost2010Prop32
280
     0
102
RTVSPost2010PropOp32
 70
     1
102
RTVSPost2010Prop33
280
     0
102
RTVSPost2010PropOp33
 70
     1
102
RTVSPost2010Prop34
280
     0
102
RTVSPost2010PropOp34
 70
     1
102
RTVSPost2010Prop35
280
     0
102
RTVSPost2010PropOp35
 70
     1
102
RTVSPost2010Prop36
280
     0
102
RTVSPost2010PropOp36
 70
     1
102
RTVSPost2010Prop37
 90
       50
102
RTVSPost2010PropOp37
 70
     1
102
RTVSPost2010Prop38
140
0.0
102
RTVSPost2010PropOp38
 70
     1
102
RTVSPost2010Prop39
140
1.0
102
RTVSPost2010PropOp39
 70
     1
102
RTVSPost2010Prop40
 90
        0
102
RTVSPost2010PropOp40
 70
     1
102
RTVSPost2010Prop41ColorIndex
 90
       18
102
RTVSPost2010Prop41ColorRGB
 90
        0
102
RTVSPost2010PropOp41
 70
     1
102
RTVSPost2010Prop42
 90
       50
102
RTVSPost2010PropOp42
 70
     1
102
RTVSPost2010Prop43
 90
        3
102
RTVSPost2010PropOp43
 70
     1
102
RTVSPost2010Prop44ColorIndex
 90
        5
102
RTVSPost2010Prop44ColorRGB
 90
      255
102
RTVSPost2010PropOp44
 70
     1
102
RTVSPost2010Prop45
280
     0
102
RTVSPost2010PropOp45
 70
     1
102
RTVSPost2010Prop46
 90
       50
102
RTVSPost2010PropOp46
 70
     1
102
RTVSPost2010Prop47
 90
       50
102
RTVSPost2010PropOp47
 70
     1
102
RTVSPost2010Prop48
 90
       50
102
RTVSPost2010PropOp48
 70
     1
102
RTVSPost2010Prop49
280
     0
102
RTVSPost2010PropOp49
 70
     1
102
RTVSPost2010Prop50
 90
       50
102
RTVSPost2010PropOp50
 70
     1
102
RTVSPost2010Prop51ColorIndex
 90
      256
102
RTVSPost2010Prop51ColorRGB
 90
-16777216
102
RTVSPost2010PropOp51
 70
     0
102
RTVSPost2010Prop52
140
1.0
102
RTVSPost2010PropOp52
 70
     0
102
RTVSPost2010Prop53
 90
        2
102
RTVSPost2010PropOp53
 70
     1
102
RTVSPost2010Prop54
  1
strokes_ogs.tif
102
RTVSPost2010PropOp54
 70
     1
102
RTVSPost2010Prop55
280
     0
102
RTVSPost2010PropOp55
 70
     1
102
RTVSPost2010Prop56
140
1.0
102
RTVSPost2010PropOp56
 70
     1
102
RTVSPost2010Prop57
140
1.0
102
RTVSPost2010PropOp57
 70
     1
  0
XRECORD
  5
1C0
102
{ACAD_REACTORS
330
1BF
102
}
330
1BF
100
AcDbXrecord
280
     1
102
RTVSPost2010Prop28
280
     0
102
RTVSPost2010PropOp28
 70
     0
102
RTVSPost2010Prop29
280
     1
102
RTVSPost2010PropOp29
 70
     0
102
RTVSPost2010Prop30
280
     1
102
RTVSPost2010PropOp30
 70
     0
102
RTVSPost2010Prop31
280
     0
102
RTVSPost2010PropOp31
 70
     0
102
RTVSPost2010Prop32
280
     0
102
RTVSPost2010PropOp32
 70
     0
102
RTVSPost2010Prop33
280
     0
102
RTVSPost2010PropOp33
 70
     0
102
RTVSPost2010Prop34
280
     0
102
RTVSPost2010PropOp34
 70
     0
102
RTVSPost2010Prop35
280
     0
102
RTVSPost2010PropOp35
 70
     0
102
RTVSPost2010Prop36
280
     0
102
RTVSPost2010PropOp36
 70
     0
102
RTVSPost2010Prop37
 90
       50
102
RTVSPost2010PropOp37
 70
     0
102
RTVSPost2010Prop38
140
0.0
102
RTVSPost2010PropOp38
 70
     0
102
RTVSPost2010Prop39
140
1.0
102
RTVSPost2010PropOp39
 70
     0
102
RTVSPost2010Prop40
 90
        0
102
RTVSPost2010PropOp40
 70
     0
102
RTVSPost2010Prop41ColorIndex
 90
       18
102
RTVSPost2010Prop41ColorRGB
 90
        0
102
RTVSPost2010PropOp41
 70
     0
102
RTVSPost2010Prop42
 90
       50
102
RTVSPost2010PropOp42
 70
     0
102
RTVSPost2010Prop43
 90
        3
102
RTVSPost2010PropOp43
 70
     0
102
RTVSPost2010Prop44ColorIndex
 90
        5
102
RTVSPost2010Prop44ColorRGB
 90
      255
102
RTVSPost2010PropOp44
 70
     0
102
RTVSPost2010Prop45
280
     0
102
RTVSPost2010PropOp45
 70
     0
102
RTVSPost2010Prop46
 90
       50
102
RTVSPost2010PropOp46
 70
     0
102
RTVSPost2010Prop47
 90
       50
102
RTVSPost2010PropOp47
 70
     0
102
RTVSPost2010Prop48
 90
       50
102
RTVSPost2010PropOp48
 70
     0
102
RTVSPost2010Prop49
280
     0
102
RTVSPost2010PropOp49
 70
     0
102
RTVSPost2010Prop50
 90
       50
102
RTVSPost2010PropOp50
 70
     0
102
RTVSPost2010Prop51ColorIndex
 90
      256
102
RTVSPost2010Prop51ColorRGB
 90
-16777216
102
RTVSPost2010PropOp51
 70
     0
102
RTVSPost2010Prop52
140
1.0
102
RTVSPost2010PropOp52
 70
     0
102
RTVSPost2010Prop53
 90
        2
102
RTVSPost2010PropOp53
 70
     0
102
RTVSPost2010Prop54
  1
strokes_ogs.tif
102
RTVSPost2010PropOp54
 70
     0
102
RTVSPost2010Prop55
280
     0
102
RTVSPost2010PropOp55
 70
     0
102
RTVSPost2010Prop56
140
1.0
102
RTVSPost2010PropOp56
 70
     0
102
RTVSPost2010Prop57
140
1.0
102
RTVSPost2010PropOp57
 70
     0
  0
XRECORD
  5
1A6
102
{ACAD_REACTORS
330
1A5
102
}
330
1A5
100
AcDbXrecord
280
     1
102
RTVSPost2010Prop28
280
     0
102
RTVSPost2010PropOp28
 70
     1
102
RTVSPost2010Prop29
280
     1
102
RTVSPost2010PropOp29
 70
     1
102
RTVSPost2010Prop30
280
     1
102
RTVSPost2010PropOp30
 70
     1
102
RTVSPost2010Prop31
280
     0
102
RTVSPost2010PropOp31
 70
     1
102
RTVSPost2010Prop32
280
     0
102
RTVSPost2010PropOp32
 70
     1
102
RTVSPost2010Prop33
280
     0
102
RTVSPost2010PropOp33
 70
     1
102
RTVSPost2010Prop34
280
     0
102
RTVSPost2010PropOp34
 70
     1
102
RTVSPost2010Prop35
280
     0
102
RTVSPost2010PropOp35
 70
     1
102
RTVSPost2010Prop36
280
     0
102
RTVSPost2010PropOp36
 70
     1
102
RTVSPost2010Prop37
 90
       50
102
RTVSPost2010PropOp37
 70
     1
102
RTVSPost2010Prop38
140
0.0
102
RTVSPost2010PropOp38
 70
     1
102
RTVSPost2010Prop39
140
1.0
102
RTVSPost2010PropOp39
 70
     1
102
RTVSPost2010Prop40
 90
        0
102
RTVSPost2010PropOp40
 70
     1
102
RTVSPost2010Prop41ColorIndex
 90
       18
102
RTVSPost2010Prop41ColorRGB
 90
        0
102
RTVSPost2010PropOp41
 70
     1
102
RTVSPost2010Prop42
 90
       50
102
RTVSPost2010PropOp42
 70
     1
102
RTVSPost2010Prop43
 90
        3
102
RTVSPost2010PropOp43
 70
     1
102
RTVSPost2010Prop44ColorIndex
 90
        5
102
RTVSPost2010Prop44ColorRGB
 90
      255
102
RTVSPost2010PropOp44
 70
     1
102
RTVSPost2010Prop45
280
     0
102
RTVSPost2010PropOp45
 70
     1
102
RTVSPost2010Prop46
 90
       50
102
RTVSPost2010PropOp46
 70
     1
102
RTVSPost2010Prop47
 90
       50
102
RTVSPost2010PropOp47
 70
     1
102
RTVSPost2010Prop48
 90
       50
102
RTVSPost2010PropOp48
 70
     1
102
RTVSPost2010Prop49
280
     0
102
RTVSPost2010PropOp49
 70
     1
102
RTVSPost2010Prop50
 90
       50
102
RTVSPost2010PropOp50
 70
     1
102
RTVSPost2010Prop51ColorIndex
 90
      256
102
RTVSPost2010Prop51ColorRGB
 90
-16777216
102
RTVSPost2010PropOp51
 70
     0
102
RTVSPost2010Prop52
140
1.0
102
RTVSPost2010PropOp52
 70
     0
102
RTVSPost2010Prop53
 90
        2
102
RTVSPost2010PropOp53
 70
     1
102
RTVSPost2010Prop54
  1
strokes_ogs.tif
102
RTVSPost2010PropOp54
 70
     1
102
RTVSPost2010Prop55
280
     0
102
RTVSPost2010PropOp55
 70
     1
102
RTVSPost2010Prop56
140
1.0
102
RTVSPost2010PropOp56
 70
     1
102
RTVSPost2010Prop57
140
1.0
102
RTVSPost2010PropOp57
 70
     1
  0
XRECORD
  5
1BC
102
{ACAD_REACTORS
330
1BB
102
}
330
1BB
100
AcDbXrecord
280
     1
102
RTVSPost2010Prop28
280
     0
102
RTVSPost2010PropOp28
 70
     1
102
RTVSPost2010Prop29
280
     1
102
RTVSPost2010PropOp29
 70
     1
102
RTVSPost2010Prop30
280
     1
102
RTVSPost2010PropOp30
 70
     1
102
RTVSPost2010Prop31
280
     0
102
RTVSPost2010PropOp31
 70
     1
102
RTVSPost2010Prop32
280
     0
102
RTVSPost2010PropOp32
 70
     1
102
RTVSPost2010Prop33
280
     0
102
RTVSPost2010PropOp33
 70
     1
102
RTVSPost2010Prop34
280
     0
102
RTVSPost2010PropOp34
 70
     1
102
RTVSPost2010Prop35
280
     0
102
RTVSPost2010PropOp35
 70
     1
102
RTVSPost2010Prop36
280
     0
102
RTVSPost2010PropOp36
 70
     1
102
RTVSPost2010Prop37
 90
       50
102
RTVSPost2010PropOp37
 70
     1
102
RTVSPost2010Prop38
140
0.0
102
RTVSPost2010PropOp38
 70
     1
102
RTVSPost2010Prop39
140
1.0
102
RTVSPost2010PropOp39
 70
     1
102
RTVSPost2010Prop40
 90
        0
102
RTVSPost2010PropOp40
 70
     1
102
RTVSPost2010Prop41ColorIndex
 90
       18
102
RTVSPost2010Prop41ColorRGB
 90
        0
102
RTVSPost2010PropOp41
 70
     1
102
RTVSPost2010Prop42
 90
       50
102
RTVSPost2010PropOp42
 70
     1
102
RTVSPost2010Prop43
 90
        3
102
RTVSPost2010PropOp43
 70
     1
102
RTVSPost2010Prop44ColorIndex
 90
        5
102
RTVSPost2010Prop44ColorRGB
 90
      255
102
RTVSPost2010PropOp44
 70
     1
102
RTVSPost2010Prop45
280
     0
102
RTVSPost2010PropOp45
 70
     1
102
RTVSPost2010Prop46
 90
       50
102
RTVSPost2010PropOp46
 70
     1
102
RTVSPost2010Prop47
 90
       50
102
RTVSPost2010PropOp47
 70
     1
102
RTVSPost2010Prop48
 90
       50
102
RTVSPost2010PropOp48
 70
     1
102
RTVSPost2010Prop49
280
     0
102
RTVSPost2010PropOp49
 70
     1
102
RTVSPost2010Prop50
 90
       50
102
RTVSPost2010PropOp50
 70
     1
102
RTVSPost2010Prop51ColorIndex
 90
      256
102
RTVSPost2010Prop51ColorRGB
 90
-16777216
102
RTVSPost2010PropOp51
 70
     0
102
RTVSPost2010Prop52
140
1.0
102
RTVSPost2010PropOp52
 70
     0
102
RTVSPost2010Prop53
 90
        2
102
RTVSPost2010PropOp53
 70
     1
102
RTVSPost2010Prop54
  1
strokes_ogs.tif
102
RTVSPost2010PropOp54
 70
     1
102
RTVSPost2010Prop55
280
     0
102
RTVSPost2010PropOp55
 70
     1
102
RTVSPost2010Prop56
140
1.0
102
RTVSPost2010PropOp56
 70
     1
102
RTVSPost2010Prop57
140
1.0
102
RTVSPost2010PropOp57
 70
     1
  0
XRECORD
  5
1BA
102
{ACAD_REACTORS
330
1B9
102
}
330
1B9
100
AcDbXrecord
280
     1
102
RTVSPost2010Prop28
280
     0
102
RTVSPost2010PropOp28
 70
     1
102
RTVSPost2010Prop29
280
     1
102
RTVSPost2010PropOp29
 70
     1
102
RTVSPost2010Prop30
280
     1
102
RTVSPost2010PropOp30
 70
     1
102
RTVSPost2010Prop31
280
     0
102
RTVSPost2010PropOp31
 70
     1
102
RTVSPost2010Prop32
280
     0
102
RTVSPost2010PropOp32
 70
     1
102
RTVSPost2010Prop33
280
     0
102
RTVSPost2010PropOp33
 70
     1
102
RTVSPost2010Prop34
280
     0
102
RTVSPost2010PropOp34
 70
     1
102
RTVSPost2010Prop35
280
     0
102
RTVSPost2010PropOp35
 70
     1
102
RTVSPost2010Prop36
280
     0
102
RTVSPost2010PropOp36
 70
     1
102
RTVSPost2010Prop37
 90
       50
102
RTVSPost2010PropOp37
 70
     1
102
RTVSPost2010Prop38
140
0.0
102
RTVSPost2010PropOp38
 70
     1
102
RTVSPost2010Prop39
140
1.0
102
RTVSPost2010PropOp39
 70
     1
102
RTVSPost2010Prop40
 90
        0
102
RTVSPost2010PropOp40
 70
     1
102
RTVSPost2010Prop41ColorIndex
 90
       18
102
RTVSPost2010Prop41ColorRGB
 90
        0
102
RTVSPost2010PropOp41
 70
     1
102
RTVSPost2010Prop42
 90
       50
102
RTVSPost2010PropOp42
 70
     1
102
RTVSPost2010Prop43
 90
        3
102
RTVSPost2010PropOp43
 70
     1
102
RTVSPost2010Prop44ColorIndex
 90
        5
102
RTVSPost2010Prop44ColorRGB
 90
      255
102
RTVSPost2010PropOp44
 70
     1
102
RTVSPost2010Prop45
280
     0
102
RTVSPost2010PropOp45
 70
     1
102
RTVSPost2010Prop46
 90
       50
102
RTVSPost2010PropOp46
 70
     1
102
RTVSPost2010Prop47
 90
       50
102
RTVSPost2010PropOp47
 70
     1
102
RTVSPost2010Prop48
 90
       50
102
RTVSPost2010PropOp48
 70
     1
102
RTVSPost2010Prop49
280
     0
102
RTVSPost2010PropOp49
 70
     1
102
RTVSPost2010Prop50
 90
       50
102
RTVSPost2010PropOp50
 70
     1
102
RTVSPost2010Prop51ColorIndex
 90
      256
102
RTVSPost2010Prop51ColorRGB
 90
-16777216
102
RTVSPost2010PropOp51
 70
     0
102
RTVSPost2010Prop52
140
1.0
102
RTVSPost2010PropOp52
 70
     0
102
RTVSPost2010Prop53
 90
        2
102
RTVSPost2010PropOp53
 70
     1
102
RTVSPost2010Prop54
  1
strokes_ogs.tif
102
RTVSPost2010PropOp54
 70
     1
102
RTVSPost2010Prop55
280
     0
102
RTVSPost2010PropOp55
 70
     1
102
RTVSPost2010Prop56
140
1.0
102
RTVSPost2010PropOp56
 70
     1
102
RTVSPost2010Prop57
140
1.0
102
RTVSPost2010PropOp57
 70
     1
  0
XRECORD
  5
1B4
102
{ACAD_REACTORS
330
1B3
102
}
330
1B3
100
AcDbXrecord
280
     1
102
RTVSPost2010Prop28
280
     0
102
RTVSPost2010PropOp28
 70
     1
102
RTVSPost2010Prop29
280
     1
102
RTVSPost2010PropOp29
 70
     1
102
RTVSPost2010Prop30
280
     1
102
RTVSPost2010PropOp30
 70
     1
102
RTVSPost2010Prop31
280
     0
102
RTVSPost2010PropOp31
 70
     1
102
RTVSPost2010Prop32
280
     0
102
RTVSPost2010PropOp32
 70
     1
102
RTVSPost2010Prop33
280
     0
102
RTVSPost2010PropOp33
 70
     1
102
RTVSPost2010Prop34
280
     0
102
RTVSPost2010PropOp34
 70
     1
102
RTVSPost2010Prop35
280
     0
102
RTVSPost2010PropOp35
 70
     1
102
RTVSPost2010Prop36
280
     0
102
RTVSPost2010PropOp36
 70
     1
102
RTVSPost2010Prop37
 90
       50
102
RTVSPost2010PropOp37
 70
     1
102
RTVSPost2010Prop38
140
0.0
102
RTVSPost2010PropOp38
 70
     1
102
RTVSPost2010Prop39
140
1.0
102
RTVSPost2010PropOp39
 70
     1
102
RTVSPost2010Prop40
 90
        0
102
RTVSPost2010PropOp40
 70
     1
102
RTVSPost2010Prop41ColorIndex
 90
       18
102
RTVSPost2010Prop41ColorRGB
 90
        0
102
RTVSPost2010PropOp41
 70
     1
102
RTVSPost2010Prop42
 90
       50
102
RTVSPost2010PropOp42
 70
     1
102
RTVSPost2010Prop43
 90
        3
102
RTVSPost2010PropOp43
 70
     1
102
RTVSPost2010Prop44ColorIndex
 90
        5
102
RTVSPost2010Prop44ColorRGB
 90
      255
102
RTVSPost2010PropOp44
 70
     1
102
RTVSPost2010Prop45
280
     0
102
RTVSPost2010PropOp45
 70
     1
102
RTVSPost2010Prop46
 90
       50
102
RTVSPost2010PropOp46
 70
     1
102
RTVSPost2010Prop47
 90
       50
102
RTVSPost2010PropOp47
 70
     1
102
RTVSPost2010Prop48
 90
       50
102
RTVSPost2010PropOp48
 70
     1
102
RTVSPost2010Prop49
280
     0
102
RTVSPost2010PropOp49
 70
     1
102
RTVSPost2010Prop50
 90
       50
102
RTVSPost2010PropOp50
 70
     1
102
RTVSPost2010Prop51ColorIndex
 90
      256
102
RTVSPost2010Prop51ColorRGB
 90
-16777216
102
RTVSPost2010PropOp51
 70
     0
102
RTVSPost2010Prop52
140
1.0
102
RTVSPost2010PropOp52
 70
     0
102
RTVSPost2010Prop53
 90
        2
102
RTVSPost2010PropOp53
 70
     1
102
RTVSPost2010Prop54
  1
strokes_ogs.tif
102
RTVSPost2010PropOp54
 70
     1
102
RTVSPost2010Prop55
280
     0
102
RTVSPost2010PropOp55
 70
     1
102
RTVSPost2010Prop56
140
1.0
102
RTVSPost2010PropOp56
 70
     1
102
RTVSPost2010Prop57
140
1.0
102
RTVSPost2010PropOp57
 70
     1
  0
XRECORD
  5
1B6
102
{ACAD_REACTORS
330
1B5
102
}
330
1B5
100
AcDbXrecord
280
     1
102
RTVSPost2010Prop28
280
     0
102
RTVSPost2010PropOp28
 70
     1
102
RTVSPost2010Prop29
280
     1
102
RTVSPost2010PropOp29
 70
     1
102
RTVSPost2010Prop30
280
     1
102
RTVSPost2010PropOp30
 70
     1
102
RTVSPost2010Prop31
280
     0
102
RTVSPost2010PropOp31
 70
     1
102
RTVSPost2010Prop32
280
     0
102
RTVSPost2010PropOp32
 70
     1
102
RTVSPost2010Prop33
280
     0
102
RTVSPost2010PropOp33
 70
     1
102
RTVSPost2010Prop34
280
     0
102
RTVSPost2010PropOp34
 70
     1
102
RTVSPost2010Prop35
280
     0
102
RTVSPost2010PropOp35
 70
     1
102
RTVSPost2010Prop36
280
     0
102
RTVSPost2010PropOp36
 70
     1
102
RTVSPost2010Prop37
 90
       50
102
RTVSPost2010PropOp37
 70
     1
102
RTVSPost2010Prop38
140
0.0
102
RTVSPost2010PropOp38
 70
     1
102
RTVSPost2010Prop39
140
1.0
102
RTVSPost2010PropOp39
 70
     1
102
RTVSPost2010Prop40
 90
        0
102
RTVSPost2010PropOp40
 70
     1
102
RTVSPost2010Prop41ColorIndex
 90
       18
102
RTVSPost2010Prop41ColorRGB
 90
        0
102
RTVSPost2010PropOp41
 70
     1
102
RTVSPost2010Prop42
 90
       50
102
RTVSPost2010PropOp42
 70
     1
102
RTVSPost2010Prop43
 90
        3
102
RTVSPost2010PropOp43
 70
     1
102
RTVSPost2010Prop44ColorIndex
 90
        5
102
RTVSPost2010Prop44ColorRGB
 90
      255
102
RTVSPost2010PropOp44
 70
     1
102
RTVSPost2010Prop45
280
     0
102
RTVSPost2010PropOp45
 70
     1
102
RTVSPost2010Prop46
 90
       50
102
RTVSPost2010PropOp46
 70
     1
102
RTVSPost2010Prop47
 90
       50
102
RTVSPost2010PropOp47
 70
     1
102
RTVSPost2010Prop48
 90
       50
102
RTVSPost2010PropOp48
 70
     1
102
RTVSPost2010Prop49
280
     0
102
RTVSPost2010PropOp49
 70
     1
102
RTVSPost2010Prop50
 90
       50
102
RTVSPost2010PropOp50
 70
     1
102
RTVSPost2010Prop51ColorIndex
 90
      256
102
RTVSPost2010Prop51ColorRGB
 90
-16777216
102
RTVSPost2010PropOp51
 70
     0
102
RTVSPost2010Prop52
140
1.0
102
RTVSPost2010PropOp52
 70
     0
102
RTVSPost2010Prop53
 90
        2
102
RTVSPost2010PropOp53
 70
     1
102
RTVSPost2010Prop54
  1
strokes_ogs.tif
102
RTVSPost2010PropOp54
 70
     1
102
RTVSPost2010Prop55
280
     0
102
RTVSPost2010PropOp55
 70
     1
102
RTVSPost2010Prop56
140
1.0
102
RTVSPost2010PropOp56
 70
     1
102
RTVSPost2010Prop57
140
1.0
102
RTVSPost2010PropOp57
 70
     1
  0
XRECORD
  5
1AC
102
{ACAD_REACTORS
330
1AB
102
}
330
1AB
100
AcDbXrecord
280
     1
102
RTVSPost2010Prop28
280
     0
102
RTVSPost2010PropOp28
 70
     1
102
RTVSPost2010Prop29
280
     1
102
RTVSPost2010PropOp29
 70
     1
102
RTVSPost2010Prop30
280
     1
102
RTVSPost2010PropOp30
 70
     1
102
RTVSPost2010Prop31
280
     0
102
RTVSPost2010PropOp31
 70
     1
102
RTVSPost2010Prop32
280
     0
102
RTVSPost2010PropOp32
 70
     1
102
RTVSPost2010Prop33
280
     0
102
RTVSPost2010PropOp33
 70
     1
102
RTVSPost2010Prop34
280
     0
102
RTVSPost2010PropOp34
 70
     1
102
RTVSPost2010Prop35
280
     0
102
RTVSPost2010PropOp35
 70
     1
102
RTVSPost2010Prop36
280
     0
102
RTVSPost2010PropOp36
 70
     1
102
RTVSPost2010Prop37
 90
       50
102
RTVSPost2010PropOp37
 70
     1
102
RTVSPost2010Prop38
140
0.0
102
RTVSPost2010PropOp38
 70
     1
102
RTVSPost2010Prop39
140
1.0
102
RTVSPost2010PropOp39
 70
     1
102
RTVSPost2010Prop40
 90
        0
102
RTVSPost2010PropOp40
 70
     1
102
RTVSPost2010Prop41ColorIndex
 90
       18
102
RTVSPost2010Prop41ColorRGB
 90
        0
102
RTVSPost2010PropOp41
 70
     1
102
RTVSPost2010Prop42
 90
       50
102
RTVSPost2010PropOp42
 70
     1
102
RTVSPost2010Prop43
 90
        3
102
RTVSPost2010PropOp43
 70
     1
102
RTVSPost2010Prop44ColorIndex
 90
        5
102
RTVSPost2010Prop44ColorRGB
 90
      255
102
RTVSPost2010PropOp44
 70
     1
102
RTVSPost2010Prop45
280
     0
102
RTVSPost2010PropOp45
 70
     1
102
RTVSPost2010Prop46
 90
       50
102
RTVSPost2010PropOp46
 70
     1
102
RTVSPost2010Prop47
 90
       50
102
RTVSPost2010PropOp47
 70
     1
102
RTVSPost2010Prop48
 90
       50
102
RTVSPost2010PropOp48
 70
     1
102
RTVSPost2010Prop49
280
     0
102
RTVSPost2010PropOp49
 70
     1
102
RTVSPost2010Prop50
 90
       50
102
RTVSPost2010PropOp50
 70
     1
102
RTVSPost2010Prop51ColorIndex
 90
      256
102
RTVSPost2010Prop51ColorRGB
 90
-16777216
102
RTVSPost2010PropOp51
 70
     0
102
RTVSPost2010Prop52
140
1.0
102
RTVSPost2010PropOp52
 70
     0
102
RTVSPost2010Prop53
 90
        2
102
RTVSPost2010PropOp53
 70
     1
102
RTVSPost2010Prop54
  1
strokes_ogs.tif
102
RTVSPost2010PropOp54
 70
     1
102
RTVSPost2010Prop55
280
     0
102
RTVSPost2010PropOp55
 70
     1
102
RTVSPost2010Prop56
140
1.0
102
RTVSPost2010PropOp56
 70
     1
102
RTVSPost2010Prop57
140
1.0
102
RTVSPost2010PropOp57
 70
     1
  0
XRECORD
  5
1A0
102
{ACAD_REACTORS
330
19F
102
}
330
19F
100
AcDbXrecord
280
     1
102
RTVSPost2010Prop28
280
     0
102
RTVSPost2010PropOp28
 70
     1
102
RTVSPost2010Prop29
280
     1
102
RTVSPost2010PropOp29
 70
     1
102
RTVSPost2010Prop30
280
     1
102
RTVSPost2010PropOp30
 70
     1
102
RTVSPost2010Prop31
280
     0
102
RTVSPost2010PropOp31
 70
     1
102
RTVSPost2010Prop32
280
     0
102
RTVSPost2010PropOp32
 70
     1
102
RTVSPost2010Prop33
280
     0
102
RTVSPost2010PropOp33
 70
     1
102
RTVSPost2010Prop34
280
     0
102
RTVSPost2010PropOp34
 70
     1
102
RTVSPost2010Prop35
280
     0
102
RTVSPost2010PropOp35
 70
     1
102
RTVSPost2010Prop36
280
     0
102
RTVSPost2010PropOp36
 70
     1
102
RTVSPost2010Prop37
 90
       50
102
RTVSPost2010PropOp37
 70
     1
102
RTVSPost2010Prop38
140
0.0
102
RTVSPost2010PropOp38
 70
     1
102
RTVSPost2010Prop39
140
1.0
102
RTVSPost2010PropOp39
 70
     1
102
RTVSPost2010Prop40
 90
        0
102
RTVSPost2010PropOp40
 70
     1
102
RTVSPost2010Prop41ColorIndex
 90
       18
102
RTVSPost2010Prop41ColorRGB
 90
        0
102
RTVSPost2010PropOp41
 70
     1
102
RTVSPost2010Prop42
 90
       50
102
RTVSPost2010PropOp42
 70
     1
102
RTVSPost2010Prop43
 90
        3
102
RTVSPost2010PropOp43
 70
     1
102
RTVSPost2010Prop44ColorIndex
 90
        5
102
RTVSPost2010Prop44ColorRGB
 90
      255
102
RTVSPost2010PropOp44
 70
     1
102
RTVSPost2010Prop45
280
     0
102
RTVSPost2010PropOp45
 70
     1
102
RTVSPost2010Prop46
 90
       50
102
RTVSPost2010PropOp46
 70
     1
102
RTVSPost2010Prop47
 90
       50
102
RTVSPost2010PropOp47
 70
     1
102
RTVSPost2010Prop48
 90
       50
102
RTVSPost2010PropOp48
 70
     1
102
RTVSPost2010Prop49
280
     0
102
RTVSPost2010PropOp49
 70
     1
102
RTVSPost2010Prop50
 90
       50
102
RTVSPost2010PropOp50
 70
     1
102
RTVSPost2010Prop51ColorIndex
 90
      256
102
RTVSPost2010Prop51ColorRGB
 90
-16777216
102
RTVSPost2010PropOp51
 70
     0
102
RTVSPost2010Prop52
140
1.0
102
RTVSPost2010PropOp52
 70
     0
102
RTVSPost2010Prop53
 90
        2
102
RTVSPost2010PropOp53
 70
     1
102
RTVSPost2010Prop54
  1
strokes_ogs.tif
102
RTVSPost2010PropOp54
 70
     1
102
RTVSPost2010Prop55
280
     0
102
RTVSPost2010PropOp55
 70
     1
102
RTVSPost2010Prop56
140
1.0
102
RTVSPost2010PropOp56
 70
     1
102
RTVSPost2010Prop57
140
1.0
102
RTVSPost2010PropOp57
 70
     1
  0
XRECORD
  5
1B8
102
{ACAD_REACTORS
330
1B7
102
}
330
1B7
100
AcDbXrecord
280
     1
102
RTVSPost2010Prop28
280
     0
102
RTVSPost2010PropOp28
 70
     1
102
RTVSPost2010Prop29
280
     1
102
RTVSPost2010PropOp29
 70
     1
102
RTVSPost2010Prop30
280
     1
102
RTVSPost2010PropOp30
 70
     1
102
RTVSPost2010Prop31
280
     0
102
RTVSPost2010PropOp31
 70
     1
102
RTVSPost2010Prop32
280
     0
102
RTVSPost2010PropOp32
 70
     1
102
RTVSPost2010Prop33
280
     0
102
RTVSPost2010PropOp33
 70
     1
102
RTVSPost2010Prop34
280
     0
102
RTVSPost2010PropOp34
 70
     1
102
RTVSPost2010Prop35
280
     0
102
RTVSPost2010PropOp35
 70
     1
102
RTVSPost2010Prop36
280
     0
102
RTVSPost2010PropOp36
 70
     1
102
RTVSPost2010Prop37
 90
       50
102
RTVSPost2010PropOp37
 70
     1
102
RTVSPost2010Prop38
140
0.0
102
RTVSPost2010PropOp38
 70
     1
102
RTVSPost2010Prop39
140
1.0
102
RTVSPost2010PropOp39
 70
     1
102
RTVSPost2010Prop40
 90
        0
102
RTVSPost2010PropOp40
 70
     1
102
RTVSPost2010Prop41ColorIndex
 90
       18
102
RTVSPost2010Prop41ColorRGB
 90
        0
102
RTVSPost2010PropOp41
 70
     1
102
RTVSPost2010Prop42
 90
       50
102
RTVSPost2010PropOp42
 70
     1
102
RTVSPost2010Prop43
 90
        3
102
RTVSPost2010PropOp43
 70
     1
102
RTVSPost2010Prop44ColorIndex
 90
        5
102
RTVSPost2010Prop44ColorRGB
 90
      255
102
RTVSPost2010PropOp44
 70
     1
102
RTVSPost2010Prop45
280
     0
102
RTVSPost2010PropOp45
 70
     1
102
RTVSPost2010Prop46
 90
       50
102
RTVSPost2010PropOp46
 70
     1
102
RTVSPost2010Prop47
 90
       50
102
RTVSPost2010PropOp47
 70
     1
102
RTVSPost2010Prop48
 90
       50
102
RTVSPost2010PropOp48
 70
     1
102
RTVSPost2010Prop49
280
     0
102
RTVSPost2010PropOp49
 70
     1
102
RTVSPost2010Prop50
 90
       50
102
RTVSPost2010PropOp50
 70
     1
102
RTVSPost2010Prop51ColorIndex
 90
      256
102
RTVSPost2010Prop51ColorRGB
 90
-16777216
102
RTVSPost2010PropOp51
 70
     0
102
RTVSPost2010Prop52
140
1.0
102
RTVSPost2010PropOp52
 70
     0
102
RTVSPost2010Prop53
 90
        2
102
RTVSPost2010PropOp53
 70
     1
102
RTVSPost2010Prop54
  1
strokes_ogs.tif
102
RTVSPost2010PropOp54
 70
     1
102
RTVSPost2010Prop55
280
     0
102
RTVSPost2010PropOp55
 70
     1
102
RTVSPost2010Prop56
140
1.0
102
RTVSPost2010PropOp56
 70
     1
102
RTVSPost2010Prop57
140
1.0
102
RTVSPost2010PropOp57
 70
     1
  0
ENDSEC
  0
EOF
