  0
SECTION
  2
HEADER
  9
$ACADVER
  1
AC1024
  9
$ACADMAINTVER
 70
   205
  9
$DWGCODEPAGE
  3
ANSI_1251
  9
$INSBASE
 10
0.0
 20
0.0
 30
0.0
  9
$EXTMIN
 10
1.000000000000000E+20
 20
1.000000000000000E+20
 30
1.000000000000000E+20
  9
$EXTMAX
 10
-1.000000000000000E+20
 20
-1.000000000000000E+20
 30
-1.000000000000000E+20
  9
$LIMMIN
 10
0.0
 20
0.0
  9
$LIMMAX
 10
12.0
 20
9.0
  9
$ORTHOMODE
 70
     0
  9
$REGENMODE
 70
     1
  9
$FILLMODE
 70
     1
  9
$QTEXTMODE
 70
     0
  9
$MIRRTEXT
 70
     1
  9
$LTSCALE
 40
1.0
  9
$ATTMODE
 70
     1
  9
$TEXTSIZE
 40
0.2
  9
$TRACEWID
 40
0.05
  9
$TEXTSTYLE
  7
Standard
  9
$CLAYER
  8
OracDecor_skirtings
  9
$CELTYPE
  6
ByLayer
  9
$CECOLOR
 62
   256
  9
$CELTSCALE
 40
1.0
  9
$DISPSILH
 70
     0
  9
$DIMSCALE
 40
1.0
  9
$DIMASZ
 40
0.18
  9
$DIMEXO
 40
0.0625
  9
$DIMDLI
 40
0.38
  9
$DIMRND
 40
0.0
  9
$DIMDLE
 40
0.0
  9
$DIMEXE
 40
0.18
  9
$DIMTP
 40
0.0
  9
$DIMTM
 40
0.0
  9
$DIMTXT
 40
0.18
  9
$DIMCEN
 40
0.09
  9
$DIMTSZ
 40
0.0
  9
$DIMTOL
 70
     0
  9
$DIMLIM
 70
     0
  9
$DIMTIH
 70
     1
  9
$DIMTOH
 70
     1
  9
$DIMSE1
 70
     0
  9
$DIMSE2
 70
     0
  9
$DIMTAD
 70
     0
  9
$DIMZIN
 70
     0
  9
$DIMBLK
  1

  9
$DIMASO
 70
     1
  9
$DIMSHO
 70
     1
  9
$DIMPOST
  1

  9
$DIMAPOST
  1

  9
$DIMALT
 70
     0
  9
$DIMALTD
 70
     2
  9
$DIMALTF
 40
25.4
  9
$DIMLFAC
 40
1.0
  9
$DIMTOFL
 70
     0
  9
$DIMTVP
 40
0.0
  9
$DIMTIX
 70
     0
  9
$DIMSOXD
 70
     0
  9
$DIMSAH
 70
     0
  9
$DIMBLK1
  1

  9
$DIMBLK2
  1

  9
$DIMSTYLE
  2
Standard
  9
$DIMCLRD
 70
     0
  9
$DIMCLRE
 70
     0
  9
$DIMCLRT
 70
     0
  9
$DIMTFAC
 40
1.0
  9
$DIMGAP
 40
0.09
  9
$DIMJUST
 70
     0
  9
$DIMSD1
 70
     0
  9
$DIMSD2
 70
     0
  9
$DIMTOLJ
 70
     1
  9
$DIMTZIN
 70
     0
  9
$DIMALTZ
 70
     0
  9
$DIMALTTZ
 70
     0
  9
$DIMUPT
 70
     0
  9
$DIMDEC
 70
     4
  9
$DIMTDEC
 70
     4
  9
$DIMALTU
 70
     2
  9
$DIMALTTD
 70
     2
  9
$DIMTXSTY
  7
Standard
  9
$DIMAUNIT
 70
     0
  9
$DIMADEC
 70
     0
  9
$DIMALTRND
 40
0.0
  9
$DIMAZIN
 70
     0
  9
$DIMDSEP
 70
    46
  9
$DIMATFIT
 70
     3
  9
$DIMFRAC
 70
     0
  9
$DIMLDRBLK
  1

  9
$DIMLUNIT
 70
     2
  9
$DIMLWD
 70
    -2
  9
$DIMLWE
 70
    -2
  9
$DIMTMOVE
 70
     0
  9
$DIMFXL
 40
1.0
  9
$DIMFXLON
 70
     0
  9
$DIMJOGANG
 40
0.7853981633974483
  9
$DIMTFILL
 70
     0
  9
$DIMTFILLCLR
 70
     0
  9
$DIMARCSYM
 70
     0
  9
$DIMLTYPE
  6

  9
$DIMLTEX1
  6

  9
$DIMLTEX2
  6

  9
$DIMTXTDIRECTION
 70
     0
  9
$LUNITS
 70
     2
  9
$LUPREC
 70
     4
  9
$SKETCHINC
 40
0.1
  9
$FILLETRAD
 40
0.5
  9
$AUNITS
 70
     0
  9
$AUPREC
 70
     0
  9
$MENU
  1
.
  9
$ELEVATION
 40
0.0
  9
$PELEVATION
 40
0.0
  9
$THICKNESS
 40
0.0
  9
$LIMCHECK
 70
     0
  9
$CHAMFERA
 40
0.5
  9
$CHAMFERB
 40
0.5
  9
$CHAMFERC
 40
1.0
  9
$CHAMFERD
 40
0.0
  9
$SKPOLY
 70
     0
  9
$TDCREATE
 40
2451380.930432396
  9
$TDUCREATE
 40
2451380.805432396
  9
$TDUPDATE
 40
2451380.966180555
  9
$TDUUPDATE
 40
2451380.841180556
  9
$TDINDWG
 40
0.0075619444
  9
$TDUSRTIMER
 40
0.0075529051
  9
$USRTIMER
 70
     1
  9
$ANGBASE
 50
0.0
  9
$ANGDIR
 70
     0
  9
$PDMODE
 70
     0
  9
$PDSIZE
 40
0.0
  9
$PLINEWID
 40
0.0
  9
$SPLFRAME
 70
     0
  9
$SPLINETYPE
 70
     6
  9
$SPLINESEGS
 70
     8
  9
$HANDSEED
  5
1A3
  9
$SURFTAB1
 70
     6
  9
$SURFTAB2
 70
     6
  9
$SURFTYPE
 70
     6
  9
$SURFU
 70
     6
  9
$SURFV
 70
     6
  9
$UCSBASE
  2

  9
$UCSNAME
  2

  9
$UCSORG
 10
0.0
 20
0.0
 30
0.0
  9
$UCSXDIR
 10
1.0
 20
0.0
 30
0.0
  9
$UCSYDIR
 10
0.0
 20
1.0
 30
0.0
  9
$UCSORTHOREF
  2

  9
$UCSORTHOVIEW
 70
     0
  9
$UCSORGTOP
 10
0.0
 20
0.0
 30
0.0
  9
$UCSORGBOTTOM
 10
0.0
 20
0.0
 30
0.0
  9
$UCSORGLEFT
 10
0.0
 20
0.0
 30
0.0
  9
$UCSORGRIGHT
 10
0.0
 20
0.0
 30
0.0
  9
$UCSORGFRONT
 10
0.0
 20
0.0
 30
0.0
  9
$UCSORGBACK
 10
0.0
 20
0.0
 30
0.0
  9
$PUCSBASE
  2

  9
$PUCSNAME
  2

  9
$PUCSORG
 10
0.0
 20
0.0
 30
0.0
  9
$PUCSXDIR
 10
1.0
 20
0.0
 30
0.0
  9
$PUCSYDIR
 10
0.0
 20
1.0
 30
0.0
  9
$PUCSORTHOREF
  2

  9
$PUCSORTHOVIEW
 70
     0
  9
$PUCSORGTOP
 10
0.0
 20
0.0
 30
0.0
  9
$PUCSORGBOTTOM
 10
0.0
 20
0.0
 30
0.0
  9
$PUCSORGLEFT
 10
0.0
 20
0.0
 30
0.0
  9
$PUCSORGRIGHT
 10
0.0
 20
0.0
 30
0.0
  9
$PUCSORGFRONT
 10
0.0
 20
0.0
 30
0.0
  9
$PUCSORGBACK
 10
0.0
 20
0.0
 30
0.0
  9
$USERI1
 70
     0
  9
$USERI2
 70
     0
  9
$USERI3
 70
     0
  9
$USERI4
 70
     0
  9
$USERI5
 70
     0
  9
$USERR1
 40
0.0
  9
$USERR2
 40
0.0
  9
$USERR3
 40
0.0
  9
$USERR4
 40
0.0
  9
$USERR5
 40
0.0
  9
$WORLDVIEW
 70
     1
  9
$SHADEDGE
 70
     3
  9
$SHADEDIF
 70
    70
  9
$TILEMODE
 70
     1
  9
$MAXACTVP
 70
    64
  9
$PINSBASE
 10
0.0
 20
0.0
 30
0.0
  9
$PLIMCHECK
 70
     0
  9
$PEXTMIN
 10
1.000000000000000E+20
 20
1.000000000000000E+20
 30
1.000000000000000E+20
  9
$PEXTMAX
 10
-1.000000000000000E+20
 20
-1.000000000000000E+20
 30
-1.000000000000000E+20
  9
$PLIMMIN
 10
0.0
 20
0.0
  9
$PLIMMAX
 10
12.0
 20
9.0
  9
$UNITMODE
 70
     0
  9
$VISRETAIN
 70
     1
  9
$PLINEGEN
 70
     0
  9
$PSLTSCALE
 70
     1
  9
$TREEDEPTH
 70
  3020
  9
$CMLSTYLE
  2
Standard
  9
$CMLJUST
 70
     0
  9
$CMLSCALE
 40
1.0
  9
$PROXYGRAPHICS
 70
     1
  9
$MEASUREMENT
 70
     1
  9
$CELWEIGHT
370
    -1
  9
$ENDCAPS
280
     0
  9
$JOINSTYLE
280
     0
  9
$LWDISPLAY
290
     0
  9
$INSUNITS
 70
     4
  9
$HYPERLINKBASE
  1

  9
$STYLESHEET
  1

  9
$XEDIT
290
     1
  9
$CEPSNTYPE
380
     0
  9
$PSTYLEMODE
290
     1
  9
$FINGERPRINTGUID
  2
{12F50282-3ED8-11D3-A8B7-0060B0F84BC6}
  9
$VERSIONGUID
  2
{12F50293-3ED8-11D3-A8B7-0060B0F84BC6}
  9
$EXTNAMES
290
     1
  9
$PSVPSCALE
 40
0.0
  9
$OLESTARTUP
290
     0
  9
$SORTENTS
280
   127
  9
$INDEXCTL
280
     0
  9
$HIDETEXT
280
     0
  9
$XCLIPFRAME
280
     2
  9
$HALOGAP
280
     0
  9
$OBSCOLOR
 70
   257
  9
$OBSLTYPE
280
     0
  9
$INTERSECTIONDISPLAY
280
     0
  9
$INTERSECTIONCOLOR
 70
   257
  9
$DIMASSOC
280
     1
  9
$PROJECTNAME
  1

  9
$CAMERADISPLAY
290
     0
  9
$LENSLENGTH
 40
50.0
  9
$CAMERAHEIGHT
 40
0.0
  9
$STEPSPERSEC
 40
2.0
  9
$STEPSIZE
 40
6.0
  9
$3DDWFPREC
 40
2.0
  9
$PSOLWIDTH
 40
0.25
  9
$PSOLHEIGHT
 40
4.0
  9
$LOFTANG1
 40
1.570796326794896
  9
$LOFTANG2
 40
1.570796326794896
  9
$LOFTMAG1
 40
0.0
  9
$LOFTMAG2
 40
0.0
  9
$LOFTPARAM
 70
     7
  9
$LOFTNORMALS
280
     1
  9
$LATITUDE
 40
37.795
  9
$LONGITUDE
 40
-122.394
  9
$NORTHDIRECTION
 40
0.0
  9
$TIMEZONE
 70
 -8000
  9
$LIGHTGLYPHDISPLAY
280
     1
  9
$TILEMODELIGHTSYNCH
280
     1
  9
$CMATERIAL
347
AB
  9
$SOLIDHIST
280
     0
  9
$SHOWHIST
280
     1
  9
$DWFFRAME
280
     2
  9
$DGNFRAME
280
     0
  9
$REALWORLDSCALE
290
     1
  9
$INTERFERECOLOR
 62
     1
  9
$INTERFEREOBJVS
345
CD
  9
$INTERFEREVPVS
346
CA
  9
$CSHADOW
280
     0
  9
$SHADOWPLANELOCATION
 40
0.0
  0
ENDSEC
  0
SECTION
  2
CLASSES
  0
CLASS
  1
ACDBDICTIONARYWDFLT
  2
AcDbDictionaryWithDefault
  3
ObjectDBX Classes
 90
        0
 91
        1
280
     0
281
     0
  0
CLASS
  1
ACDBPLACEHOLDER
  2
AcDbPlaceHolder
  3
ObjectDBX Classes
 90
        0
 91
        2
280
     0
281
     0
  0
CLASS
  1
LAYOUT
  2
AcDbLayout
  3
ObjectDBX Classes
 90
        0
 91
        3
280
     0
281
     0
  0
CLASS
  1
MATERIAL
  2
AcDbMaterial
  3
ObjectDBX Classes
 90
     1153
 91
        3
280
     0
281
     0
  0
CLASS
  1
VISUALSTYLE
  2
AcDbVisualStyle
  3
ObjectDBX Classes
 90
     4095
 91
       24
280
     0
281
     0
  0
CLASS
  1
TABLESTYLE
  2
AcDbTableStyle
  3
ObjectDBX Classes
 90
     4095
 91
        1
280
     0
281
     0
  0
CLASS
  1
SCALE
  2
AcDbScale
  3
ObjectDBX Classes
 90
     1153
 91
       17
280
     0
281
     0
  0
CLASS
  1
MLEADERSTYLE
  2
AcDbMLeaderStyle
  3
ACDB_MLEADERSTYLE_CLASS
 90
     4095
 91
        1
280
     0
281
     0
  0
CLASS
  1
ACDBSECTIONVIEWSTYLE
  2
AcDbSectionViewStyle
  3
ObjectDBX Classes
 90
     1025
 91
        1
280
     0
281
     0
  0
CLASS
  1
ACDBDETAILVIEWSTYLE
  2
AcDbDetailViewStyle
  3
ObjectDBX Classes
 90
     1025
 91
        1
280
     0
281
     0
  0
CLASS
  1
MESH
  2
AcDbSubDMesh
  3
ObjectDBX Classes
 90
        0
 91
        1
280
     0
281
     1
  0
CLASS
  1
DICTIONARYVAR
  2
AcDbDictionaryVar
  3
ObjectDBX Classes
 90
        0
 91
        9
280
     0
281
     0
  0
CLASS
  1
CELLSTYLEMAP
  2
AcDbCellStyleMap
  3
ObjectDBX Classes
 90
     1152
 91
        1
280
     0
281
     0
  0
ENDSEC
  0
SECTION
  2
TABLES
  0
TABLE
  2
VPORT
  5
8
330
0
100
AcDbSymbolTable
 70
     1
  0
VPORT
  5
A8
330
8
100
AcDbSymbolTableRecord
100
AcDbViewportTableRecord
  2
*Active
 70
     0
 10
0.0
 20
0.0
 11
1.0
 21
1.0
 12
0.0000276483333437
 22
48.98980712890625
 13
0.0
 23
0.0
 14
0.5
 24
0.5
 15
0.5
 25
0.5
 16
-1.0
 26
-1.0
 36
1.0
 17
0.0
 27
0.0
 37
0.0
 40
1145.000033352032
 41
1.550525837444266
 42
50.0
 43
0.0
 44
0.0
 50
0.0
 51
0.0
 71
     0
 72
   100
 73
     1
 74
     3
 75
     0
 76
     0
 77
     0
 78
     0
281
     0
 65
     1
110
0.0
120
0.0
130
0.0
111
1.0
121
0.0
131
0.0
112
0.0
122
1.0
132
0.0
 79
     0
146
0.0
348
C9
 60
     3
 61
     5
292
     1
282
     1
141
0.0
142
0.0
 63
   250
421
  3355443
  0
ENDTAB
  0
TABLE
  2
LTYPE
  5
5
330
0
100
AcDbSymbolTable
 70
     1
  0
LTYPE
  5
14
330
5
100
AcDbSymbolTableRecord
100
AcDbLinetypeTableRecord
  2
ByBlock
 70
     0
  3

 72
    65
 73
     0
 40
0.0
  0
LTYPE
  5
15
330
5
100
AcDbSymbolTableRecord
100
AcDbLinetypeTableRecord
  2
ByLayer
 70
     0
  3

 72
    65
 73
     0
 40
0.0
  0
LTYPE
  5
16
330
5
100
AcDbSymbolTableRecord
100
AcDbLinetypeTableRecord
  2
Continuous
 70
     0
  3
Solid line
 72
    65
 73
     0
 40
0.0
  0
ENDTAB
  0
TABLE
  2
LAYER
  5
2
330
0
100
AcDbSymbolTable
 70
     3
  0
LAYER
  5
10
330
2
100
AcDbSymbolTableRecord
100
AcDbLayerTableRecord
  2
0
 70
     0
 62
     7
  6
Continuous
370
    -3
390
F
347
BB
  0
LAYER
  5
2B
330
2
100
AcDbSymbolTableRecord
100
AcDbLayerTableRecord
  2
ASHADE
 70
     4
 62
     7
  6
Continuous
370
    -3
390
2D
347
BB
  0
LAYER
  5
F8
330
2
100
AcDbSymbolTableRecord
100
AcDbLayerTableRecord
  2
OracDecor_skirtings
 70
     0
 62
   236
420
  9242426
  6
Continuous
370
    -3
390
F
347
BB
  0
ENDTAB
  0
TABLE
  2
STYLE
  5
3
330
0
100
AcDbSymbolTable
 70
     2
  0
STYLE
  5
11
330
3
100
AcDbSymbolTableRecord
100
AcDbTextStyleTableRecord
  2
Standard
 70
     0
 40
0.0
 41
1.0
 50
0.0
 71
     0
 42
0.2
  3
txt
  4

  0
STYLE
  5
2C
330
3
100
AcDbSymbolTableRecord
100
AcDbTextStyleTableRecord
  2
ASHADE
 70
     0
 40
0.2
 41
1.0
 50
0.0
 71
     0
 42
0.2
  3
simplex
  4

  0
ENDTAB
  0
TABLE
  2
VIEW
  5
6
330
0
100
AcDbSymbolTable
 70
     0
  0
ENDTAB
  0
TABLE
  2
UCS
  5
7
330
0
100
AcDbSymbolTable
 70
     0
  0
ENDTAB
  0
TABLE
  2
APPID
  5
9
330
0
100
AcDbSymbolTable
 70
     6
  0
APPID
  5
12
330
9
100
AcDbSymbolTableRecord
100
AcDbRegAppTableRecord
  2
ACAD
 70
     0
  0
APPID
  5
8F
330
9
100
AcDbSymbolTableRecord
100
AcDbRegAppTableRecord
  2
AVE_RENDER
 70
     0
  0
APPID
  5
90
330
9
100
AcDbSymbolTableRecord
100
AcDbRegAppTableRecord
  2
AVE_ENTITY_MATERIAL
 70
     0
  0
APPID
  5
9C
330
9
100
AcDbSymbolTableRecord
100
AcDbRegAppTableRecord
  2
AVE_FINISH
 70
     0
  0
APPID
  5
9D
330
9
100
AcDbSymbolTableRecord
100
AcDbRegAppTableRecord
  2
AVE_MATERIAL
 70
     0
  0
APPID
  5
9E
330
9
100
AcDbSymbolTableRecord
100
AcDbRegAppTableRecord
  2
AVE_GLOBAL
 70
     0
  0
ENDTAB
  0
TABLE
  2
DIMSTYLE
  5
A
330
0
100
AcDbSymbolTable
 70
     1
100
AcDbDimStyleTable
 71
     0
  0
DIMSTYLE
105
27
330
A
100
AcDbSymbolTableRecord
100
AcDbDimStyleTableRecord
  2
Standard
 70
     0
340
11
  0
ENDTAB
  0
TABLE
  2
BLOCK_RECORD
  5
1
330
0
100
AcDbSymbolTable
 70
     6
  0
BLOCK_RECORD
  5
1F
330
1
100
AcDbSymbolTableRecord
100
AcDbBlockTableRecord
  2
*Model_Space
340
22
 70
     0
280
     1
281
     0
  0
BLOCK_RECORD
  5
1B
330
1
100
AcDbSymbolTableRecord
100
AcDbBlockTableRecord
  2
*Paper_Space
340
1E
 70
     0
280
     1
281
     0
  0
BLOCK_RECORD
  5
23
330
1
100
AcDbSymbolTableRecord
100
AcDbBlockTableRecord
  2
*Paper_Space0
340
26
 70
     0
280
     1
281
     0
  0
BLOCK_RECORD
  5
2E
330
1
100
AcDbSymbolTableRecord
100
AcDbBlockTableRecord
  2
direct
340
0
 70
     0
280
     1
281
     0
  0
BLOCK_RECORD
  5
42
330
1
100
AcDbSymbolTableRecord
100
AcDbBlockTableRecord
  2
overhead
340
0
 70
     0
280
     1
281
     0
  0
BLOCK_RECORD
  5
5F
330
1
100
AcDbSymbolTableRecord
100
AcDbBlockTableRecord
  2
sh_spot
340
0
 70
     0
280
     1
281
     0
  0
BLOCK_RECORD
  5
91
330
1
100
AcDbSymbolTableRecord
100
AcDbBlockTableRecord
  2
AVE_RENDER
340
0
102
{BLKREFS
331
94
331
95
331
96
331
97
331
98
331
99
331
9A
331
9B
102
}
 70
     0
280
     1
281
     0
  0
BLOCK_RECORD
  5
9F
330
1
100
AcDbSymbolTableRecord
100
AcDbBlockTableRecord
  2
AVE_GLOBAL
340
0
102
{BLKREFS
331
A2
102
}
 70
     0
280
     1
281
     0
  0
ENDTAB
  0
ENDSEC
  0
SECTION
  2
BLOCKS
  0
BLOCK
  5
20
330
1F
100
AcDbEntity
  8
0
100
AcDbBlockBegin
  2
*Model_Space
 70
     0
 10
0.0
 20
0.0
 30
0.0
  3
*Model_Space
  1

  0
ENDBLK
  5
21
330
1F
100
AcDbEntity
  8
0
100
AcDbBlockEnd
  0
BLOCK
  5
1C
330
1B
100
AcDbEntity
 67
     1
  8
0
100
AcDbBlockBegin
  2
*Paper_Space
 70
     0
 10
0.0
 20
0.0
 30
0.0
  3
*Paper_Space
  1

  0
ENDBLK
  5
1D
330
1B
100
AcDbEntity
 67
     1
  8
0
100
AcDbBlockEnd
  0
BLOCK
  5
24
330
23
100
AcDbEntity
 67
     1
  8
0
100
AcDbBlockBegin
  2
*Paper_Space0
 70
     0
 10
0.0
 20
0.0
 30
0.0
  3
*Paper_Space0
  1

  0
ENDBLK
  5
25
330
23
100
AcDbEntity
 67
     1
  8
0
100
AcDbBlockEnd
  0
BLOCK
  5
40
330
2E
100
AcDbEntity
  8
0
100
AcDbBlockBegin
  2
direct
 70
     2
 10
0.0
 20
0.0
 30
0.0
  3
direct
  1

  0
ATTDEF
  5
2F
330
2E
100
AcDbEntity
  8
ASHADE
  6
Continuous
 62
     1
100
AcDbText
 10
0.0
 20
-0.1
 30
0.0
 40
0.2
  1

  7
ASHADE
 72
     1
 11
0.0
 21
-0.1
 31
0.0
100
AcDbAttributeDefinition
280
     0
  3
Light Name
  2
SNAME
 70
     0
280
     0
  0
ARC
  5
30
330
2E
100
AcDbEntity
  8
ASHADE
  6
Continuous
 62
     7
100
AcDbCircle
 10
0.0
 20
0.0
 30
0.0
 40
0.3
100
AcDbArc
 50
205.6792886194569
 51
334.3207113805431
  0
ARC
  5
31
330
2E
100
AcDbEntity
  8
ASHADE
  6
Continuous
 62
     7
100
AcDbCircle
 10
0.0
 20
0.0
 30
0.0
 40
0.3
100
AcDbArc
 50
25.67928861945685
 51
154.3207113805431
  0
LINE
  5
32
330
2E
100
AcDbEntity
  8
ASHADE
  6
Continuous
 62
     7
100
AcDbLine
 10
-0.21
 20
0.2142428528562855
 30
0.0
 11
-0.21
 21
0.5
 31
0.0
  0
LINE
  5
33
330
2E
100
AcDbEntity
  8
ASHADE
  6
Continuous
 62
     7
100
AcDbLine
 10
-0.11
 20
0.2791057147390572
 30
0.0
 11
-0.11
 21
0.5
 31
0.0
  0
LINE
  5
34
330
2E
100
AcDbEntity
  8
ASHADE
  6
Continuous
 62
     7
100
AcDbLine
 10
0.21
 20
0.2142428528562855
 30
0.0
 11
0.21
 21
0.5
 31
0.0
  0
ATTDEF
  5
35
330
2E
100
AcDbEntity
  8
ASHADE
  6
Continuous
 62
     7
100
AcDbText
 10
0.0
 20
0.25
 30
0.0
 40
0.01
  1

100
AcDbAttributeDefinition
280
     0
  3
Look-at Y
  2
LAY
 70
     1
280
     0
  0
ATTDEF
  5
36
330
2E
100
AcDbEntity
  8
ASHADE
  6
Continuous
 62
     7
100
AcDbText
 10
0.0
 20
0.22
 30
0.0
 40
0.01
  1
1
100
AcDbAttributeDefinition
280
     0
  3
Light Intensity
  2
INTENSITY
 70
     1
280
     0
  0
ATTDEF
  5
37
330
2E
100
AcDbEntity
  8
ASHADE
  6
Continuous
 62
     7
100
AcDbText
 10
0.0
 20
0.16
 30
0.0
 40
0.01
  1
-1
100
AcDbAttributeDefinition
280
     0
  3
*not used*
  2
BEAMD
 70
     1
280
     0
  0
ATTDEF
  5
38
330
2E
100
AcDbEntity
  8
ASHADE
  6
Continuous
 62
     7
100
AcDbText
 10
0.0
 20
0.175
 30
0.0
 40
0.01
  1
-1
100
AcDbAttributeDefinition
280
     0
  3
*not used*
  2
CONED
 70
     1
280
     0
  0
ATTDEF
  5
39
330
2E
100
AcDbEntity
  8
ASHADE
  6
Continuous
 62
     7
100
AcDbText
 10
0.0
 20
0.19
 30
0.0
 40
0.01
  1
0
100
AcDbAttributeDefinition
280
     0
  3
Depth Map Size
  2
CONEA
 70
     1
280
     0
  0
ATTDEF
  5
3A
330
2E
100
AcDbEntity
  8
ASHADE
  6
Continuous
 62
     7
100
AcDbText
 10
0.0
 20
0.2050000000000001
 30
0.0
 40
0.01
  1
1,1,1
100
AcDbAttributeDefinition
280
     0
  3
Light Color (RGB)
  2
COLOR
 70
     1
280
     0
  0
ATTDEF
  5
3B
330
2E
100
AcDbEntity
  8
ASHADE
  6
Continuous
 62
     7
100
AcDbText
 10
0.0
 20
0.235
 30
0.0
 40
0.01
  1

100
AcDbAttributeDefinition
280
     0
  3
Look-at Z
  2
LAZ
 70
     1
280
     0
  0
LINE
  5
3C
330
2E
100
AcDbEntity
  8
ASHADE
  6
Continuous
 62
     7
100
AcDbLine
 10
0.0
 20
0.3
 30
0.0
 11
0.0
 21
0.5
 31
0.0
  0
LINE
  5
3D
330
2E
100
AcDbEntity
  8
ASHADE
  6
Continuous
 62
     7
100
AcDbLine
 10
0.11
 20
0.2791057147390572
 30
0.0
 11
0.11
 21
0.5
 31
0.0
  0
ATTDEF
  5
3E
330
2E
100
AcDbEntity
  8
ASHADE
  6
Continuous
 62
     7
100
AcDbText
 10
0.0
 20
0.265
 30
0.0
 40
0.01
  1

100
AcDbAttributeDefinition
280
     0
  3
Look-at X
  2
LAX
 70
     1
280
     0
  0
ATTDEF
  5
3F
330
2E
100
AcDbEntity
  8
ASHADE
  6
Continuous
 62
     7
100
AcDbText
 10
0.0
 20
0.28
 30
0.0
 40
0.01
  1

100
AcDbAttributeDefinition
280
     0
  3

  2
GNAME
 70
     1
280
     0
  0
ENDBLK
  5
41
330
2E
100
AcDbEntity
  8
0
100
AcDbBlockEnd
  0
BLOCK
  5
5D
330
42
100
AcDbEntity
  8
0
100
AcDbBlockBegin
  2
overhead
 70
     2
 10
0.0
 20
0.0
 30
0.0
  3
overhead
  1

  0
ATTDEF
  5
43
330
42
100
AcDbEntity
  8
ASHADE
  6
Continuous
 62
     1
100
AcDbText
 10
0.0
 20
-0.1
 30
0.0
 40
0.2
  1

  7
ASHADE
 72
     1
 11
0.0
 21
-0.1
 31
0.0
100
AcDbAttributeDefinition
280
     0
  3
Light Name
  2
SNAME
 70
     0
280
     0
  0
ARC
  5
44
330
42
100
AcDbEntity
  8
ASHADE
  6
Continuous
 62
     7
100
AcDbCircle
 10
0.0
 20
0.0
 30
0.0
 40
0.3
100
AcDbArc
 50
205.6792886194569
 51
334.3207113805431
  0
LINE
  5
45
330
42
100
AcDbEntity
  8
ASHADE
  6
Continuous
 62
     7
100
AcDbLine
 10
-0.2041413561583015
 20
-0.2198324514393848
 30
0.0
 11
-0.2721884748777353
 21
-0.2931099352525131
 31
0.0
  0
LINE
  5
46
330
42
100
AcDbEntity
  8
ASHADE
  6
Continuous
 62
     7
100
AcDbLine
 10
-0.1096591641591904
 20
-0.2792398032442862
 30
0.0
 11
-0.1279356915190555
 21
-0.3257797704516673
 31
0.0
  0
LINE
  5
47
330
42
100
AcDbEntity
  8
ASHADE
  6
Continuous
 62
     7
100
AcDbLine
 10
0.0
 20
-0.2999999999999999
 30
0.0
 11
0.0
 21
-0.4
 31
0.0
  0
LINE
  5
48
330
42
100
AcDbEntity
  8
ASHADE
  6
Continuous
 62
     7
100
AcDbLine
 10
0.1096591641591904
 20
-0.2792398032442862
 30
0.0
 11
0.1279356915190555
 21
-0.3257797704516673
 31
0.0
  0
LINE
  5
49
330
42
100
AcDbEntity
  8
ASHADE
  6
Continuous
 62
     7
100
AcDbLine
 10
0.2041413561583015
 20
-0.2198324514393848
 30
0.0
 11
0.2721884748777353
 21
-0.2931099352525131
 31
0.0
  0
ARC
  5
4A
330
42
100
AcDbEntity
  8
ASHADE
  6
Continuous
 62
     7
100
AcDbCircle
 10
0.0
 20
0.0
 30
0.0
 40
0.3
100
AcDbArc
 50
25.67928861945685
 51
154.3207113805431
  0
LINE
  5
4B
330
42
100
AcDbEntity
  8
ASHADE
  6
Continuous
 62
     7
100
AcDbLine
 10
-0.2703701166919155
 20
0.13
 30
0.0
 11
-0.3154318028072347
 21
0.1516666666666666
 31
0.0
  0
LINE
  5
4C
330
42
100
AcDbEntity
  8
ASHADE
  6
Continuous
 62
     7
100
AcDbLine
 10
-0.2703701166919155
 20
-0.13
 30
0.0
 11
-0.3154318028072347
 21
-0.1516666666666666
 31
0.0
  0
LINE
  5
4D
330
42
100
AcDbEntity
  8
ASHADE
  6
Continuous
 62
     7
100
AcDbLine
 10
-0.2041413561583015
 20
0.2198324514393849
 30
0.0
 11
-0.2721884748777353
 21
0.2931099352525131
 31
0.0
  0
LINE
  5
4E
330
42
100
AcDbEntity
  8
ASHADE
  6
Continuous
 62
     7
100
AcDbLine
 10
-0.1096591641591904
 20
0.2792398032442862
 30
0.0
 11
-0.1279356915190555
 21
0.3257797704516674
 31
0.0
  0
LINE
  5
4F
330
42
100
AcDbEntity
  8
ASHADE
  6
Continuous
 62
     7
100
AcDbLine
 10
0.2703701166919155
 20
-0.13
 30
0.0
 11
0.3154318028072347
 21
-0.1516666666666666
 31
0.0
  0
LINE
  5
50
330
42
100
AcDbEntity
  8
ASHADE
  6
Continuous
 62
     7
100
AcDbLine
 10
0.2703701166919155
 20
0.13
 30
0.0
 11
0.3154318028072347
 21
0.1516666666666666
 31
0.0
  0
LINE
  5
51
330
42
100
AcDbEntity
  8
ASHADE
  6
Continuous
 62
     7
100
AcDbLine
 10
0.0
 20
0.3
 30
0.0
 11
0.0
 21
0.4
 31
0.0
  0
ATTDEF
  5
52
330
42
100
AcDbEntity
  8
ASHADE
  6
Continuous
 62
     7
100
AcDbText
 10
0.0
 20
0.22
 30
0.0
 40
0.01
  1
1
100
AcDbAttributeDefinition
280
     0
  3
Light Intensity
  2
INTENSITY
 70
     1
280
     0
  0
ATTDEF
  5
53
330
42
100
AcDbEntity
  8
ASHADE
  6
Continuous
 62
     7
100
AcDbText
 10
0.0
 20
0.16
 30
0.0
 40
0.01
  1
-1
100
AcDbAttributeDefinition
280
     0
  3
*not used*
  2
BEAMD
 70
     1
280
     0
  0
ATTDEF
  5
54
330
42
100
AcDbEntity
  8
ASHADE
  6
Continuous
 62
     7
100
AcDbText
 10
0.0
 20
0.175
 30
0.0
 40
0.01
  1
-1
100
AcDbAttributeDefinition
280
     0
  3
*not used*
  2
CONED
 70
     1
280
     0
  0
ATTDEF
  5
55
330
42
100
AcDbEntity
  8
ASHADE
  6
Continuous
 62
     7
100
AcDbText
 10
0.0
 20
0.19
 30
0.0
 40
0.01
  1
0
100
AcDbAttributeDefinition
280
     0
  3
Depth Map Size
  2
CONEA
 70
     1
280
     0
  0
ATTDEF
  5
56
330
42
100
AcDbEntity
  8
ASHADE
  6
Continuous
 62
     7
100
AcDbText
 10
0.0
 20
0.2050000000000001
 30
0.0
 40
0.01
  1
1,1,1
100
AcDbAttributeDefinition
280
     0
  3
Light Color (RGB)
  2
COLOR
 70
     1
280
     0
  0
ATTDEF
  5
57
330
42
100
AcDbEntity
  8
ASHADE
  6
Continuous
 62
     7
100
AcDbText
 10
0.0
 20
0.235
 30
0.0
 40
0.01
  1

100
AcDbAttributeDefinition
280
     0
  3
Look-at Z
  2
LAZ
 70
     1
280
     0
  0
ATTDEF
  5
58
330
42
100
AcDbEntity
  8
ASHADE
  6
Continuous
 62
     7
100
AcDbText
 10
0.0
 20
0.25
 30
0.0
 40
0.01
  1

100
AcDbAttributeDefinition
280
     0
  3
Look-at Y
  2
LAY
 70
     1
280
     0
  0
ATTDEF
  5
59
330
42
100
AcDbEntity
  8
ASHADE
  6
Continuous
 62
     7
100
AcDbText
 10
0.0
 20
0.265
 30
0.0
 40
0.01
  1

100
AcDbAttributeDefinition
280
     0
  3
Look-at X
  2
LAX
 70
     1
280
     0
  0
ATTDEF
  5
5A
330
42
100
AcDbEntity
  8
ASHADE
  6
Continuous
 62
     7
100
AcDbText
 10
0.0
 20
0.28
 30
0.0
 40
0.01
  1

100
AcDbAttributeDefinition
280
     0
  3

  2
GNAME
 70
     1
280
     0
  0
LINE
  5
5B
330
42
100
AcDbEntity
  8
ASHADE
  6
Continuous
 62
     7
100
AcDbLine
 10
0.1096591641591904
 20
0.2792398032442862
 30
0.0
 11
0.1279356915190555
 21
0.3257797704516674
 31
0.0
  0
LINE
  5
5C
330
42
100
AcDbEntity
  8
ASHADE
  6
Continuous
 62
     7
100
AcDbLine
 10
0.2041413561583015
 20
0.2198324514393849
 30
0.0
 11
0.2721884748777353
 21
0.2931099352525131
 31
0.0
  0
ENDBLK
  5
5E
330
42
100
AcDbEntity
  8
0
100
AcDbBlockEnd
  0
BLOCK
  5
85
330
5F
100
AcDbEntity
  8
0
100
AcDbBlockBegin
  2
sh_spot
 70
     2
 10
0.0
 20
0.0
 30
0.0
  3
sh_spot
  1

  0
LINE
  5
60
330
5F
100
AcDbEntity
  8
ASHADE
  6
Continuous
 62
     7
100
AcDbLine
 10
0.25
 20
0.26
 30
0.0
 11
-0.25
 21
0.26
 31
0.0
  0
LINE
  5
61
330
5F
100
AcDbEntity
  8
ASHADE
  6
Continuous
 62
     7
100
AcDbLine
 10
-0.25
 20
-0.3399999999999999
 30
0.0
 11
0.25
 21
-0.3399999999999999
 31
0.0
  0
ATTDEF
  5
62
330
5F
100
AcDbEntity
  8
ASHADE
  6
Continuous
 62
     1
100
AcDbText
 10
0.0
 20
-0.1
 30
0.0
 40
0.2
  1

  7
ASHADE
 72
     1
 11
0.0
 21
-0.1
 31
0.0
100
AcDbAttributeDefinition
280
     0
  3
Light Name
  2
SNAME
 70
     0
280
     0
  0
LINE
  5
63
330
5F
100
AcDbEntity
  8
ASHADE
  6
Continuous
 62
     7
100
AcDbLine
 10
-0.25
 20
-0.13
 30
0.0
 11
-0.25
 21
-0.3399999999999999
 31
0.0
  0
LINE
  5
64
330
5F
100
AcDbEntity
  8
ASHADE
  6
Continuous
 62
     7
100
AcDbLine
 10
-0.25
 20
-0.18
 30
0.0
 11
-0.29
 21
-0.18
 31
0.0
  0
LINE
  5
65
330
5F
100
AcDbEntity
  8
ASHADE
  6
Continuous
 62
     7
100
AcDbLine
 10
-0.29
 20
-0.22
 30
0.0
 11
-0.25
 21
-0.22
 31
0.0
  0
LINE
  5
66
330
5F
100
AcDbEntity
  8
ASHADE
  6
Continuous
 62
     7
100
AcDbLine
 10
-0.29
 20
-0.18
 30
0.0
 11
-0.29
 21
-0.22
 31
0.0
  0
LINE
  5
67
330
5F
100
AcDbEntity
  8
ASHADE
  6
Continuous
 62
     7
100
AcDbLine
 10
-0.1045454545454545
 20
0.26
 30
0.0
 11
-0.15
 21
0.46
 31
0.0
  0
LINE
  5
68
330
5F
100
AcDbEntity
  8
ASHADE
  6
Continuous
 62
     7
100
AcDbLine
 10
-0.21
 20
0.26
 30
0.0
 11
-0.301304347826087
 21
0.46
 31
0.0
  0
LINE
  5
69
330
5F
100
AcDbEntity
  8
ASHADE
  6
Continuous
 62
     7
100
AcDbLine
 10
-0.25
 20
0.26
 30
0.0
 11
-0.25
 21
0.13
 31
0.0
  0
LINE
  5
6A
330
5F
100
AcDbEntity
  8
ASHADE
  6
Continuous
 62
     7
100
AcDbLine
 10
-0.25
 20
0.22
 30
0.0
 11
-0.29
 21
0.22
 31
0.0
  0
LINE
  5
6B
330
5F
100
AcDbEntity
  8
ASHADE
  6
Continuous
 62
     7
100
AcDbLine
 10
-0.29
 20
0.1799999999999999
 30
0.0
 11
-0.25
 21
0.1799999999999999
 31
0.0
  0
LINE
  5
6C
330
5F
100
AcDbEntity
  8
ASHADE
  6
Continuous
 62
     7
100
AcDbLine
 10
-0.29
 20
0.22
 30
0.0
 11
-0.29
 21
0.1799999999999999
 31
0.0
  0
ATTDEF
  5
6D
330
5F
100
AcDbEntity
  8
ASHADE
  6
Continuous
 62
     7
100
AcDbText
 10
0.0
 20
-0.24
 30
0.0
 40
0.01
  1
0
100
AcDbAttributeDefinition
280
     0
  3
Depth Map Size
  2
ZSIZE
 70
     1
280
     0
  0
ATTDEF
  5
6E
330
5F
100
AcDbEntity
  8
ASHADE
  6
Continuous
 62
     7
100
AcDbText
 10
0.0
 20
-0.3300000000000001
 30
0.0
 40
0.01
  1
0,0,0
100
AcDbAttributeDefinition
280
     0
  3
Look-from XYZ
  2
LFXYZ
 70
     1
280
     0
  0
ATTDEF
  5
6F
330
5F
100
AcDbEntity
  8
ASHADE
  6
Continuous
 62
     7
100
AcDbText
 10
0.0
 20
-0.315
 30
0.0
 40
0.01
  1
0.0
100
AcDbAttributeDefinition
280
     0
  3
Beam Distribution
  2
BEAMDI
 70
     1
280
     0
  0
ATTDEF
  5
70
330
5F
100
AcDbEntity
  8
ASHADE
  6
Continuous
 62
     7
100
AcDbText
 10
0.0
 20
-0.3
 30
0.0
 40
0.01
  1
0.0
100
AcDbAttributeDefinition
280
     0
  3
Cone Delta
  2
CONEDE
 70
     1
280
     0
  0
ATTDEF
  5
71
330
5F
100
AcDbEntity
  8
ASHADE
  6
Continuous
 62
     7
100
AcDbText
 10
0.0
 20
-0.2850000000000001
 30
0.0
 40
0.01
  1
10.0
100
AcDbAttributeDefinition
280
     0
  3
Cone Angle
  2
CONEAN
 70
     1
280
     0
  0
ATTDEF
  5
72
330
5F
100
AcDbEntity
  8
ASHADE
  6
Continuous
 62
     7
100
AcDbText
 10
0.0
 20
-0.27
 30
0.0
 40
0.01
  1
-1
100
AcDbAttributeDefinition
280
     0
  3
*not used*
  2
BIASMAX
 70
     1
280
     0
  0
ATTDEF
  5
73
330
5F
100
AcDbEntity
  8
ASHADE
  6
Continuous
 62
     7
100
AcDbText
 10
0.0
 20
-0.255
 30
0.0
 40
0.01
  1
-1
100
AcDbAttributeDefinition
280
     0
  3
*not used*
  2
BIASMIN
 70
     1
280
     0
  0
ATTDEF
  5
74
330
5F
100
AcDbEntity
  8
ASHADE
  6
Continuous
 62
     7
100
AcDbText
 10
0.0
 20
-0.225
 30
0.0
 40
0.01
  1
1,1,1
100
AcDbAttributeDefinition
280
     0
  3
Light Color (RGB)
  2
COLOR
 70
     1
280
     0
  0
ATTDEF
  5
75
330
5F
100
AcDbEntity
  8
ASHADE
  6
Continuous
 62
     7
100
AcDbText
 10
0.0
 20
-0.21
 30
0.0
 40
0.01
  1
1
100
AcDbAttributeDefinition
280
     0
  3
Light Intensity
  2
INTENSITY
 70
     1
280
     0
  0
ATTDEF
  5
76
330
5F
100
AcDbEntity
  8
ASHADE
  6
Continuous
 62
     7
100
AcDbText
 10
0.0
 20
-0.15
 30
0.0
 40
0.01
  1

100
AcDbAttributeDefinition
280
     0
  3

  2
GNAME
 70
     1
280
     0
  0
ATTDEF
  5
77
330
5F
100
AcDbEntity
  8
ASHADE
  6
Continuous
 62
     7
100
AcDbText
 10
0.0
 20
-0.195
 30
0.0
 40
0.01
  1

100
AcDbAttributeDefinition
280
     0
  3
Look-at Z
  2
LAZ
 70
     1
280
     0
  0
ATTDEF
  5
78
330
5F
100
AcDbEntity
  8
ASHADE
  6
Continuous
 62
     7
100
AcDbText
 10
0.0
 20
-0.18
 30
0.0
 40
0.01
  1

100
AcDbAttributeDefinition
280
     0
  3
Look-at Y
  2
LAY
 70
     1
280
     0
  0
ATTDEF
  5
79
330
5F
100
AcDbEntity
  8
ASHADE
  6
Continuous
 62
     7
100
AcDbText
 10
0.0
 20
-0.165
 30
0.0
 40
0.01
  1

100
AcDbAttributeDefinition
280
     0
  3
Look-at X
  2
LAX
 70
     1
280
     0
  0
LINE
  5
7A
330
5F
100
AcDbEntity
  8
ASHADE
  6
Continuous
 62
     7
100
AcDbLine
 10
0.25
 20
-0.3399999999999999
 30
0.0
 11
0.25
 21
-0.13
 31
0.0
  0
LINE
  5
7B
330
5F
100
AcDbEntity
  8
ASHADE
  6
Continuous
 62
     7
100
AcDbLine
 10
0.25
 20
-0.18
 30
0.0
 11
0.29
 21
-0.18
 31
0.0
  0
LINE
  5
7C
330
5F
100
AcDbEntity
  8
ASHADE
  6
Continuous
 62
     7
100
AcDbLine
 10
0.29
 20
-0.22
 30
0.0
 11
0.25
 21
-0.22
 31
0.0
  0
LINE
  5
7D
330
5F
100
AcDbEntity
  8
ASHADE
  6
Continuous
 62
     7
100
AcDbLine
 10
0.29
 20
-0.18
 30
0.0
 11
0.29
 21
-0.22
 31
0.0
  0
LINE
  5
7E
330
5F
100
AcDbEntity
  8
ASHADE
  6
Continuous
 62
     7
100
AcDbLine
 10
0.21
 20
0.26
 30
0.0
 11
0.301304347826087
 21
0.46
 31
0.0
  0
LINE
  5
7F
330
5F
100
AcDbEntity
  8
ASHADE
  6
Continuous
 62
     7
100
AcDbLine
 10
0.1045454545454545
 20
0.26
 30
0.0
 11
0.15
 21
0.46
 31
0.0
  0
LINE
  5
80
330
5F
100
AcDbEntity
  8
ASHADE
  6
Continuous
 62
     7
100
AcDbLine
 10
0.0
 20
0.26
 30
0.0
 11
0.0
 21
0.46
 31
0.0
  0
LINE
  5
81
330
5F
100
AcDbEntity
  8
ASHADE
  6
Continuous
 62
     7
100
AcDbLine
 10
0.25
 20
0.13
 30
0.0
 11
0.25
 21
0.26
 31
0.0
  0
LINE
  5
82
330
5F
100
AcDbEntity
  8
ASHADE
  6
Continuous
 62
     7
100
AcDbLine
 10
0.25
 20
0.22
 30
0.0
 11
0.29
 21
0.22
 31
0.0
  0
LINE
  5
83
330
5F
100
AcDbEntity
  8
ASHADE
  6
Continuous
 62
     7
100
AcDbLine
 10
0.29
 20
0.1799999999999999
 30
0.0
 11
0.25
 21
0.1799999999999999
 31
0.0
  0
LINE
  5
84
330
5F
100
AcDbEntity
  8
ASHADE
  6
Continuous
 62
     7
100
AcDbLine
 10
0.29
 20
0.22
 30
0.0
 11
0.29
 21
0.1799999999999999
 31
0.0
  0
ENDBLK
  5
86
330
5F
100
AcDbEntity
  8
0
100
AcDbBlockEnd
  0
BLOCK
  5
92
330
91
100
AcDbEntity
  8
ASHADE
100
AcDbBlockBegin
  2
AVE_RENDER
 70
     0
 10
0.0
 20
0.0
 30
0.0
  3
AVE_RENDER
  1
AVE_RENDER
  0
ENDBLK
  5
93
330
91
100
AcDbEntity
  8
0
100
AcDbBlockEnd
  0
BLOCK
  5
A0
330
9F
100
AcDbEntity
  8
ASHADE
100
AcDbBlockBegin
  2
AVE_GLOBAL
 70
     0
 10
0.0
 20
0.0
 30
0.0
  3
AVE_GLOBAL
  1
AVE_GLOBAL
  0
ENDBLK
  5
A1
330
9F
100
AcDbEntity
  8
0
100
AcDbBlockEnd
  0
ENDSEC
  0
SECTION
  2
ENTITIES
  0
INSERT
  5
94
330
1F
100
AcDbEntity
  8
ASHADE
 62
     1
100
AcDbBlockReference
  2
AVE_RENDER
 10
0.0
 20
0.0
 30
0.0
1001
AVE_RENDER
1002
{
1070
     7
1000
Pref
1070
    30
1070
    20
1070
     1
1070
     0
1000

1070
    10
1070
     1
1070
    10
1040
1.0
1070
     1
1040
0.3
1040
0.7
1040
0.0
1040
10.0
1010
-1.0
1020
-1.0
1030
-1.0
1040
0.3
1070
    49
1070
     0
1070
     0
1010
1.0
1020
1.0
1030
1.0
1040
45.0
1070
     1
1070
     0
1000
WCS
1040
0.0
1070
     0
1040
10.0
1002
}
  0
INSERT
  5
95
330
1F
100
AcDbEntity
  8
ASHADE
 62
     3
100
AcDbBlockReference
  2
AVE_RENDER
 10
0.0
 20
0.0
 30
0.0
1001
AVE_RENDER
1002
{
1070
     0
1000
Full Opt
1070
     0
1070
     1
1070
     1
1070
     1
1070
     0
1070
     0
1070
     0
1070
     1
1070
     1
1040
0.0001
1040
0.0001
1002
}
  0
INSERT
  5
96
330
1F
100
AcDbEntity
  8
ASHADE
 62
     4
100
AcDbBlockReference
  2
AVE_RENDER
 10
0.0
 20
0.0
 30
0.0
1001
AVE_RENDER
1002
{
1070
     0
1000
Quick Opt
1070
     0
1070
     1
1070
     1
1070
     1
1070
     0
1070
     0
1070
     1
1002
}
  0
INSERT
  5
97
330
1F
100
AcDbEntity
  8
ASHADE
 62
     5
100
AcDbBlockReference
  2
AVE_RENDER
 10
0.0
 20
0.0
 30
0.0
1001
AVE_RENDER
1002
{
1070
     1
1000
Scanl Opt
1070
     2
1070
     0
1070
     2
1040
2.0
1040
4.0
1070
     0
1070
     1
1070
     0
1040
0.03
1002
}
  0
INSERT
  5
98
330
1F
100
AcDbEntity
  8
ASHADE
 62
     6
100
AcDbBlockReference
  2
AVE_RENDER
 10
0.0
 20
0.0
 30
0.0
1001
AVE_RENDER
1002
{
1070
     2
1000
Raytr Opt
1070
     2
1070
     0
1070
     2
1040
2.0
1040
4.0
1070
     0
1070
     1
1070
     1
1040
0.03
1070
     3
1040
0.03
1002
}
  0
INSERT
  5
99
330
1F
100
AcDbEntity
  8
ASHADE
 62
     7
100
AcDbBlockReference
  2
AVE_RENDER
 10
0.0
 20
0.0
 30
0.0
1001
AVE_RENDER
1002
{
1070
     0
1000
RFile Opt
1070
     1
1070
   640
1070
   480
1070
 10000
1070
     1
1070
     8
1070
     8
1070
     0
1070
     0
1070
     0
1070
     0
1070
     0
1070
     0
1070
     0
1002
}
  0
INSERT
  5
9A
330
1F
100
AcDbEntity
  8
ASHADE
 62
     8
100
AcDbBlockReference
  2
AVE_RENDER
 10
0.0
 20
0.0
 30
0.0
1001
AVE_RENDER
1002
{
1070
     0
1000
Fog Opt
1070
     0
1070
     0
1040
0.0
1040
1.0
1040
0.0
1040
1.0
1010
0.5
1020
0.5
1030
0.5
1002
}
  0
INSERT
  5
9B
330
1F
100
AcDbEntity
  8
ASHADE
 62
     9
100
AcDbBlockReference
  2
AVE_RENDER
 10
0.0
 20
0.0
 30
0.0
1001
AVE_RENDER
1002
{
1070
     0
1000
BG Opt
1070
     0
1070
     1
1010
0.0
1020
0.0
1030
0.0
1010
1.0
1020
0.0
1030
0.0
1010
0.0
1020
1.0
1030
0.0
1010
0.0
1020
0.0
1030
1.0
1040
0.5
1040
0.33
1040
0.0
1000

1070
     1
1000

1070
     1
1070
     1
1040
1.0
1040
1.0
1040
0.0
1040
0.0
1070
     0
1002
}
  0
INSERT
  5
A2
330
1F
100
AcDbEntity
  8
ASHADE
 62
     1
100
AcDbBlockReference
  2
AVE_GLOBAL
 10
0.0
 20
0.0
 30
0.0
1001
AVE_MATERIAL
1002
{
1000
*GLOBAL*
1000
2
1000
Global finish.
1002
{
1002
}
1002
{
1070
    63
1002
{
1002
{
1010
-1.0
1020
-1.0
1030
-1.0
1002
}
1040
0.1000000014901161
1000

1040
0.0
1002
{
1002
}
1040
0.0
1002
{
1002
}
1040
0.0
1002
}
1002
{
1002
{
1010
-1.0
1020
-1.0
1030
-1.0
1002
}
1040
0.6999999880790711
1000

1040
0.0
1002
{
1002
}
1040
0.0
1002
{
1002
}
1040
0.0
1002
}
1002
{
1002
{
1010
-1.0
1020
-1.0
1030
-1.0
1002
}
1040
0.2000000029802322
1000

1040
0.0
1002
{
1002
}
1040
0.0
1002
{
1002
}
1040
0.0
1002
}
1002
{
1070
     0
1002
{
1070
     1
1002
{
1040
1.0
1040
1.0
1000

1040
0.0
1002
{
1002
}
1040
0.0
1002
{
1002
}
1040
0.0
1002
}
1002
}
1040
1.0
1040
0.0
1040
0.0
1002
}
1002
{
1040
1.0
1040
1.0
1000

1040
0.0
1002
{
1002
}
1040
0.0
1002
{
1002
}
1040
0.0
1002
}
1002
{
1040
0.5
1040
1.0
1000

1040
0.0
1002
{
1002
}
1040
0.0
1002
{
1002
}
1040
0.0
1002
}
1002
{
1070
     0
1040
0.0
1002
{
1002
}
1040
1.0
1002
{
1002
}
1040
0.0
1002
}
1002
{
1040
0.0
1002
{
1002
{
1010
0.0
1020
0.0
1030
0.0
1002
}
1040
1.0
1000

1040
0.0
1002
{
1002
}
1040
0.0
1002
{
1002
}
1040
0.0
1002
}
1002
}
1002
{
1002
{
1070
     1
1002
{
1040
0.0
1040
1.0
1000

1040
0.0
1002
{
1002
}
1040
0.0
1002
{
1002
}
1040
0.0
1002
}
1002
}
1040
0.0
1002
{
1002
}
1010
1.0
1020
0.0
1030
0.0
1010
0.0
1020
1.0
1030
0.0
1010
0.0
1020
0.0
1030
1.0
1070
     0
1002
}
1002
{
1002
{
1040
1.0
1040
1.0
1002
{
1070
     1
1002
{
1040
1.0
1040
1.0
1000

1040
0.0
1002
{
1002
}
1040
0.0
1002
{
1002
}
1040
0.0
1002
}
1002
}
1002
}
1070
     0
1040
0.0
1002
{
1002
}
1002
}
1002
{
1002
}
1002
}
1002
{
1071
        3
1070
     3
1070
     0
1002
{
1070
     2
1070
     0
1070
     0
1040
0.0
1002
}
1070
     0
1070
     2
1002
{
1002
}
1002
}
1002
{
1040
8030.0
1040
190.3000030517578
1040
0.3050000071525574
1040
228.0
1040
545.0
1040
14.0
1040
17.39999961853027
1040
0.4560000002384186
1002
}
1002
}
  0
MESH
  5
F9
330
1F
100
AcDbEntity
  8
OracDecor_skirtings
 62
   113
420
  5759375
160
             30104
310
98750000440300000C00000013000000020000003C00000006000000020000000000002000408F40000000601EA038C0000000C0ABB958400000002000408F400000000096E330C000000020EFF557400C000000130000000A0000003C00000006000000020000000000002000408F4000000080F1AA30C000000080706158
310
400000002000408F400000000096E330C000000020EFF557400C00000013000000120000003C00000006000000020000000000002000408F4000000080F1AA30C000000080706158400000002000408F40000000603D3538C0000000C07F3259400C000000130000001A0000003C0000000600000002000000000000200040
310
8F40000000601EA038C0000000C0ABB958400000002000408F40000000603D3538C0000000C07F3259400C00000013000000220000003C00000006000000020000000000002000408F40000000E0E8FD38C0000000201C7757400000002000408F40000000C0000039C0000000C0E92357400C000000130000002A0000003C
310
00000006000000020000000000002000408F40000000C0000039C0000000C0E92357400000002000408F40000000C0000031C0000000A0998957400C00000013000000320000003C00000006000000020000000000002000408F40000000E0E8FD38C0000000201C7757400000002000408F40000000C0000031C0000000A0
310
998957400C000000130000003A0000003C00000006000000020000000000002000408F40000000C0000039C0000000C0E92357400000002000408F40000000C0000031C0000000C00A7145400C00000013000000420000003C00000006000000020000000000002000408F40000000C0000031C0000000A099895740000000
310
2000408F40000000C0000031C0000000C00A7145400C000000130000004A0000003C00000006000000020000000000002000408F40000000000000E6BE00000080A4125D400000002000408F40000000000000E6BE0000000000005E400C00000013000000520000003C00000006000000020000000000002000408F400000
310
00000B1D0AC00000006002EA5D400000002000408F40000000000000E6BE0000000000005E400C000000130000005A0000003C00000006000000020000000000002000408F40000000000000E6BE00000080A4125D400000002000408F40000000000B1D0AC00000006002EA5D400C00000013000000620000003C00000006
310
000000020000000000002000408F40000000000B1D0AC00000006002EA5D400000002000408F40000000C07C2F12C0000000E0FEDC5D400C000000130000006A0000003C00000006000000020000000000002000408F40000000000000E6BE00000080A4125D400000002000408F40000000C07C2F12C0000000E0FEDC5D40
310
0C00000013000000720000003C00000006000000020000000000002000408F400000000090E1B2BF000000008BFA5C400000002000408F40000000403F3717C000000060DECB5D400C000000130000007A0000003C00000006000000020000000000002000408F40000000403F3717C000000060DECB5D400000002000408F
310
40000000403B3B1CC0000000C057B65D400C00000013000000820000003C00000006000000020000000000002000408F400000000090E1B2BF000000008BFA5C400000002000408F40000000403B3B1CC0000000C057B65D400C000000130000008A0000003C00000006000000020000000000002000408F400000000090E1
310
B2BF000000008BFA5C400000002000408F40000000000000E6BE00000080A4125D400C00000013000000920000003C00000006000000020000000000002000408F40000000403F3717C000000060DECB5D400000002000408F40000000C07C2F12C0000000E0FEDC5D400C000000130000009A0000003C0000000600000002
310
0000000000002000408F40000000007C33D2BF00000060F3E55C400000002000408F400000000090E1B2BF000000008BFA5C400C00000013000000A20000003C00000006000000020000000000002000408F40000000C036A620C000000000F99B5D400000002000408F40000000403B3B1CC0000000C057B65D400C000000
310
13000000AA0000003C00000006000000020000000000002000408F40000000C036A620C000000000F99B5D400000002000408F40000000007C33D2BF00000060F3E55C400C00000013000000B20000003C00000006000000020000000000002000408F40000000004A33E3BF00000040FCD75C400000002000408F40000000
310
007C33D2BF00000060F3E55C400C00000013000000BA0000003C00000006000000020000000000002000408F40000000C036A620C000000000F99B5D400000002000408F40000000C0A81223C0000000E02A7E5D400C00000013000000C20000003C00000006000000020000000000002000408F40000000004A33E3BF0000
310
0040FCD75C400000002000408F40000000C0A81223C0000000E02A7E5D400C00000013000000CA0000003C00000006000000020000000000002000408F40000000009D6DF2BF000000007FBD5C400000002000408F40000000004A33E3BF00000040FCD75C400C00000013000000D20000003C000000060000000200000000
310
00002000408F40000000C0E86B25C000000020AA5C5D400000002000408F40000000C0A81223C0000000E02A7E5D400C00000013000000DA0000003C00000006000000020000000000002000408F40000000009D6DF2BF000000007FBD5C400000002000408F40000000C0E86B25C000000020AA5C5D400C00000013000000
310
E20000003C00000006000000020000000000002000408F40000000C0E86B25C000000020AA5C5D400000002000408F4000000000FCBB27C000000080E7365D400C00000013000000EA0000003C00000006000000020000000000002000408F40000000009D6DF2BF000000007FBD5C400000002000408F4000000000FCBB27
310
C000000080E7365D400C00000013000000F20000003C00000006000000020000000000002000408F4000000000455BF7BF000000600B965C400000002000408F40000000009D6DF2BF000000007FBD5C400C00000013000000FA0000003C00000006000000020000000000002000408F40000000C06A0A2AC0000000603B0C
310
5D400000002000408F4000000000FCBB27C000000080E7365D400C00000013000000020100003C00000006000000020000000000002000408F40000000C06A0A2AC0000000603B0C5D400000002000408F4000000000455BF7BF000000600B965C400C000000130000000A0100003C00000006000000020000000000002000
310
408F4000000000455BF7BF000000A0F4695C400000002000408F4000000000455BF7BF000000600B965C400C00000013000000120100003C00000006000000020000000000002000408F40000000C06A0A2AC0000000603B0C5D400000002000408F4000000000A2372CC000000040EFDE5C400C000000130000001A010000
310
3C00000006000000020000000000002000408F4000000000455BF7BF000000A0F4695C400000002000408F4000000000A2372CC000000040EFDE5C400C00000013000000220100003C00000006000000020000000000002000408F40000000009D6DF2BF0000000081425C400000002000408F4000000000455BF7BF000000
310
A0F4695C400C000000130000002A0100003C00000006000000020000000000002000408F4000000060F04B2EC00000008085AE5C400000002000408F4000000000A2372CC000000040EFDE5C400C00000013000000320100003C00000006000000020000000000002000408F40000000009D6DF2BF0000000081425C400000
310
002000408F4000000060F04B2EC00000008085AE5C400C000000130000003A0100003C00000006000000020000000000002000408F40000000006826C1BF0000000000205B400000002000408F40000000000000E6BE0000000000405B400C00000013000000420100003C00000006000000020000000000002000408F4000
310
0000000000E6BE0000000000405B400000002000408F40000000000000E6BE000000805BED5B400C000000130000004A0100003C00000006000000020000000000002000408F40000000000000E6BE000000805BED5B400000002000408F400000000090E1B2BF0000000075055C400C00000013000000520100003C000000
310
06000000020000000000002000408F40000000006826C1BF0000000000205B400000002000408F400000000090E1B2BF0000000075055C400C000000130000005A0100003C00000006000000020000000000002000408F40000000001600E0BF0000000093085B400000002000408F40000000006826C1BF0000000000205B
310
400C00000013000000620100003C00000006000000020000000000002000408F400000000090E1B2BF0000000075055C400000002000408F40000000007C33D2BF000000A00C1A5C400C000000130000006A0100003C00000006000000020000000000002000408F40000000001600E0BF0000000093085B40000000200040
310
8F40000000007C33D2BF000000A00C1A5C400C00000013000000720100003C00000006000000020000000000002000408F40000000000B00F0BF0000000000005B400000002000408F40000000001600E0BF0000000093085B400C000000130000007A0100003C00000006000000020000000000002000408F40000000007C
310
33D2BF000000A00C1A5C400000002000408F40000000004A33E3BF000000C003285C400C00000013000000820100003C00000006000000020000000000002000408F40000000000B00F0BF0000000000005B400000002000408F40000000004A33E3BF000000C003285C400C000000130000008A0100003C00000006000000
310
020000000000002000408F40000000000B00F0BF0000000000005B400000002000408F4000000080383309C00000000000005B400C00000013000000920100003C00000006000000020000000000002000408F40000000004A33E3BF000000C003285C400000002000408F40000000009D6DF2BF0000000081425C400C0000
310
00130000009A0100003C00000006000000020000000000002000408F40000000009D6DF2BF0000000081425C400000002000408F4000000080383309C00000000000005B400C00000013000000A20100003C00000006000000020000000000002000408F40000000C0F45E13C000000060E5F85A400000002000408F400000
310
0080383309C00000000000005B400C00000013000000AA0100003C00000006000000020000000000002000408F4000000060F04B2EC00000008085AE5C400000002000408F40000000E0182830C0000000E02F7A5C400C00000013000000B20100003C00000006000000020000000000002000408F40000000C0F45E13C000
310
000060E5F85A400000002000408F40000000E0182830C0000000E02F7A5C400C00000013000000BA0100003C00000006000000020000000000002000408F40000000C0F45E13C000000060E5F85A400000002000408F40000000C00A171AC000000020BCEA5A400C00000013000000C20100003C0000000600000002000000
310
0000002000408F40000000A0542531C0000000C018415C400000002000408F40000000E0182830C0000000E02F7A5C400C00000013000000CA0100003C00000006000000020000000000002000408F40000000A0542531C0000000C018415C400000002000408F40000000C00A171AC000000020BCEA5A400C000000130000
310
00D20100003C00000006000000020000000000002000408F40000000E0104D20C000000020D0CE5A400000002000408F40000000C00A171AC000000020BCEA5A400C00000013000000DA0100003C00000006000000020000000000002000408F40000000A0542531C0000000C018415C400000002000408F40000000A02210
310
32C0000000004C065C400C00000013000000E20100003C00000006000000020000000000002000408F40000000E0104D20C000000020D0CE5A400000002000408F40000000A0221032C0000000004C065C400C00000013000000EA0100003C00000006000000020000000000002000408F40000000E0104D20C000000020D0
310
CE5A400000002000408F40000000809E6D23C0000000E05CA55A400C00000013000000F20100003C00000006000000020000000000002000408F400000008026EC32C0000000A018C95B400000002000408F40000000A0221032C0000000004C065C400C00000013000000FA0100003C000000060000000200000000000020
310
00408F400000008026EC32C0000000A018C95B400000002000408F40000000809E6D23C0000000E05CA55A400C00000013000000020200003C00000006000000020000000000002000408F4000000000FA5826C0000000606E6F5A400000002000408F40000000809E6D23C0000000E05CA55A400C000000130000000A0200
310
003C00000006000000020000000000002000408F400000008026EC32C0000000A018C95B400000002000408F40000000400BBD33C00000008079885B400C00000013000000120200003C00000006000000020000000000002000408F4000000000FA5826C0000000606E6F5A400000002000408F40000000400BBD33C00000
310
008079885B400C000000130000001A0200003C00000006000000020000000000002000408F4000000000FA5826C0000000606E6F5A400000002000408F4000000000390929C0000000406D2D5A400C00000013000000220200003C00000006000000020000000000002000408F40000000C02B8534C0000000E074435B4000
310
00002000408F40000000400BBD33C00000008079885B400C000000130000002A0200003C00000006000000020000000000002000408F40000000C02B8534C0000000E074435B400000002000408F4000000000390929C0000000406D2D5A400C00000013000000320200003C00000006000000020000000000002000408F40
310
000000006B6B2BC00000000027E159400000002000408F4000000000390929C0000000406D2D5A400C000000130000003A0200003C00000006000000020000000000002000408F40000000C02B8534C0000000E074435B400000002000408F40000000C0DE3935C0000000A0B9FD5A400C00000013000000420200003C0000
310
0006000000020000000000002000408F40000000006B6B2BC00000000027E159400000002000408F40000000C0DE3935C0000000A0B9FD5A400C000000130000004A0200003C00000006000000020000000000002000408F40000000006B6B2BC00000000027E159400000002000408F4000000080747B2DC0000000201F8B
310
59400C00000013000000520200003C00000006000000020000000000002000408F40000000A01EDE35C0000000406AB65A400000002000408F40000000C0DE3935C0000000A0B9FD5A400C000000130000005A0200003C00000006000000020000000000002000408F40000000A01EDE35C0000000406AB65A400000002000
310
408F4000000080747B2DC0000000201F8B59400C00000013000000620200003C00000006000000020000000000002000408F40000000A0E82A2FC0000000A0B32D59400000002000408F4000000080747B2DC0000000201F8B59400C000000130000006A0200003C00000006000000020000000000002000408F40000000A0
310
1EDE35C0000000406AB65A400000002000408F4000000000A77436C000000040576C5A400C00000013000000720200003C00000006000000020000000000002000408F40000000A0E82A2FC0000000A0B32D59400000002000408F4000000000A77436C000000040576C5A400C000000130000007A0200003C000000060000
310
00020000000000002000408F40000000A0E82A2FC0000000A0B32D59400000002000408F4000000020413B30C000000000A2C958400C00000013000000820200003C00000006000000020000000000002000408F40000000C0F5FE36C0000000406D1E5A400000002000408F4000000000A77436C000000040576C5A400C00
310
0000130000008A0200003C00000006000000020000000000002000408F40000000C0F5FE36C0000000406D1E5A400000002000408F4000000020413B30C000000000A2C958400C00000013000000920200003C00000006000000020000000000002000408F40000000C0F5FE36C0000000406D1E5A400000002000408F4000
310
0000206E7637C000000040E2D059400C000000130000009A0200003C00000006000000020000000000002000408F40000000206E7637C000000040E2D059400000002000408F4000000020413B30C000000000A2C958400C00000013000000A20200003C00000006000000020000000000002000408F4000000080F1AA30C0
310
00000080706158400000002000408F4000000020413B30C000000000A2C958400C00000013000000AA0200003C00000006000000020000000000002000408F400000004056DD37C000000000A38259400000002000408F40000000206E7637C000000040E2D059400C00000013000000B20200003C00000006000000020000
310
000000002000408F4000000080F1AA30C000000080706158400000002000408F400000004056DD37C000000000A38259400C00000013000000BA0200003C00000006000000020000000000002000408F400000004056DD37C000000000A38259400000002000408F40000000603D3538C0000000C07F3259400C0000001300
310
0000C20200003C00000006000000020000000000002000408F40000000601EA038C0000000C0ABB958400000002000408F4000000060D5D138C000000060986758400C00000013000000CA0200003C00000006000000020000000000002000408F4000000060D5D138C000000060986758400000002000408F400000000096
310
E330C000000020EFF557400C00000013000000D20200003C00000006000000020000000000002000408F40000000A0B9E938C0000000C0BE1F58400000002000408F4000000060D5D138C000000060986758400C00000013000000DA0200003C00000006000000020000000000002000408F40000000A0B9E938C0000000C0
310
BE1F58400000002000408F400000000096E330C000000020EFF557400C00000013000000E20200003C00000006000000020000000000002000408F40000000A0B9E938C0000000C0BE1F58400000002000408F40000000809AF938C000000000B1CC57400C00000013000000EA0200003C0000000600000002000000000000
310
2000408F40000000809AF938C000000000B1CC57400000002000408F40000000C0000031C0000000A0998957400C00000013000000F20200003C00000006000000020000000000002000408F400000000096E330C000000020EFF557400000002000408F40000000C0000031C0000000A0998957400C00000013000000FA02
310
00003C00000006000000020000000000002000408F40000000E0E8FD38C0000000201C7757400000002000408F40000000809AF938C000000000B1CC57400C00000013000000020300003C00000006000000020000000000002000408F40000000005A6531C000000040B40D45400000002000408F40000000C0000039C000
310
0000C0E92357400C000000130000000A0300003C00000006000000020000000000002000408F40000000005A6531C000000040B40D45400000002000408F40000000C0000031C0000000C00A7145400C00000013000000120300003C00000006000000020000000000002000408F4000000000661D32C0000000C012C64440
310
0000002000408F40000000C0000039C0000000C0E92357400C000000130000001A0300003C00000006000000020000000000002000408F4000000000661D32C0000000C012C644400000002000408F40000000005A6531C000000040B40D45400C00000013000000220300003C00000006000000020000000000002000408F
310
400000004020B932C000000020D2E043400000002000408F40000000C0000039C0000000C0E92357400C000000130000002A0300003C00000006000000020000000000002000408F400000004020B932C000000020D2E043400000002000408F40000000601F9E32C000000020105C44400C00000013000000320300003C00
310
000006000000020000000000002000408F40000000601F9E32C000000020105C44400000002000408F40000000C0000039C0000000C0E92357400C000000130000003A0300003C00000006000000020000000000002000408F40000000601F9E32C000000020105C44400000002000408F4000000000661D32C0000000C012
310
C644400C00000013000000420300003C00000006000000020000000000002000408F40000000601F9E32C00000004020B83E400000002000408F40000000C0000039C0000000C0E92357400C000000130000004A0300003C00000006000000020000000000002000408F40000000601F9E32C00000004020B83E4000000020
310
00408F400000004020B932C000000020D2E043400C00000013000000520300003C00000006000000020000000000002000408F40000000C0000039C000000000000000000000002000408F40000000C0000039C0000000C0E92357400C000000130000005A0300003C00000006000000020000000000002000408F40000000
310
C0000039C000000000000000000000002000408F400000004020B932C000000040A4C13D400C00000013000000620300003C00000006000000020000000000002000408F400000004020B932C000000040A4C13D400000002000408F40000000C0000039C0000000C0E92357400C000000130000006A0300003C0000000600
310
0000020000000000002000408F400000004020B932C000000040A4C13D400000002000408F40000000601F9E32C00000004020B83E400C00000013000000720300003C00000006000000020000000000002000408F40000000601F9E32C00000004020B83E400000002000408F4000000000661D32C000000040258C3F400C
310
000000130000007A0300003C00000006000000020000000000002000408F4000000000661D32C000000040258C3F400000002000408F40000000C0606932C000000080686B43400C00000013000000820300003C00000006000000020000000000002000408F400000004020B932C000000020D2E043400000002000408F40
310
000000C0606932C000000080686B43400C000000130000008A0300003C00000006000000020000000000002000408F4000000000661D32C000000040258C3F400000002000408F40000000005A6531C000000040B40D40400C00000013000000920300003C00000006000000020000000000002000408F40000000005A6531
310
C000000040B40D40400000002000408F40000000C0EBBD31C0000000C0E31143400C000000130000009A0300003C00000006000000020000000000002000408F40000000C0606932C000000080686B43400000002000408F40000000C0EBBD31C0000000C0E31143400C00000013000000A20300003C000000060000000200
310
00000000002000408F40000000005A6531C000000040B40D40400000002000408F4000000040CD2831C00000000045D042400C00000013000000AA0300003C00000006000000020000000000002000408F40000000C0EBBD31C0000000C0E31143400000002000408F4000000040CD2831C00000000045D042400C00000013
310
000000B20300003C00000006000000020000000000002000408F40000000005A6531C000000040B40D40400000002000408F40000000C0000031C0000000C00A7140400C00000013000000BA0300003C00000006000000020000000000002000408F40000000C0000031C000000040F58E42400000002000408F40000000C0
310
000031C0000000C00A7140400C00000013000000C20300003C00000006000000020000000000002000408F40000000C0000031C000000040F58E42400000002000408F4000000040CD2831C00000000045D042400C00000013000000CA0300003C00000006000000020000000000002000408F40000000005A6531C0000000
310
80681B36400000002000408F40000000C0000031C00000008015E236400C00000013000000D20300003C00000006000000020000000000002000408F40000000C0000031C00000008015E236400000002000408F40000000C0000031C000000080EA1D3B400C00000013000000DA0300003C00000006000000020000000000
310
002000408F4000000040CD2831C0000000008AA03B400000002000408F40000000C0000031C000000080EA1D3B400C00000013000000E20300003C00000006000000020000000000002000408F40000000005A6531C000000080681B36400000002000408F4000000040CD2831C0000000008AA03B400C00000013000000EA
310
0300003C00000006000000020000000000002000408F4000000000661D32C000000040258C35400000002000408F40000000005A6531C000000080681B36400C00000013000000F20300003C00000006000000020000000000002000408F40000000C0EBBD31C000000080C7233C400000002000408F4000000040CD2831C0
310
000000008AA03B400C00000013000000FA0300003C00000006000000020000000000002000408F4000000000661D32C000000040258C35400000002000408F40000000C0EBBD31C000000080C7233C400C00000013000000020400003C00000006000000020000000000002000408F40000000601F9E32C00000004020B834
310
400000002000408F4000000000661D32C000000040258C35400C000000130000000A0400003C00000006000000020000000000002000408F40000000C0606932C000000040D1D63C400000002000408F40000000C0EBBD31C000000080C7233C400C00000013000000120400003C0000000600000002000000000000200040
310
8F40000000601F9E32C00000004020B834400000002000408F40000000C0606932C000000040D1D63C400C000000130000001A0400003C00000006000000020000000000002000408F400000004020B932C000000040A4C133400000002000408F40000000601F9E32C00000004020B834400C00000013000000220400003C
310
00000006000000020000000000002000408F400000004020B932C000000040A4C13D400000002000408F40000000C0606932C000000040D1D63C400C000000130000002A0400003C00000006000000020000000000002000408F400000004020B932C000000040A4C133400000002000408F400000004020B932C000000040
310
A4C13D400C00000013000000320400003C00000006000000020000000000002000408F400000004020B932C000000000498323400000002000408F40000000C0000039C000000000000000000C000000130000003A0400003C00000006000000020000000000002000408F400000004020B932C00000000049832340000000
310
2000408F400000004020B932C000000040A4C133400C00000013000000420400003C00000006000000020000000000002000408F40000000C0000039C000000000000000000000002000408F400000004020B932C000000040A4C133400C000000130000004A0400003C00000006000000020000000000002000408F400000
310
00C0000039C000000000000000000000002000408F40000000C0606932C000000000A3AD21400C00000013000000520400003C00000006000000020000000000002000408F400000004020B932C000000000498323400000002000408F40000000C0606932C000000000A3AD21400C000000130000005A0400003C00000006
310
000000020000000000002000408F400000004020B932C000000000498323400000002000408F40000000601F9E32C000000000417025400C00000013000000620400003C00000006000000020000000000002000408F40000000601F9E32C000000000417025400000002000408F40000000C0606932C000000040D1D63240
310
0C000000130000006A0400003C00000006000000020000000000002000408F400000004020B932C000000040A4C133400000002000408F40000000C0606932C000000040D1D632400C00000013000000720400003C00000006000000020000000000002000408F40000000601F9E32C000000000417025400000002000408F
310
4000000000661D32C0000000804A1827400C000000130000007A0400003C00000006000000020000000000002000408F4000000000661D32C0000000804A1827400000002000408F40000000C0EBBD31C000000080C72332400C00000013000000820400003C00000006000000020000000000002000408F40000000C06069
310
32C000000040D1D632400000002000408F40000000C0EBBD31C000000080C72332400C000000130000008A0400003C00000006000000020000000000002000408F4000000000661D32C0000000804A1827400000002000408F40000000005A6531C000000000D13628400C00000013000000920400003C0000000600000002
310
0000000000002000408F40000000005A6531C000000000D13628400000002000408F4000000040CD2831C0000000008AA031400C000000130000009A0400003C00000006000000020000000000002000408F40000000C0EBBD31C000000080C72332400000002000408F4000000040CD2831C0000000008AA031400C000000
310
13000000A20400003C00000006000000020000000000002000408F40000000005A6531C000000000D13628400000002000408F40000000C0000031C0000000002BC429400C00000013000000AA0400003C00000006000000020000000000002000408F40000000C0000031C000000080EA1D31400000002000408F40000000
310
C0000031C0000000002BC429400C00000013000000B20400003C00000006000000020000000000002000408F40000000C0000031C000000080EA1D31400000002000408F4000000040CD2831C0000000008AA031400C00000013000000BA0400003C00000006000000020000000000002000408F40000000C0000039C00000
310
0000000000000000002000408F40000000A09A2031C000000000000000000C00000013000000C20400003C00000006000000020000000000002000408F40000000A09A2031C000000000000000000000002000408F4000000040CD2831C00000000028821E400C00000013000000CA0400003C000000060000000200000000
310
00002000408F40000000C0EBBD31C0000000008F4720400000002000408F4000000040CD2831C00000000028821E400C00000013000000D20400003C00000006000000020000000000002000408F40000000C0000039C000000000000000000000002000408F40000000C0EBBD31C0000000008F4720400C00000013000000
310
DA0400003C00000006000000020000000000002000408F40000000C0606932C000000000A3AD21400000002000408F40000000C0EBBD31C0000000008F4720400C00000013000000E20400003C00000006000000020000000000002000408F40000000A09A2031C000000000000000000000002000408F40000000C0000031
310
C0000000008099C93F0C00000013000000EA0400003C00000006000000020000000000002000408F40000000C0000031C0000000008099C93F0000002000408F40000000C0000031C000000000AA771C400C00000013000000F20400003C00000006000000020000000000002000408F40000000C0000031C000000000AA77
310
1C400000002000408F4000000040CD2831C00000000028821E400C00000013000000FA0400003C00000006000000020000000000002000408F40000000C0000039C000000000000000000000000000408FC000000040FFFF38C000000000000000000C00000013000000020500003C00000006000000020000000000000000
310
408FC000000040FFFF38C000000000000000000000000000408FC000000020992031C000000000000000000C000000130000000A0500003C00000006000000020000000000002000408F40000000A09A2031C000000000000000000000000000408FC000000020992031C000000000000000000C0000001300000012050000
310
3C00000006000000020000000000002000408F40000000C0000039C0000000C0E92357400000000000408FC000000040FFFF38C0000000C0E92357400C000000130000001A0500003C00000006000000020000000000000000408FC000000040FFFF38C000000000000000000000000000408FC000000040FFFF38C0000000
310
C0E92357400C00000013000000220500003C00000006000000020000000000002000408F40000000E0E8FD38C0000000201C7757400000000000408FC000000060E7FD38C0000000201C7757400C000000130000002A0500003C00000006000000020000000000000000408FC000000060E7FD38C0000000201C7757400000
310
000000408FC000000040FFFF38C0000000C0E92357400C00000013000000320500003C00000006000000020000000000002000408F40000000809AF938C000000000B1CC57400000000000408FC00000000099F938C000000000B1CC57400C000000130000003A0500003C00000006000000020000000000000000408FC000
310
00000099F938C000000000B1CC57400000000000408FC000000060E7FD38C0000000201C7757400C00000013000000420500003C00000006000000020000000000002000408F40000000A0B9E938C0000000C0BE1F58400000000000408FC000000020B8E938C0000000C0BE1F58400C000000130000004A0500003C000000
310
06000000020000000000000000408FC00000000099F938C000000000B1CC57400000000000408FC000000020B8E938C0000000C0BE1F58400C00000013000000520500003C00000006000000020000000000002000408F4000000060D5D138C000000060986758400000000000408FC0000000E0D3D138C000000060986758
310
400C000000130000005A0500003C00000006000000020000000000000000408FC0000000E0D3D138C000000060986758400000000000408FC000000020B8E938C0000000C0BE1F58400C00000013000000620500003C00000006000000020000000000002000408F40000000601EA038C0000000C0ABB95840000000000040
310
8FC0000000E01CA038C0000000C0ABB958400C000000130000006A0500003C00000006000000020000000000000000408FC0000000E01CA038C0000000C0ABB958400000000000408FC0000000E0D3D138C000000060986758400C00000013000000720500003C00000006000000020000000000002000408F40000000603D
310
3538C0000000C07F3259400000000000408FC0000000E03B3538C0000000C07F3259400C000000130000007A0500003C00000006000000020000000000000000408FC0000000E01CA038C0000000C0ABB958400000000000408FC0000000E03B3538C0000000C07F3259400C00000013000000820500003C00000006000000
310
020000000000002000408F400000004056DD37C000000000A38259400000000000408FC0000000C054DD37C000000000A38259400C000000130000008A0500003C00000006000000020000000000000000408FC0000000C054DD37C000000000A38259400000000000408FC0000000E03B3538C0000000C07F3259400C0000
310
0013000000920500003C00000006000000020000000000002000408F40000000206E7637C000000040E2D059400000000000408FC0000000A06C7637C000000040E2D059400C000000130000009A0500003C00000006000000020000000000000000408FC0000000A06C7637C000000040E2D059400000000000408FC00000
310
00C054DD37C000000000A38259400C00000013000000A20500003C00000006000000020000000000002000408F40000000C0F5FE36C0000000406D1E5A400000000000408FC000000040F4FE36C0000000406D1E5A400C00000013000000AA0500003C00000006000000020000000000000000408FC0000000A06C7637C000
310
000040E2D059400000000000408FC000000040F4FE36C0000000406D1E5A400C00000013000000B20500003C00000006000000020000000000002000408F4000000000A77436C000000040576C5A400000000000408FC000000080A57436C000000040576C5A400C00000013000000BA0500003C0000000600000002000000
310
0000000000408FC000000080A57436C000000040576C5A400000000000408FC000000040F4FE36C0000000406D1E5A400C00000013000000C20500003C00000006000000020000000000002000408F40000000A01EDE35C0000000406AB65A400000000000408FC0000000201DDE35C0000000406AB65A400C000000130000
310
00CA0500003C00000006000000020000000000000000408FC0000000201DDE35C0000000406AB65A400000000000408FC000000080A57436C000000040576C5A400C00000013000000D20500003C00000006000000020000000000002000408F40000000C0DE3935C0000000A0B9FD5A400000000000408FC000000040DD39
310
35C0000000A0B9FD5A400C00000013000000DA0500003C00000006000000020000000000000000408FC0000000201DDE35C0000000406AB65A400000000000408FC000000040DD3935C0000000A0B9FD5A400C00000013000000E20500003C00000006000000020000000000002000408F40000000C02B8534C0000000E074
310
435B400000000000408FC0000000402A8534C0000000E074435B400C00000013000000EA0500003C00000006000000020000000000000000408FC0000000402A8534C0000000E074435B400000000000408FC000000040DD3935C0000000A0B9FD5A400C00000013000000F20500003C000000060000000200000000000020
310
00408F40000000400BBD33C00000008079885B400000000000408FC0000000C009BD33C00000008079885B400C00000013000000FA0500003C00000006000000020000000000000000408FC0000000C009BD33C00000008079885B400000000000408FC0000000402A8534C0000000E074435B400C00000013000000020600
310
003C00000006000000020000000000002000408F400000008026EC32C0000000A018C95B400000000000408FC00000000025EC32C0000000A018C95B400C000000130000000A0600003C00000006000000020000000000000000408FC0000000C009BD33C00000008079885B400000000000408FC00000000025EC32C00000
310
00A018C95B400C00000013000000120600003C00000006000000020000000000002000408F40000000A0221032C0000000004C065C400000000000408FC000000020211032C0000000004C065C400C000000130000001A0600003C00000006000000020000000000000000408FC000000020211032C0000000004C065C4000
310
00000000408FC00000000025EC32C0000000A018C95B400C00000013000000220600003C00000006000000020000000000002000408F40000000A0542531C0000000C018415C400000000000408FC000000020532531C0000000C018415C400C000000130000002A0600003C00000006000000020000000000000000408FC0
310
00000020532531C0000000C018415C400000000000408FC000000020211032C0000000004C065C400C00000013000000320600003C00000006000000020000000000002000408F40000000E0182830C0000000E02F7A5C400000000000408FC000000060172830C0000000E02F7A5C400C000000130000003A0600003C0000
310
0006000000020000000000000000408FC000000060172830C0000000E02F7A5C400000000000408FC000000020532531C0000000C018415C400C00000013000000420600003C00000006000000020000000000002000408F4000000060F04B2EC00000008085AE5C400000000000408FC0000000A0ED4B2EC00000008085AE
310
5C400C000000130000004A0600003C00000006000000020000000000000000408FC0000000A0ED4B2EC00000008085AE5C400000000000408FC000000060172830C0000000E02F7A5C400C00000013000000520600003C00000006000000020000000000002000408F4000000000A2372CC000000040EFDE5C400000000000
310
408FC0000000409F372CC000000040EFDE5C400C000000130000005A0600003C00000006000000020000000000000000408FC0000000A0ED4B2EC00000008085AE5C400000000000408FC0000000409F372CC000000040EFDE5C400C00000013000000620600003C00000006000000020000000000002000408F40000000C0
310
6A0A2AC0000000603B0C5D400000000000408FC000000000680A2AC0000000603B0C5D400C000000130000006A0600003C00000006000000020000000000000000408FC000000000680A2AC0000000603B0C5D400000000000408FC0000000409F372CC000000040EFDE5C400C00000013000000720600003C000000060000
310
00020000000000002000408F4000000000FCBB27C000000080E7365D400000000000408FC000000040F9BB27C000000080E7365D400C000000130000007A0600003C00000006000000020000000000000000408FC000000040F9BB27C000000080E7365D400000000000408FC000000000680A2AC0000000603B0C5D400C00
310
000013000000820600003C00000006000000020000000000002000408F40000000C0E86B25C000000020AA5C5D400000000000408FC000000000E66B25C000000020AA5C5D400C000000130000008A0600003C00000006000000020000000000000000408FC000000000E66B25C000000020AA5C5D400000000000408FC000
310
000040F9BB27C000000080E7365D400C00000013000000920600003C00000006000000020000000000002000408F40000000C0A81223C0000000E02A7E5D400000000000408FC000000000A61223C0000000E02A7E5D400C000000130000009A0600003C00000006000000020000000000000000408FC000000000A61223C0
310
000000E02A7E5D400000000000408FC000000000E66B25C000000020AA5C5D400C00000013000000A20600003C00000006000000020000000000002000408F40000000C036A620C000000000F99B5D400000000000408FC00000000034A620C000000000F99B5D400C00000013000000AA0600003C00000006000000020000
310
000000000000408FC000000000A61223C0000000E02A7E5D400000000000408FC00000000034A620C000000000F99B5D400C00000013000000B20600003C00000006000000020000000000002000408F40000000403B3B1CC0000000C057B65D400000000000408FC000000080353B1CC0000000C057B65D400C0000001300
310
0000BA0600003C00000006000000020000000000000000408FC000000080353B1CC0000000C057B65D400000000000408FC00000000034A620C000000000F99B5D400C00000013000000C20600003C00000006000000020000000000002000408F40000000403F3717C000000060DECB5D400000000000408FC0000000003A
310
3717C000000060DECB5D400C00000013000000CA0600003C00000006000000020000000000000000408FC0000000003A3717C000000060DECB5D400000000000408FC000000080353B1CC0000000C057B65D400C00000013000000D20600003C00000006000000020000000000002000408F40000000C07C2F12C0000000E0
310
FEDC5D400000000000408FC000000000772F12C0000000E0FEDC5D400C00000013000000DA0600003C00000006000000020000000000000000408FC0000000003A3717C000000060DECB5D400000000000408FC000000000772F12C0000000E0FEDC5D400C00000013000000E20600003C0000000600000002000000000000
310
2000408F40000000000B1D0AC00000006002EA5D400000000000408FC000000000001D0AC00000006002EA5D400C00000013000000EA0600003C00000006000000020000000000000000408FC000000000001D0AC00000006002EA5D400000000000408FC000000000772F12C0000000E0FEDC5D400C00000013000000F206
310
00003C00000006000000020000000000002000408F40000000000000E6BE0000000000005E400000000000408FC0000000000000E63E0000000000005E400C00000013000000FA0600003C00000006000000020000000000000000408FC0000000000000E63E0000000000005E400000000000408FC000000000001D0AC000
310
00006002EA5D400C00000013000000020700003C00000006000000020000000000002000408F40000000000000E6BE00000080A4125D400000000000408FC0000000000000E63E00000080A4125D400C000000130000000A0700003C00000006000000020000000000000000408FC0000000000000E63E00000080A4125D40
310
0000000000408FC0000000000000E63E0000000000005E400C00000013000000120700003C00000006000000020000000000002000408F400000000090E1B2BF000000008BFA5C400000000000408FC00000000030E0B2BF000000008BFA5C400C000000130000001A0700003C00000006000000020000000000000000408F
310
C0000000000000E63E00000080A4125D400000000000408FC00000000030E0B2BF000000008BFA5C400C00000013000000220700003C00000006000000020000000000002000408F40000000007C33D2BF00000060F3E55C400000000000408FC0000000002433D2BF00000060F3E55C400C000000130000002A0700003C00
310
000006000000020000000000000000408FC0000000002433D2BF00000060F3E55C400000000000408FC00000000030E0B2BF000000008BFA5C400C00000013000000320700003C00000006000000020000000000002000408F40000000004A33E3BF00000040FCD75C400000000000408FC0000000001E33E3BF00000040FC
310
D75C400C000000130000003A0700003C00000006000000020000000000000000408FC0000000002433D2BF00000060F3E55C400000000000408FC0000000001E33E3BF00000040FCD75C400C00000013000000420700003C00000006000000020000000000002000408F40000000009D6DF2BF000000007FBD5C4000000000
310
00408FC000000000876DF2BF000000007FBD5C400C000000130000004A0700003C00000006000000020000000000000000408FC0000000001E33E3BF00000040FCD75C400000000000408FC000000000876DF2BF000000007FBD5C400C00000013000000520700003C00000006000000020000000000002000408F40000000
310
00455BF7BF000000600B965C400000000000408FC0000000002F5BF7BF000000600B965C400C000000130000005A0700003C00000006000000020000000000000000408FC000000000876DF2BF000000007FBD5C400000000000408FC0000000002F5BF7BF000000600B965C400C00000013000000620700003C0000000600
310
0000020000000000002000408F4000000000455BF7BF000000A0F4695C400000000000408FC0000000002F5BF7BF000000A0F4695C400C000000130000006A0700003C00000006000000020000000000000000408FC0000000002F5BF7BF000000A0F4695C400000000000408FC0000000002F5BF7BF000000600B965C400C
310
00000013000000720700003C00000006000000020000000000002000408F40000000009D6DF2BF0000000081425C400000000000408FC000000000876DF2BF0000000081425C400C000000130000007A0700003C00000006000000020000000000000000408FC0000000002F5BF7BF000000A0F4695C400000000000408FC0
310
00000000876DF2BF0000000081425C400C00000013000000820700003C00000006000000020000000000002000408F40000000004A33E3BF000000C003285C400000000000408FC0000000001E33E3BF000000C003285C400C000000130000008A0700003C00000006000000020000000000000000408FC000000000876DF2
310
BF0000000081425C400000000000408FC0000000001E33E3BF000000C003285C400C00000013000000920700003C00000006000000020000000000002000408F40000000007C33D2BF000000A00C1A5C400000000000408FC0000000002433D2BF000000A00C1A5C400C000000130000009A0700003C000000060000000200
310
00000000000000408FC0000000002433D2BF000000A00C1A5C400000000000408FC0000000001E33E3BF000000C003285C400C00000013000000A20700003C00000006000000020000000000002000408F400000000090E1B2BF0000000075055C400000000000408FC00000000030E0B2BF0000000075055C400C00000013
310
000000AA0700003C00000006000000020000000000000000408FC00000000030E0B2BF0000000075055C400000000000408FC0000000002433D2BF000000A00C1A5C400C00000013000000B20700003C00000006000000020000000000002000408F40000000000000E6BE000000805BED5B400000000000408FC000000000
310
0000E63E000000805BED5B400C00000013000000BA0700003C00000006000000020000000000000000408FC0000000000000E63E000000805BED5B400000000000408FC00000000030E0B2BF0000000075055C400C00000013000000C20700003C00000006000000020000000000002000408F40000000000000E6BE000000
310
0000405B400000000000408FC0000000000000E63E0000000000405B400C00000013000000CA0700003C00000006000000020000000000000000408FC0000000000000E63E0000000000405B400000000000408FC0000000000000E63E000000805BED5B400C00000013000000D20700003C00000006000000020000000000
310
002000408F40000000006826C1BF0000000000205B400000000000408FC000000000B825C1BF0000000000205B400C00000013000000DA0700003C00000006000000020000000000000000408FC0000000000000E63E0000000000405B400000000000408FC000000000B825C1BF0000000000205B400C00000013000000E2
310
0700003C00000006000000020000000000002000408F40000000001600E0BF0000000093085B400000000000408FC000000000D4FFDFBF0000000093085B400C00000013000000EA0700003C00000006000000020000000000000000408FC000000000B825C1BF0000000000205B400000000000408FC000000000D4FFDFBF
310
0000000093085B400C00000013000000F20700003C00000006000000020000000000002000408F40000000000B00F0BF0000000000005B400000000000408FC000000000EAFFEFBF0000000000005B400C00000013000000FA0700003C00000006000000020000000000000000408FC000000000EAFFEFBF0000000000005B
310
400000000000408FC000000000D4FFDFBF0000000093085B400C00000013000000020800003C00000006000000020000000000002000408F4000000080383309C00000000000005B400000000000408FC0000000002E3309C00000000000005B400C000000130000000A0800003C0000000600000002000000000000000040
310
8FC000000000EAFFEFBF0000000000005B400000000000408FC0000000002E3309C00000000000005B400C00000013000000120800003C00000006000000020000000000002000408F40000000C0F45E13C000000060E5F85A400000000000408FC000000080EF5E13C000000060E5F85A400C000000130000001A0800003C
310
00000006000000020000000000000000408FC000000080EF5E13C000000060E5F85A400000000000408FC0000000002E3309C00000000000005B400C00000013000000220800003C00000006000000020000000000002000408F40000000C00A171AC000000020BCEA5A400000000000408FC0000000E004171AC000000020
310
BCEA5A400C000000130000002A0800003C00000006000000020000000000000000408FC000000080EF5E13C000000060E5F85A400000000000408FC0000000E004171AC000000020BCEA5A400C00000013000000320800003C00000006000000020000000000002000408F40000000E0104D20C000000020D0CE5A40000000
310
0000408FC0000000200E4D20C000000020D0CE5A400C000000130000003A0800003C00000006000000020000000000000000408FC0000000200E4D20C000000020D0CE5A400000000000408FC0000000E004171AC000000020BCEA5A400C00000013000000420800003C00000006000000020000000000002000408F400000
310
00809E6D23C0000000E05CA55A400000000000408FC0000000C09B6D23C0000000E05CA55A400C000000130000004A0800003C00000006000000020000000000000000408FC0000000200E4D20C000000020D0CE5A400000000000408FC0000000C09B6D23C0000000E05CA55A400C00000013000000520800003C00000006
310
000000020000000000002000408F4000000000FA5826C0000000606E6F5A400000000000408FC000000040F75826C0000000606E6F5A400C000000130000005A0800003C00000006000000020000000000000000408FC000000040F75826C0000000606E6F5A400000000000408FC0000000C09B6D23C0000000E05CA55A40
310
0C00000013000000620800003C00000006000000020000000000002000408F4000000000390929C0000000406D2D5A400000000000408FC000000040360929C0000000406D2D5A400C000000130000006A0800003C00000006000000020000000000000000408FC000000040F75826C0000000606E6F5A400000000000408F
310
C000000040360929C0000000406D2D5A400C00000013000000720800003C00000006000000020000000000002000408F40000000006B6B2BC00000000027E159400000000000408FC000000040686B2BC00000000027E159400C000000130000007A0800003C00000006000000020000000000000000408FC000000040686B
310
2BC00000000027E159400000000000408FC000000040360929C0000000406D2D5A400C00000013000000820800003C00000006000000020000000000002000408F4000000080747B2DC0000000201F8B59400000000000408FC0000000C0717B2DC0000000201F8B59400C000000130000008A0800003C0000000600000002
310
0000000000000000408FC000000040686B2BC00000000027E159400000000000408FC0000000C0717B2DC0000000201F8B59400C00000013000000920800003C00000006000000020000000000002000408F40000000A0E82A2FC0000000A0B32D59400000000000408FC0000000E0E52A2FC0000000A0B32D59400C000000
310
130000009A0800003C00000006000000020000000000000000408FC0000000E0E52A2FC0000000A0B32D59400000000000408FC0000000C0717B2DC0000000201F8B59400C00000013000000A20800003C00000006000000020000000000002000408F4000000020413B30C000000000A2C958400000000000408FC0000000
310
A03F3B30C000000000A2C958400C00000013000000AA0800003C00000006000000020000000000000000408FC0000000E0E52A2FC0000000A0B32D59400000000000408FC0000000A03F3B30C000000000A2C958400C00000013000000B20800003C00000006000000020000000000002000408F4000000080F1AA30C00000
310
0080706158400000000000408FC000000000F0AA30C000000080706158400C00000013000000BA0800003C00000006000000020000000000000000408FC0000000A03F3B30C000000000A2C958400000000000408FC000000000F0AA30C000000080706158400C00000013000000C20800003C000000060000000200000000
310
00002000408F400000000096E330C000000020EFF557400000000000408FC00000008094E330C000000020EFF557400C00000013000000CA0800003C00000006000000020000000000000000408FC00000008094E330C000000020EFF557400000000000408FC000000000F0AA30C000000080706158400C00000013000000
310
D20800003C00000006000000020000000000002000408F40000000C0000031C0000000A0998957400000000000408FC000000040FFFF30C0000000A0998957400C00000013000000DA0800003C00000006000000020000000000000000408FC00000008094E330C000000020EFF557400000000000408FC000000040FFFF30
310
C0000000A0998957400C00000013000000E20800003C00000006000000020000000000002000408F40000000C0000031C0000000C00A7145400000000000408FC000000040FFFF30C0000000C00A7145400C00000013000000EA0800003C00000006000000020000000000000000408FC000000040FFFF30C0000000C00A71
310
45400000000000408FC000000040FFFF30C0000000A0998957400C00000013000000F20800003C00000006000000020000000000002000408F40000000005A6531C000000040B40D45400000000000408FC000000080586531C000000040B40D45400C00000013000000FA0800003C00000006000000020000000000000000
310
408FC000000040FFFF30C0000000C00A7145400000000000408FC000000080586531C000000040B40D45400C00000013000000020900003C00000006000000020000000000002000408F4000000000661D32C0000000C012C644400000000000408FC000000080641D32C0000000C012C644400C000000130000000A090000
310
3C00000006000000020000000000000000408FC000000080641D32C0000000C012C644400000000000408FC000000080586531C000000040B40D45400C00000013000000120900003C00000006000000020000000000002000408F40000000601F9E32C000000020105C44400000000000408FC0000000E01D9E32C0000000
310
20105C44400C000000130000001A0900003C00000006000000020000000000000000408FC000000080641D32C0000000C012C644400000000000408FC0000000E01D9E32C000000020105C44400C00000013000000220900003C00000006000000020000000000002000408F400000004020B932C000000020D2E043400000
310
000000408FC0000000C01EB932C000000020D2E043400C000000130000002A0900003C00000006000000020000000000000000408FC0000000E01D9E32C000000020105C44400000000000408FC0000000C01EB932C000000020D2E043400C00000013000000320900003C00000006000000020000000000002000408F4000
310
0000C0606932C000000080686B43400000000000408FC0000000405F6932C000000080686B43400C000000130000003A0900003C00000006000000020000000000000000408FC0000000405F6932C000000080686B43400000000000408FC0000000C01EB932C000000020D2E043400C00000013000000420900003C000000
310
06000000020000000000002000408F40000000C0EBBD31C0000000C0E31143400000000000408FC000000040EABD31C0000000C0E31143400C000000130000004A0900003C00000006000000020000000000000000408FC0000000405F6932C000000080686B43400000000000408FC000000040EABD31C0000000C0E31143
310
400C00000013000000520900003C00000006000000020000000000002000408F4000000040CD2831C00000000045D042400000000000408FC0000000C0CB2831C00000000045D042400C000000130000005A0900003C00000006000000020000000000000000408FC0000000C0CB2831C00000000045D04240000000000040
310
8FC000000040EABD31C0000000C0E31143400C00000013000000620900003C00000006000000020000000000002000408F40000000C0000031C000000040F58E42400000000000408FC000000040FFFF30C000000040F58E42400C000000130000006A0900003C00000006000000020000000000000000408FC0000000C0CB
310
2831C00000000045D042400000000000408FC000000040FFFF30C000000040F58E42400C00000013000000720900003C00000006000000020000000000002000408F40000000C0000031C0000000C00A7140400000000000408FC000000040FFFF30C0000000C00A7140400C000000130000007A0900003C00000006000000
310
020000000000000000408FC000000040FFFF30C0000000C00A7140400000000000408FC000000040FFFF30C000000040F58E42400C00000013000000820900003C00000006000000020000000000002000408F40000000005A6531C000000040B40D40400000000000408FC000000080586531C000000040B40D40400C0000
310
00130000008A0900003C00000006000000020000000000000000408FC000000080586531C000000040B40D40400000000000408FC000000040FFFF30C0000000C00A7140400C00000013000000920900003C00000006000000020000000000002000408F4000000000661D32C000000040258C3F400000000000408FC00000
310
0080641D32C000000040258C3F400C000000130000009A0900003C00000006000000020000000000000000408FC000000080586531C000000040B40D40400000000000408FC000000080641D32C000000040258C3F400C00000013000000A20900003C00000006000000020000000000002000408F40000000601F9E32C000
310
00004020B83E400000000000408FC0000000E01D9E32C00000004020B83E400C00000013000000AA0900003C00000006000000020000000000000000408FC0000000E01D9E32C00000004020B83E400000000000408FC000000080641D32C000000040258C3F400C00000013000000B20900003C0000000600000002000000
310
0000002000408F400000004020B932C000000040A4C13D400000000000408FC0000000C01EB932C000000040A4C13D400C00000013000000BA0900003C00000006000000020000000000000000408FC0000000E01D9E32C00000004020B83E400000000000408FC0000000C01EB932C000000040A4C13D400C000000130000
310
00C20900003C00000006000000020000000000002000408F40000000C0606932C000000040D1D63C400000000000408FC0000000405F6932C000000040D1D63C400C00000013000000CA0900003C00000006000000020000000000000000408FC0000000405F6932C000000040D1D63C400000000000408FC0000000C01EB9
310
32C000000040A4C13D400C00000013000000D20900003C00000006000000020000000000002000408F40000000C0EBBD31C000000080C7233C400000000000408FC000000040EABD31C000000080C7233C400C00000013000000DA0900003C00000006000000020000000000000000408FC000000040EABD31C000000080C7
310
233C400000000000408FC0000000405F6932C000000040D1D63C400C00000013000000E20900003C00000006000000020000000000002000408F4000000040CD2831C0000000008AA03B400000000000408FC0000000C0CB2831C0000000008AA03B400C00000013000000EA0900003C000000060000000200000000000000
310
00408FC0000000C0CB2831C0000000008AA03B400000000000408FC000000040EABD31C000000080C7233C400C00000013000000F20900003C00000006000000020000000000002000408F40000000C0000031C000000080EA1D3B400000000000408FC000000040FFFF30C000000080EA1D3B400C00000013000000FA0900
310
003C00000006000000020000000000000000408FC000000040FFFF30C000000080EA1D3B400000000000408FC0000000C0CB2831C0000000008AA03B400C00000013000000020A00003C00000006000000020000000000002000408F40000000C0000031C00000008015E236400000000000408FC000000040FFFF30C00000
310
008015E236400C000000130000000A0A00003C00000006000000020000000000000000408FC000000040FFFF30C000000080EA1D3B400000000000408FC000000040FFFF30C00000008015E236400C00000013000000120A00003C00000006000000020000000000002000408F40000000005A6531C000000080681B364000
310
00000000408FC000000080586531C000000080681B36400C000000130000001A0A00003C00000006000000020000000000000000408FC000000080586531C000000080681B36400000000000408FC000000040FFFF30C00000008015E236400C00000013000000220A00003C00000006000000020000000000002000408F40
310
00000000661D32C000000040258C35400000000000408FC000000080641D32C000000040258C35400C000000130000002A0A00003C00000006000000020000000000000000408FC000000080586531C000000080681B36400000000000408FC000000080641D32C000000040258C35400C00000013000000320A00003C0000
310
0006000000020000000000002000408F40000000601F9E32C00000004020B834400000000000408FC0000000E01D9E32C00000004020B834400C000000130000003A0A00003C00000006000000020000000000000000408FC000000080641D32C000000040258C35400000000000408FC0000000E01D9E32C00000004020B8
310
34400C00000013000000420A00003C00000006000000020000000000002000408F400000004020B932C000000040A4C133400000000000408FC0000000C01EB932C000000040A4C133400C000000130000004A0A00003C00000006000000020000000000000000408FC0000000C01EB932C000000040A4C133400000000000
310
408FC0000000E01D9E32C00000004020B834400C00000013000000520A00003C00000006000000020000000000002000408F40000000C0606932C000000040D1D632400000000000408FC0000000405F6932C000000040D1D632400C000000130000005A0A00003C00000006000000020000000000000000408FC0000000C0
310
1EB932C000000040A4C133400000000000408FC0000000405F6932C000000040D1D632400C00000013000000620A00003C00000006000000020000000000002000408F40000000C0EBBD31C000000080C72332400000000000408FC000000040EABD31C000000080C72332400C000000130000006A0A00003C000000060000
310
00020000000000000000408FC0000000405F6932C000000040D1D632400000000000408FC000000040EABD31C000000080C72332400C00000013000000720A00003C00000006000000020000000000002000408F4000000040CD2831C0000000008AA031400000000000408FC0000000C0CB2831C0000000008AA031400C00
310
0000130000007A0A00003C00000006000000020000000000000000408FC0000000C0CB2831C0000000008AA031400000000000408FC000000040EABD31C000000080C72332400C00000013000000820A00003C00000006000000020000000000002000408F40000000C0000031C000000080EA1D31400000000000408FC000
310
000040FFFF30C000000080EA1D31400C000000130000008A0A00003C00000006000000020000000000000000408FC0000000C0CB2831C0000000008AA031400000000000408FC000000040FFFF30C000000080EA1D31400C00000013000000920A00003C00000006000000020000000000002000408F40000000C0000031C0
310
000000002BC429400000000000408FC000000040FFFF30C0000000002BC429400C000000130000009A0A00003C00000006000000020000000000000000408FC000000040FFFF30C000000080EA1D31400000000000408FC000000040FFFF30C0000000002BC429400C00000013000000A20A00003C00000006000000020000
310
000000002000408F40000000005A6531C000000000D13628400000000000408FC000000080586531C000000000D13628400C00000013000000AA0A00003C00000006000000020000000000000000408FC000000080586531C000000000D13628400000000000408FC000000040FFFF30C0000000002BC429400C0000001300
310
0000B20A00003C00000006000000020000000000002000408F4000000000661D32C0000000804A1827400000000000408FC000000080641D32C0000000804A1827400C00000013000000BA0A00003C00000006000000020000000000000000408FC000000080641D32C0000000804A1827400000000000408FC00000008058
310
6531C000000000D13628400C00000013000000C20A00003C00000006000000020000000000002000408F40000000601F9E32C000000000417025400000000000408FC0000000E01D9E32C000000000407025400C00000013000000CA0A00003C00000006000000020000000000000000408FC0000000E01D9E32C000000000
310
407025400000000000408FC000000080641D32C0000000804A1827400C00000013000000D20A00003C00000006000000020000000000002000408F400000004020B932C000000000498323400000000000408FC0000000C01EB932C000000000488323400C00000013000000DA0A00003C0000000600000002000000000000
310
0000408FC0000000E01D9E32C000000000407025400000000000408FC0000000C01EB932C000000000488323400C00000013000000E20A00003C00000006000000020000000000002000408F40000000C0606932C000000000A3AD21400000000000408FC0000000405F6932C000000000A2AD21400C00000013000000EA0A
310
00003C00000006000000020000000000000000408FC0000000405F6932C000000000A2AD21400000000000408FC0000000C01EB932C000000000488323400C00000013000000F20A00003C00000006000000020000000000002000408F40000000C0EBBD31C0000000008F4720400000000000408FC000000040EABD31C000
310
0000008F4720400C00000013000000FA0A00003C00000006000000020000000000000000408FC0000000405F6932C000000000A2AD21400000000000408FC000000040EABD31C0000000008F4720400C00000013000000020B00003C00000006000000020000000000002000408F4000000040CD2831C00000000028821E40
310
0000000000408FC0000000C0CB2831C00000000028821E400C000000130000000A0B00003C00000006000000020000000000000000408FC0000000C0CB2831C00000000028821E400000000000408FC000000040EABD31C0000000008F4720400C00000013000000120B00003C00000006000000020000000000002000408F
310
40000000C0000031C000000000AA771C400000000000408FC000000040FFFF30C000000000AA771C400C000000130000001A0B00003C00000006000000020000000000000000408FC0000000C0CB2831C00000000028821E400000000000408FC000000040FFFF30C000000000AA771C400C00000013000000220B00003C00
310
000006000000020000000000002000408F40000000C0000031C0000000008099C93F0000000000408FC000000040FFFF30C0000000008099C93F0C000000130000002A0B00003C00000006000000020000000000000000408FC000000040FFFF30C0000000008099C93F0000000000408FC000000040FFFF30C000000000AA
310
771C400C00000013000000320B00003C00000006000000020000000000000000408FC000000020992031C000000000000000000000000000408FC000000040FFFF30C0000000008099C93F0C000000130000003A0B00003C00000006000000020000000000000000408FC000000000F0AA30C0000000807061584000000000
310
00408FC0000000E03B3538C0000000C07F3259400C00000013000000420B00003C00000006000000020000000000000000408FC00000008094E330C000000020EFF557400000000000408FC0000000E01CA038C0000000C0ABB958400C000000130000004A0B00003C00000006000000020000000000000000408FC0000000
310
60E7FD38C0000000201C7757400000000000408FC000000040FFFF30C0000000A0998957400C00000013000000520B00003C00000006000000020000000000000000408FC000000040FFFF38C0000000C0E92357400000000000408FC000000040FFFF30C0000000A0998957400C000000130000005A0B00003C0000000600
310
0000020000000000000000408FC000000040FFFF30C0000000C00A7145400000000000408FC000000040FFFF38C0000000C0E92357400C00000013000000620B00003C00000006000000020000000000000000408FC0000000000000E63E00000080A4125D400000000000408FC000000000001D0AC00000006002EA5D400C
310
000000130000006A0B00003C00000006000000020000000000000000408FC0000000000000E63E00000080A4125D400000000000408FC000000000772F12C0000000E0FEDC5D400C00000013000000720B00003C00000006000000020000000000000000408FC000000080353B1CC0000000C057B65D400000000000408FC0
310
0000000030E0B2BF000000008BFA5C400C000000130000007A0B00003C00000006000000020000000000000000408FC0000000003A3717C000000060DECB5D400000000000408FC00000000030E0B2BF000000008BFA5C400C00000013000000820B00003C00000006000000020000000000000000408FC0000000002433D2
310
BF00000060F3E55C400000000000408FC00000000034A620C000000000F99B5D400C000000130000008A0B00003C00000006000000020000000000000000408FC0000000001E33E3BF00000040FCD75C400000000000408FC000000000A61223C0000000E02A7E5D400C00000013000000920B00003C000000060000000200
310
00000000000000408FC000000000876DF2BF000000007FBD5C400000000000408FC000000000E66B25C000000020AA5C5D400C000000130000009A0B00003C00000006000000020000000000000000408FC000000000876DF2BF000000007FBD5C400000000000408FC000000040F9BB27C000000080E7365D400C00000013
310
000000A20B00003C00000006000000020000000000000000408FC0000000002F5BF7BF000000600B965C400000000000408FC000000000680A2AC0000000603B0C5D400C00000013000000AA0B00003C00000006000000020000000000000000408FC0000000002F5BF7BF000000A0F4695C400000000000408FC000000040
310
9F372CC000000040EFDE5C400C00000013000000B20B00003C00000006000000020000000000000000408FC0000000A0ED4B2EC00000008085AE5C400000000000408FC000000000876DF2BF0000000081425C400C00000013000000BA0B00003C00000006000000020000000000000000408FC00000000030E0B2BF000000
310
0075055C400000000000408FC000000000B825C1BF0000000000205B400C00000013000000C20B00003C00000006000000020000000000000000408FC000000000D4FFDFBF0000000093085B400000000000408FC0000000002433D2BF000000A00C1A5C400C00000013000000CA0B00003C00000006000000020000000000
310
000000408FC000000000EAFFEFBF0000000000005B400000000000408FC0000000001E33E3BF000000C003285C400C00000013000000D20B00003C00000006000000020000000000000000408FC000000000876DF2BF0000000081425C400000000000408FC0000000002E3309C00000000000005B400C00000013000000DA
310
0B00003C00000006000000020000000000000000408FC000000080EF5E13C000000060E5F85A400000000000408FC000000060172830C0000000E02F7A5C400C00000013000000E20B00003C00000006000000020000000000000000408FC000000020532531C0000000C018415C400000000000408FC0000000E004171AC0
310
00000020BCEA5A400C00000013000000EA0B00003C00000006000000020000000000000000408FC0000000200E4D20C000000020D0CE5A400000000000408FC000000020211032C0000000004C065C400C00000013000000F20B00003C00000006000000020000000000000000408FC0000000C09B6D23C0000000E05CA55A
310
400000000000408FC00000000025EC32C0000000A018C95B400C00000013000000FA0B00003C00000006000000020000000000000000408FC000000040F75826C0000000606E6F5A400000000000408FC0000000C009BD33C00000008079885B400C00000013000000020C00003C0000000600000002000000000000000040
310
8FC000000040360929C0000000406D2D5A400000000000408FC0000000402A8534C0000000E074435B400C000000130000000A0C00003C00000006000000020000000000000000408FC000000040686B2BC00000000027E159400000000000408FC000000040DD3935C0000000A0B9FD5A400C00000013000000120C00003C
310
00000006000000020000000000000000408FC0000000201DDE35C0000000406AB65A400000000000408FC0000000C0717B2DC0000000201F8B59400C000000130000001A0C00003C00000006000000020000000000000000408FC0000000E0E52A2FC0000000A0B32D59400000000000408FC000000080A57436C000000040
310
576C5A400C00000013000000220C00003C00000006000000020000000000000000408FC0000000A03F3B30C000000000A2C958400000000000408FC000000040F4FE36C0000000406D1E5A400C000000130000002A0C00003C00000006000000020000000000000000408FC0000000A03F3B30C000000000A2C95840000000
310
0000408FC0000000A06C7637C000000040E2D059400C00000013000000320C00003C00000006000000020000000000000000408FC0000000C054DD37C000000000A38259400000000000408FC000000000F0AA30C000000080706158400C000000130000003A0C00003C00000006000000020000000000000000408FC00000
310
008094E330C000000020EFF557400000000000408FC0000000E0D3D138C000000060986758400C00000013000000420C00003C00000006000000020000000000000000408FC00000008094E330C000000020EFF557400000000000408FC000000020B8E938C0000000C0BE1F58400C000000130000004A0C00003C00000006
310
000000020000000000000000408FC00000000099F938C000000000B1CC57400000000000408FC000000040FFFF30C0000000A0998957400C00000013000000520C00003C00000006000000020000000000000000408FC000000040FFFF38C0000000C0E92357400000000000408FC000000080586531C000000040B40D4540
310
0C000000130000005A0C00003C00000006000000020000000000000000408FC000000080641D32C0000000C012C644400000000000408FC000000040FFFF38C0000000C0E92357400C00000013000000620C00003C00000006000000020000000000000000408FC0000000E01D9E32C000000020105C44400000000000408F
310
C000000040FFFF38C0000000C0E92357400C000000130000006A0C00003C00000006000000020000000000000000408FC000000040FFFF38C0000000C0E92357400000000000408FC0000000C01EB932C000000020D2E043400C00000013000000720C00003C00000006000000020000000000000000408FC0000000C01EB9
310
32C000000020D2E043400000000000408FC0000000E01D9E32C00000004020B83E400C000000130000007A0C00003C00000006000000020000000000000000408FC000000040FFFF38C0000000C0E92357400000000000408FC0000000E01D9E32C00000004020B83E400C00000013000000820C00003C0000000600000002
310
0000000000000000408FC000000040FFFF38C0000000C0E92357400000000000408FC0000000C01EB932C000000040A4C13D400C000000130000008A0C00003C00000006000000020000000000000000408FC000000040FFFF38C000000000000000000000000000408FC0000000C01EB932C000000040A4C13D400C000000
310
13000000920C00003C00000006000000020000000000000000408FC0000000405F6932C000000080686B43400000000000408FC000000080641D32C000000040258C3F400C000000130000009A0C00003C00000006000000020000000000000000408FC000000080586531C000000040B40D40400000000000408FC0000000
310
40EABD31C0000000C0E31143400C00000013000000A20C00003C00000006000000020000000000000000408FC000000080586531C000000040B40D40400000000000408FC0000000C0CB2831C00000000045D042400C00000013000000AA0C00003C00000006000000020000000000000000408FC000000080586531C00000
310
0080681B36400000000000408FC0000000C0CB2831C0000000008AA03B400C00000013000000B20C00003C00000006000000020000000000000000408FC000000080641D32C000000040258C35400000000000408FC000000040EABD31C000000080C7233C400C00000013000000BA0C00003C000000060000000200000000
310
00000000408FC0000000405F6932C000000040D1D63C400000000000408FC0000000E01D9E32C00000004020B834400C00000013000000C20C00003C00000006000000020000000000000000408FC0000000C01EB932C000000040A4C133400000000000408FC0000000C01EB932C000000040A4C13D400C00000013000000
310
CA0C00003C00000006000000020000000000000000408FC000000040FFFF38C000000000000000000000000000408FC0000000C01EB932C000000040A4C133400C00000013000000D20C00003C00000006000000020000000000000000408FC0000000C01EB932C000000040A4C133400000000000408FC0000000C01EB932
310
C000000000488323400C00000013000000DA0C00003C00000006000000020000000000000000408FC000000040FFFF38C000000000000000000000000000408FC0000000C01EB932C000000000488323400C00000013000000E20C00003C00000006000000020000000000000000408FC000000040FFFF38C0000000000000
310
00000000000000408FC0000000405F6932C000000000A2AD21400C00000013000000EA0C00003C00000006000000020000000000000000408FC0000000E01D9E32C000000000407025400000000000408FC0000000405F6932C000000040D1D632400C00000013000000F20C00003C00000006000000020000000000000000
310
408FC000000080641D32C0000000804A1827400000000000408FC000000040EABD31C000000080C72332400C00000013000000FA0C00003C00000006000000020000000000000000408FC0000000C0CB2831C0000000008AA031400000000000408FC000000080586531C000000000D13628400C00000013000000020D0000
310
3C00000006000000020000000000000000408FC000000040FFFF38C000000000000000000000000000408FC000000040EABD31C0000000008F4720400C000000130000000A0D00003C00000006000000020000000000000000408FC000000020992031C000000000000000000000000000408FC0000000C0CB2831C0000000
310
0028821E40
100
AcDbSubDMesh
 71
     2
 72
     0
 91
        0
 92
      200
 10
1000.000061035156
 20
-16.66774749755859
 30
97.52249145507812
 10
1000.000061035156
 20
-24.62546348571777
 30
98.90110778808594
 10
1000.000061035156
 20
-22.99593734741211
 30
104.4754180908203
 10
1000.000061035156
 20
-15.58380603790283
 30
100.7140884399414
 10
1000.000061035156
 20
-13.70980072021484
 30
103.5180053710937
 10
1000.000061035156
 20
-20.52019882202149
 30
109.0540084838867
 10
1000.000061035156
 20
-24.91298866271973
 30
96.49601745605469
 10
1000.000061035156
 20
-24.99183464050293
 30
93.86109161376953
 10
1000.000061035156
 20
-18.72314834594726
 30
9.756416320800781
 10
1000.000061035156
 20
-25.0000114440918
 30
0.0
 10
1000.000061035156
 20
-18.61766624450683
 30
10.71924591064453
 10
1000.000061035156
 20
-18.72314834594726
 30
19.75641250610351
 10
1000.000061035156
 20
-18.61766624450683
 30
20.71924209594727
 10
1000.000061035156
 20
-18.11483764648437
 30
21.54744338989258
 10
1000.000061035156
 20
-18.72314834594726
 30
29.75641250610351
 10
1000.000061035156
 20
-18.61766624450683
 30
30.71924209594727
 10
1000.000061035156
 20
-18.11483764648437
 30
31.54744338989258
 10
1000.000061035156
 20
-18.72314834594726
 30
39.75641250610351
 10
1000.000061035156
 20
-18.61766624450683
 30
40.71924209594726
 10
1000.000061035156
 20
-18.11483764648437
 30
41.54744720458984
 10
1000.000061035156
 20
-17.39590454101562
 30
42.10706329345703
 10
1000.000061035156
 20
-17.12735939025879
 30
0.0
 10
1000.000061035156
 20
-17.0000114440918
 30
0.1999969482421875
 10
1000.000061035156
 20
-17.0000114440918
 30
7.116859436035156
 10
1000.000061035156
 20
-18.4116325378418
 30
8.839134216308593
 10
1000.000061035156
 20
-17.74187850952148
 30
8.139762878417968
 10
1000.000061035156
 20
-17.15938186645508
 30
7.627105712890625
 10
1000.000061035156
 20
-18.11483764648437
 30
11.54744338989257
 10
1000.000061035156
 20
-17.39590454101562
 30
12.10706329345703
 10
1000.000061035156
 20
-17.0000114440918
 30
17.11685943603515
 10
1000.000061035156
 20
-18.4116325378418
 30
18.83913040161132
 10
1000.000061035156
 20
-17.74187850952148
 30
18.13976287841797
 10
1000.000061035156
 20
-17.15938186645508
 30
17.62710571289062
 10
1000.000061035156
 20
-17.39590454101562
 30
22.10706329345703
 10
1000.000061035156
 20
-18.4116325378418
 30
28.83913040161133
 10
1000.000061035156
 20
-17.74187850952148
 30
28.13976287841797
 10
1000.000061035156
 20
-17.15938186645508
 30
27.62710571289062
 10
1000.000061035156
 20
-17.39590454101562
 30
32.10706329345703
 10
1000.000061035156
 20
-17.0000114440918
 30
37.11685943603516
 10
1000.000061035156
 20
-18.4116325378418
 30
38.83912658691406
 10
1000.000061035156
 20
-17.74187850952148
 30
38.13976287841797
 10
1000.000061035156
 20
-17.15938186645508
 30
37.62710571289062
 10
1000.000061035156
 20
-11.17378234863281
 30
105.7411117553711
 10
1000.000061035156
 20
-8.150519371032714
 30
107.2314529418945
 10
1000.000061035156
 20
-17.14582252502441
 30
113.0171356201172
 10
1000.000061035156
 20
-4.842730522155761
 30
107.8889999389648
 10
1000.000061035156
 20
-1.00001049041748
 30
108.0
 10
1000.000061035156
 20
-0.5000104904174805
 30
108.1339721679687
 10
1000.000061035156
 20
-0.1339845657348633
 30
108.5
 10
1000.000061035156
 20
-0.0000104904174805
 30
109.0
 10
1000.000061035156
 20
-0.0000104904174805
 30
111.7087097167968
 10
1000.000061035156
 20
-0.0737543106079102
 30
112.0852661132812
 10
1000.000061035156
 20
-13.02034568786621
 30
116.1911239624023
 10
1000.000061035156
 20
-0.2843923568725586
 30
112.4070205688476
 10
1000.000061035156
 20
-0.6000108718872071
 30
112.6252288818359
 10
1000.000061035156
 20
-1.151761054992675
 30
113.0391235351562
 10
1000.000061035156
 20
-1.459782600402832
 30
113.6555557250976
 10
1000.000061035156
 20
-1.459782600402832
 30
114.3444442749023
 10
1000.000061035156
 20
-1.151761054992675
 30
114.9608764648437
 10
1000.000061035156
 20
-0.6000108718872071
 30
115.374771118164
 10
1000.000061035156
 20
-8.324636459350585
 30
118.4370727539062
 10
1000.000061035156
 20
-0.2843923568725586
 30
115.5929794311523
 10
1000.000061035156
 20
-0.0737543106079102
 30
115.9147338867187
 10
1000.000061035156
 20
-0.0000104904174805
 30
116.2912902832031
 10
1000.000061035156
 20
-3.26418113708496
 30
119.6563949584961
 10
1000.000061035156
 20
-0.0000104904174805
 30
120.0
 10
1000.000061035156
 20
-24.81966209411621
 30
97.61867523193359
 10
1000.000061035156
 20
-24.97501373291016
 30
95.19830322265624
 10
1000.000061035156
 20
-25.0000114440918
 30
92.56114196777344
 10
1000.000061035156
 20
-23.86459732055664
 30
102.0411987304687
 10
1000.000061035156
 20
-21.86765480041504
 30
106.8502349853515
 10
1000.000061035156
 20
-18.9224624633789
 30
111.1421279907226
 10
1000.000061035156
 20
-15.14831829071045
 30
114.7268981933593
 10
1000.000061035156
 20
-10.71076011657715
 30
117.447883605957
 10
1000.000061035156
 20
-5.80395221710205
 30
119.1854476928711
 10
1000.000061035156
 20
-23.46261787414551
 30
103.2638092041015
 10
1000.000061035156
 20
-21.22605514526367
 30
107.9644546508789
 10
1000.000061035156
 20
-18.06302833557129
 30
112.098388671875
 10
1000.000061035156
 20
-14.10865783691406
 30
115.4833526611328
 10
1000.000061035156
 20
-9.536443710327148
 30
117.9713668823242
 10
1000.000061035156
 20
-4.546374320983886
 30
119.4530563354492
 10
1000.000061035156
 20
-24.20796775817871
 30
100.7890472412109
 10
1000.000061035156
 20
-22.45567321777344
 30
105.6928253173828
 10
1000.000061035156
 20
-19.73845291137695
 30
110.1324157714844
 10
1000.000061035156
 20
-16.15662956237793
 30
113.9091720581054
 10
1000.000061035156
 20
-11.86715698242187
 30
116.8578796386718
 10
1000.000061035156
 20
-7.057843208312988
 30
118.8491058349609
 10
1000.000061035156
 20
-16.23146247863769
 30
99.1505126953125
 10
1000.000061035156
 20
-14.74112319946289
 30
102.1737747192382
 10
1000.000061035156
 20
-12.51801300048828
 30
104.7097930908203
 10
1000.000061035156
 20
-16.88900756835937
 30
95.84272003173827
 10
1000.000061035156
 20
-9.714099884033203
 30
106.5837936401367
 10
1000.000061035156
 20
-6.522501945495605
 30
107.6677322387695
 10
1000.000061035156
 20
-3.150010108947753
 30
108.0
 10
1000.000061035156
 20
-17.0000114440918
 30
94.15000152587891
 10
1000.000061035156
 20
-17.0000114440918
 30
42.88314056396484
 10
1000.000061035156
 20
-17.0000114440918
 30
12.88314056396484
 10
1000.000061035156
 20
-17.0000114440918
 30
22.88314056396484
 10
1000.000061035156
 20
-17.0000114440918
 30
27.11685943603516
 10
1000.000061035156
 20
-17.0000114440918
 30
32.88314056396484
 10
-1000.0
 20
-16.88898468017578
 30
95.84272003173827
 10
-1000.0
 20
-16.9999885559082
 30
42.88314056396484
 10
-1000.0
 20
0.0000104904174805
 30
116.2912902832031
 10
-1000.0
 20
-5.803932189941406
 30
119.1854476928711
 10
-1000.0
 20
-7.05782127380371
 30
118.8491058349609
 10
-1000.0
 20
-0.2843713760375976
 30
115.5929794311523
 10
-1000.0
 20
-0.5999898910522461
 30
115.374771118164
 10
-1000.0
 20
-9.536422729492187
 30
117.9713668823242
 10
-1000.0
 20
-1.151740074157714
 30
114.9608764648437
 10
-1000.0
 20
-10.71073913574219
 30
117.447883605957
 10
-1000.0
 20
-11.86713600158691
 30
116.8578796386718
 10
-1000.0
 20
-1.459761619567871
 30
113.6555557250976
 10
-1000.0
 20
-15.14829730987549
 30
114.7268981933593
 10
-1000.0
 20
0.0000104904174805
 30
109.0
 10
-1000.0
 20
0.0000104904174805
 30
111.7087097167968
 10
-1000.0
 20
-0.0737333297729492
 30
112.0852661132812
 10
-1000.0
 20
-0.9999895095825195
 30
108.0
 10
-1000.0
 20
-4.842710494995117
 30
107.8889999389648
 10
-1000.0
 20
-16.15660667419433
 30
113.9091720581054
 10
-1000.0
 20
-17.14579963684082
 30
113.0171356201172
 10
-1000.0
 20
-8.150498390197753
 30
107.2314529418945
 10
-1000.0
 20
-18.06300544738769
 30
112.098388671875
 10
-1000.0
 20
-11.17376136779785
 30
105.7411117553711
 10
-1000.0
 20
-19.73843002319336
 30
110.1324157714844
 10
-1000.0
 20
-13.70977973937988
 30
103.5180053710937
 10
-1000.0
 20
-21.86763191223144
 30
106.8502349853515
 10
-1000.0
 20
-15.58378505706787
 30
100.7140884399414
 10
-1000.0
 20
-16.2314395904541
 30
99.1505126953125
 10
-1000.0
 20
-23.46259498596191
 30
103.2638092041015
 10
-1000.0
 20
-23.86457443237305
 30
102.0411987304687
 10
-1000.0
 20
-24.97499084472656
 30
95.19830322265624
 10
-1000.0
 20
-18.11481475830078
 30
41.54744720458984
 10
-1000.0
 20
-18.61764335632324
 30
40.71924209594726
 10
-1000.0
 20
-24.99998855590821
 30
0.0
 10
-1000.0
 20
-18.4116096496582
 30
38.83912658691406
 10
-1000.0
 20
-17.39588165283203
 30
32.10706329345703
 10
-1000.0
 20
-17.15935897827148
 30
37.62710571289062
 10
-1000.0
 20
-16.9999885559082
 30
32.88314056396484
 10
-1000.0
 20
-17.39588165283203
 30
22.10706329345703
 10
-1000.0
 20
-16.9999885559082
 30
27.11685943603516
 10
-1000.0
 20
-17.15935897827148
 30
27.62710571289062
 10
-1000.0
 20
-18.11481475830078
 30
21.54744338989258
 10
-1000.0
 20
-17.74185562133789
 30
28.13976287841797
 10
-1000.0
 20
-18.4116096496582
 30
28.83913040161133
 10
-1000.0
 20
-18.72312545776367
 30
19.75641250610351
 10
-1000.0
 20
-18.4116096496582
 30
8.839126586914062
 10
-1000.0
 20
-18.61764335632324
 30
10.71923828125
 10
-1000.0
 20
-18.4116096496582
 30
18.83913040161132
 10
-1000.0
 20
-18.11481475830078
 30
11.54744338989257
 10
-1000.0
 20
-17.15935897827148
 30
17.62710571289062
 10
-1000.0
 20
-16.9999885559082
 30
17.11685943603515
 10
-1000.0
 20
-17.12733650207519
 30
0.0
 10
-1000.0
 20
-16.9999885559082
 30
0.1999969482421875
 10
-1000.0
 20
-24.62544059753418
 30
98.90110778808594
 10
-1000.0
 20
-16.667724609375
 30
97.52249145507812
 10
-1000.0
 20
-24.20794486999512
 30
100.7890472412109
 10
-1000.0
 20
-24.99181175231934
 30
93.86109161376953
 10
-1000.0
 20
-24.99998855590821
 30
92.56114196777344
 10
-1000.0
 20
-16.9999885559082
 30
94.15000152587891
 10
-1000.0
 20
0.0000104904174805
 30
120.0
 10
-1000.0
 20
-3.26416015625
 30
119.6563949584961
 10
-1000.0
 20
-4.546352386474609
 30
119.4530563354492
 10
-1000.0
 20
-0.0737333297729492
 30
115.9147338867187
 10
-1000.0
 20
-8.324615478515625
 30
118.4370727539062
 10
-1000.0
 20
-1.459761619567871
 30
114.3444442749023
 10
-1000.0
 20
-13.02032470703125
 30
116.1911239624023
 10
-1000.0
 20
-14.1086368560791
 30
115.4833526611328
 10
-1000.0
 20
-1.151740074157714
 30
113.0391235351562
 10
-1000.0
 20
-0.1339635848999023
 30
108.5
 10
-1000.0
 20
-0.4999895095825196
 30
108.1339721679687
 10
-1000.0
 20
-0.2843713760375976
 30
112.4070205688476
 10
-1000.0
 20
-0.5999898910522461
 30
112.6252288818359
 10
-1000.0
 20
-3.149990081787109
 30
108.0
 10
-1000.0
 20
-6.522479534149169
 30
107.6677322387695
 10
-1000.0
 20
-9.714078903198242
 30
106.5837936401367
 10
-1000.0
 20
-18.92243957519531
 30
111.1421279907226
 10
-1000.0
 20
-12.51799201965332
 30
104.7097930908203
 10
-1000.0
 20
-20.52017593383789
 30
109.0540084838867
 10
-1000.0
 20
-21.22603225708008
 30
107.9644546508789
 10
-1000.0
 20
-14.74110221862793
 30
102.1737747192382
 10
-1000.0
 20
-22.45565032958984
 30
105.6928253173828
 10
-1000.0
 20
-22.99591445922851
 30
104.4754180908203
 10
-1000.0
 20
-24.81963920593262
 30
97.61867523193359
 10
-1000.0
 20
-24.91296577453613
 30
96.49601745605469
 10
-1000.0
 20
-17.39588165283203
 30
42.10706329345703
 10
-1000.0
 20
-18.72312545776367
 30
39.75641250610351
 10
-1000.0
 20
-18.61764335632324
 30
30.71924209594727
 10
-1000.0
 20
-18.72312545776367
 30
29.75641250610351
 10
-1000.0
 20
-18.11481475830078
 30
31.54744338989258
 10
-1000.0
 20
-17.74185562133789
 30
38.13976287841797
 10
-1000.0
 20
-16.9999885559082
 30
37.11685943603516
 10
-1000.0
 20
-16.9999885559082
 30
22.88314056396484
 10
-1000.0
 20
-18.61764335632324
 30
20.71924209594727
 10
-1000.0
 20
-18.72312545776367
 30
9.75640869140625
 10
-1000.0
 20
-17.74185562133789
 30
18.13976287841797
 10
-1000.0
 20
-17.39588165283203
 30
12.10706329345703
 10
-1000.0
 20
-16.9999885559082
 30
12.88314056396484
 10
-1000.0
 20
-17.15935897827148
 30
7.627105712890625
 10
-1000.0
 20
-17.74185562133789
 30
8.139762878417968
 10
-1000.0
 20
-16.9999885559082
 30
7.116859436035156
 93
     1056
 90
        4
 90
        1
 90
       90
 90
        0
 90
       81
 90
        3
 90
        7
 90
       68
 90
       94
 90
        3
 90
       68
 90
       95
 90
       94
 90
        3
 90
       63
 90
       65
 90
       64
 90
        3
 90
       63
 90
       64
 90
       80
 90
        3
 90
       62
 90
       74
 90
       86
 90
        4
 90
       62
 90
       63
 90
       80
 90
       74
 90
        4
 90
       61
 90
       62
 90
       86
 90
       60
 90
        4
 90
       59
 90
       61
 90
       60
 90
       79
 90
        4
 90
       58
 90
       59
 90
       79
 90
       73
 90
        3
 90
       58
 90
       73
 90
       85
 90
        4
 90
       57
 90
       58
 90
       85
 90
       52
 90
        4
 90
       56
 90
       57
 90
       52
 90
       78
 90
        4
 90
       55
 90
       56
 90
       78
 90
       72
 90
        4
 90
       48
 90
       49
 90
       50
 90
       51
 90
        4
 90
       47
 90
       48
 90
       51
 90
       53
 90
        4
 90
       46
 90
       47
 90
       53
 90
       54
 90
        4
 90
       93
 90
       46
 90
       54
 90
       55
 90
        5
 90
       45
 90
       93
 90
       55
 90
       72
 90
       84
 90
        4
 90
       92
 90
       45
 90
       84
 90
       44
 90
        4
 90
       43
 90
       92
 90
       44
 90
       77
 90
        4
 90
       91
 90
       43
 90
       77
 90
       71
 90
        4
 90
       42
 90
       91
 90
       71
 90
       83
 90
        4
 90
       89
 90
       42
 90
       83
 90
        5
 90
        4
 90
        4
 90
       89
 90
        5
 90
       76
 90
        4
 90
       88
 90
        4
 90
       76
 90
       70
 90
        4
 90
        3
 90
       88
 90
       70
 90
       82
 90
        4
 90
       87
 90
        3
 90
       82
 90
        2
 90
        3
 90
       87
 90
        2
 90
       75
 90
        4
 90
        0
 90
       87
 90
       75
 90
       69
 90
        3
 90
        0
 90
       69
 90
       81
 90
        3
 90
        1
 90
       66
 90
       90
 90
        3
 90
       66
 90
        6
 90
       90
 90
        4
 90
        6
 90
       67
 90
       94
 90
       90
 90
        3
 90
       67
 90
        7
 90
       94
 90
        3
 90
       68
 90
       20
 90
       95
 90
        3
 90
       68
 90
       19
 90
       20
 90
        3
 90
       68
 90
       17
 90
       18
 90
        3
 90
       68
 90
       18
 90
       19
 90
        3
 90
       68
 90
       15
 90
       17
 90
        3
 90
       68
 90
        9
 90
       14
 90
        3
 90
       68
 90
       14
 90
       15
 90
        4
 90
       15
 90
       16
 90
       39
 90
       17
 90
        4
 90
       16
 90
       37
 90
       40
 90
       39
 90
        3
 90
       37
 90
       41
 90
       40
 90
        4
 90
       37
 90
       99
 90
       38
 90
       41
 90
        4
 90
       33
 90
       97
 90
       98
 90
       36
 90
        4
 90
       13
 90
       33
 90
       36
 90
       35
 90
        4
 90
       12
 90
       13
 90
       35
 90
       34
 90
        4
 90
       11
 90
       12
 90
       34
 90
       14
 90
        3
 90
        9
 90
        8
 90
       11
 90
        3
 90
        9
 90
       11
 90
       14
 90
        3
 90
        9
 90
       24
 90
        8
 90
        4
 90
        8
 90
       10
 90
       30
 90
       11
 90
        4
 90
       10
 90
       27
 90
       31
 90
       30
 90
        4
 90
       27
 90
       28
 90
       32
 90
       31
 90
        4
 90
       28
 90
       96
 90
       29
 90
       32
 90
        4
 90
        9
 90
       21
 90
       26
 90
       25
 90
        3
 90
        9
 90
       25
 90
       24
 90
        4
 90
       21
 90
       22
 90
       23
 90
       26
 90
        4
 90
       21
 90
        9
 90
      133
 90
      151
 90
        4
 90
        9
 90
       68
 90
      157
 90
      133
 90
        4
 90
       68
 90
        7
 90
      156
 90
      157
 90
        4
 90
        7
 90
       67
 90
      130
 90
      156
 90
        4
 90
       67
 90
        6
 90
      183
 90
      130
 90
        4
 90
        6
 90
       66
 90
      182
 90
      183
 90
        4
 90
       66
 90
        1
 90
      153
 90
      182
 90
        4
 90
        1
 90
       81
 90
      155
 90
      153
 90
        4
 90
       81
 90
       69
 90
      129
 90
      155
 90
        4
 90
       69
 90
       75
 90
      128
 90
      129
 90
        4
 90
       75
 90
        2
 90
      181
 90
      128
 90
        4
 90
        2
 90
       82
 90
      180
 90
      181
 90
        4
 90
       82
 90
       70
 90
      125
 90
      180
 90
        4
 90
       70
 90
       76
 90
      178
 90
      125
 90
        4
 90
       76
 90
        5
 90
      177
 90
      178
 90
        4
 90
        5
 90
       83
 90
      123
 90
      177
 90
        4
 90
       83
 90
       71
 90
      175
 90
      123
 90
        4
 90
       71
 90
       77
 90
      121
 90
      175
 90
        4
 90
       77
 90
       44
 90
      119
 90
      121
 90
        4
 90
       44
 90
       84
 90
      118
 90
      119
 90
        4
 90
       84
 90
       72
 90
      112
 90
      118
 90
        4
 90
       72
 90
       78
 90
      166
 90
      112
 90
        4
 90
       78
 90
       52
 90
      165
 90
      166
 90
        4
 90
       52
 90
       85
 90
      110
 90
      165
 90
        4
 90
       85
 90
       73
 90
      109
 90
      110
 90
        4
 90
       73
 90
       79
 90
      107
 90
      109
 90
        4
 90
       79
 90
       60
 90
      163
 90
      107
 90
        4
 90
       60
 90
       86
 90
      104
 90
      163
 90
        4
 90
       86
 90
       74
 90
      103
 90
      104
 90
        4
 90
       74
 90
       80
 90
      161
 90
      103
 90
        4
 90
       80
 90
       64
 90
      160
 90
      161
 90
        4
 90
       64
 90
       65
 90
      159
 90
      160
 90
        4
 90
       65
 90
       63
 90
      102
 90
      159
 90
        4
 90
       63
 90
       62
 90
      162
 90
      102
 90
        4
 90
       62
 90
       61
 90
      105
 90
      162
 90
        4
 90
       61
 90
       59
 90
      106
 90
      105
 90
        4
 90
       59
 90
       58
 90
      108
 90
      106
 90
        4
 90
       58
 90
       57
 90
      164
 90
      108
 90
        4
 90
       57
 90
       56
 90
      111
 90
      164
 90
        4
 90
       56
 90
       55
 90
      167
 90
      111
 90
        4
 90
       55
 90
       54
 90
      171
 90
      167
 90
        4
 90
       54
 90
       53
 90
      170
 90
      171
 90
        4
 90
       53
 90
       51
 90
      115
 90
      170
 90
        4
 90
       51
 90
       50
 90
      114
 90
      115
 90
        4
 90
       50
 90
       49
 90
      113
 90
      114
 90
        4
 90
       49
 90
       48
 90
      168
 90
      113
 90
        4
 90
       48
 90
       47
 90
      169
 90
      168
 90
        4
 90
       47
 90
       46
 90
      116
 90
      169
 90
        4
 90
       46
 90
       93
 90
      172
 90
      116
 90
        4
 90
       93
 90
       45
 90
      117
 90
      172
 90
        4
 90
       45
 90
       92
 90
      173
 90
      117
 90
        4
 90
       92
 90
       43
 90
      120
 90
      173
 90
        4
 90
       43
 90
       91
 90
      174
 90
      120
 90
        4
 90
       91
 90
       42
 90
      122
 90
      174
 90
        4
 90
       42
 90
       89
 90
      176
 90
      122
 90
        4
 90
       89
 90
        4
 90
      124
 90
      176
 90
        4
 90
        4
 90
       88
 90
      179
 90
      124
 90
        4
 90
       88
 90
        3
 90
      126
 90
      179
 90
        4
 90
        3
 90
       87
 90
      127
 90
      126
 90
        4
 90
       87
 90
        0
 90
      154
 90
      127
 90
        4
 90
        0
 90
       90
 90
      100
 90
      154
 90
        4
 90
       90
 90
       94
 90
      158
 90
      100
 90
        4
 90
       94
 90
       95
 90
      101
 90
      158
 90
        4
 90
       95
 90
       20
 90
      184
 90
      101
 90
        4
 90
       20
 90
       19
 90
      131
 90
      184
 90
        4
 90
       19
 90
       18
 90
      132
 90
      131
 90
        4
 90
       18
 90
       17
 90
      185
 90
      132
 90
        4
 90
       17
 90
       39
 90
      134
 90
      185
 90
        4
 90
       39
 90
       40
 90
      189
 90
      134
 90
        4
 90
       40
 90
       41
 90
      136
 90
      189
 90
        4
 90
       41
 90
       38
 90
      190
 90
      136
 90
        4
 90
       38
 90
       99
 90
      137
 90
      190
 90
        4
 90
       99
 90
       37
 90
      135
 90
      137
 90
        4
 90
       37
 90
       16
 90
      188
 90
      135
 90
        4
 90
       16
 90
       15
 90
      186
 90
      188
 90
        4
 90
       15
 90
       14
 90
      187
 90
      186
 90
        4
 90
       14
 90
       34
 90
      143
 90
      187
 90
        4
 90
       34
 90
       35
 90
      142
 90
      143
 90
        4
 90
       35
 90
       36
 90
      140
 90
      142
 90
        4
 90
       36
 90
       98
 90
      139
 90
      140
 90
        4
 90
       98
 90
       97
 90
      191
 90
      139
 90
        4
 90
       97
 90
       33
 90
      138
 90
      191
 90
        4
 90
       33
 90
       13
 90
      141
 90
      138
 90
        4
 90
       13
 90
       12
 90
      192
 90
      141
 90
        4
 90
       12
 90
       11
 90
      144
 90
      192
 90
        4
 90
       11
 90
       30
 90
      147
 90
      144
 90
        4
 90
       30
 90
       31
 90
      194
 90
      147
 90
        4
 90
       31
 90
       32
 90
      149
 90
      194
 90
        4
 90
       32
 90
       29
 90
      150
 90
      149
 90
        4
 90
       29
 90
       96
 90
      196
 90
      150
 90
        4
 90
       96
 90
       28
 90
      195
 90
      196
 90
        4
 90
       28
 90
       27
 90
      148
 90
      195
 90
        4
 90
       27
 90
       10
 90
      146
 90
      148
 90
        4
 90
       10
 90
        8
 90
      193
 90
      146
 90
        4
 90
        8
 90
       24
 90
      145
 90
      193
 90
        4
 90
       24
 90
       25
 90
      198
 90
      145
 90
        4
 90
       25
 90
       26
 90
      197
 90
      198
 90
        4
 90
       26
 90
       23
 90
      199
 90
      197
 90
        4
 90
       23
 90
       22
 90
      152
 90
      199
 90
        4
 90
       22
 90
       21
 90
      151
 90
      152
 90
        4
 90
      153
 90
      155
 90
      154
 90
      100
 90
        3
 90
      156
 90
      158
 90
      157
 90
        3
 90
      157
 90
      158
 90
      101
 90
        3
 90
      102
 90
      160
 90
      159
 90
        3
 90
      102
 90
      161
 90
      160
 90
        3
 90
      162
 90
      104
 90
      103
 90
        4
 90
      162
 90
      103
 90
      161
 90
      102
 90
        4
 90
      105
 90
      163
 90
      104
 90
      162
 90
        4
 90
      106
 90
      107
 90
      163
 90
      105
 90
        4
 90
      108
 90
      109
 90
      107
 90
      106
 90
        3
 90
      108
 90
      110
 90
      109
 90
        4
 90
      164
 90
      165
 90
      110
 90
      108
 90
        4
 90
      111
 90
      166
 90
      165
 90
      164
 90
        4
 90
      167
 90
      112
 90
      166
 90
      111
 90
        4
 90
      168
 90
      115
 90
      114
 90
      113
 90
        4
 90
      169
 90
      170
 90
      115
 90
      168
 90
        4
 90
      116
 90
      171
 90
      170
 90
      169
 90
        4
 90
      172
 90
      167
 90
      171
 90
      116
 90
        5
 90
      117
 90
      118
 90
      112
 90
      167
 90
      172
 90
        4
 90
      173
 90
      119
 90
      118
 90
      117
 90
        4
 90
      120
 90
      121
 90
      119
 90
      173
 90
        4
 90
      174
 90
      175
 90
      121
 90
      120
 90
        4
 90
      122
 90
      123
 90
      175
 90
      174
 90
        4
 90
      176
 90
      177
 90
      123
 90
      122
 90
        4
 90
      124
 90
      178
 90
      177
 90
      176
 90
        4
 90
      179
 90
      125
 90
      178
 90
      124
 90
        4
 90
      126
 90
      180
 90
      125
 90
      179
 90
        4
 90
      127
 90
      181
 90
      180
 90
      126
 90
        3
 90
      127
 90
      128
 90
      181
 90
        4
 90
      154
 90
      129
 90
      128
 90
      127
 90
        3
 90
      154
 90
      155
 90
      129
 90
        3
 90
      153
 90
      100
 90
      182
 90
        3
 90
      182
 90
      100
 90
      183
 90
        4
 90
      183
 90
      100
 90
      158
 90
      130
 90
        3
 90
      130
 90
      158
 90
      156
 90
        3
 90
      157
 90
      101
 90
      184
 90
        3
 90
      157
 90
      184
 90
      131
 90
        3
 90
      157
 90
      132
 90
      185
 90
        3
 90
      157
 90
      131
 90
      132
 90
        3
 90
      157
 90
      185
 90
      186
 90
        3
 90
      157
 90
      187
 90
      133
 90
        3
 90
      157
 90
      186
 90
      187
 90
        4
 90
      186
 90
      185
 90
      134
 90
      188
 90
        4
 90
      188
 90
      134
 90
      189
 90
      135
 90
        3
 90
      135
 90
      189
 90
      136
 90
        4
 90
      135
 90
      136
 90
      190
 90
      137
 90
        4
 90
      138
 90
      140
 90
      139
 90
      191
 90
        4
 90
      141
 90
      142
 90
      140
 90
      138
 90
        4
 90
      192
 90
      143
 90
      142
 90
      141
 90
        4
 90
      144
 90
      187
 90
      143
 90
      192
 90
        3
 90
      133
 90
      144
 90
      193
 90
        3
 90
      133
 90
      187
 90
      144
 90
        3
 90
      133
 90
      193
 90
      145
 90
        4
 90
      193
 90
      144
 90
      147
 90
      146
 90
        4
 90
      146
 90
      147
 90
      194
 90
      148
 90
        4
 90
      148
 90
      194
 90
      149
 90
      195
 90
        4
 90
      195
 90
      149
 90
      150
 90
      196
 90
        4
 90
      133
 90
      198
 90
      197
 90
      151
 90
        3
 90
      133
 90
      145
 90
      198
 90
        4
 90
      151
 90
      197
 90
      199
 90
      152
 94
      418
 90
        1
 90
       90
 90
        0
 90
       90
 90
        0
 90
       81
 90
        1
 90
       81
 90
        7
 90
       68
 90
       68
 90
       94
 90
        7
 90
       94
 90
       68
 90
       95
 90
       94
 90
       95
 90
       63
 90
       65
 90
       64
 90
       65
 90
       63
 90
       64
 90
       64
 90
       80
 90
       63
 90
       80
 90
       62
 90
       74
 90
       74
 90
       86
 90
       62
 90
       86
 90
       62
 90
       63
 90
       74
 90
       80
 90
       61
 90
       62
 90
       60
 90
       86
 90
       60
 90
       61
 90
       59
 90
       61
 90
       60
 90
       79
 90
       59
 90
       79
 90
       58
 90
       59
 90
       73
 90
       79
 90
       58
 90
       73
 90
       73
 90
       85
 90
       58
 90
       85
 90
       57
 90
       58
 90
       52
 90
       85
 90
       52
 90
       57
 90
       56
 90
       57
 90
       52
 90
       78
 90
       56
 90
       78
 90
       55
 90
       56
 90
       72
 90
       78
 90
       55
 90
       72
 90
       48
 90
       49
 90
       49
 90
       50
 90
       50
 90
       51
 90
       48
 90
       51
 90
       47
 90
       48
 90
       51
 90
       53
 90
       47
 90
       53
 90
       46
 90
       47
 90
       53
 90
       54
 90
       46
 90
       54
 90
       46
 90
       93
 90
       54
 90
       55
 90
       55
 90
       93
 90
       45
 90
       93
 90
       72
 90
       84
 90
       45
 90
       84
 90
       45
 90
       92
 90
       44
 90
       84
 90
       44
 90
       92
 90
       43
 90
       92
 90
       44
 90
       77
 90
       43
 90
       77
 90
       43
 90
       91
 90
       71
 90
       77
 90
       71
 90
       91
 90
       42
 90
       91
 90
       71
 90
       83
 90
       42
 90
       83
 90
       42
 90
       89
 90
        5
 90
       83
 90
        5
 90
       89
 90
        4
 90
       89
 90
        5
 90
       76
 90
        4
 90
       76
 90
        4
 90
       88
 90
       70
 90
       76
 90
       70
 90
       88
 90
        3
 90
       88
 90
       70
 90
       82
 90
        3
 90
       82
 90
        3
 90
       87
 90
        2
 90
       82
 90
        2
 90
       87
 90
        2
 90
       75
 90
       75
 90
       87
 90
        0
 90
       87
 90
       69
 90
       75
 90
        0
 90
       69
 90
       69
 90
       81
 90
        1
 90
       66
 90
       66
 90
       90
 90
        6
 90
       66
 90
        6
 90
       90
 90
        6
 90
       67
 90
       67
 90
       94
 90
       90
 90
       94
 90
        7
 90
       67
 90
       20
 90
       68
 90
       20
 90
       95
 90
       19
 90
       68
 90
       19
 90
       20
 90
       17
 90
       68
 90
       17
 90
       18
 90
       18
 90
       68
 90
       18
 90
       19
 90
       15
 90
       68
 90
       15
 90
       17
 90
        9
 90
       68
 90
        9
 90
       14
 90
       14
 90
       68
 90
       14
 90
       15
 90
       15
 90
       16
 90
       16
 90
       39
 90
       17
 90
       39
 90
       16
 90
       37
 90
       37
 90
       40
 90
       39
 90
       40
 90
       37
 90
       41
 90
       40
 90
       41
 90
       37
 90
       99
 90
       38
 90
       99
 90
       38
 90
       41
 90
       33
 90
       97
 90
       97
 90
       98
 90
       36
 90
       98
 90
       33
 90
       36
 90
       13
 90
       33
 90
       35
 90
       36
 90
       13
 90
       35
 90
       12
 90
       13
 90
       34
 90
       35
 90
       12
 90
       34
 90
       11
 90
       12
 90
       14
 90
       34
 90
       11
 90
       14
 90
        8
 90
        9
 90
        8
 90
       11
 90
        9
 90
       11
 90
        9
 90
       24
 90
        8
 90
       24
 90
        8
 90
       10
 90
       10
 90
       30
 90
       11
 90
       30
 90
       10
 90
       27
 90
       27
 90
       31
 90
       30
 90
       31
 90
       27
 90
       28
 90
       28
 90
       32
 90
       31
 90
       32
 90
       28
 90
       96
 90
       29
 90
       96
 90
       29
 90
       32
 90
        9
 90
       21
 90
       21
 90
       26
 90
       25
 90
       26
 90
        9
 90
       25
 90
       24
 90
       25
 90
       21
 90
       22
 90
       22
 90
       23
 90
       23
 90
       26
 90
        9
 90
      133
 90
      133
 90
      151
 90
       21
 90
      151
 90
       68
 90
      157
 90
      133
 90
      157
 90
        7
 90
      156
 90
      156
 90
      157
 90
       67
 90
      130
 90
      130
 90
      156
 90
        6
 90
      183
 90
      130
 90
      183
 90
       66
 90
      182
 90
      182
 90
      183
 90
        1
 90
      153
 90
      153
 90
      182
 90
       81
 90
      155
 90
      153
 90
      155
 90
       69
 90
      129
 90
      129
 90
      155
 90
       75
 90
      128
 90
      128
 90
      129
 90
        2
 90
      181
 90
      128
 90
      181
 90
       82
 90
      180
 90
      180
 90
      181
 90
       70
 90
      125
 90
      125
 90
      180
 90
       76
 90
      178
 90
      125
 90
      178
 90
        5
 90
      177
 90
      177
 90
      178
 90
       83
 90
      123
 90
      123
 90
      177
 90
       71
 90
      175
 90
      123
 90
      175
 90
       77
 90
      121
 90
      121
 90
      175
 90
       44
 90
      119
 90
      119
 90
      121
 90
       84
 90
      118
 90
      118
 90
      119
 90
       72
 90
      112
 90
      112
 90
      118
 90
       78
 90
      166
 90
      112
 90
      166
 90
       52
 90
      165
 90
      165
 90
      166
 90
       85
 90
      110
 90
      110
 90
      165
 90
       73
 90
      109
 90
      109
 90
      110
 90
       79
 90
      107
 90
      107
 90
      109
 90
       60
 90
      163
 90
      107
 90
      163
 90
       86
 90
      104
 90
      104
 90
      163
 90
       74
 90
      103
 90
      103
 90
      104
 90
       80
 90
      161
 90
      103
 90
      161
 90
       64
 90
      160
 90
      160
 90
      161
 90
       65
 90
      159
 90
      159
 90
      160
 90
       63
 90
      102
 90
      102
 90
      159
 90
       62
 90
      162
 90
      102
 90
      162
 90
       61
 90
      105
 90
      105
 90
      162
 90
       59
 90
      106
 90
      105
 90
      106
 90
       58
 90
      108
 90
      106
 90
      108
 90
       57
 90
      164
 90
      108
 90
      164
 90
       56
 90
      111
 90
      111
 90
      164
 90
       55
 90
      167
 90
      111
 90
      167
 90
       54
 90
      171
 90
      167
 90
      171
 90
       53
 90
      170
 90
      170
 90
      171
 90
       51
 90
      115
 90
      115
 90
      170
 90
       50
 90
      114
 90
      114
 90
      115
 90
       49
 90
      113
 90
      113
 90
      114
 90
       48
 90
      168
 90
      113
 90
      168
 90
       47
 90
      169
 90
      168
 90
      169
 90
       46
 90
      116
 90
      116
 90
      169
 90
       93
 90
      172
 90
      116
 90
      172
 90
       45
 90
      117
 90
      117
 90
      172
 90
       92
 90
      173
 90
      117
 90
      173
 90
       43
 90
      120
 90
      120
 90
      173
 90
       91
 90
      174
 90
      120
 90
      174
 90
       42
 90
      122
 90
      122
 90
      174
 90
       89
 90
      176
 90
      122
 90
      176
 90
        4
 90
      124
 90
      124
 90
      176
 90
       88
 90
      179
 90
      124
 90
      179
 90
        3
 90
      126
 90
      126
 90
      179
 90
       87
 90
      127
 90
      126
 90
      127
 90
        0
 90
      154
 90
      127
 90
      154
 90
       90
 90
      100
 90
      100
 90
      154
 90
       94
 90
      158
 90
      100
 90
      158
 90
       95
 90
      101
 90
      101
 90
      158
 90
       20
 90
      184
 90
      101
 90
      184
 90
       19
 90
      131
 90
      131
 90
      184
 90
       18
 90
      132
 90
      131
 90
      132
 90
       17
 90
      185
 90
      132
 90
      185
 90
       39
 90
      134
 90
      134
 90
      185
 90
       40
 90
      189
 90
      134
 90
      189
 90
       41
 90
      136
 90
      136
 90
      189
 90
       38
 90
      190
 90
      136
 90
      190
 90
       99
 90
      137
 90
      137
 90
      190
 90
       37
 90
      135
 90
      135
 90
      137
 90
       16
 90
      188
 90
      135
 90
      188
 90
       15
 90
      186
 90
      186
 90
      188
 90
       14
 90
      187
 90
      186
 90
      187
 90
       34
 90
      143
 90
      143
 90
      187
 90
       35
 90
      142
 90
      142
 90
      143
 90
       36
 90
      140
 90
      140
 90
      142
 90
       98
 90
      139
 90
      139
 90
      140
 90
       97
 90
      191
 90
      139
 90
      191
 90
       33
 90
      138
 90
      138
 90
      191
 90
       13
 90
      141
 90
      138
 90
      141
 90
       12
 90
      192
 90
      141
 90
      192
 90
       11
 90
      144
 90
      144
 90
      192
 90
       30
 90
      147
 90
      144
 90
      147
 90
       31
 90
      194
 90
      147
 90
      194
 90
       32
 90
      149
 90
      149
 90
      194
 90
       29
 90
      150
 90
      149
 90
      150
 90
       96
 90
      196
 90
      150
 90
      196
 90
       28
 90
      195
 90
      195
 90
      196
 90
       27
 90
      148
 90
      148
 90
      195
 90
       10
 90
      146
 90
      146
 90
      148
 90
        8
 90
      193
 90
      146
 90
      193
 90
       24
 90
      145
 90
      145
 90
      193
 90
       25
 90
      198
 90
      145
 90
      198
 90
       26
 90
      197
 90
      197
 90
      198
 90
       23
 90
      199
 90
      197
 90
      199
 90
       22
 90
      152
 90
      152
 90
      199
 90
      151
 90
      152
 90
      154
 90
      155
 90
      100
 90
      153
 90
      156
 90
      158
 90
      157
 90
      158
 90
      101
 90
      157
 90
      102
 90
      160
 90
      102
 90
      161
 90
      104
 90
      162
 90
      103
 90
      162
 90
      105
 90
      163
 90
      106
 90
      107
 90
      108
 90
      109
 90
      108
 90
      110
 90
      164
 90
      165
 90
      111
 90
      166
 90
      112
 90
      167
 90
      115
 90
      168
 90
      169
 90
      170
 90
      116
 90
      171
 90
      167
 90
      172
 90
      117
 90
      118
 90
      119
 90
      173
 90
      120
 90
      121
 90
      174
 90
      175
 90
      122
 90
      123
 90
      176
 90
      177
 90
      124
 90
      178
 90
      125
 90
      179
 90
      126
 90
      180
 90
      127
 90
      181
 90
      127
 90
      128
 90
      129
 90
      154
 90
      100
 90
      182
 90
      100
 90
      183
 90
      130
 90
      158
 90
      157
 90
      184
 90
      131
 90
      157
 90
      132
 90
      157
 90
      157
 90
      185
 90
      185
 90
      186
 90
      157
 90
      186
 90
      157
 90
      187
 90
      133
 90
      187
 90
      134
 90
      188
 90
      135
 90
      189
 90
      135
 90
      136
 90
      138
 90
      140
 90
      141
 90
      142
 90
      143
 90
      192
 90
      144
 90
      187
 90
      133
 90
      144
 90
      144
 90
      193
 90
      133
 90
      193
 90
      133
 90
      145
 90
      146
 90
      147
 90
      148
 90
      194
 90
      149
 90
      195
 90
      133
 90
      198
 90
      151
 90
      197
 95
      418
140
0.0
140
0.0
140
0.0
140
0.0
140
0.0
140
0.0
140
0.0
140
0.0
140
0.0
140
0.0
140
0.0
140
0.0
140
0.0
140
0.0
140
0.0
140
0.0
140
0.0
140
0.0
140
0.0
140
0.0
140
0.0
140
0.0
140
0.0
140
0.0
140
0.0
140
0.0
140
0.0
140
0.0
140
0.0
140
0.0
140
0.0
140
0.0
140
0.0
140
0.0
140
0.0
140
0.0
140
0.0
140
0.0
140
0.0
140
0.0
140
0.0
140
0.0
140
0.0
140
0.0
140
0.0
140
0.0
140
0.0
140
0.0
140
0.0
140
0.0
140
0.0
140
0.0
140
0.0
140
0.0
140
0.0
140
0.0
140
0.0
140
0.0
140
0.0
140
0.0
140
0.0
140
0.0
140
0.0
140
0.0
140
0.0
140
0.0
140
0.0
140
0.0
140
0.0
140
0.0
140
0.0
140
0.0
140
0.0
140
0.0
140
0.0
140
0.0
140
0.0
140
0.0
140
0.0
140
0.0
140
0.0
140
0.0
140
0.0
140
0.0
140
0.0
140
0.0
140
0.0
140
0.0
140
0.0
140
0.0
140
0.0
140
0.0
140
0.0
140
0.0
140
0.0
140
0.0
140
0.0
140
0.0
140
0.0
140
0.0
140
0.0
140
0.0
140
0.0
140
0.0
140
0.0
140
0.0
140
0.0
140
0.0
140
0.0
140
0.0
140
0.0
140
0.0
140
0.0
140
0.0
140
0.0
140
0.0
140
0.0
140
0.0
140
0.0
140
0.0
140
0.0
140
0.0
140
0.0
140
0.0
140
0.0
140
0.0
140
0.0
140
0.0
140
0.0
140
0.0
140
0.0
140
0.0
140
0.0
140
0.0
140
0.0
140
0.0
140
0.0
140
0.0
140
0.0
140
0.0
140
0.0
140
0.0
140
0.0
140
0.0
140
0.0
140
0.0
140
0.0
140
0.0
140
0.0
140
0.0
140
0.0
140
0.0
140
0.0
140
0.0
140
0.0
140
0.0
140
0.0
140
0.0
140
0.0
140
0.0
140
0.0
140
0.0
140
0.0
140
0.0
140
0.0
140
0.0
140
0.0
140
0.0
140
0.0
140
0.0
140
0.0
140
0.0
140
0.0
140
0.0
140
0.0
140
0.0
140
0.0
140
0.0
140
0.0
140
0.0
140
0.0
140
0.0
140
0.0
140
0.0
140
0.0
140
0.0
140
0.0
140
0.0
140
0.0
140
0.0
140
0.0
140
0.0
140
0.0
140
0.0
140
0.0
140
0.0
140
0.0
140
0.0
140
0.0
140
0.0
140
0.0
140
0.0
140
0.0
140
0.0
140
0.0
140
0.0
140
0.0
140
0.0
140
0.0
140
0.0
140
0.0
140
0.0
140
0.0
140
0.0
140
0.0
140
0.0
140
0.0
140
0.0
140
0.0
140
0.0
140
0.0
140
0.0
140
0.0
140
0.0
140
0.0
140
0.0
140
0.0
140
0.0
140
0.0
140
0.0
140
0.0
140
0.0
140
0.0
140
0.0
140
0.0
140
0.0
140
0.0
140
0.0
140
0.0
140
0.0
140
0.0
140
0.0
140
0.0
140
0.0
140
0.0
140
0.0
140
0.0
140
0.0
140
0.0
140
0.0
140
0.0
140
0.0
140
0.0
140
0.0
140
0.0
140
0.0
140
0.0
140
0.0
140
0.0
140
0.0
140
0.0
140
0.0
140
0.0
140
0.0
140
0.0
140
0.0
140
0.0
140
0.0
140
0.0
140
0.0
140
0.0
140
0.0
140
0.0
140
0.0
140
0.0
140
0.0
140
0.0
140
0.0
140
0.0
140
0.0
140
0.0
140
0.0
140
0.0
140
0.0
140
0.0
140
0.0
140
0.0
140
0.0
140
0.0
140
0.0
140
0.0
140
0.0
140
0.0
140
0.0
140
0.0
140
0.0
140
0.0
140
0.0
140
0.0
140
0.0
140
0.0
140
0.0
140
0.0
140
0.0
140
0.0
140
0.0
140
0.0
140
0.0
140
0.0
140
0.0
140
0.0
140
0.0
140
0.0
140
0.0
140
0.0
140
0.0
140
0.0
140
0.0
140
0.0
140
0.0
140
0.0
140
0.0
140
0.0
140
0.0
140
0.0
140
0.0
140
0.0
140
0.0
140
0.0
140
0.0
140
0.0
140
0.0
140
0.0
140
0.0
140
0.0
140
0.0
140
0.0
140
0.0
140
0.0
140
0.0
140
0.0
140
0.0
140
0.0
140
0.0
140
0.0
140
0.0
140
0.0
140
0.0
140
0.0
140
0.0
140
0.0
140
0.0
140
0.0
140
0.0
140
0.0
140
0.0
140
0.0
140
0.0
140
0.0
140
0.0
140
0.0
140
0.0
140
0.0
140
0.0
140
0.0
140
0.0
140
0.0
140
0.0
140
0.0
140
0.0
140
0.0
140
0.0
140
0.0
140
0.0
140
0.0
140
0.0
140
0.0
140
0.0
140
0.0
140
0.0
140
0.0
140
0.0
140
0.0
140
0.0
140
0.0
140
0.0
140
0.0
140
0.0
140
0.0
140
0.0
140
0.0
140
0.0
140
0.0
140
0.0
140
0.0
140
0.0
140
0.0
140
0.0
140
0.0
140
0.0
140
0.0
140
0.0
140
0.0
140
0.0
140
0.0
140
0.0
140
0.0
140
0.0
140
0.0
140
0.0
140
0.0
140
0.0
140
0.0
140
0.0
140
0.0
140
0.0
140
0.0
140
0.0
 90
        0
  0
POLYLINE
  5
FA
330
1F
100
AcDbEntity
  8
OracDecor_skirtings
 62
   146
420
   552583
100
AcDb3dPolyline
 66
     1
 10
0.0
 20
0.0
 30
0.0
 70
     9
  0
VERTEX
  5
FB
330
FA
100
AcDbEntity
  8
OracDecor_skirtings
 62
   146
420
   552583
100
AcDbVertex
100
AcDb3dPolylineVertex
 10
-0.0000014074690853
 20
16.88898277282715
 30
95.84272766113281
 70
    32
  0
VERTEX
  5
FC
330
FA
100
AcDbEntity
  8
OracDecor_skirtings
 62
   146
420
   552583
100
AcDbVertex
100
AcDb3dPolylineVertex
 10
-0.000001516942234
 20
16.66772270202637
 30
97.52249908447266
 70
    32
  0
VERTEX
  5
FD
330
FA
100
AcDbEntity
  8
OracDecor_skirtings
 62
   146
420
   552583
100
AcDbVertex
100
AcDb3dPolylineVertex
 10
-0.0000016591853864
 20
16.23143577575683
 30
99.15052032470704
 70
    32
  0
VERTEX
  5
FE
330
FA
100
AcDbEntity
  8
OracDecor_skirtings
 62
   146
420
   552583
100
AcDbVertex
100
AcDb3dPolylineVertex
 10
-0.0000018330478042
 20
15.58378219604492
 30
100.7140960693359
 70
    32
  0
VERTEX
  5
FF
330
FA
100
AcDbEntity
  8
OracDecor_skirtings
 62
   146
420
   552583
100
AcDbVertex
100
AcDb3dPolylineVertex
 10
-0.0000020341428808
 20
14.74109935760498
 30
102.1737823486328
 70
    32
  0
VERTEX
  5
100
330
FA
100
AcDbEntity
  8
OracDecor_skirtings
 62
   146
420
   552583
100
AcDbVertex
100
AcDb3dPolylineVertex
 10
-0.0000022609249299
 20
13.70977687835693
 30
103.5180130004883
 70
    32
  0
VERTEX
  5
101
330
FA
100
AcDbEntity
  8
OracDecor_skirtings
 62
   146
420
   552583
100
AcDbVertex
100
AcDb3dPolylineVertex
 10
-0.0000025071863092
 20
12.51798820495605
 30
104.7098007202148
 70
    32
  0
VERTEX
  5
102
330
FA
100
AcDbEntity
  8
OracDecor_skirtings
 62
   146
420
   552583
100
AcDbVertex
100
AcDb3dPolylineVertex
 10
-0.0000027712699193
 20
11.17375755310058
 30
105.7411193847656
 70
    32
  0
VERTEX
  5
103
330
FA
100
AcDbEntity
  8
OracDecor_skirtings
 62
   146
420
   552583
100
AcDbVertex
100
AcDb3dPolylineVertex
 10
-0.0000030459168556
 20
9.714075088500976
 30
106.5838012695312
 70
    32
  0
VERTEX
  5
104
330
FA
100
AcDbEntity
  8
OracDecor_skirtings
 62
   146
420
   552583
100
AcDbVertex
100
AcDb3dPolylineVertex
 10
-0.0000033289668409
 20
8.150494575500488
 30
107.231460571289
 70
    32
  0
VERTEX
  5
105
330
FA
100
AcDbEntity
  8
OracDecor_skirtings
 62
   146
420
   552583
100
AcDbVertex
100
AcDb3dPolylineVertex
 10
-0.0000036132744299
 20
6.522476196289062
 30
107.6677322387695
 70
    32
  0
VERTEX
  5
106
330
FA
100
AcDbEntity
  8
OracDecor_skirtings
 62
   146
420
   552583
100
AcDbVertex
100
AcDb3dPolylineVertex
 10
-0.0000038966159082
 20
4.842706680297851
 30
107.8889999389648
 70
    32
  0
VERTEX
  5
107
330
FA
100
AcDbEntity
  8
OracDecor_skirtings
 62
   146
420
   552583
100
AcDbVertex
100
AcDb3dPolylineVertex
 10
-0.0000041772473196
 20
3.149986505508422
 30
108.0
 70
    32
  0
VERTEX
  5
108
330
FA
100
AcDbEntity
  8
OracDecor_skirtings
 62
   146
420
   552583
100
AcDbVertex
100
AcDb3dPolylineVertex
 10
-0.0000045275269258
 20
0.9999860525131225
 30
108.0
 70
    32
  0
VERTEX
  5
109
330
FA
100
AcDbEntity
  8
OracDecor_skirtings
 62
   146
420
   552583
100
AcDbVertex
100
AcDb3dPolylineVertex
 10
-0.0000046148434194
 20
0.4999859929084778
 30
108.1339721679687
 70
    32
  0
VERTEX
  5
10A
330
FA
100
AcDbEntity
  8
OracDecor_skirtings
 62
   146
420
   552583
100
AcDbVertex
100
AcDb3dPolylineVertex
 10
-0.0000046904760893
 20
0.133960023522377
 30
108.5
 70
    32
  0
VERTEX
  5
10B
330
FA
100
AcDbEntity
  8
OracDecor_skirtings
 62
   146
420
   552583
100
AcDbVertex
100
AcDb3dPolylineVertex
 10
-0.0000047341586651
 20
-0.0000140778220157
 30
109.0
 70
    32
  0
VERTEX
  5
10C
330
FA
100
AcDbEntity
  8
OracDecor_skirtings
 62
   146
420
   552583
100
AcDbVertex
100
AcDb3dPolylineVertex
 10
-0.0000048525603233
 20
-0.0000143146253322
 30
111.7087097167968
 70
    32
  0
VERTEX
  5
10D
330
FA
100
AcDbEntity
  8
OracDecor_skirtings
 62
   146
420
   552583
100
AcDbVertex
100
AcDb3dPolylineVertex
 10
-0.0000048570054787
 20
0.0737294778227806
 30
112.0852661132812
 70
    32
  0
VERTEX
  5
10E
330
FA
100
AcDbEntity
  8
OracDecor_skirtings
 62
   146
420
   552583
100
AcDbVertex
100
AcDb3dPolylineVertex
 10
-0.0000048367528507
 20
0.2843674719333649
 30
112.4070205688476
 70
    32
  0
VERTEX
  5
10F
330
FA
100
AcDbEntity
  8
OracDecor_skirtings
 62
   146
420
   552583
100
AcDbVertex
100
AcDb3dPolylineVertex
 10
-0.0000047948701649
 20
0.5999860167503357
 30
112.6252288818359
 70
    32
  0
VERTEX
  5
110
330
FA
100
AcDbEntity
  8
OracDecor_skirtings
 62
   146
420
   552583
100
AcDbVertex
100
AcDb3dPolylineVertex
 10
-0.0000047230705604
 20
1.151736140251159
 30
113.0391235351562
 70
    32
  0
VERTEX
  5
111
330
FA
100
AcDbEntity
  8
OracDecor_skirtings
 62
   146
420
   552583
100
AcDbVertex
100
AcDb3dPolylineVertex
 10
-0.0000046998325161
 20
1.459757685661315
 30
113.6555557250976
 70
    32
  0
VERTEX
  5
112
330
FA
100
AcDbEntity
  8
OracDecor_skirtings
 62
   146
420
   552583
100
AcDbVertex
100
AcDb3dPolylineVertex
 10
-0.0000047299449761
 20
1.459757566452026
 30
114.3444442749023
 70
    32
  0
VERTEX
  5
113
330
FA
100
AcDbEntity
  8
OracDecor_skirtings
 62
   146
420
   552583
100
AcDbVertex
100
AcDb3dPolylineVertex
 10
-0.0000048070733101
 20
1.15173602104187
 30
114.9608764648437
 70
    32
  0
VERTEX
  5
114
330
FA
100
AcDbEntity
  8
OracDecor_skirtings
 62
   146
420
   552583
100
AcDbVertex
100
AcDb3dPolylineVertex
 10
-0.0000049150562518
 20
0.5999857783317566
 30
115.374771118164
 70
    32
  0
VERTEX
  5
115
330
FA
100
AcDbEntity
  8
OracDecor_skirtings
 62
   146
420
   552583
100
AcDbVertex
100
AcDb3dPolylineVertex
 10
-0.0000049760155889
 20
0.2843672037124634
 30
115.5929794311523
 70
    32
  0
VERTEX
  5
116
330
FA
100
AcDbEntity
  8
OracDecor_skirtings
 62
   146
420
   552583
100
AcDbVertex
100
AcDb3dPolylineVertex
 10
-0.0000050243970691
 20
0.0737291425466538
 30
115.9147338867187
 70
    32
  0
VERTEX
  5
117
330
FA
100
AcDbEntity
  8
OracDecor_skirtings
 62
   146
420
   552583
100
AcDbVertex
100
AcDb3dPolylineVertex
 10
-0.0000050528710744
 20
-0.0000147152468344
 30
116.2912902832031
 70
    32
  0
VERTEX
  5
118
330
FA
100
AcDbEntity
  8
OracDecor_skirtings
 62
   146
420
   552583
100
AcDbVertex
100
AcDb3dPolylineVertex
 10
-0.0000052149839576
 20
-0.0000150394726006
 30
120.0
 70
    32
  0
VERTEX
  5
119
330
FA
100
AcDbEntity
  8
OracDecor_skirtings
 62
   146
420
   552583
100
AcDbVertex
100
AcDb3dPolylineVertex
 10
-0.0000046681639105
 20
3.264155626296997
 30
119.6563949584961
 70
    32
  0
VERTEX
  5
11A
330
FA
100
AcDbEntity
  8
OracDecor_skirtings
 62
   146
420
   552583
100
AcDbVertex
100
AcDb3dPolylineVertex
 10
-0.0000044503799472
 20
4.546348571777343
 30
119.4530563354492
 70
    32
  0
VERTEX
  5
11B
330
FA
100
AcDbEntity
  8
OracDecor_skirtings
 62
   146
420
   552583
100
AcDbVertex
100
AcDb3dPolylineVertex
 10
-0.0000042337965169
 20
5.803927421569824
 30
119.1854476928711
 70
    32
  0
VERTEX
  5
11C
330
FA
100
AcDbEntity
  8
OracDecor_skirtings
 62
   146
420
   552583
100
AcDbVertex
100
AcDb3dPolylineVertex
 10
-0.0000040148102016
 20
7.057816982269287
 30
118.8491058349609
 70
    32
  0
VERTEX
  5
11D
330
FA
100
AcDbEntity
  8
OracDecor_skirtings
 62
   146
420
   552583
100
AcDbVertex
100
AcDb3dPolylineVertex
 10
-0.000003790413075
 20
8.324610710144042
 30
118.4370803833008
 70
    32
  0
VERTEX
  5
11E
330
FA
100
AcDbEntity
  8
OracDecor_skirtings
 62
   146
420
   552583
100
AcDbVertex
100
AcDb3dPolylineVertex
 10
-0.0000035726277474
 20
9.536417961120605
 30
117.9713745117187
 70
    32
  0
VERTEX
  5
11F
330
FA
100
AcDbEntity
  8
OracDecor_skirtings
 62
   146
420
   552583
100
AcDbVertex
100
AcDb3dPolylineVertex
 10
-0.0000033584249195
 20
10.7107343673706
 30
117.4478912353515
 70
    32
  0
VERTEX
  5
120
330
FA
100
AcDbEntity
  8
OracDecor_skirtings
 62
   146
420
   552583
100
AcDbVertex
100
AcDb3dPolylineVertex
 10
-0.0000031442343698
 20
11.86713123321533
 30
116.8578872680664
 70
    32
  0
VERTEX
  5
121
330
FA
100
AcDbEntity
  8
OracDecor_skirtings
 62
   146
420
   552583
100
AcDbVertex
100
AcDb3dPolylineVertex
 10
-0.0000029272111988
 20
13.02031993865967
 30
116.1911315917969
 70
    32
  0
VERTEX
  5
122
330
FA
100
AcDbEntity
  8
OracDecor_skirtings
 62
   146
420
   552583
100
AcDbVertex
100
AcDb3dPolylineVertex
 10
-0.000002718964879
 20
14.10863208770752
 30
115.4833602905273
 70
    32
  0
VERTEX
  5
123
330
FA
100
AcDbEntity
  8
OracDecor_skirtings
 62
   146
420
   552583
100
AcDbVertex
100
AcDb3dPolylineVertex
 10
-0.0000025165170427
 20
15.1482925415039
 30
114.7269058227539
 70
    32
  0
VERTEX
  5
124
330
FA
100
AcDbEntity
  8
OracDecor_skirtings
 62
   146
420
   552583
100
AcDbVertex
100
AcDb3dPolylineVertex
 10
-0.0000023164984668
 20
16.15660285949707
 30
113.9091796875
 70
    32
  0
VERTEX
  5
125
330
FA
100
AcDbEntity
  8
OracDecor_skirtings
 62
   146
420
   552583
100
AcDbVertex
100
AcDb3dPolylineVertex
 10
-0.0000021163461952
 20
17.14579582214355
 30
113.0171432495117
 70
    32
  0
VERTEX
  5
126
330
FA
100
AcDbEntity
  8
OracDecor_skirtings
 62
   146
420
   552583
100
AcDbVertex
100
AcDb3dPolylineVertex
 10
-0.0000019267547486
 20
18.06300163269043
 30
112.0983963012695
 70
    32
  0
VERTEX
  5
127
330
FA
100
AcDbEntity
  8
OracDecor_skirtings
 62
   146
420
   552583
100
AcDbVertex
100
AcDb3dPolylineVertex
 10
-0.0000017449357301
 20
18.92243576049805
 30
111.1421356201172
 70
    32
  0
VERTEX
  5
128
330
FA
100
AcDbEntity
  8
OracDecor_skirtings
 62
   146
420
   552583
100
AcDbVertex
100
AcDb3dPolylineVertex
 10
-0.0000015678580212
 20
19.73842620849609
 30
110.1324234008789
 70
    32
  0
VERTEX
  5
129
330
FA
100
AcDbEntity
  8
OracDecor_skirtings
 62
   146
420
   552583
100
AcDbVertex
100
AcDb3dPolylineVertex
 10
-0.0000013933569107
 20
20.52017211914062
 30
109.0540161132812
 70
    32
  0
VERTEX
  5
12A
330
FA
100
AcDbEntity
  8
OracDecor_skirtings
 62
   146
420
   552583
100
AcDbVertex
100
AcDb3dPolylineVertex
 10
-0.0000012307324369
 20
21.22602844238281
 30
107.9644622802734
 70
    32
  0
VERTEX
  5
12B
330
FA
100
AcDbEntity
  8
OracDecor_skirtings
 62
   146
420
   552583
100
AcDbVertex
100
AcDb3dPolylineVertex
 10
-0.0000010774982684
 20
21.86762809753418
 30
106.8502426147461
 70
    32
  0
VERTEX
  5
12C
330
FA
100
AcDbEntity
  8
OracDecor_skirtings
 62
   146
420
   552583
100
AcDbVertex
100
AcDb3dPolylineVertex
 10
-0.0000009311059443
 20
22.45564651489258
 30
105.6928329467773
 70
    32
  0
VERTEX
  5
12D
330
FA
100
AcDbEntity
  8
OracDecor_skirtings
 62
   146
420
   552583
100
AcDbVertex
100
AcDb3dPolylineVertex
 10
-0.0000007898711942
 20
22.99591064453125
 30
104.4754257202148
 70
    32
  0
VERTEX
  5
12E
330
FA
100
AcDbEntity
  8
OracDecor_skirtings
 62
   146
420
   552583
100
AcDbVertex
100
AcDb3dPolylineVertex
 10
-0.0000006608786975
 20
23.46259117126465
 30
103.2638168334961
 70
    32
  0
VERTEX
  5
12F
330
FA
100
AcDbEntity
  8
OracDecor_skirtings
 62
   146
420
   552583
100
AcDbVertex
100
AcDb3dPolylineVertex
 10
-0.0000005419458944
 20
23.86457061767578
 30
102.0412063598633
 70
    32
  0
VERTEX
  5
130
330
FA
100
AcDbEntity
  8
OracDecor_skirtings
 62
   146
420
   552583
100
AcDbVertex
100
AcDb3dPolylineVertex
 10
-0.000000431270422
 20
24.20794105529785
 30
100.7890548706054
 70
    32
  0
VERTEX
  5
131
330
FA
100
AcDbEntity
  8
OracDecor_skirtings
 62
   146
420
   552583
100
AcDbVertex
100
AcDb3dPolylineVertex
 10
-0.000000280727221
 20
24.62543678283692
 30
98.90111541748048
 70
    32
  0
VERTEX
  5
132
330
FA
100
AcDbEntity
  8
OracDecor_skirtings
 62
   146
420
   552583
100
AcDbVertex
100
AcDb3dPolylineVertex
 10
-0.0000001930310134
 20
24.81963729858398
 30
97.61868286132813
 70
    32
  0
VERTEX
  5
133
330
FA
100
AcDbEntity
  8
OracDecor_skirtings
 62
   146
420
   552583
100
AcDbVertex
100
AcDb3dPolylineVertex
 10
-0.0000001287533848
 20
24.9129638671875
 30
96.49602508544923
 70
    32
  0
VERTEX
  5
134
330
FA
100
AcDbEntity
  8
OracDecor_skirtings
 62
   146
420
   552583
100
AcDbVertex
100
AcDb3dPolylineVertex
 10
-0.0000000619228047
 20
24.97498893737793
 30
95.19831085205078
 70
    32
  0
VERTEX
  5
135
330
FA
100
AcDbEntity
  8
OracDecor_skirtings
 62
   146
420
   552583
100
AcDbVertex
100
AcDb3dPolylineVertex
 10
-0.0000000007310881
 20
24.9918098449707
 30
93.86109924316405
 70
    32
  0
VERTEX
  5
136
330
FA
100
AcDbEntity
  8
OracDecor_skirtings
 62
   146
420
   552583
100
AcDbVertex
100
AcDb3dPolylineVertex
 10
0.0000000574238221
 20
24.99998664855957
 30
92.56114959716796
 70
    32
  0
VERTEX
  5
137
330
FA
100
AcDbEntity
  8
OracDecor_skirtings
 62
   146
420
   552583
100
AcDbVertex
100
AcDb3dPolylineVertex
 10
-0.0000035259934066
 20
24.9999942779541
 30
0.0000021855692012
 70
    32
  0
VERTEX
  5
138
330
FA
100
AcDbEntity
  8
OracDecor_skirtings
 62
   146
420
   552583
100
AcDbVertex
100
AcDb3dPolylineVertex
 10
-0.0000048086112656
 20
17.12734222412109
 30
0.0000014973198859
 70
    32
  0
VERTEX
  5
139
330
FA
100
AcDbEntity
  8
OracDecor_skirtings
 62
   146
420
   552583
100
AcDbVertex
100
AcDb3dPolylineVertex
 10
-0.0000048381011766
 20
16.9999942779541
 30
0.1999984383583069
 70
    32
  0
VERTEX
  5
13A
330
FA
100
AcDbEntity
  8
OracDecor_skirtings
 62
   146
420
   552583
100
AcDbVertex
100
AcDb3dPolylineVertex
 10
-0.000005140446774
 20
16.9999942779541
 30
7.11686086654663
 70
    32
  0
VERTEX
  5
13B
330
FA
100
AcDbEntity
  8
OracDecor_skirtings
 62
   146
420
   552583
100
AcDbVertex
100
AcDb3dPolylineVertex
 10
-0.0000051367856031
 20
17.15936470031738
 30
7.627107143402099
 70
    32
  0
VERTEX
  5
13C
330
FA
100
AcDbEntity
  8
OracDecor_skirtings
 62
   146
420
   552583
100
AcDbVertex
100
AcDb3dPolylineVertex
 10
-0.0000050642938731
 20
17.74186134338379
 30
8.139764785766601
 70
    32
  0
VERTEX
  5
13D
330
FA
100
AcDbEntity
  8
OracDecor_skirtings
 62
   146
420
   552583
100
AcDbVertex
100
AcDb3dPolylineVertex
 10
-0.000004985747637
 20
18.4116153717041
 30
8.839128494262695
 70
    32
  0
VERTEX
  5
13E
330
FA
100
AcDbEntity
  8
OracDecor_skirtings
 62
   146
420
   552583
100
AcDbVertex
100
AcDb3dPolylineVertex
 10
-0.000004975090178
 20
18.72313117980957
 30
9.756410598754882
 70
    32
  0
VERTEX
  5
13F
330
FA
100
AcDbEntity
  8
OracDecor_skirtings
 62
   146
420
   552583
100
AcDbVertex
100
AcDb3dPolylineVertex
 10
-0.0000050343624025
 20
18.61764907836914
 30
10.71924018859863
 70
    32
  0
VERTEX
  5
140
330
FA
100
AcDbEntity
  8
OracDecor_skirtings
 62
   146
420
   552583
100
AcDbVertex
100
AcDb3dPolylineVertex
 10
-0.0000051524857554
 20
18.11481857299805
 30
11.54744529724121
 70
    32
  0
VERTEX
  5
141
330
FA
100
AcDbEntity
  8
OracDecor_skirtings
 62
   146
420
   552583
100
AcDbVertex
100
AcDb3dPolylineVertex
 10
-0.0000052940763453
 20
17.39588546752929
 30
12.10706520080566
 70
    32
  0
VERTEX
  5
142
330
FA
100
AcDbEntity
  8
OracDecor_skirtings
 62
   146
420
   552583
100
AcDbVertex
100
AcDb3dPolylineVertex
 10
-0.0000053924991334
 20
16.99999237060547
 30
12.88314247131348
 70
    32
  0
VERTEX
  5
143
330
FA
100
AcDbEntity
  8
OracDecor_skirtings
 62
   146
420
   552583
100
AcDbVertex
100
AcDb3dPolylineVertex
 10
-0.0000055775612964
 20
16.99999237060547
 30
17.11685943603515
 70
    32
  0
VERTEX
  5
144
330
FA
100
AcDbEntity
  8
OracDecor_skirtings
 62
   146
420
   552583
100
AcDbVertex
100
AcDb3dPolylineVertex
 10
-0.0000055738996707
 20
17.15936279296875
 30
17.62710571289062
 70
    32
  0
VERTEX
  5
145
330
FA
100
AcDbEntity
  8
OracDecor_skirtings
 62
   146
420
   552583
100
AcDbVertex
100
AcDb3dPolylineVertex
 10
-0.0000055014079408
 20
17.74185943603515
 30
18.13976287841797
 70
    32
  0
VERTEX
  5
146
330
FA
100
AcDbEntity
  8
OracDecor_skirtings
 62
   146
420
   552583
100
AcDbVertex
100
AcDb3dPolylineVertex
 10
-0.0000054228617046
 20
18.41161346435547
 30
18.83913040161132
 70
    32
  0
VERTEX
  5
147
330
FA
100
AcDbEntity
  8
OracDecor_skirtings
 62
   146
420
   552583
100
AcDbVertex
100
AcDb3dPolylineVertex
 10
-0.0000054122051552
 20
18.72312927246094
 30
19.75641250610351
 70
    32
  0
VERTEX
  5
148
330
FA
100
AcDbEntity
  8
OracDecor_skirtings
 62
   146
420
   552583
100
AcDbVertex
100
AcDb3dPolylineVertex
 10
-0.0000054714769249
 20
18.61764717102051
 30
20.71924209594727
 70
    32
  0
VERTEX
  5
149
330
FA
100
AcDbEntity
  8
OracDecor_skirtings
 62
   146
420
   552583
100
AcDbVertex
100
AcDb3dPolylineVertex
 10
-0.0000055895993682
 20
18.11481857299805
 30
21.54744338989258
 70
    32
  0
VERTEX
  5
14A
330
FA
100
AcDbEntity
  8
OracDecor_skirtings
 62
   146
420
   552583
100
AcDbVertex
100
AcDb3dPolylineVertex
 10
-0.0000057311904129
 20
17.39588546752929
 30
22.10706329345703
 70
    32
  0
VERTEX
  5
14B
330
FA
100
AcDbEntity
  8
OracDecor_skirtings
 62
   146
420
   552583
100
AcDbVertex
100
AcDb3dPolylineVertex
 10
-0.0000058296132011
 20
16.99999237060547
 30
22.88314056396484
 70
    32
  0
VERTEX
  5
14C
330
FA
100
AcDbEntity
  8
OracDecor_skirtings
 62
   146
420
   552583
100
AcDbVertex
100
AcDb3dPolylineVertex
 10
-0.0000060146749092
 20
16.99999237060547
 30
27.11685943603516
 70
    32
  0
VERTEX
  5
14D
330
FA
100
AcDbEntity
  8
OracDecor_skirtings
 62
   146
420
   552583
100
AcDbVertex
100
AcDb3dPolylineVertex
 10
-0.0000060110137383
 20
17.15936279296875
 30
27.62710571289062
 70
    32
  0
VERTEX
  5
14E
330
FA
100
AcDbEntity
  8
OracDecor_skirtings
 62
   146
420
   552583
100
AcDbVertex
100
AcDb3dPolylineVertex
 10
-0.0000059385220084
 20
17.74185943603515
 30
28.13976287841797
 70
    32
  0
VERTEX
  5
14F
330
FA
100
AcDbEntity
  8
OracDecor_skirtings
 62
   146
420
   552583
100
AcDbVertex
100
AcDb3dPolylineVertex
 10
-0.0000058599753174
 20
18.41161346435547
 30
28.83913040161133
 70
    32
  0
VERTEX
  5
150
330
FA
100
AcDbEntity
  8
OracDecor_skirtings
 62
   146
420
   552583
100
AcDbVertex
100
AcDb3dPolylineVertex
 10
-0.000005849318768
 20
18.72312927246094
 30
29.75641250610351
 70
    32
  0
VERTEX
  5
151
330
FA
100
AcDbEntity
  8
OracDecor_skirtings
 62
   146
420
   552583
100
AcDbVertex
100
AcDb3dPolylineVertex
 10
-0.0000059085905377
 20
18.61764717102051
 30
30.71924209594727
 70
    32
  0
VERTEX
  5
152
330
FA
100
AcDbEntity
  8
OracDecor_skirtings
 62
   146
420
   552583
100
AcDbVertex
100
AcDb3dPolylineVertex
 10
-0.0000060267134359
 20
18.11481857299805
 30
31.54744338989258
 70
    32
  0
VERTEX
  5
153
330
FA
100
AcDbEntity
  8
OracDecor_skirtings
 62
   146
420
   552583
100
AcDbVertex
100
AcDb3dPolylineVertex
 10
-0.0000061683044805
 20
17.39588546752929
 30
32.10706329345703
 70
    32
  0
VERTEX
  5
154
330
FA
100
AcDbEntity
  8
OracDecor_skirtings
 62
   146
420
   552583
100
AcDbVertex
100
AcDb3dPolylineVertex
 10
-0.0000062667272687
 20
16.99999046325683
 30
32.88314056396484
 70
    32
  0
VERTEX
  5
155
330
FA
100
AcDbEntity
  8
OracDecor_skirtings
 62
   146
420
   552583
100
AcDbVertex
100
AcDb3dPolylineVertex
 10
-0.0000064517889768
 20
16.99999046325683
 30
37.11685943603516
 70
    32
  0
VERTEX
  5
156
330
FA
100
AcDbEntity
  8
OracDecor_skirtings
 62
   146
420
   552583
100
AcDbVertex
100
AcDb3dPolylineVertex
 10
-0.0000064481278059
 20
17.15936088562012
 30
37.62710571289062
 70
    32
  0
VERTEX
  5
157
330
FA
100
AcDbEntity
  8
OracDecor_skirtings
 62
   146
420
   552583
100
AcDbVertex
100
AcDb3dPolylineVertex
 10
-0.000006375636076
 20
17.74185752868652
 30
38.13976287841797
 70
    32
  0
VERTEX
  5
158
330
FA
100
AcDbEntity
  8
OracDecor_skirtings
 62
   146
420
   552583
100
AcDbVertex
100
AcDb3dPolylineVertex
 10
-0.000006297089385
 20
18.41161155700683
 30
38.83912658691406
 70
    32
  0
VERTEX
  5
159
330
FA
100
AcDbEntity
  8
OracDecor_skirtings
 62
   146
420
   552583
100
AcDbVertex
100
AcDb3dPolylineVertex
 10
-0.0000062864328356
 20
18.7231273651123
 30
39.75641250610351
 70
    32
  0
VERTEX
  5
15A
330
FA
100
AcDbEntity
  8
OracDecor_skirtings
 62
   146
420
   552583
100
AcDbVertex
100
AcDb3dPolylineVertex
 10
-0.0000063457046053
 20
18.61764526367187
 30
40.71924209594726
 70
    32
  0
VERTEX
  5
15B
330
FA
100
AcDbEntity
  8
OracDecor_skirtings
 62
   146
420
   552583
100
AcDbVertex
100
AcDb3dPolylineVertex
 10
-0.0000064638279582
 20
18.11481666564941
 30
41.54744720458984
 70
    32
  0
VERTEX
  5
15C
330
FA
100
AcDbEntity
  8
OracDecor_skirtings
 62
   146
420
   552583
100
AcDbVertex
100
AcDb3dPolylineVertex
 10
-0.0000066054185481
 20
17.39588356018066
 30
42.10706329345703
 70
    32
  0
VERTEX
  5
15D
330
FA
100
AcDbEntity
  8
OracDecor_skirtings
 62
   146
420
   552583
100
AcDbVertex
100
AcDb3dPolylineVertex
 10
-0.0000067038413363
 20
16.99999046325683
 30
42.88314056396484
 70
    32
  0
VERTEX
  5
15E
330
FA
100
AcDbEntity
  8
OracDecor_skirtings
 62
   146
420
   552583
100
AcDbVertex
100
AcDb3dPolylineVertex
 10
-0.0000013153932059
 20
16.99998664855957
 30
94.15000915527343
 70
    32
  0
SEQEND
  5
15F
330
FA
100
AcDbEntity
  8
OracDecor_skirtings
 62
   146
420
   552583
  0
ENDSEC
  0
SECTION
  2
OBJECTS
  0
DICTIONARY
  5
C
330
0
100
AcDbDictionary
281
     1
  3
ACAD_COLOR
350
DC
  3
ACAD_DETAILVIEWSTYLE
350
F5
  3
ACAD_GROUP
350
D
  3
ACAD_LAYOUT
350
1A
  3
ACAD_MATERIAL
350
AA
  3
ACAD_MLEADERSTYLE
350
F1
  3
ACAD_MLINESTYLE
350
17
  3
ACAD_PLOTSETTINGS
350
19
  3
ACAD_PLOTSTYLENAME
350
E
  3
ACAD_SCALELIST
350
DF
  3
ACAD_SECTIONVIEWSTYLE
350
F3
  3
ACAD_TABLESTYLE
350
DD
  3
ACAD_VISUALSTYLE
350
C3
  3
ACDB_RECOMPOSE_DATA
350
16C
  3
AcDbVariableDictionary
350
160
  0
DICTIONARY
  5
DC
102
{ACAD_REACTORS
330
C
102
}
330
C
100
AcDbDictionary
281
     1
  0
DICTIONARY
  5
F5
102
{ACAD_REACTORS
330
C
102
}
330
C
100
AcDbDictionary
281
     1
  3
Imperial24
350
F6
  0
DICTIONARY
  5
D
102
{ACAD_REACTORS
330
C
102
}
330
C
100
AcDbDictionary
281
     1
  0
DICTIONARY
  5
1A
102
{ACAD_REACTORS
330
C
102
}
330
C
100
AcDbDictionary
281
     1
  3
Layout1
350
1E
  3
Layout2
350
26
  3
Model
350
22
  0
DICTIONARY
  5
AA
102
{ACAD_REACTORS
330
C
102
}
330
C
100
AcDbDictionary
281
     1
  3
ByBlock
350
B3
  3
ByLayer
350
AB
  3
Global
350
BB
  0
DICTIONARY
  5
F1
102
{ACAD_REACTORS
330
C
102
}
330
C
100
AcDbDictionary
281
     1
  3
Standard
350
F2
  0
DICTIONARY
  5
17
102
{ACAD_REACTORS
330
C
102
}
330
C
100
AcDbDictionary
281
     1
  3
Standard
350
18
  0
DICTIONARY
  5
19
102
{ACAD_REACTORS
330
C
102
}
330
C
100
AcDbDictionary
281
     1
  0
ACDBDICTIONARYWDFLT
  5
E
102
{ACAD_REACTORS
330
C
102
}
330
C
100
AcDbDictionary
281
     1
  3
ByLayer
350
2D
  3
Normal
350
F
100
AcDbDictionaryWithDefault
340
F
  0
DICTIONARY
  5
DF
102
{ACAD_REACTORS
330
C
102
}
330
C
100
AcDbDictionary
281
     1
  3
A0
350
E0
  3
A1
350
E1
  3
A2
350
E2
  3
A3
350
E3
  3
A4
350
E4
  3
A5
350
E5
  3
A6
350
E6
  3
A7
350
E7
  3
A8
350
E8
  3
A9
350
E9
  3
B0
350
EA
  3
B1
350
EB
  3
B2
350
EC
  3
B3
350
ED
  3
B4
350
EE
  3
B5
350
EF
  3
B6
350
F0
  0
DICTIONARY
  5
F3
102
{ACAD_REACTORS
330
C
102
}
330
C
100
AcDbDictionary
281
     1
  3
Imperial24
350
F4
  0
DICTIONARY
  5
DD
102
{ACAD_REACTORS
330
C
102
}
330
C
100
AcDbDictionary
281
     1
  3
Standard
350
DE
  0
DICTIONARY
  5
C3
102
{ACAD_REACTORS
330
C
102
}
330
C
100
AcDbDictionary
281
     1
  3
2dWireframe
350
C9
  3
Basic
350
C8
  3
Brighten
350
CF
  3
ColorChange
350
D3
  3
Conceptual
350
CC
  3
Dim
350
CE
  3
EdgeColorOff
350
DB
  3
Facepattern
350
D2
  3
Flat
350
C4
  3
FlatWithEdges
350
C5
  3
Gouraud
350
C6
  3
GouraudWithEdges
350
C7
  3
Hidden
350
CB
  3
JitterOff
350
D9
  3
Linepattern
350
D1
  3
OverhangOff
350
DA
  3
Realistic
350
CD
  3
Shaded
350
D8
  3
Shaded with edges
350
D7
  3
Shades of Gray
350
D4
  3
Sketchy
350
D5
  3
Thicken
350
D0
  3
Wireframe
350
CA
  3
X-Ray
350
D6
  0
XRECORD
  5
16C
102
{ACAD_REACTORS
330
C
102
}
330
C
100
AcDbXrecord
280
     1
 90
        1
330
DE
  0
DICTIONARY
  5
160
102
{ACAD_REACTORS
330
C
102
}
330
C
100
AcDbDictionary
281
     1
  3
CANNOSCALE
350
166
  3
CMLEADERSTYLE
350
162
  3
CTABLESTYLE
350
161
  3
CVIEWDETAILSTYLE
350
163
  3
CVIEWSECTIONSTYLE
350
164
  3
LAYEREVAL
350
168
  3
LAYERNOTIFY
350
169
  3
LIGHTINGUNITS
350
167
  3
MSLTSCALE
350
165
  0
ACDBDETAILVIEWSTYLE
  5
F6
102
{ACAD_XDICTIONARY
360
1A1
102
}
102
{ACAD_REACTORS
330
F5
102
}
330
F5
100
AcDbModelDocViewStyle
 70
     0
  3
Imperial24
290
     0
100
AcDbDetailViewStyle
 70
     0
 71
     0
 90
        3
 71
     1
340
11
 62
   256
 40
0.24
340
0
 62
   256
 40
0.24
300

 40
0.36
280
     3
 71
     2
340
16
 90
       25
 62
   256
 71
     3
340
11
 62
   256
 40
0.24
 90
        1
 40
0.75
 90
        1
300
%<\AcVar ViewType \f "%tc1">% %<\AcVar ViewDetailId>%\PSCALE %<\AcVar ViewScale \f "%sn">%
 71
     4
340
16
 90
       25
 62
   256
340
16
 90
       25
 62
   256
280
     0
  0
LAYOUT
  5
1E
102
{ACAD_REACTORS
330
1A
102
}
330
1A
100
AcDbPlotSettings
  1

  2
\\KTXNTBDC\CASF2PN1
  4

  6

 40
0.0
 41
0.0
 42
0.0
 43
0.0
 44
0.0
 45
0.0
 46
0.0
 47
0.0
 48
0.0
 49
0.0
140
0.0
141
0.0
142
1.0
143
1.0
 70
   688
 72
     0
 73
     0
 74
     5
  7

 75
    16
147
1.0
 76
     0
 77
     2
 78
   300
148
0.0
149
0.0
100
AcDbLayout
  1
Layout1
 70
     1
 71
     1
 10
0.0
 20
0.0
 11
12.0
 21
9.0
 12
0.0
 22
0.0
 32
0.0
 14
1.000000000000000E+20
 24
1.000000000000000E+20
 34
1.000000000000000E+20
 15
-1.000000000000000E+20
 25
-1.000000000000000E+20
 35
-1.000000000000000E+20
146
0.0
 13
0.0
 23
0.0
 33
0.0
 16
1.0
 26
0.0
 36
0.0
 17
0.0
 27
1.0
 37
0.0
 76
     0
330
1B
  0
LAYOUT
  5
26
102
{ACAD_REACTORS
330
1A
102
}
330
1A
100
AcDbPlotSettings
  1

  2
\\KTXNTBDC\CASF2PN1
  4

  6

 40
0.0
 41
0.0
 42
0.0
 43
0.0
 44
0.0
 45
0.0
 46
0.0
 47
0.0
 48
0.0
 49
0.0
140
0.0
141
0.0
142
1.0
143
1.0
 70
   688
 72
     0
 73
     0
 74
     5
  7

 75
    16
147
1.0
 76
     0
 77
     2
 78
   300
148
0.0
149
0.0
100
AcDbLayout
  1
Layout2
 70
     1
 71
     2
 10
0.0
 20
0.0
 11
12.0
 21
9.0
 12
0.0
 22
0.0
 32
0.0
 14
0.0
 24
0.0
 34
0.0
 15
0.0
 25
0.0
 35
0.0
146
0.0
 13
0.0
 23
0.0
 33
0.0
 16
1.0
 26
0.0
 36
0.0
 17
0.0
 27
1.0
 37
0.0
 76
     0
330
23
  0
LAYOUT
  5
22
102
{ACAD_REACTORS
330
1A
102
}
330
1A
100
AcDbPlotSettings
  1

  2
\\KTXNTBDC\CASF2PN1
  4

  6

 40
0.0
 41
0.0
 42
0.0
 43
0.0
 44
0.0
 45
0.0
 46
0.0
 47
0.0
 48
0.0
 49
0.0
140
0.0
141
0.0
142
1.0
143
1.0
 70
  1712
 72
     0
 73
     0
 74
     0
  7

 75
     0
147
1.0
 76
     0
 77
     2
 78
   300
148
0.0
149
0.0
100
AcDbLayout
  1
Model
 70
     1
 71
     0
 10
0.0
 20
0.0
 11
12.0
 21
9.0
 12
0.0
 22
0.0
 32
0.0
 14
0.0
 24
0.0
 34
0.0
 15
0.0
 25
0.0
 35
0.0
146
0.0
 13
0.0
 23
0.0
 33
0.0
 16
1.0
 26
0.0
 36
0.0
 17
0.0
 27
1.0
 37
0.0
 76
     0
330
1F
  0
MATERIAL
  5
B3
102
{ACAD_XDICTIONARY
360
B4
102
}
102
{ACAD_REACTORS
330
AA
102
}
330
AA
100
AcDbMaterial
  1
ByBlock
 72
     0
 43
0.0208333333333333
 43
0.0
 43
0.0
 43
0.0
 43
0.0
 43
0.0208333333333333
 43
0.0
 43
0.0
 43
0.0
 43
0.0
 43
1.0
 43
0.0
 43
0.0
 43
0.0
 43
0.0
 43
1.0
 77
     0
 47
0.0208333333333333
 47
0.0
 47
0.0
 47
0.0
 47
0.0
 47
0.0208333333333333
 47
0.0
 47
0.0
 47
0.0
 47
0.0
 47
1.0
 47
0.0
 47
0.0
 47
0.0
 47
0.0
 47
1.0
171
     0
 49
0.0208333333333333
 49
0.0
 49
0.0
 49
0.0
 49
0.0
 49
0.0208333333333333
 49
0.0
 49
0.0
 49
0.0
 49
0.0
 49
1.0
 49
0.0
 49
0.0
 49
0.0
 49
0.0
 49
1.0
175
     0
142
0.0208333333333333
142
0.0
142
0.0
142
0.0
142
0.0
142
0.0208333333333333
142
0.0
142
0.0
142
0.0
142
0.0
142
1.0
142
0.0
142
0.0
142
0.0
142
0.0
142
1.0
179
     0
144
0.0208333333333333
144
0.0
144
0.0
144
0.0
144
0.0
144
0.0208333333333333
144
0.0
144
0.0
144
0.0
144
0.0
144
1.0
144
0.0
144
0.0
144
0.0
144
0.0
144
1.0
147
0.0208333333333333
147
0.0
147
0.0
147
0.0
147
0.0
147
0.0208333333333333
147
0.0
147
0.0
147
0.0
147
0.0
147
1.0
147
0.0
147
0.0
147
0.0
147
0.0
147
1.0
  0
MATERIAL
  5
AB
102
{ACAD_XDICTIONARY
360
AC
102
}
102
{ACAD_REACTORS
330
AA
102
}
330
AA
100
AcDbMaterial
  1
ByLayer
 72
     0
 43
0.0208333333333333
 43
0.0
 43
0.0
 43
0.0
 43
0.0
 43
0.0208333333333333
 43
0.0
 43
0.0
 43
0.0
 43
0.0
 43
1.0
 43
0.0
 43
0.0
 43
0.0
 43
0.0
 43
1.0
 77
     0
 47
0.0208333333333333
 47
0.0
 47
0.0
 47
0.0
 47
0.0
 47
0.0208333333333333
 47
0.0
 47
0.0
 47
0.0
 47
0.0
 47
1.0
 47
0.0
 47
0.0
 47
0.0
 47
0.0
 47
1.0
171
     0
 49
0.0208333333333333
 49
0.0
 49
0.0
 49
0.0
 49
0.0
 49
0.0208333333333333
 49
0.0
 49
0.0
 49
0.0
 49
0.0
 49
1.0
 49
0.0
 49
0.0
 49
0.0
 49
0.0
 49
1.0
175
     0
142
0.0208333333333333
142
0.0
142
0.0
142
0.0
142
0.0
142
0.0208333333333333
142
0.0
142
0.0
142
0.0
142
0.0
142
1.0
142
0.0
142
0.0
142
0.0
142
0.0
142
1.0
179
     0
144
0.0208333333333333
144
0.0
144
0.0
144
0.0
144
0.0
144
0.0208333333333333
144
0.0
144
0.0
144
0.0
144
0.0
144
1.0
144
0.0
144
0.0
144
0.0
144
0.0
144
1.0
147
0.0208333333333333
147
0.0
147
0.0
147
0.0
147
0.0
147
0.0208333333333333
147
0.0
147
0.0
147
0.0
147
0.0
147
1.0
147
0.0
147
0.0
147
0.0
147
0.0
147
1.0
  0
MATERIAL
  5
BB
102
{ACAD_XDICTIONARY
360
BC
102
}
102
{ACAD_REACTORS
330
AA
102
}
330
AA
100
AcDbMaterial
  1
Global
 72
     0
 43
0.0208333333333333
 43
0.0
 43
0.0
 43
0.0
 43
0.0
 43
0.0208333333333333
 43
0.0
 43
0.0
 43
0.0
 43
0.0
 43
1.0
 43
0.0
 43
0.0
 43
0.0
 43
0.0
 43
1.0
 77
     0
 47
0.0208333333333333
 47
0.0
 47
0.0
 47
0.0
 47
0.0
 47
0.0208333333333333
 47
0.0
 47
0.0
 47
0.0
 47
0.0
 47
1.0
 47
0.0
 47
0.0
 47
0.0
 47
0.0
 47
1.0
171
     0
 49
0.0208333333333333
 49
0.0
 49
0.0
 49
0.0
 49
0.0
 49
0.0208333333333333
 49
0.0
 49
0.0
 49
0.0
 49
0.0
 49
1.0
 49
0.0
 49
0.0
 49
0.0
 49
0.0
 49
1.0
175
     0
142
0.0208333333333333
142
0.0
142
0.0
142
0.0
142
0.0
142
0.0208333333333333
142
0.0
142
0.0
142
0.0
142
0.0
142
1.0
142
0.0
142
0.0
142
0.0
142
0.0
142
1.0
179
     0
144
0.0208333333333333
144
0.0
144
0.0
144
0.0
144
0.0
144
0.0208333333333333
144
0.0
144
0.0
144
0.0
144
0.0
144
1.0
144
0.0
144
0.0
144
0.0
144
0.0
144
1.0
147
0.0208333333333333
147
0.0
147
0.0
147
0.0
147
0.0
147
0.0208333333333333
147
0.0
147
0.0
147
0.0
147
0.0
147
1.0
147
0.0
147
0.0
147
0.0
147
0.0
147
1.0
  0
MLEADERSTYLE
  5
F2
102
{ACAD_XDICTIONARY
360
19D
102
}
102
{ACAD_REACTORS
330
F1
102
}
330
F1
100
AcDbMLeaderStyle
179
     2
170
     2
171
     1
172
     0
 90
        2
 40
0.0
 41
0.0
173
     1
 91
-1056964608
340
14
 92
       -2
290
     1
 42
0.09
291
     1
 43
0.36
  3
Standard
 44
0.18
300

342
11
174
     1
178
     6
175
     1
176
     0
 93
-1056964608
 45
0.18
292
     0
297
     0
 46
0.18
 94
-1056964608
 47
1.0
 49
1.0
140
1.0
293
     1
141
0.0
294
     1
177
     0
142
1.0
295
     0
296
     0
143
0.125
271
     0
272
     9
273
     9
  0
MLINESTYLE
  5
18
102
{ACAD_REACTORS
330
17
102
}
330
17
100
AcDbMlineStyle
  2
STANDARD
 70
     0
  3

 62
   256
 51
90.0
 52
90.0
 71
     2
 49
0.5
 62
   256
  6
BYLAYER
 49
-0.5
 62
   256
  6
BYLAYER
  0
ACDBPLACEHOLDER
  5
2D
102
{ACAD_REACTORS
330
E
102
}
330
E
  0
ACDBPLACEHOLDER
  5
F
102
{ACAD_REACTORS
330
E
102
}
330
E
  0
SCALE
  5
E0
102
{ACAD_REACTORS
330
DF
102
}
330
DF
100
AcDbScale
 70
     0
300
1:1
140
1.0
141
1.0
290
     1
  0
SCALE
  5
E1
102
{ACAD_REACTORS
330
DF
102
}
330
DF
100
AcDbScale
 70
     0
300
1/128" = 1'-0"
140
0.0078125
141
12.0
290
     0
  0
SCALE
  5
E2
102
{ACAD_REACTORS
330
DF
102
}
330
DF
100
AcDbScale
 70
     0
300
1/64" = 1'-0"
140
0.015625
141
12.0
290
     0
  0
SCALE
  5
E3
102
{ACAD_REACTORS
330
DF
102
}
330
DF
100
AcDbScale
 70
     0
300
1/32" = 1'-0"
140
0.03125
141
12.0
290
     0
  0
SCALE
  5
E4
102
{ACAD_REACTORS
330
DF
102
}
330
DF
100
AcDbScale
 70
     0
300
1/16" = 1'-0"
140
0.0625
141
12.0
290
     0
  0
SCALE
  5
E5
102
{ACAD_REACTORS
330
DF
102
}
330
DF
100
AcDbScale
 70
     0
300
3/32" = 1'-0"
140
0.09375
141
12.0
290
     0
  0
SCALE
  5
E6
102
{ACAD_REACTORS
330
DF
102
}
330
DF
100
AcDbScale
 70
     0
300
1/8" = 1'-0"
140
0.125
141
12.0
290
     0
  0
SCALE
  5
E7
102
{ACAD_REACTORS
330
DF
102
}
330
DF
100
AcDbScale
 70
     0
300
3/16" = 1'-0"
140
0.1875
141
12.0
290
     0
  0
SCALE
  5
E8
102
{ACAD_REACTORS
330
DF
102
}
330
DF
100
AcDbScale
 70
     0
300
1/4" = 1'-0"
140
0.25
141
12.0
290
     0
  0
SCALE
  5
E9
102
{ACAD_REACTORS
330
DF
102
}
330
DF
100
AcDbScale
 70
     0
300
3/8" = 1'-0"
140
0.375
141
12.0
290
     0
  0
SCALE
  5
EA
102
{ACAD_REACTORS
330
DF
102
}
330
DF
100
AcDbScale
 70
     0
300
1/2" = 1'-0"
140
0.5
141
12.0
290
     0
  0
SCALE
  5
EB
102
{ACAD_REACTORS
330
DF
102
}
330
DF
100
AcDbScale
 70
     0
300
3/4" = 1'-0"
140
0.75
141
12.0
290
     0
  0
SCALE
  5
EC
102
{ACAD_REACTORS
330
DF
102
}
330
DF
100
AcDbScale
 70
     0
300
1" = 1'-0"
140
1.0
141
12.0
290
     0
  0
SCALE
  5
ED
102
{ACAD_REACTORS
330
DF
102
}
330
DF
100
AcDbScale
 70
     0
300
1-1/2" = 1'-0"
140
1.5
141
12.0
290
     0
  0
SCALE
  5
EE
102
{ACAD_REACTORS
330
DF
102
}
330
DF
100
AcDbScale
 70
     0
300
3" = 1'-0"
140
3.0
141
12.0
290
     0
  0
SCALE
  5
EF
102
{ACAD_REACTORS
330
DF
102
}
330
DF
100
AcDbScale
 70
     0
300
6" = 1'-0"
140
6.0
141
12.0
290
     0
  0
SCALE
  5
F0
102
{ACAD_REACTORS
330
DF
102
}
330
DF
100
AcDbScale
 70
     0
300
1'-0" = 1'-0"
140
12.0
141
12.0
290
     0
  0
ACDBSECTIONVIEWSTYLE
  5
F4
102
{ACAD_XDICTIONARY
360
19F
102
}
102
{ACAD_REACTORS
330
F3
102
}
330
F3
100
AcDbModelDocViewStyle
 70
     0
  3
Imperial24
290
     0
100
AcDbSectionViewStyle
 70
     0
 71
     0
 90
       78
 71
     1
340
11
 62
   256
 40
0.24
340
0
340
0
 62
   256
 40
0.24
300
I, O, Q, S, X, Z
 40
0.48
 90
        3
 40
0.18
 90
        1
 71
     2
340
16
 90
       25
 62
   256
340
16
 90
       50
 62
   256
 40
0.24
 40
0.0
 40
0.24
 71
     3
340
11
 62
   256
 40
0.24
 90
        1
 40
0.75
 90
        1
300
%<\AcVar ViewType \f "%tc1">% %<\AcVar ViewSectionStartId>%-%<\AcVar ViewSectionEndId>%\PSCALE %<\AcVar ViewScale \f "%sn">%
 71
     4
 62
   256
 62
   257
300
ANSI31
 40
1.0
 90
        0
290
     0
290
     0
 90
        6
 40
0.0
 40
1.570796326794896
 40
0.2617993877991494
 40
1.308996938995747
 40
-0.2617993877991494
 40
1.832595714594046
  0
TABLESTYLE
  5
DE
102
{ACAD_XDICTIONARY
360
16A
102
}
102
{ACAD_REACTORS
330
DD
102
}
330
DD
100
AcDbTableStyle
280
     0
  3
Standard
 70
     0
 71
     0
 40
0.06
 41
0.06
280
     0
281
     0
  7
Standard
140
0.18
170
     2
 62
     0
 63
     7
283
     0
 90
      512
 91
        0
  1

274
    -2
284
     1
 64
     0
275
    -2
285
     1
 65
     0
276
    -2
286
     1
 66
     0
277
    -2
287
     1
 67
     0
278
    -2
288
     1
 68
     0
279
    -2
289
     1
 69
     0
  7
Standard
140
0.25
170
     5
 62
     0
 63
     7
283
     0
 90
      512
 91
        0
  1

274
    -2
284
     1
 64
     0
275
    -2
285
     1
 65
     0
276
    -2
286
     1
 66
     0
277
    -2
287
     1
 67
     0
278
    -2
288
     1
 68
     0
279
    -2
289
     1
 69
     0
  7
Standard
140
0.18
170
     5
 62
     0
 63
     7
283
     0
 90
      512
 91
        0
  1

274
    -2
284
     1
 64
     0
275
    -2
285
     1
 65
     0
276
    -2
286
     1
 66
     0
277
    -2
287
     1
 67
     0
278
    -2
288
     1
 68
     0
279
    -2
289
     1
 69
     0
  0
VISUALSTYLE
  5
C9
102
{ACAD_XDICTIONARY
360
177
102
}
102
{ACAD_REACTORS
330
C3
102
}
330
C3
100
AcDbVisualStyle
  2
2dWireframe
 70
     4
177
     2
291
     0
 71
     0
176
     1
 72
     2
176
     1
 73
     0
176
     1
 90
        0
176
     1
 40
0.6
176
     1
 41
30.0
176
     1
 63
     7
421
 16777215
176
     1
 74
     1
176
     1
 91
        4
176
     1
 64
     7
176
     1
 65
   257
176
     1
 75
     1
176
     1
175
     1
176
     1
 42
1.0
176
     1
 92
        0
176
     1
 66
   257
176
     1
 43
1.0
176
     1
 76
     1
176
     1
 77
     6
176
     1
 78
     2
176
     1
 67
     7
176
     1
 79
     5
176
     1
170
     0
176
     1
171
     0
176
     1
290
     0
176
     1
 93
        1
176
     1
 44
0.0
176
     1
173
     0
176
     1
1001
ACAD
1000
AcDbSavedByObjectVersion
1070
     0
  0
VISUALSTYLE
  5
C8
102
{ACAD_XDICTIONARY
360
175
102
}
102
{ACAD_REACTORS
330
C3
102
}
330
C3
100
AcDbVisualStyle
  2
Basic
 70
     7
177
     2
291
     1
 71
     1
176
     1
 72
     0
176
     1
 73
     1
176
     1
 90
        0
176
     1
 40
0.6
176
     1
 41
30.0
176
     1
 63
     7
421
 16777215
176
     1
 74
     0
176
     1
 91
        4
176
     1
 64
     7
176
     1
 65
   257
176
     1
 75
     1
176
     1
175
     1
176
     1
 42
1.0
176
     1
 92
        8
176
     1
 66
     7
176
     1
 43
1.0
176
     1
 76
     1
176
     1
 77
     6
176
     1
 78
     2
176
     1
 67
     7
176
     1
 79
     5
176
     1
170
     0
176
     1
171
     0
176
     1
290
     0
176
     1
 93
        1
176
     1
 44
0.0
176
     1
173
     0
176
     1
1001
ACAD
1000
AcDbSavedByObjectVersion
1070
     0
  0
VISUALSTYLE
  5
CF
102
{ACAD_XDICTIONARY
360
183
102
}
102
{ACAD_REACTORS
330
C3
102
}
330
C3
100
AcDbVisualStyle
  2
Brighten
 70
    12
177
     2
291
     1
 71
     2
176
     1
 72
     2
176
     1
 73
     0
176
     1
 90
        0
176
     1
 40
0.6
176
     1
 41
30.0
176
     1
 63
     7
421
 16777215
176
     1
 74
     1
176
     1
 91
        4
176
     1
 64
     7
176
     1
 65
   257
176
     1
 75
     1
176
     1
175
     1
176
     1
 42
1.0
176
     1
 92
        8
176
     1
 66
     7
176
     1
 43
1.0
176
     1
 76
     1
176
     1
 77
     6
176
     1
 78
     2
176
     1
 67
     7
176
     1
 79
     5
176
     1
170
     0
176
     1
171
     0
176
     1
290
     0
176
     1
 93
        1
176
     1
 44
50.0
176
     1
173
     0
176
     1
1001
ACAD
1000
AcDbSavedByObjectVersion
1070
     0
  0
VISUALSTYLE
  5
D3
102
{ACAD_XDICTIONARY
360
18B
102
}
102
{ACAD_REACTORS
330
C3
102
}
330
C3
100
AcDbVisualStyle
  2
ColorChange
 70
    16
177
     2
291
     1
 71
     2
176
     1
 72
     2
176
     1
 73
     3
176
     1
 90
        0
176
     1
 40
0.6
176
     1
 41
30.0
176
     1
 63
     8
421
  8421504
176
     1
 74
     1
176
     1
 91
        4
176
     1
 64
     7
176
     1
 65
   257
176
     1
 75
     1
176
     1
175
     1
176
     1
 42
1.0
176
     1
 92
        8
176
     1
 66
     8
424
  8421504
176
     1
 43
1.0
176
     1
 76
     1
176
     1
 77
     6
176
     1
 78
     2
176
     1
 67
     7
176
     1
 79
     5
176
     1
170
     0
176
     1
171
     0
176
     1
290
     0
176
     1
 93
        1
176
     1
 44
0.0
176
     1
173
     0
176
     1
1001
ACAD
1000
AcDbSavedByObjectVersion
1070
     0
  0
VISUALSTYLE
  5
CC
102
{ACAD_XDICTIONARY
360
17D
102
}
102
{ACAD_REACTORS
330
C3
102
}
330
C3
100
AcDbVisualStyle
  2
Conceptual
 70
     9
177
     2
291
     0
 71
     3
176
     1
 72
     2
176
     1
 73
     0
176
     1
 90
        0
176
     1
 40
0.6
176
     1
 41
30.0
176
     1
 63
     7
421
 16777215
176
     1
 74
     2
176
     1
 91
        2
176
     1
 64
     7
176
     1
 65
   257
176
     1
 75
     1
176
     1
175
     1
176
     1
 42
179.0
176
     1
 92
        8
176
     1
 66
     7
176
     1
 43
1.0
176
     1
 76
     1
176
     1
 77
     6
176
     1
 78
     2
176
     1
 67
     7
176
     1
 79
     3
176
     1
170
     0
176
     1
171
     0
176
     1
290
     0
176
     1
 93
        1
176
     1
 44
0.0
176
     1
173
     0
176
     1
1001
ACAD
1000
AcDbSavedByObjectVersion
1070
     0
  0
VISUALSTYLE
  5
CE
102
{ACAD_XDICTIONARY
360
181
102
}
102
{ACAD_REACTORS
330
C3
102
}
330
C3
100
AcDbVisualStyle
  2
Dim
 70
    11
177
     2
291
     1
 71
     2
176
     1
 72
     2
176
     1
 73
     0
176
     1
 90
        0
176
     1
 40
0.6
176
     1
 41
30.0
176
     1
 63
     7
421
 16777215
176
     1
 74
     1
176
     1
 91
        4
176
     1
 64
     7
176
     1
 65
   257
176
     1
 75
     1
176
     1
175
     1
176
     1
 42
1.0
176
     1
 92
        8
176
     1
 66
     7
176
     1
 43
1.0
176
     1
 76
     1
176
     1
 77
     6
176
     1
 78
     2
176
     1
 67
     7
176
     1
 79
     5
176
     1
170
     0
176
     1
171
     0
176
     1
290
     0
176
     1
 93
        1
176
     1
 44
-50.0
176
     1
173
     0
176
     1
1001
ACAD
1000
AcDbSavedByObjectVersion
1070
     0
  0
VISUALSTYLE
  5
DB
102
{ACAD_XDICTIONARY
360
19B
102
}
102
{ACAD_REACTORS
330
C3
102
}
330
C3
100
AcDbVisualStyle
  2
EdgeColorOff
 70
    22
177
     2
291
     1
 71
     2
176
     0
 72
     2
176
     0
 73
     0
176
     0
 90
        0
176
     0
 40
0.6
176
     0
 41
30.0
176
     0
 63
     7
421
 16777215
176
     0
 74
     1
176
     0
 91
        4
176
     0
 64
     7
176
     0
 65
   257
176
     0
 75
     1
176
     0
175
     1
176
     0
 42
1.0
176
     0
 92
        8
176
     2
 66
     7
176
     0
 43
1.0
176
     0
 76
     1
176
     0
 77
     6
176
     0
 78
     2
176
     0
 67
     7
176
     0
 79
     5
176
     0
170
     0
176
     0
171
     0
176
     0
290
     0
176
     0
 93
        1
176
     0
 44
0.0
176
     0
173
     0
176
     0
1001
ACAD
1000
AcDbSavedByObjectVersion
1070
     0
  0
VISUALSTYLE
  5
D2
102
{ACAD_XDICTIONARY
360
189
102
}
102
{ACAD_REACTORS
330
C3
102
}
330
C3
100
AcDbVisualStyle
  2
Facepattern
 70
    15
177
     2
291
     1
 71
     2
176
     1
 72
     2
176
     1
 73
     0
176
     1
 90
        0
176
     1
 40
0.6
176
     1
 41
30.0
176
     1
 63
     7
421
 16777215
176
     1
 74
     1
176
     1
 91
        4
176
     1
 64
     7
176
     1
 65
   257
176
     1
 75
     1
176
     1
175
     1
176
     1
 42
1.0
176
     1
 92
        8
176
     1
 66
     7
176
     1
 43
1.0
176
     1
 76
     1
176
     1
 77
     6
176
     1
 78
     2
176
     1
 67
     7
176
     1
 79
     5
176
     1
170
     0
176
     1
171
     0
176
     1
290
     0
176
     1
 93
        1
176
     1
 44
0.0
176
     1
173
     0
176
     1
1001
ACAD
1000
AcDbSavedByObjectVersion
1070
     0
  0
VISUALSTYLE
  5
C4
102
{ACAD_XDICTIONARY
360
16D
102
}
102
{ACAD_REACTORS
330
C3
102
}
330
C3
100
AcDbVisualStyle
  2
Flat
 70
     0
177
     2
291
     1
 71
     2
176
     1
 72
     1
176
     1
 73
     1
176
     1
 90
        2
176
     1
 40
0.6
176
     1
 41
30.0
176
     1
 63
     7
421
 16777215
176
     1
 74
     0
176
     1
 91
        0
176
     1
 64
     7
176
     1
 65
   257
176
     1
 75
     1
176
     1
175
     1
176
     1
 42
1.0
176
     1
 92
        8
176
     1
 66
     7
176
     1
 43
1.0
176
     1
 76
     1
176
     1
 77
     6
176
     1
 78
     2
176
     1
 67
     7
176
     1
 79
     5
176
     1
170
     0
176
     1
171
     0
176
     1
290
     0
176
     1
 93
       13
176
     1
 44
0.0
176
     1
173
     0
176
     1
1001
ACAD
1000
AcDbSavedByObjectVersion
1070
     0
  0
VISUALSTYLE
  5
C5
102
{ACAD_XDICTIONARY
360
16F
102
}
102
{ACAD_REACTORS
330
C3
102
}
330
C3
100
AcDbVisualStyle
  2
FlatWithEdges
 70
     1
177
     2
291
     1
 71
     2
176
     1
 72
     1
176
     1
 73
     1
176
     1
 90
        2
176
     1
 40
0.6
176
     1
 41
30.0
176
     1
 63
     7
421
 16777215
176
     1
 74
     1
176
     1
 91
        0
176
     1
 64
     7
176
     1
 65
   257
176
     1
 75
     1
176
     1
175
     1
176
     1
 42
1.0
176
     1
 92
        0
176
     1
 66
   257
176
     1
 43
1.0
176
     1
 76
     1
176
     1
 77
     6
176
     1
 78
     2
176
     1
 67
     7
176
     1
 79
     5
176
     1
170
     0
176
     1
171
     0
176
     1
290
     0
176
     1
 93
       13
176
     1
 44
0.0
176
     1
173
     0
176
     1
1001
ACAD
1000
AcDbSavedByObjectVersion
1070
     0
  0
VISUALSTYLE
  5
C6
102
{ACAD_XDICTIONARY
360
171
102
}
102
{ACAD_REACTORS
330
C3
102
}
330
C3
100
AcDbVisualStyle
  2
Gouraud
 70
     2
177
     2
291
     1
 71
     2
176
     1
 72
     2
176
     1
 73
     1
176
     1
 90
        2
176
     1
 40
0.6
176
     1
 41
30.0
176
     1
 63
     7
421
 16777215
176
     1
 74
     0
176
     1
 91
        0
176
     1
 64
     7
176
     1
 65
   257
176
     1
 75
     1
176
     1
175
     1
176
     1
 42
1.0
176
     1
 92
        0
176
     1
 66
     7
176
     1
 43
1.0
176
     1
 76
     1
176
     1
 77
     6
176
     1
 78
     2
176
     1
 67
     7
176
     1
 79
     5
176
     1
170
     0
176
     1
171
     0
176
     1
290
     0
176
     1
 93
       13
176
     1
 44
0.0
176
     1
173
     0
176
     1
1001
ACAD
1000
AcDbSavedByObjectVersion
1070
     0
  0
VISUALSTYLE
  5
C7
102
{ACAD_XDICTIONARY
360
173
102
}
102
{ACAD_REACTORS
330
C3
102
}
330
C3
100
AcDbVisualStyle
  2
GouraudWithEdges
 70
     3
177
     2
291
     1
 71
     2
176
     1
 72
     2
176
     1
 73
     1
176
     1
 90
        2
176
     1
 40
0.6
176
     1
 41
30.0
176
     1
 63
     7
421
 16777215
176
     1
 74
     1
176
     1
 91
        0
176
     1
 64
     7
176
     1
 65
   257
176
     1
 75
     1
176
     1
175
     1
176
     1
 42
1.0
176
     1
 92
        0
176
     1
 66
   257
176
     1
 43
1.0
176
     1
 76
     1
176
     1
 77
     6
176
     1
 78
     2
176
     1
 67
     7
176
     1
 79
     5
176
     1
170
     0
176
     1
171
     0
176
     1
290
     0
176
     1
 93
       13
176
     1
 44
0.0
176
     1
173
     0
176
     1
1001
ACAD
1000
AcDbSavedByObjectVersion
1070
     0
  0
VISUALSTYLE
  5
CB
102
{ACAD_XDICTIONARY
360
17B
102
}
102
{ACAD_REACTORS
330
C3
102
}
330
C3
100
AcDbVisualStyle
  2
Hidden
 70
     6
177
     2
291
     0
 71
     1
176
     1
 72
     2
176
     1
 73
     2
176
     1
 90
        0
176
     1
 40
0.6
176
     1
 41
30.0
176
     1
 63
     7
421
 16777215
176
     1
 74
     2
176
     1
 91
        2
176
     1
 64
     7
176
     1
 65
   257
176
     1
 75
     2
176
     1
175
     1
176
     1
 42
40.0
176
     1
 92
        0
176
     1
 66
   257
176
     1
 43
1.0
176
     1
 76
     1
176
     1
 77
     6
176
     1
 78
     2
176
     1
 67
     7
176
     1
 79
     3
176
     1
170
     0
176
     1
171
     0
176
     1
290
     0
176
     1
 93
        1
176
     1
 44
0.0
176
     1
173
     0
176
     1
1001
ACAD
1000
AcDbSavedByObjectVersion
1070
     0
  0
VISUALSTYLE
  5
D9
102
{ACAD_XDICTIONARY
360
197
102
}
102
{ACAD_REACTORS
330
C3
102
}
330
C3
100
AcDbVisualStyle
  2
JitterOff
 70
    20
177
     2
291
     1
 71
     2
176
     0
 72
     2
176
     0
 73
     0
176
     0
 90
        0
176
     0
 40
0.6
176
     0
 41
30.0
176
     0
 63
     7
421
 16777215
176
     0
 74
     1
176
     0
 91
        4
176
     0
 64
     7
176
     0
 65
   257
176
     0
 75
     1
176
     0
175
     1
176
     0
 42
1.0
176
     0
 92
       10
176
     2
 66
     7
176
     0
 43
1.0
176
     0
 76
     1
176
     0
 77
     6
176
     0
 78
     2
176
     0
 67
     7
176
     0
 79
     5
176
     0
170
     0
176
     0
171
     0
176
     0
290
     0
176
     0
 93
        1
176
     0
 44
0.0
176
     0
173
     0
176
     0
1001
ACAD
1000
AcDbSavedByObjectVersion
1070
     0
  0
VISUALSTYLE
  5
D1
102
{ACAD_XDICTIONARY
360
187
102
}
102
{ACAD_REACTORS
330
C3
102
}
330
C3
100
AcDbVisualStyle
  2
Linepattern
 70
    14
177
     2
291
     1
 71
     2
176
     1
 72
     2
176
     1
 73
     0
176
     1
 90
        0
176
     1
 40
0.6
176
     1
 41
30.0
176
     1
 63
     7
421
 16777215
176
     1
 74
     1
176
     1
 91
        4
176
     1
 64
     7
176
     1
 65
   257
176
     1
 75
     7
176
     1
175
     7
176
     1
 42
1.0
176
     1
 92
        8
176
     1
 66
     7
176
     1
 43
1.0
176
     1
 76
     1
176
     1
 77
     6
176
     1
 78
     2
176
     1
 67
     7
176
     1
 79
     5
176
     1
170
     0
176
     1
171
     0
176
     1
290
     0
176
     1
 93
        1
176
     1
 44
0.0
176
     1
173
     0
176
     1
1001
ACAD
1000
AcDbSavedByObjectVersion
1070
     0
  0
VISUALSTYLE
  5
DA
102
{ACAD_XDICTIONARY
360
199
102
}
102
{ACAD_REACTORS
330
C3
102
}
330
C3
100
AcDbVisualStyle
  2
OverhangOff
 70
    21
177
     2
291
     1
 71
     2
176
     0
 72
     2
176
     0
 73
     0
176
     0
 90
        0
176
     0
 40
0.6
176
     0
 41
30.0
176
     0
 63
     7
421
 16777215
176
     0
 74
     1
176
     0
 91
        4
176
     0
 64
     7
176
     0
 65
   257
176
     0
 75
     1
176
     0
175
     1
176
     0
 42
1.0
176
     0
 92
        9
176
     2
 66
     7
176
     0
 43
1.0
176
     0
 76
     1
176
     0
 77
     6
176
     0
 78
     2
176
     0
 67
     7
176
     0
 79
     5
176
     0
170
     0
176
     0
171
     0
176
     0
290
     0
176
     0
 93
        1
176
     0
 44
0.0
176
     0
173
     0
176
     0
1001
ACAD
1000
AcDbSavedByObjectVersion
1070
     0
  0
VISUALSTYLE
  5
CD
102
{ACAD_XDICTIONARY
360
17F
102
}
102
{ACAD_REACTORS
330
C3
102
}
330
C3
100
AcDbVisualStyle
  2
Realistic
 70
     8
177
     2
291
     0
 71
     2
176
     1
 72
     3
176
     1
 73
     0
176
     1
 90
        2
176
     1
 40
0.6
176
     1
 41
30.0
176
     1
 63
     7
421
 16777215
176
     1
 74
     0
176
     1
 91
        0
176
     1
 64
     7
176
     1
 65
   257
176
     1
 75
     1
176
     1
175
     1
176
     1
 42
1.0
176
     1
 92
        8
176
     1
 66
   257
176
     1
 43
1.0
176
     1
 76
     1
176
     1
 77
     6
176
     1
 78
     2
176
     1
 67
     7
176
     1
 79
     3
176
     1
170
     0
176
     1
171
     0
176
     1
290
     0
176
     1
 93
       13
176
     1
 44
0.0
176
     1
173
     0
176
     1
1001
ACAD
1000
AcDbSavedByObjectVersion
1070
     0
  0
VISUALSTYLE
  5
D8
102
{ACAD_XDICTIONARY
360
195
102
}
102
{ACAD_REACTORS
330
C3
102
}
330
C3
100
AcDbVisualStyle
  2
Shaded
 70
    27
177
     2
291
     0
 71
     2
176
     1
 72
     2
176
     1
 73
     1
176
     1
 90
        2
176
     1
 40
0.6
176
     1
 41
30.0
176
     1
 63
     7
421
 16777215
176
     1
 74
     0
176
     1
 91
        4
176
     1
 64
     7
176
     1
 65
   257
176
     1
 75
     1
176
     1
175
     1
176
     1
 42
1.0
176
     1
 92
        8
176
     1
 66
   257
176
     1
 43
1.0
176
     1
 76
     1
176
     1
 77
     6
176
     1
 78
     2
176
     1
 67
     8
425
  7895160
176
     1
 79
     3
176
     1
170
     0
176
     1
171
     0
176
     1
290
     0
176
     1
 93
        5
176
     1
 44
0.0
176
     1
173
     0
176
     1
1001
ACAD
1000
AcDbSavedByObjectVersion
1070
     0
  0
VISUALSTYLE
  5
D7
102
{ACAD_XDICTIONARY
360
193
102
}
102
{ACAD_REACTORS
330
C3
102
}
330
C3
100
AcDbVisualStyle
  2
Shaded with edges
 70
    26
177
     2
291
     0
 71
     2
176
     1
 72
     2
176
     1
 73
     1
176
     1
 90
        2
176
     1
 40
0.6
176
     1
 41
30.0
176
     1
 63
     7
421
 16777215
176
     1
 74
     1
176
     1
 91
       10
176
     1
 64
     7
176
     1
 65
   257
176
     1
 75
     2
176
     1
175
     1
176
     1
 42
1.0
176
     1
 92
        8
176
     1
 66
   257
176
     1
 43
1.0
176
     1
 76
     1
176
     1
 77
     6
176
     1
 78
     2
176
     1
 67
     7
176
     1
 79
     3
176
     1
170
     0
176
     1
171
     0
176
     1
290
     0
176
     1
 93
        5
176
     1
 44
0.0
176
     1
173
     0
176
     1
1001
ACAD
1000
AcDbSavedByObjectVersion
1070
     0
  0
VISUALSTYLE
  5
D4
102
{ACAD_XDICTIONARY
360
18D
102
}
102
{ACAD_REACTORS
330
C3
102
}
330
C3
100
AcDbVisualStyle
  2
Shades of Gray
 70
    23
177
     2
291
     0
 71
     2
176
     1
 72
     2
176
     1
 73
     3
176
     1
 90
        0
176
     1
 40
0.6
176
     1
 41
30.0
176
     1
 63
     7
421
 16777215
176
     1
 74
     2
176
     1
 91
        2
176
     1
 64
     7
176
     1
 65
     7
176
     1
 75
     1
176
     1
175
     1
176
     1
 42
40.0
176
     1
 92
        8
176
     1
 66
     7
176
     1
 43
1.0
176
     1
 76
     1
176
     1
 77
     6
176
     1
 78
     2
176
     1
 67
     7
176
     1
 79
     3
176
     1
170
     0
176
     1
171
     0
176
     1
290
     0
176
     1
 93
        1
176
     1
 44
0.0
176
     1
173
     0
176
     1
1001
ACAD
1000
AcDbSavedByObjectVersion
1070
     0
  0
VISUALSTYLE
  5
D5
102
{ACAD_XDICTIONARY
360
18F
102
}
102
{ACAD_REACTORS
330
C3
102
}
330
C3
100
AcDbVisualStyle
  2
Sketchy
 70
    24
177
     2
291
     0
 71
     1
176
     1
 72
     2
176
     1
 73
     2
176
     1
 90
        0
176
     1
 40
0.6
176
     1
 41
30.0
176
     1
 63
     7
421
 16777215
176
     1
 74
     2
176
     1
 91
        2
176
     1
 64
     7
176
     1
 65
     7
176
     1
 75
     1
176
     1
175
     1
176
     1
 42
40.0
176
     1
 92
       11
176
     1
 66
     7
176
     1
 43
1.0
176
     1
 76
     1
176
     1
 77
     6
176
     1
 78
     2
176
     1
 67
     7
176
     1
 79
     6
176
     1
170
     0
176
     1
171
     0
176
     1
290
     0
176
     1
 93
        1
176
     1
 44
0.0
176
     1
173
     0
176
     1
1001
ACAD
1000
AcDbSavedByObjectVersion
1070
     0
  0
VISUALSTYLE
  5
D0
102
{ACAD_XDICTIONARY
360
185
102
}
102
{ACAD_REACTORS
330
C3
102
}
330
C3
100
AcDbVisualStyle
  2
Thicken
 70
    13
177
     2
291
     1
 71
     2
176
     1
 72
     2
176
     1
 73
     0
176
     1
 90
        0
176
     1
 40
0.6
176
     1
 41
30.0
176
     1
 63
     7
421
 16777215
176
     1
 74
     1
176
     1
 91
        4
176
     1
 64
     7
176
     1
 65
   257
176
     1
 75
     1
176
     1
175
     1
176
     1
 42
1.0
176
     1
 92
       12
176
     1
 66
     7
176
     1
 43
1.0
176
     1
 76
     1
176
     1
 77
     6
176
     1
 78
     2
176
     1
 67
     7
176
     1
 79
     5
176
     1
170
     0
176
     1
171
     0
176
     1
290
     0
176
     1
 93
        1
176
     1
 44
0.0
176
     1
173
     0
176
     1
1001
ACAD
1000
AcDbSavedByObjectVersion
1070
     0
  0
VISUALSTYLE
  5
CA
102
{ACAD_XDICTIONARY
360
179
102
}
102
{ACAD_REACTORS
330
C3
102
}
330
C3
100
AcDbVisualStyle
  2
Wireframe
 70
     5
177
     2
291
     0
 71
     0
176
     1
 72
     2
176
     1
 73
     0
176
     1
 90
        0
176
     1
 40
0.6
176
     1
 41
30.0
176
     1
 63
     7
421
 16777215
176
     1
 74
     1
176
     1
 91
        4
176
     1
 64
     7
176
     1
 65
   257
176
     1
 75
     1
176
     1
175
     1
176
     1
 42
1.0
176
     1
 92
        0
176
     1
 66
   257
176
     1
 43
1.0
176
     1
 76
     1
176
     1
 77
     6
176
     1
 78
     2
176
     1
 67
     7
176
     1
 79
     3
176
     1
170
     0
176
     1
171
     0
176
     1
290
     0
176
     1
 93
        1
176
     1
 44
0.0
176
     1
173
     0
176
     1
1001
ACAD
1000
AcDbSavedByObjectVersion
1070
     0
  0
VISUALSTYLE
  5
D6
102
{ACAD_XDICTIONARY
360
191
102
}
102
{ACAD_REACTORS
330
C3
102
}
330
C3
100
AcDbVisualStyle
  2
X-Ray
 70
    25
177
     2
291
     0
 71
     2
176
     1
 72
     2
176
     1
 73
     1
176
     1
 90
        1
176
     1
 40
0.5
176
     1
 41
30.0
176
     1
 63
     7
421
 16777215
176
     1
 74
     1
176
     1
 91
        0
176
     1
 64
     7
176
     1
 65
   257
176
     1
 75
     1
176
     1
175
     1
176
     1
 42
1.0
176
     1
 92
        8
176
     1
 66
     7
176
     1
 43
1.0
176
     1
 76
     1
176
     1
 77
     6
176
     1
 78
     2
176
     1
 67
     7
176
     1
 79
     3
176
     1
170
     0
176
     1
171
     0
176
     1
290
     0
176
     1
 93
       13
176
     1
 44
0.0
176
     1
173
     0
176
     1
1001
ACAD
1000
AcDbSavedByObjectVersion
1070
     0
  0
DICTIONARYVAR
  5
166
102
{ACAD_REACTORS
330
160
102
}
330
160
100
DictionaryVariables
280
     0
  1
1:1
  0
DICTIONARYVAR
  5
162
102
{ACAD_REACTORS
330
160
102
}
330
160
100
DictionaryVariables
280
     0
  1
STANDARD
  0
DICTIONARYVAR
  5
161
102
{ACAD_REACTORS
330
160
102
}
330
160
100
DictionaryVariables
280
     0
  1
STANDARD
  0
DICTIONARYVAR
  5
163
102
{ACAD_REACTORS
330
160
102
}
330
160
100
DictionaryVariables
280
     0
  1
Imperial24
  0
DICTIONARYVAR
  5
164
102
{ACAD_REACTORS
330
160
102
}
330
160
100
DictionaryVariables
280
     0
  1
Imperial24
  0
DICTIONARYVAR
  5
168
102
{ACAD_REACTORS
330
160
102
}
330
160
100
DictionaryVariables
280
     0
  1
1
  0
DICTIONARYVAR
  5
169
102
{ACAD_REACTORS
330
160
102
}
330
160
100
DictionaryVariables
280
     0
  1
15
  0
DICTIONARYVAR
  5
167
102
{ACAD_REACTORS
330
160
102
}
330
160
100
DictionaryVariables
280
     0
  1
0
  0
DICTIONARYVAR
  5
165
102
{ACAD_REACTORS
330
160
102
}
330
160
100
DictionaryVariables
280
     0
  1
0
  0
DICTIONARY
  5
1A1
330
F6
100
AcDbDictionary
280
     1
281
     1
  3
ACAD_XREC_ROUNDTRIP
360
1A2
  0
DICTIONARY
  5
B4
330
B3
100
AcDbDictionary
280
     1
281
     1
  3
BUMPTILE
360
B6
  3
DIFFUSETILE
360
B5
  3
OPACITYTILE
360
B9
  3
REFLECTIONTILE
360
B8
  3
REFRACTIONTILE
360
BA
  3
SPECULARTILE
360
B7
  0
DICTIONARY
  5
AC
330
AB
100
AcDbDictionary
280
     1
281
     1
  3
BUMPTILE
360
AE
  3
DIFFUSETILE
360
AD
  3
OPACITYTILE
360
B1
  3
REFLECTIONTILE
360
B0
  3
REFRACTIONTILE
360
B2
  3
SPECULARTILE
360
AF
  0
DICTIONARY
  5
BC
330
BB
100
AcDbDictionary
280
     1
281
     1
  3
BUMPTILE
360
BE
  3
DIFFUSETILE
360
BD
  3
OPACITYTILE
360
C1
  3
REFLECTIONTILE
360
C0
  3
REFRACTIONTILE
360
C2
  3
SPECULARTILE
360
BF
  0
DICTIONARY
  5
19D
330
F2
100
AcDbDictionary
280
     1
281
     1
  3
ACAD_XREC_ROUNDTRIP
360
19E
  0
DICTIONARY
  5
19F
330
F4
100
AcDbDictionary
280
     1
281
     1
  3
ACAD_XREC_ROUNDTRIP
360
1A0
  0
DICTIONARY
  5
16A
330
DE
100
AcDbDictionary
280
     1
281
     1
  3
ACAD_ROUNDTRIP_2008_TABLESTYLE_CELLSTYLEMAP
360
16B
  0
DICTIONARY
  5
177
330
C9
100
AcDbDictionary
280
     1
281
     1
  3
ACAD_XREC_ROUNDTRIP
360
178
  0
DICTIONARY
  5
175
330
C8
100
AcDbDictionary
280
     1
281
     1
  3
ACAD_XREC_ROUNDTRIP
360
176
  0
DICTIONARY
  5
183
330
CF
100
AcDbDictionary
280
     1
281
     1
  3
ACAD_XREC_ROUNDTRIP
360
184
  0
DICTIONARY
  5
18B
330
D3
100
AcDbDictionary
280
     1
281
     1
  3
ACAD_XREC_ROUNDTRIP
360
18C
  0
DICTIONARY
  5
17D
330
CC
100
AcDbDictionary
280
     1
281
     1
  3
ACAD_XREC_ROUNDTRIP
360
17E
  0
DICTIONARY
  5
181
330
CE
100
AcDbDictionary
280
     1
281
     1
  3
ACAD_XREC_ROUNDTRIP
360
182
  0
DICTIONARY
  5
19B
330
DB
100
AcDbDictionary
280
     1
281
     1
  3
ACAD_XREC_ROUNDTRIP
360
19C
  0
DICTIONARY
  5
189
330
D2
100
AcDbDictionary
280
     1
281
     1
  3
ACAD_XREC_ROUNDTRIP
360
18A
  0
DICTIONARY
  5
16D
330
C4
100
AcDbDictionary
280
     1
281
     1
  3
ACAD_XREC_ROUNDTRIP
360
16E
  0
DICTIONARY
  5
16F
330
C5
100
AcDbDictionary
280
     1
281
     1
  3
ACAD_XREC_ROUNDTRIP
360
170
  0
DICTIONARY
  5
171
330
C6
100
AcDbDictionary
280
     1
281
     1
  3
ACAD_XREC_ROUNDTRIP
360
172
  0
DICTIONARY
  5
173
330
C7
100
AcDbDictionary
280
     1
281
     1
  3
ACAD_XREC_ROUNDTRIP
360
174
  0
DICTIONARY
  5
17B
330
CB
100
AcDbDictionary
280
     1
281
     1
  3
ACAD_XREC_ROUNDTRIP
360
17C
  0
DICTIONARY
  5
197
330
D9
100
AcDbDictionary
280
     1
281
     1
  3
ACAD_XREC_ROUNDTRIP
360
198
  0
DICTIONARY
  5
187
330
D1
100
AcDbDictionary
280
     1
281
     1
  3
ACAD_XREC_ROUNDTRIP
360
188
  0
DICTIONARY
  5
199
330
DA
100
AcDbDictionary
280
     1
281
     1
  3
ACAD_XREC_ROUNDTRIP
360
19A
  0
DICTIONARY
  5
17F
330
CD
100
AcDbDictionary
280
     1
281
     1
  3
ACAD_XREC_ROUNDTRIP
360
180
  0
DICTIONARY
  5
195
330
D8
100
AcDbDictionary
280
     1
281
     1
  3
ACAD_XREC_ROUNDTRIP
360
196
  0
DICTIONARY
  5
193
330
D7
100
AcDbDictionary
280
     1
281
     1
  3
ACAD_XREC_ROUNDTRIP
360
194
  0
DICTIONARY
  5
18D
330
D4
100
AcDbDictionary
280
     1
281
     1
  3
ACAD_XREC_ROUNDTRIP
360
18E
  0
DICTIONARY
  5
18F
330
D5
100
AcDbDictionary
280
     1
281
     1
  3
ACAD_XREC_ROUNDTRIP
360
190
  0
DICTIONARY
  5
185
330
D0
100
AcDbDictionary
280
     1
281
     1
  3
ACAD_XREC_ROUNDTRIP
360
186
  0
DICTIONARY
  5
179
330
CA
100
AcDbDictionary
280
     1
281
     1
  3
ACAD_XREC_ROUNDTRIP
360
17A
  0
DICTIONARY
  5
191
330
D6
100
AcDbDictionary
280
     1
281
     1
  3
ACAD_XREC_ROUNDTRIP
360
192
  0
XRECORD
  5
1A2
102
{ACAD_REACTORS
330
1A1
102
}
330
1A1
100
AcDbXrecord
280
     1
102
DISPLAYNAME
  1
Imperial24
102
FLAGS
 90
        0
  0
XRECORD
  5
B6
102
{ACAD_REACTORS
330
B4
102
}
330
B4
100
AcDbXrecord
280
     1
270
     1
271
     1
  0
XRECORD
  5
B5
102
{ACAD_REACTORS
330
B4
102
}
330
B4
100
AcDbXrecord
280
     1
270
     1
271
     1
  0
XRECORD
  5
B9
102
{ACAD_REACTORS
330
B4
102
}
330
B4
100
AcDbXrecord
280
     1
270
     1
271
     1
  0
XRECORD
  5
B8
102
{ACAD_REACTORS
330
B4
102
}
330
B4
100
AcDbXrecord
280
     1
270
     1
271
     1
  0
XRECORD
  5
BA
102
{ACAD_REACTORS
330
B4
102
}
330
B4
100
AcDbXrecord
280
     1
270
     1
271
     1
  0
XRECORD
  5
B7
102
{ACAD_REACTORS
330
B4
102
}
330
B4
100
AcDbXrecord
280
     1
270
     1
271
     1
  0
XRECORD
  5
AE
102
{ACAD_REACTORS
330
AC
102
}
330
AC
100
AcDbXrecord
280
     1
270
     1
271
     1
  0
XRECORD
  5
AD
102
{ACAD_REACTORS
330
AC
102
}
330
AC
100
AcDbXrecord
280
     1
270
     1
271
     1
  0
XRECORD
  5
B1
102
{ACAD_REACTORS
330
AC
102
}
330
AC
100
AcDbXrecord
280
     1
270
     1
271
     1
  0
XRECORD
  5
B0
102
{ACAD_REACTORS
330
AC
102
}
330
AC
100
AcDbXrecord
280
     1
270
     1
271
     1
  0
XRECORD
  5
B2
102
{ACAD_REACTORS
330
AC
102
}
330
AC
100
AcDbXrecord
280
     1
270
     1
271
     1
  0
XRECORD
  5
AF
102
{ACAD_REACTORS
330
AC
102
}
330
AC
100
AcDbXrecord
280
     1
270
     1
271
     1
  0
XRECORD
  5
BE
102
{ACAD_REACTORS
330
BC
102
}
330
BC
100
AcDbXrecord
280
     1
270
     1
271
     1
  0
XRECORD
  5
BD
102
{ACAD_REACTORS
330
BC
102
}
330
BC
100
AcDbXrecord
280
     1
270
     1
271
     1
  0
XRECORD
  5
C1
102
{ACAD_REACTORS
330
BC
102
}
330
BC
100
AcDbXrecord
280
     1
270
     1
271
     1
  0
XRECORD
  5
C0
102
{ACAD_REACTORS
330
BC
102
}
330
BC
100
AcDbXrecord
280
     1
270
     1
271
     1
  0
XRECORD
  5
C2
102
{ACAD_REACTORS
330
BC
102
}
330
BC
100
AcDbXrecord
280
     1
270
     1
271
     1
  0
XRECORD
  5
BF
102
{ACAD_REACTORS
330
BC
102
}
330
BC
100
AcDbXrecord
280
     1
270
     1
271
     1
  0
XRECORD
  5
19E
102
{ACAD_REACTORS
330
19D
102
}
330
19D
100
AcDbXrecord
280
     1
102
ACAD_ROUNDTRIP_2012_MLEADER_STYLE
298
     1
  0
XRECORD
  5
1A0
102
{ACAD_REACTORS
330
19F
102
}
330
19F
100
AcDbXrecord
280
     1
102
DISPLAYNAME
  1
Imperial24
102
FLAGS
 90
        0
  0
CELLSTYLEMAP
  5
16B
102
{ACAD_REACTORS
330
16A
102
}
330
16A
100
AcDbCellStyleMap
 90
        3
300
CELLSTYLE
  1
TABLEFORMAT_BEGIN
 90
        5
170
     1
 91
        0
 92
    32768
 62
   257
 93
        1
300
CONTENTFORMAT
  1
CONTENTFORMAT_BEGIN
 90
        0
 91
        0
 92
      512
 93
        0
300

 40
0.0
140
1.0
 94
        5
 62
     0
340
11
144
0.25
309
CONTENTFORMAT_END
171
     0
 94
        0
309
TABLEFORMAT_END
  1
CELLSTYLE_BEGIN
 90
        1
 91
        1
300
_TITLE
309
CELLSTYLE_END
300
CELLSTYLE
  1
TABLEFORMAT_BEGIN
 90
        5
170
     1
 91
        0
 92
        0
 62
   257
 93
        1
300
CONTENTFORMAT
  1
CONTENTFORMAT_BEGIN
 90
        0
 91
        0
 92
      512
 93
        0
300

 40
0.0
140
1.0
 94
        5
 62
     0
340
11
144
0.18
309
CONTENTFORMAT_END
171
     0
 94
        0
309
TABLEFORMAT_END
  1
CELLSTYLE_BEGIN
 90
        2
 91
        1
300
_HEADER
309
CELLSTYLE_END
300
CELLSTYLE
  1
TABLEFORMAT_BEGIN
 90
        5
170
     1
 91
        0
 92
        0
 62
   257
 93
        1
300
CONTENTFORMAT
  1
CONTENTFORMAT_BEGIN
 90
        0
 91
        0
 92
      512
 93
        0
300

 40
0.0
140
1.0
 94
        2
 62
     0
340
11
144
0.18
309
CONTENTFORMAT_END
171
     0
 94
        0
309
TABLEFORMAT_END
  1
CELLSTYLE_BEGIN
 90
        3
 91
        2
300
_DATA
309
CELLSTYLE_END
  0
XRECORD
  5
178
102
{ACAD_REACTORS
330
177
102
}
330
177
100
AcDbXrecord
280
     1
102
RTVSPost2010Prop28
280
     1
102
RTVSPost2010PropOp28
 70
     1
102
RTVSPost2010Prop29
280
     1
102
RTVSPost2010PropOp29
 70
     1
102
RTVSPost2010Prop30
280
     0
102
RTVSPost2010PropOp30
 70
     1
102
RTVSPost2010Prop31
280
     0
102
RTVSPost2010PropOp31
 70
     1
102
RTVSPost2010Prop32
280
     0
102
RTVSPost2010PropOp32
 70
     1
102
RTVSPost2010Prop33
280
     0
102
RTVSPost2010PropOp33
 70
     1
102
RTVSPost2010Prop34
280
     0
102
RTVSPost2010PropOp34
 70
     1
102
RTVSPost2010Prop35
280
     0
102
RTVSPost2010PropOp35
 70
     1
102
RTVSPost2010Prop36
280
     0
102
RTVSPost2010PropOp36
 70
     1
102
RTVSPost2010Prop37
 90
       50
102
RTVSPost2010PropOp37
 70
     1
102
RTVSPost2010Prop38
140
0.0
102
RTVSPost2010PropOp38
 70
     1
102
RTVSPost2010Prop39
140
1.0
102
RTVSPost2010PropOp39
 70
     1
102
RTVSPost2010Prop40
 90
        0
102
RTVSPost2010PropOp40
 70
     1
102
RTVSPost2010Prop41ColorIndex
 90
       18
102
RTVSPost2010Prop41ColorRGB
 90
        0
102
RTVSPost2010PropOp41
 70
     1
102
RTVSPost2010Prop42
 90
       50
102
RTVSPost2010PropOp42
 70
     1
102
RTVSPost2010Prop43
 90
        3
102
RTVSPost2010PropOp43
 70
     1
102
RTVSPost2010Prop44ColorIndex
 90
        5
102
RTVSPost2010Prop44ColorRGB
 90
      255
102
RTVSPost2010PropOp44
 70
     1
102
RTVSPost2010Prop45
280
     0
102
RTVSPost2010PropOp45
 70
     1
102
RTVSPost2010Prop46
 90
       50
102
RTVSPost2010PropOp46
 70
     1
102
RTVSPost2010Prop47
 90
       50
102
RTVSPost2010PropOp47
 70
     1
102
RTVSPost2010Prop48
 90
       50
102
RTVSPost2010PropOp48
 70
     1
102
RTVSPost2010Prop49
280
     0
102
RTVSPost2010PropOp49
 70
     1
102
RTVSPost2010Prop50
 90
       50
102
RTVSPost2010PropOp50
 70
     1
102
RTVSPost2010Prop51ColorIndex
 90
      256
102
RTVSPost2010Prop51ColorRGB
 90
-16777216
102
RTVSPost2010PropOp51
 70
     0
102
RTVSPost2010Prop52
140
1.0
102
RTVSPost2010PropOp52
 70
     0
102
RTVSPost2010Prop53
 90
        2
102
RTVSPost2010PropOp53
 70
     1
102
RTVSPost2010Prop54
  1
strokes_ogs.tif
102
RTVSPost2010PropOp54
 70
     1
102
RTVSPost2010Prop55
280
     0
102
RTVSPost2010PropOp55
 70
     1
102
RTVSPost2010Prop56
140
1.0
102
RTVSPost2010PropOp56
 70
     1
102
RTVSPost2010Prop57
140
1.0
102
RTVSPost2010PropOp57
 70
     1
  0
XRECORD
  5
176
102
{ACAD_REACTORS
330
175
102
}
330
175
100
AcDbXrecord
280
     1
102
RTVSPost2010Prop28
280
     0
102
RTVSPost2010PropOp28
 70
     1
102
RTVSPost2010Prop29
280
     1
102
RTVSPost2010PropOp29
 70
     1
102
RTVSPost2010Prop30
280
     1
102
RTVSPost2010PropOp30
 70
     1
102
RTVSPost2010Prop31
280
     0
102
RTVSPost2010PropOp31
 70
     1
102
RTVSPost2010Prop32
280
     0
102
RTVSPost2010PropOp32
 70
     1
102
RTVSPost2010Prop33
280
     0
102
RTVSPost2010PropOp33
 70
     1
102
RTVSPost2010Prop34
280
     0
102
RTVSPost2010PropOp34
 70
     1
102
RTVSPost2010Prop35
280
     0
102
RTVSPost2010PropOp35
 70
     1
102
RTVSPost2010Prop36
280
     0
102
RTVSPost2010PropOp36
 70
     1
102
RTVSPost2010Prop37
 90
       50
102
RTVSPost2010PropOp37
 70
     1
102
RTVSPost2010Prop38
140
0.0
102
RTVSPost2010PropOp38
 70
     1
102
RTVSPost2010Prop39
140
1.0
102
RTVSPost2010PropOp39
 70
     1
102
RTVSPost2010Prop40
 90
        0
102
RTVSPost2010PropOp40
 70
     1
102
RTVSPost2010Prop41ColorIndex
 90
       18
102
RTVSPost2010Prop41ColorRGB
 90
        0
102
RTVSPost2010PropOp41
 70
     1
102
RTVSPost2010Prop42
 90
       50
102
RTVSPost2010PropOp42
 70
     1
102
RTVSPost2010Prop43
 90
        3
102
RTVSPost2010PropOp43
 70
     1
102
RTVSPost2010Prop44ColorIndex
 90
        5
102
RTVSPost2010Prop44ColorRGB
 90
      255
102
RTVSPost2010PropOp44
 70
     1
102
RTVSPost2010Prop45
280
     0
102
RTVSPost2010PropOp45
 70
     1
102
RTVSPost2010Prop46
 90
       50
102
RTVSPost2010PropOp46
 70
     1
102
RTVSPost2010Prop47
 90
       50
102
RTVSPost2010PropOp47
 70
     1
102
RTVSPost2010Prop48
 90
       50
102
RTVSPost2010PropOp48
 70
     1
102
RTVSPost2010Prop49
280
     0
102
RTVSPost2010PropOp49
 70
     1
102
RTVSPost2010Prop50
 90
       50
102
RTVSPost2010PropOp50
 70
     1
102
RTVSPost2010Prop51ColorIndex
 90
      256
102
RTVSPost2010Prop51ColorRGB
 90
-16777216
102
RTVSPost2010PropOp51
 70
     0
102
RTVSPost2010Prop52
140
1.0
102
RTVSPost2010PropOp52
 70
     0
102
RTVSPost2010Prop53
 90
        2
102
RTVSPost2010PropOp53
 70
     1
102
RTVSPost2010Prop54
  1
strokes_ogs.tif
102
RTVSPost2010PropOp54
 70
     1
102
RTVSPost2010Prop55
280
     0
102
RTVSPost2010PropOp55
 70
     1
102
RTVSPost2010Prop56
140
1.0
102
RTVSPost2010PropOp56
 70
     1
102
RTVSPost2010Prop57
140
1.0
102
RTVSPost2010PropOp57
 70
     1
  0
XRECORD
  5
184
102
{ACAD_REACTORS
330
183
102
}
330
183
100
AcDbXrecord
280
     1
102
RTVSPost2010Prop28
280
     0
102
RTVSPost2010PropOp28
 70
     1
102
RTVSPost2010Prop29
280
     1
102
RTVSPost2010PropOp29
 70
     1
102
RTVSPost2010Prop30
280
     1
102
RTVSPost2010PropOp30
 70
     1
102
RTVSPost2010Prop31
280
     0
102
RTVSPost2010PropOp31
 70
     1
102
RTVSPost2010Prop32
280
     0
102
RTVSPost2010PropOp32
 70
     1
102
RTVSPost2010Prop33
280
     0
102
RTVSPost2010PropOp33
 70
     1
102
RTVSPost2010Prop34
280
     0
102
RTVSPost2010PropOp34
 70
     1
102
RTVSPost2010Prop35
280
     0
102
RTVSPost2010PropOp35
 70
     1
102
RTVSPost2010Prop36
280
     0
102
RTVSPost2010PropOp36
 70
     1
102
RTVSPost2010Prop37
 90
       50
102
RTVSPost2010PropOp37
 70
     1
102
RTVSPost2010Prop38
140
0.0
102
RTVSPost2010PropOp38
 70
     1
102
RTVSPost2010Prop39
140
1.0
102
RTVSPost2010PropOp39
 70
     1
102
RTVSPost2010Prop40
 90
        0
102
RTVSPost2010PropOp40
 70
     1
102
RTVSPost2010Prop41ColorIndex
 90
       18
102
RTVSPost2010Prop41ColorRGB
 90
        0
102
RTVSPost2010PropOp41
 70
     1
102
RTVSPost2010Prop42
 90
       50
102
RTVSPost2010PropOp42
 70
     1
102
RTVSPost2010Prop43
 90
        3
102
RTVSPost2010PropOp43
 70
     1
102
RTVSPost2010Prop44ColorIndex
 90
        5
102
RTVSPost2010Prop44ColorRGB
 90
      255
102
RTVSPost2010PropOp44
 70
     1
102
RTVSPost2010Prop45
280
     0
102
RTVSPost2010PropOp45
 70
     1
102
RTVSPost2010Prop46
 90
       50
102
RTVSPost2010PropOp46
 70
     1
102
RTVSPost2010Prop47
 90
       50
102
RTVSPost2010PropOp47
 70
     1
102
RTVSPost2010Prop48
 90
       50
102
RTVSPost2010PropOp48
 70
     1
102
RTVSPost2010Prop49
280
     0
102
RTVSPost2010PropOp49
 70
     1
102
RTVSPost2010Prop50
 90
       50
102
RTVSPost2010PropOp50
 70
     1
102
RTVSPost2010Prop51ColorIndex
 90
      256
102
RTVSPost2010Prop51ColorRGB
 90
-16777216
102
RTVSPost2010PropOp51
 70
     0
102
RTVSPost2010Prop52
140
1.0
102
RTVSPost2010PropOp52
 70
     0
102
RTVSPost2010Prop53
 90
        2
102
RTVSPost2010PropOp53
 70
     1
102
RTVSPost2010Prop54
  1
strokes_ogs.tif
102
RTVSPost2010PropOp54
 70
     1
102
RTVSPost2010Prop55
280
     0
102
RTVSPost2010PropOp55
 70
     1
102
RTVSPost2010Prop56
140
1.0
102
RTVSPost2010PropOp56
 70
     1
102
RTVSPost2010Prop57
140
1.0
102
RTVSPost2010PropOp57
 70
     1
  0
XRECORD
  5
18C
102
{ACAD_REACTORS
330
18B
102
}
330
18B
100
AcDbXrecord
280
     1
102
RTVSPost2010Prop28
280
     0
102
RTVSPost2010PropOp28
 70
     1
102
RTVSPost2010Prop29
280
     1
102
RTVSPost2010PropOp29
 70
     1
102
RTVSPost2010Prop30
280
     1
102
RTVSPost2010PropOp30
 70
     1
102
RTVSPost2010Prop31
280
     0
102
RTVSPost2010PropOp31
 70
     1
102
RTVSPost2010Prop32
280
     0
102
RTVSPost2010PropOp32
 70
     1
102
RTVSPost2010Prop33
280
     0
102
RTVSPost2010PropOp33
 70
     1
102
RTVSPost2010Prop34
280
     0
102
RTVSPost2010PropOp34
 70
     1
102
RTVSPost2010Prop35
280
     0
102
RTVSPost2010PropOp35
 70
     1
102
RTVSPost2010Prop36
280
     0
102
RTVSPost2010PropOp36
 70
     1
102
RTVSPost2010Prop37
 90
       50
102
RTVSPost2010PropOp37
 70
     1
102
RTVSPost2010Prop38
140
0.0
102
RTVSPost2010PropOp38
 70
     1
102
RTVSPost2010Prop39
140
1.0
102
RTVSPost2010PropOp39
 70
     1
102
RTVSPost2010Prop40
 90
        0
102
RTVSPost2010PropOp40
 70
     1
102
RTVSPost2010Prop41ColorIndex
 90
       18
102
RTVSPost2010Prop41ColorRGB
 90
        0
102
RTVSPost2010PropOp41
 70
     1
102
RTVSPost2010Prop42
 90
       50
102
RTVSPost2010PropOp42
 70
     1
102
RTVSPost2010Prop43
 90
        3
102
RTVSPost2010PropOp43
 70
     1
102
RTVSPost2010Prop44ColorIndex
 90
        5
102
RTVSPost2010Prop44ColorRGB
 90
      255
102
RTVSPost2010PropOp44
 70
     1
102
RTVSPost2010Prop45
280
     0
102
RTVSPost2010PropOp45
 70
     1
102
RTVSPost2010Prop46
 90
       50
102
RTVSPost2010PropOp46
 70
     1
102
RTVSPost2010Prop47
 90
       50
102
RTVSPost2010PropOp47
 70
     1
102
RTVSPost2010Prop48
 90
       50
102
RTVSPost2010PropOp48
 70
     1
102
RTVSPost2010Prop49
280
     0
102
RTVSPost2010PropOp49
 70
     1
102
RTVSPost2010Prop50
 90
       50
102
RTVSPost2010PropOp50
 70
     1
102
RTVSPost2010Prop51ColorIndex
 90
      256
102
RTVSPost2010Prop51ColorRGB
 90
-16777216
102
RTVSPost2010PropOp51
 70
     0
102
RTVSPost2010Prop52
140
1.0
102
RTVSPost2010PropOp52
 70
     0
102
RTVSPost2010Prop53
 90
        2
102
RTVSPost2010PropOp53
 70
     1
102
RTVSPost2010Prop54
  1
strokes_ogs.tif
102
RTVSPost2010PropOp54
 70
     1
102
RTVSPost2010Prop55
280
     0
102
RTVSPost2010PropOp55
 70
     1
102
RTVSPost2010Prop56
140
1.0
102
RTVSPost2010PropOp56
 70
     1
102
RTVSPost2010Prop57
140
1.0
102
RTVSPost2010PropOp57
 70
     1
  0
XRECORD
  5
17E
102
{ACAD_REACTORS
330
17D
102
}
330
17D
100
AcDbXrecord
280
     1
102
RTVSPost2010Prop28
280
     0
102
RTVSPost2010PropOp28
 70
     1
102
RTVSPost2010Prop29
280
     1
102
RTVSPost2010PropOp29
 70
     1
102
RTVSPost2010Prop30
280
     1
102
RTVSPost2010PropOp30
 70
     1
102
RTVSPost2010Prop31
280
     0
102
RTVSPost2010PropOp31
 70
     1
102
RTVSPost2010Prop32
280
     0
102
RTVSPost2010PropOp32
 70
     1
102
RTVSPost2010Prop33
280
     0
102
RTVSPost2010PropOp33
 70
     1
102
RTVSPost2010Prop34
280
     0
102
RTVSPost2010PropOp34
 70
     1
102
RTVSPost2010Prop35
280
     0
102
RTVSPost2010PropOp35
 70
     1
102
RTVSPost2010Prop36
280
     0
102
RTVSPost2010PropOp36
 70
     1
102
RTVSPost2010Prop37
 90
       50
102
RTVSPost2010PropOp37
 70
     1
102
RTVSPost2010Prop38
140
0.0
102
RTVSPost2010PropOp38
 70
     1
102
RTVSPost2010Prop39
140
1.0
102
RTVSPost2010PropOp39
 70
     1
102
RTVSPost2010Prop40
 90
        0
102
RTVSPost2010PropOp40
 70
     1
102
RTVSPost2010Prop41ColorIndex
 90
       18
102
RTVSPost2010Prop41ColorRGB
 90
        0
102
RTVSPost2010PropOp41
 70
     1
102
RTVSPost2010Prop42
 90
       50
102
RTVSPost2010PropOp42
 70
     1
102
RTVSPost2010Prop43
 90
        3
102
RTVSPost2010PropOp43
 70
     1
102
RTVSPost2010Prop44ColorIndex
 90
        5
102
RTVSPost2010Prop44ColorRGB
 90
      255
102
RTVSPost2010PropOp44
 70
     1
102
RTVSPost2010Prop45
280
     0
102
RTVSPost2010PropOp45
 70
     1
102
RTVSPost2010Prop46
 90
       50
102
RTVSPost2010PropOp46
 70
     1
102
RTVSPost2010Prop47
 90
       50
102
RTVSPost2010PropOp47
 70
     1
102
RTVSPost2010Prop48
 90
       50
102
RTVSPost2010PropOp48
 70
     1
102
RTVSPost2010Prop49
280
     0
102
RTVSPost2010PropOp49
 70
     1
102
RTVSPost2010Prop50
 90
       50
102
RTVSPost2010PropOp50
 70
     1
102
RTVSPost2010Prop51ColorIndex
 90
      256
102
RTVSPost2010Prop51ColorRGB
 90
-16777216
102
RTVSPost2010PropOp51
 70
     0
102
RTVSPost2010Prop52
140
1.0
102
RTVSPost2010PropOp52
 70
     0
102
RTVSPost2010Prop53
 90
        2
102
RTVSPost2010PropOp53
 70
     1
102
RTVSPost2010Prop54
  1
strokes_ogs.tif
102
RTVSPost2010PropOp54
 70
     1
102
RTVSPost2010Prop55
280
     0
102
RTVSPost2010PropOp55
 70
     1
102
RTVSPost2010Prop56
140
1.0
102
RTVSPost2010PropOp56
 70
     1
102
RTVSPost2010Prop57
140
1.0
102
RTVSPost2010PropOp57
 70
     1
  0
XRECORD
  5
182
102
{ACAD_REACTORS
330
181
102
}
330
181
100
AcDbXrecord
280
     1
102
RTVSPost2010Prop28
280
     0
102
RTVSPost2010PropOp28
 70
     1
102
RTVSPost2010Prop29
280
     1
102
RTVSPost2010PropOp29
 70
     1
102
RTVSPost2010Prop30
280
     1
102
RTVSPost2010PropOp30
 70
     1
102
RTVSPost2010Prop31
280
     0
102
RTVSPost2010PropOp31
 70
     1
102
RTVSPost2010Prop32
280
     0
102
RTVSPost2010PropOp32
 70
     1
102
RTVSPost2010Prop33
280
     0
102
RTVSPost2010PropOp33
 70
     1
102
RTVSPost2010Prop34
280
     0
102
RTVSPost2010PropOp34
 70
     1
102
RTVSPost2010Prop35
280
     0
102
RTVSPost2010PropOp35
 70
     1
102
RTVSPost2010Prop36
280
     0
102
RTVSPost2010PropOp36
 70
     1
102
RTVSPost2010Prop37
 90
       50
102
RTVSPost2010PropOp37
 70
     1
102
RTVSPost2010Prop38
140
0.0
102
RTVSPost2010PropOp38
 70
     1
102
RTVSPost2010Prop39
140
1.0
102
RTVSPost2010PropOp39
 70
     1
102
RTVSPost2010Prop40
 90
        0
102
RTVSPost2010PropOp40
 70
     1
102
RTVSPost2010Prop41ColorIndex
 90
       18
102
RTVSPost2010Prop41ColorRGB
 90
        0
102
RTVSPost2010PropOp41
 70
     1
102
RTVSPost2010Prop42
 90
       50
102
RTVSPost2010PropOp42
 70
     1
102
RTVSPost2010Prop43
 90
        3
102
RTVSPost2010PropOp43
 70
     1
102
RTVSPost2010Prop44ColorIndex
 90
        5
102
RTVSPost2010Prop44ColorRGB
 90
      255
102
RTVSPost2010PropOp44
 70
     1
102
RTVSPost2010Prop45
280
     0
102
RTVSPost2010PropOp45
 70
     1
102
RTVSPost2010Prop46
 90
       50
102
RTVSPost2010PropOp46
 70
     1
102
RTVSPost2010Prop47
 90
       50
102
RTVSPost2010PropOp47
 70
     1
102
RTVSPost2010Prop48
 90
       50
102
RTVSPost2010PropOp48
 70
     1
102
RTVSPost2010Prop49
280
     0
102
RTVSPost2010PropOp49
 70
     1
102
RTVSPost2010Prop50
 90
       50
102
RTVSPost2010PropOp50
 70
     1
102
RTVSPost2010Prop51ColorIndex
 90
      256
102
RTVSPost2010Prop51ColorRGB
 90
-16777216
102
RTVSPost2010PropOp51
 70
     0
102
RTVSPost2010Prop52
140
1.0
102
RTVSPost2010PropOp52
 70
     0
102
RTVSPost2010Prop53
 90
        2
102
RTVSPost2010PropOp53
 70
     1
102
RTVSPost2010Prop54
  1
strokes_ogs.tif
102
RTVSPost2010PropOp54
 70
     1
102
RTVSPost2010Prop55
280
     0
102
RTVSPost2010PropOp55
 70
     1
102
RTVSPost2010Prop56
140
1.0
102
RTVSPost2010PropOp56
 70
     1
102
RTVSPost2010Prop57
140
1.0
102
RTVSPost2010PropOp57
 70
     1
  0
XRECORD
  5
19C
102
{ACAD_REACTORS
330
19B
102
}
330
19B
100
AcDbXrecord
280
     1
102
RTVSPost2010Prop28
280
     0
102
RTVSPost2010PropOp28
 70
     0
102
RTVSPost2010Prop29
280
     1
102
RTVSPost2010PropOp29
 70
     0
102
RTVSPost2010Prop30
280
     1
102
RTVSPost2010PropOp30
 70
     0
102
RTVSPost2010Prop31
280
     0
102
RTVSPost2010PropOp31
 70
     0
102
RTVSPost2010Prop32
280
     0
102
RTVSPost2010PropOp32
 70
     0
102
RTVSPost2010Prop33
280
     0
102
RTVSPost2010PropOp33
 70
     0
102
RTVSPost2010Prop34
280
     0
102
RTVSPost2010PropOp34
 70
     0
102
RTVSPost2010Prop35
280
     0
102
RTVSPost2010PropOp35
 70
     0
102
RTVSPost2010Prop36
280
     0
102
RTVSPost2010PropOp36
 70
     0
102
RTVSPost2010Prop37
 90
       50
102
RTVSPost2010PropOp37
 70
     0
102
RTVSPost2010Prop38
140
0.0
102
RTVSPost2010PropOp38
 70
     0
102
RTVSPost2010Prop39
140
1.0
102
RTVSPost2010PropOp39
 70
     0
102
RTVSPost2010Prop40
 90
        0
102
RTVSPost2010PropOp40
 70
     0
102
RTVSPost2010Prop41ColorIndex
 90
       18
102
RTVSPost2010Prop41ColorRGB
 90
        0
102
RTVSPost2010PropOp41
 70
     0
102
RTVSPost2010Prop42
 90
       50
102
RTVSPost2010PropOp42
 70
     0
102
RTVSPost2010Prop43
 90
        3
102
RTVSPost2010PropOp43
 70
     0
102
RTVSPost2010Prop44ColorIndex
 90
        5
102
RTVSPost2010Prop44ColorRGB
 90
      255
102
RTVSPost2010PropOp44
 70
     0
102
RTVSPost2010Prop45
280
     0
102
RTVSPost2010PropOp45
 70
     0
102
RTVSPost2010Prop46
 90
       50
102
RTVSPost2010PropOp46
 70
     0
102
RTVSPost2010Prop47
 90
       50
102
RTVSPost2010PropOp47
 70
     0
102
RTVSPost2010Prop48
 90
       50
102
RTVSPost2010PropOp48
 70
     0
102
RTVSPost2010Prop49
280
     0
102
RTVSPost2010PropOp49
 70
     0
102
RTVSPost2010Prop50
 90
       50
102
RTVSPost2010PropOp50
 70
     0
102
RTVSPost2010Prop51ColorIndex
 90
      256
102
RTVSPost2010Prop51ColorRGB
 90
-16777216
102
RTVSPost2010PropOp51
 70
     0
102
RTVSPost2010Prop52
140
1.0
102
RTVSPost2010PropOp52
 70
     0
102
RTVSPost2010Prop53
 90
        2
102
RTVSPost2010PropOp53
 70
     0
102
RTVSPost2010Prop54
  1
strokes_ogs.tif
102
RTVSPost2010PropOp54
 70
     0
102
RTVSPost2010Prop55
280
     0
102
RTVSPost2010PropOp55
 70
     0
102
RTVSPost2010Prop56
140
1.0
102
RTVSPost2010PropOp56
 70
     0
102
RTVSPost2010Prop57
140
1.0
102
RTVSPost2010PropOp57
 70
     0
  0
XRECORD
  5
18A
102
{ACAD_REACTORS
330
189
102
}
330
189
100
AcDbXrecord
280
     1
102
RTVSPost2010Prop28
280
     0
102
RTVSPost2010PropOp28
 70
     1
102
RTVSPost2010Prop29
280
     1
102
RTVSPost2010PropOp29
 70
     1
102
RTVSPost2010Prop30
280
     1
102
RTVSPost2010PropOp30
 70
     1
102
RTVSPost2010Prop31
280
     0
102
RTVSPost2010PropOp31
 70
     1
102
RTVSPost2010Prop32
280
     0
102
RTVSPost2010PropOp32
 70
     1
102
RTVSPost2010Prop33
280
     0
102
RTVSPost2010PropOp33
 70
     1
102
RTVSPost2010Prop34
280
     0
102
RTVSPost2010PropOp34
 70
     1
102
RTVSPost2010Prop35
280
     0
102
RTVSPost2010PropOp35
 70
     1
102
RTVSPost2010Prop36
280
     0
102
RTVSPost2010PropOp36
 70
     1
102
RTVSPost2010Prop37
 90
       50
102
RTVSPost2010PropOp37
 70
     1
102
RTVSPost2010Prop38
140
0.0
102
RTVSPost2010PropOp38
 70
     1
102
RTVSPost2010Prop39
140
1.0
102
RTVSPost2010PropOp39
 70
     1
102
RTVSPost2010Prop40
 90
        0
102
RTVSPost2010PropOp40
 70
     1
102
RTVSPost2010Prop41ColorIndex
 90
       18
102
RTVSPost2010Prop41ColorRGB
 90
        0
102
RTVSPost2010PropOp41
 70
     1
102
RTVSPost2010Prop42
 90
       50
102
RTVSPost2010PropOp42
 70
     1
102
RTVSPost2010Prop43
 90
        3
102
RTVSPost2010PropOp43
 70
     1
102
RTVSPost2010Prop44ColorIndex
 90
        5
102
RTVSPost2010Prop44ColorRGB
 90
      255
102
RTVSPost2010PropOp44
 70
     1
102
RTVSPost2010Prop45
280
     0
102
RTVSPost2010PropOp45
 70
     1
102
RTVSPost2010Prop46
 90
       50
102
RTVSPost2010PropOp46
 70
     1
102
RTVSPost2010Prop47
 90
       50
102
RTVSPost2010PropOp47
 70
     1
102
RTVSPost2010Prop48
 90
       50
102
RTVSPost2010PropOp48
 70
     1
102
RTVSPost2010Prop49
280
     0
102
RTVSPost2010PropOp49
 70
     1
102
RTVSPost2010Prop50
 90
       50
102
RTVSPost2010PropOp50
 70
     1
102
RTVSPost2010Prop51ColorIndex
 90
      256
102
RTVSPost2010Prop51ColorRGB
 90
-16777216
102
RTVSPost2010PropOp51
 70
     0
102
RTVSPost2010Prop52
140
1.0
102
RTVSPost2010PropOp52
 70
     0
102
RTVSPost2010Prop53
 90
        2
102
RTVSPost2010PropOp53
 70
     1
102
RTVSPost2010Prop54
  1
strokes_ogs.tif
102
RTVSPost2010PropOp54
 70
     1
102
RTVSPost2010Prop55
280
     0
102
RTVSPost2010PropOp55
 70
     1
102
RTVSPost2010Prop56
140
1.0
102
RTVSPost2010PropOp56
 70
     1
102
RTVSPost2010Prop57
140
1.0
102
RTVSPost2010PropOp57
 70
     1
  0
XRECORD
  5
16E
102
{ACAD_REACTORS
330
16D
102
}
330
16D
100
AcDbXrecord
280
     1
102
RTVSPost2010Prop28
280
     0
102
RTVSPost2010PropOp28
 70
     1
102
RTVSPost2010Prop29
280
     1
102
RTVSPost2010PropOp29
 70
     1
102
RTVSPost2010Prop30
280
     1
102
RTVSPost2010PropOp30
 70
     1
102
RTVSPost2010Prop31
280
     0
102
RTVSPost2010PropOp31
 70
     1
102
RTVSPost2010Prop32
280
     0
102
RTVSPost2010PropOp32
 70
     1
102
RTVSPost2010Prop33
280
     0
102
RTVSPost2010PropOp33
 70
     1
102
RTVSPost2010Prop34
280
     0
102
RTVSPost2010PropOp34
 70
     1
102
RTVSPost2010Prop35
280
     0
102
RTVSPost2010PropOp35
 70
     1
102
RTVSPost2010Prop36
280
     0
102
RTVSPost2010PropOp36
 70
     1
102
RTVSPost2010Prop37
 90
       50
102
RTVSPost2010PropOp37
 70
     1
102
RTVSPost2010Prop38
140
0.0
102
RTVSPost2010PropOp38
 70
     1
102
RTVSPost2010Prop39
140
1.0
102
RTVSPost2010PropOp39
 70
     1
102
RTVSPost2010Prop40
 90
        0
102
RTVSPost2010PropOp40
 70
     1
102
RTVSPost2010Prop41ColorIndex
 90
       18
102
RTVSPost2010Prop41ColorRGB
 90
        0
102
RTVSPost2010PropOp41
 70
     1
102
RTVSPost2010Prop42
 90
       50
102
RTVSPost2010PropOp42
 70
     1
102
RTVSPost2010Prop43
 90
        3
102
RTVSPost2010PropOp43
 70
     1
102
RTVSPost2010Prop44ColorIndex
 90
        5
102
RTVSPost2010Prop44ColorRGB
 90
      255
102
RTVSPost2010PropOp44
 70
     1
102
RTVSPost2010Prop45
280
     0
102
RTVSPost2010PropOp45
 70
     1
102
RTVSPost2010Prop46
 90
       50
102
RTVSPost2010PropOp46
 70
     1
102
RTVSPost2010Prop47
 90
       50
102
RTVSPost2010PropOp47
 70
     1
102
RTVSPost2010Prop48
 90
       50
102
RTVSPost2010PropOp48
 70
     1
102
RTVSPost2010Prop49
280
     0
102
RTVSPost2010PropOp49
 70
     1
102
RTVSPost2010Prop50
 90
       50
102
RTVSPost2010PropOp50
 70
     1
102
RTVSPost2010Prop51ColorIndex
 90
      256
102
RTVSPost2010Prop51ColorRGB
 90
-16777216
102
RTVSPost2010PropOp51
 70
     0
102
RTVSPost2010Prop52
140
1.0
102
RTVSPost2010PropOp52
 70
     0
102
RTVSPost2010Prop53
 90
        2
102
RTVSPost2010PropOp53
 70
     1
102
RTVSPost2010Prop54
  1
strokes_ogs.tif
102
RTVSPost2010PropOp54
 70
     1
102
RTVSPost2010Prop55
280
     0
102
RTVSPost2010PropOp55
 70
     1
102
RTVSPost2010Prop56
140
1.0
102
RTVSPost2010PropOp56
 70
     1
102
RTVSPost2010Prop57
140
1.0
102
RTVSPost2010PropOp57
 70
     1
  0
XRECORD
  5
170
102
{ACAD_REACTORS
330
16F
102
}
330
16F
100
AcDbXrecord
280
     1
102
RTVSPost2010Prop28
280
     0
102
RTVSPost2010PropOp28
 70
     1
102
RTVSPost2010Prop29
280
     1
102
RTVSPost2010PropOp29
 70
     1
102
RTVSPost2010Prop30
280
     1
102
RTVSPost2010PropOp30
 70
     1
102
RTVSPost2010Prop31
280
     0
102
RTVSPost2010PropOp31
 70
     1
102
RTVSPost2010Prop32
280
     0
102
RTVSPost2010PropOp32
 70
     1
102
RTVSPost2010Prop33
280
     0
102
RTVSPost2010PropOp33
 70
     1
102
RTVSPost2010Prop34
280
     0
102
RTVSPost2010PropOp34
 70
     1
102
RTVSPost2010Prop35
280
     0
102
RTVSPost2010PropOp35
 70
     1
102
RTVSPost2010Prop36
280
     0
102
RTVSPost2010PropOp36
 70
     1
102
RTVSPost2010Prop37
 90
       50
102
RTVSPost2010PropOp37
 70
     1
102
RTVSPost2010Prop38
140
0.0
102
RTVSPost2010PropOp38
 70
     1
102
RTVSPost2010Prop39
140
1.0
102
RTVSPost2010PropOp39
 70
     1
102
RTVSPost2010Prop40
 90
        0
102
RTVSPost2010PropOp40
 70
     1
102
RTVSPost2010Prop41ColorIndex
 90
       18
102
RTVSPost2010Prop41ColorRGB
 90
        0
102
RTVSPost2010PropOp41
 70
     1
102
RTVSPost2010Prop42
 90
       50
102
RTVSPost2010PropOp42
 70
     1
102
RTVSPost2010Prop43
 90
        3
102
RTVSPost2010PropOp43
 70
     1
102
RTVSPost2010Prop44ColorIndex
 90
        5
102
RTVSPost2010Prop44ColorRGB
 90
      255
102
RTVSPost2010PropOp44
 70
     1
102
RTVSPost2010Prop45
280
     0
102
RTVSPost2010PropOp45
 70
     1
102
RTVSPost2010Prop46
 90
       50
102
RTVSPost2010PropOp46
 70
     1
102
RTVSPost2010Prop47
 90
       50
102
RTVSPost2010PropOp47
 70
     1
102
RTVSPost2010Prop48
 90
       50
102
RTVSPost2010PropOp48
 70
     1
102
RTVSPost2010Prop49
280
     0
102
RTVSPost2010PropOp49
 70
     1
102
RTVSPost2010Prop50
 90
       50
102
RTVSPost2010PropOp50
 70
     1
102
RTVSPost2010Prop51ColorIndex
 90
      256
102
RTVSPost2010Prop51ColorRGB
 90
-16777216
102
RTVSPost2010PropOp51
 70
     0
102
RTVSPost2010Prop52
140
1.0
102
RTVSPost2010PropOp52
 70
     0
102
RTVSPost2010Prop53
 90
        2
102
RTVSPost2010PropOp53
 70
     1
102
RTVSPost2010Prop54
  1
strokes_ogs.tif
102
RTVSPost2010PropOp54
 70
     1
102
RTVSPost2010Prop55
280
     0
102
RTVSPost2010PropOp55
 70
     1
102
RTVSPost2010Prop56
140
1.0
102
RTVSPost2010PropOp56
 70
     1
102
RTVSPost2010Prop57
140
1.0
102
RTVSPost2010PropOp57
 70
     1
  0
XRECORD
  5
172
102
{ACAD_REACTORS
330
171
102
}
330
171
100
AcDbXrecord
280
     1
102
RTVSPost2010Prop28
280
     0
102
RTVSPost2010PropOp28
 70
     1
102
RTVSPost2010Prop29
280
     1
102
RTVSPost2010PropOp29
 70
     1
102
RTVSPost2010Prop30
280
     1
102
RTVSPost2010PropOp30
 70
     1
102
RTVSPost2010Prop31
280
     0
102
RTVSPost2010PropOp31
 70
     1
102
RTVSPost2010Prop32
280
     0
102
RTVSPost2010PropOp32
 70
     1
102
RTVSPost2010Prop33
280
     0
102
RTVSPost2010PropOp33
 70
     1
102
RTVSPost2010Prop34
280
     0
102
RTVSPost2010PropOp34
 70
     1
102
RTVSPost2010Prop35
280
     0
102
RTVSPost2010PropOp35
 70
     1
102
RTVSPost2010Prop36
280
     0
102
RTVSPost2010PropOp36
 70
     1
102
RTVSPost2010Prop37
 90
       50
102
RTVSPost2010PropOp37
 70
     1
102
RTVSPost2010Prop38
140
0.0
102
RTVSPost2010PropOp38
 70
     1
102
RTVSPost2010Prop39
140
1.0
102
RTVSPost2010PropOp39
 70
     1
102
RTVSPost2010Prop40
 90
        0
102
RTVSPost2010PropOp40
 70
     1
102
RTVSPost2010Prop41ColorIndex
 90
       18
102
RTVSPost2010Prop41ColorRGB
 90
        0
102
RTVSPost2010PropOp41
 70
     1
102
RTVSPost2010Prop42
 90
       50
102
RTVSPost2010PropOp42
 70
     1
102
RTVSPost2010Prop43
 90
        3
102
RTVSPost2010PropOp43
 70
     1
102
RTVSPost2010Prop44ColorIndex
 90
        5
102
RTVSPost2010Prop44ColorRGB
 90
      255
102
RTVSPost2010PropOp44
 70
     1
102
RTVSPost2010Prop45
280
     0
102
RTVSPost2010PropOp45
 70
     1
102
RTVSPost2010Prop46
 90
       50
102
RTVSPost2010PropOp46
 70
     1
102
RTVSPost2010Prop47
 90
       50
102
RTVSPost2010PropOp47
 70
     1
102
RTVSPost2010Prop48
 90
       50
102
RTVSPost2010PropOp48
 70
     1
102
RTVSPost2010Prop49
280
     0
102
RTVSPost2010PropOp49
 70
     1
102
RTVSPost2010Prop50
 90
       50
102
RTVSPost2010PropOp50
 70
     1
102
RTVSPost2010Prop51ColorIndex
 90
      256
102
RTVSPost2010Prop51ColorRGB
 90
-16777216
102
RTVSPost2010PropOp51
 70
     0
102
RTVSPost2010Prop52
140
1.0
102
RTVSPost2010PropOp52
 70
     0
102
RTVSPost2010Prop53
 90
        2
102
RTVSPost2010PropOp53
 70
     1
102
RTVSPost2010Prop54
  1
strokes_ogs.tif
102
RTVSPost2010PropOp54
 70
     1
102
RTVSPost2010Prop55
280
     0
102
RTVSPost2010PropOp55
 70
     1
102
RTVSPost2010Prop56
140
1.0
102
RTVSPost2010PropOp56
 70
     1
102
RTVSPost2010Prop57
140
1.0
102
RTVSPost2010PropOp57
 70
     1
  0
XRECORD
  5
174
102
{ACAD_REACTORS
330
173
102
}
330
173
100
AcDbXrecord
280
     1
102
RTVSPost2010Prop28
280
     0
102
RTVSPost2010PropOp28
 70
     1
102
RTVSPost2010Prop29
280
     1
102
RTVSPost2010PropOp29
 70
     1
102
RTVSPost2010Prop30
280
     1
102
RTVSPost2010PropOp30
 70
     1
102
RTVSPost2010Prop31
280
     0
102
RTVSPost2010PropOp31
 70
     1
102
RTVSPost2010Prop32
280
     0
102
RTVSPost2010PropOp32
 70
     1
102
RTVSPost2010Prop33
280
     0
102
RTVSPost2010PropOp33
 70
     1
102
RTVSPost2010Prop34
280
     0
102
RTVSPost2010PropOp34
 70
     1
102
RTVSPost2010Prop35
280
     0
102
RTVSPost2010PropOp35
 70
     1
102
RTVSPost2010Prop36
280
     0
102
RTVSPost2010PropOp36
 70
     1
102
RTVSPost2010Prop37
 90
       50
102
RTVSPost2010PropOp37
 70
     1
102
RTVSPost2010Prop38
140
0.0
102
RTVSPost2010PropOp38
 70
     1
102
RTVSPost2010Prop39
140
1.0
102
RTVSPost2010PropOp39
 70
     1
102
RTVSPost2010Prop40
 90
        0
102
RTVSPost2010PropOp40
 70
     1
102
RTVSPost2010Prop41ColorIndex
 90
       18
102
RTVSPost2010Prop41ColorRGB
 90
        0
102
RTVSPost2010PropOp41
 70
     1
102
RTVSPost2010Prop42
 90
       50
102
RTVSPost2010PropOp42
 70
     1
102
RTVSPost2010Prop43
 90
        3
102
RTVSPost2010PropOp43
 70
     1
102
RTVSPost2010Prop44ColorIndex
 90
        5
102
RTVSPost2010Prop44ColorRGB
 90
      255
102
RTVSPost2010PropOp44
 70
     1
102
RTVSPost2010Prop45
280
     0
102
RTVSPost2010PropOp45
 70
     1
102
RTVSPost2010Prop46
 90
       50
102
RTVSPost2010PropOp46
 70
     1
102
RTVSPost2010Prop47
 90
       50
102
RTVSPost2010PropOp47
 70
     1
102
RTVSPost2010Prop48
 90
       50
102
RTVSPost2010PropOp48
 70
     1
102
RTVSPost2010Prop49
280
     0
102
RTVSPost2010PropOp49
 70
     1
102
RTVSPost2010Prop50
 90
       50
102
RTVSPost2010PropOp50
 70
     1
102
RTVSPost2010Prop51ColorIndex
 90
      256
102
RTVSPost2010Prop51ColorRGB
 90
-16777216
102
RTVSPost2010PropOp51
 70
     0
102
RTVSPost2010Prop52
140
1.0
102
RTVSPost2010PropOp52
 70
     0
102
RTVSPost2010Prop53
 90
        2
102
RTVSPost2010PropOp53
 70
     1
102
RTVSPost2010Prop54
  1
strokes_ogs.tif
102
RTVSPost2010PropOp54
 70
     1
102
RTVSPost2010Prop55
280
     0
102
RTVSPost2010PropOp55
 70
     1
102
RTVSPost2010Prop56
140
1.0
102
RTVSPost2010PropOp56
 70
     1
102
RTVSPost2010Prop57
140
1.0
102
RTVSPost2010PropOp57
 70
     1
  0
XRECORD
  5
17C
102
{ACAD_REACTORS
330
17B
102
}
330
17B
100
AcDbXrecord
280
     1
102
RTVSPost2010Prop28
280
     0
102
RTVSPost2010PropOp28
 70
     1
102
RTVSPost2010Prop29
280
     1
102
RTVSPost2010PropOp29
 70
     1
102
RTVSPost2010Prop30
280
     1
102
RTVSPost2010PropOp30
 70
     1
102
RTVSPost2010Prop31
280
     0
102
RTVSPost2010PropOp31
 70
     1
102
RTVSPost2010Prop32
280
     0
102
RTVSPost2010PropOp32
 70
     1
102
RTVSPost2010Prop33
280
     0
102
RTVSPost2010PropOp33
 70
     1
102
RTVSPost2010Prop34
280
     0
102
RTVSPost2010PropOp34
 70
     1
102
RTVSPost2010Prop35
280
     0
102
RTVSPost2010PropOp35
 70
     1
102
RTVSPost2010Prop36
280
     0
102
RTVSPost2010PropOp36
 70
     1
102
RTVSPost2010Prop37
 90
       50
102
RTVSPost2010PropOp37
 70
     1
102
RTVSPost2010Prop38
140
0.0
102
RTVSPost2010PropOp38
 70
     1
102
RTVSPost2010Prop39
140
1.0
102
RTVSPost2010PropOp39
 70
     1
102
RTVSPost2010Prop40
 90
        0
102
RTVSPost2010PropOp40
 70
     1
102
RTVSPost2010Prop41ColorIndex
 90
       18
102
RTVSPost2010Prop41ColorRGB
 90
        0
102
RTVSPost2010PropOp41
 70
     1
102
RTVSPost2010Prop42
 90
       50
102
RTVSPost2010PropOp42
 70
     1
102
RTVSPost2010Prop43
 90
        3
102
RTVSPost2010PropOp43
 70
     1
102
RTVSPost2010Prop44ColorIndex
 90
        5
102
RTVSPost2010Prop44ColorRGB
 90
      255
102
RTVSPost2010PropOp44
 70
     1
102
RTVSPost2010Prop45
280
     0
102
RTVSPost2010PropOp45
 70
     1
102
RTVSPost2010Prop46
 90
       50
102
RTVSPost2010PropOp46
 70
     1
102
RTVSPost2010Prop47
 90
       50
102
RTVSPost2010PropOp47
 70
     1
102
RTVSPost2010Prop48
 90
       50
102
RTVSPost2010PropOp48
 70
     1
102
RTVSPost2010Prop49
280
     0
102
RTVSPost2010PropOp49
 70
     1
102
RTVSPost2010Prop50
 90
       50
102
RTVSPost2010PropOp50
 70
     1
102
RTVSPost2010Prop51ColorIndex
 90
      256
102
RTVSPost2010Prop51ColorRGB
 90
-16777216
102
RTVSPost2010PropOp51
 70
     0
102
RTVSPost2010Prop52
140
1.0
102
RTVSPost2010PropOp52
 70
     0
102
RTVSPost2010Prop53
 90
        2
102
RTVSPost2010PropOp53
 70
     1
102
RTVSPost2010Prop54
  1
strokes_ogs.tif
102
RTVSPost2010PropOp54
 70
     1
102
RTVSPost2010Prop55
280
     0
102
RTVSPost2010PropOp55
 70
     1
102
RTVSPost2010Prop56
140
1.0
102
RTVSPost2010PropOp56
 70
     1
102
RTVSPost2010Prop57
140
1.0
102
RTVSPost2010PropOp57
 70
     1
  0
XRECORD
  5
198
102
{ACAD_REACTORS
330
197
102
}
330
197
100
AcDbXrecord
280
     1
102
RTVSPost2010Prop28
280
     0
102
RTVSPost2010PropOp28
 70
     0
102
RTVSPost2010Prop29
280
     1
102
RTVSPost2010PropOp29
 70
     0
102
RTVSPost2010Prop30
280
     1
102
RTVSPost2010PropOp30
 70
     0
102
RTVSPost2010Prop31
280
     0
102
RTVSPost2010PropOp31
 70
     0
102
RTVSPost2010Prop32
280
     0
102
RTVSPost2010PropOp32
 70
     0
102
RTVSPost2010Prop33
280
     0
102
RTVSPost2010PropOp33
 70
     0
102
RTVSPost2010Prop34
280
     0
102
RTVSPost2010PropOp34
 70
     0
102
RTVSPost2010Prop35
280
     0
102
RTVSPost2010PropOp35
 70
     0
102
RTVSPost2010Prop36
280
     0
102
RTVSPost2010PropOp36
 70
     0
102
RTVSPost2010Prop37
 90
       50
102
RTVSPost2010PropOp37
 70
     0
102
RTVSPost2010Prop38
140
0.0
102
RTVSPost2010PropOp38
 70
     0
102
RTVSPost2010Prop39
140
1.0
102
RTVSPost2010PropOp39
 70
     0
102
RTVSPost2010Prop40
 90
        0
102
RTVSPost2010PropOp40
 70
     0
102
RTVSPost2010Prop41ColorIndex
 90
       18
102
RTVSPost2010Prop41ColorRGB
 90
        0
102
RTVSPost2010PropOp41
 70
     0
102
RTVSPost2010Prop42
 90
       50
102
RTVSPost2010PropOp42
 70
     0
102
RTVSPost2010Prop43
 90
        3
102
RTVSPost2010PropOp43
 70
     0
102
RTVSPost2010Prop44ColorIndex
 90
        5
102
RTVSPost2010Prop44ColorRGB
 90
      255
102
RTVSPost2010PropOp44
 70
     0
102
RTVSPost2010Prop45
280
     0
102
RTVSPost2010PropOp45
 70
     0
102
RTVSPost2010Prop46
 90
       50
102
RTVSPost2010PropOp46
 70
     0
102
RTVSPost2010Prop47
 90
       50
102
RTVSPost2010PropOp47
 70
     0
102
RTVSPost2010Prop48
 90
       50
102
RTVSPost2010PropOp48
 70
     0
102
RTVSPost2010Prop49
280
     0
102
RTVSPost2010PropOp49
 70
     0
102
RTVSPost2010Prop50
 90
       50
102
RTVSPost2010PropOp50
 70
     0
102
RTVSPost2010Prop51ColorIndex
 90
      256
102
RTVSPost2010Prop51ColorRGB
 90
-16777216
102
RTVSPost2010PropOp51
 70
     0
102
RTVSPost2010Prop52
140
1.0
102
RTVSPost2010PropOp52
 70
     0
102
RTVSPost2010Prop53
 90
        2
102
RTVSPost2010PropOp53
 70
     0
102
RTVSPost2010Prop54
  1
strokes_ogs.tif
102
RTVSPost2010PropOp54
 70
     0
102
RTVSPost2010Prop55
280
     0
102
RTVSPost2010PropOp55
 70
     0
102
RTVSPost2010Prop56
140
1.0
102
RTVSPost2010PropOp56
 70
     0
102
RTVSPost2010Prop57
140
1.0
102
RTVSPost2010PropOp57
 70
     0
  0
XRECORD
  5
188
102
{ACAD_REACTORS
330
187
102
}
330
187
100
AcDbXrecord
280
     1
102
RTVSPost2010Prop28
280
     0
102
RTVSPost2010PropOp28
 70
     1
102
RTVSPost2010Prop29
280
     1
102
RTVSPost2010PropOp29
 70
     1
102
RTVSPost2010Prop30
280
     1
102
RTVSPost2010PropOp30
 70
     1
102
RTVSPost2010Prop31
280
     0
102
RTVSPost2010PropOp31
 70
     1
102
RTVSPost2010Prop32
280
     0
102
RTVSPost2010PropOp32
 70
     1
102
RTVSPost2010Prop33
280
     0
102
RTVSPost2010PropOp33
 70
     1
102
RTVSPost2010Prop34
280
     0
102
RTVSPost2010PropOp34
 70
     1
102
RTVSPost2010Prop35
280
     0
102
RTVSPost2010PropOp35
 70
     1
102
RTVSPost2010Prop36
280
     0
102
RTVSPost2010PropOp36
 70
     1
102
RTVSPost2010Prop37
 90
       50
102
RTVSPost2010PropOp37
 70
     1
102
RTVSPost2010Prop38
140
0.0
102
RTVSPost2010PropOp38
 70
     1
102
RTVSPost2010Prop39
140
1.0
102
RTVSPost2010PropOp39
 70
     1
102
RTVSPost2010Prop40
 90
        0
102
RTVSPost2010PropOp40
 70
     1
102
RTVSPost2010Prop41ColorIndex
 90
       18
102
RTVSPost2010Prop41ColorRGB
 90
        0
102
RTVSPost2010PropOp41
 70
     1
102
RTVSPost2010Prop42
 90
       50
102
RTVSPost2010PropOp42
 70
     1
102
RTVSPost2010Prop43
 90
        3
102
RTVSPost2010PropOp43
 70
     1
102
RTVSPost2010Prop44ColorIndex
 90
        5
102
RTVSPost2010Prop44ColorRGB
 90
      255
102
RTVSPost2010PropOp44
 70
     1
102
RTVSPost2010Prop45
280
     0
102
RTVSPost2010PropOp45
 70
     1
102
RTVSPost2010Prop46
 90
       50
102
RTVSPost2010PropOp46
 70
     1
102
RTVSPost2010Prop47
 90
       50
102
RTVSPost2010PropOp47
 70
     1
102
RTVSPost2010Prop48
 90
       50
102
RTVSPost2010PropOp48
 70
     1
102
RTVSPost2010Prop49
280
     0
102
RTVSPost2010PropOp49
 70
     1
102
RTVSPost2010Prop50
 90
       50
102
RTVSPost2010PropOp50
 70
     1
102
RTVSPost2010Prop51ColorIndex
 90
      256
102
RTVSPost2010Prop51ColorRGB
 90
-16777216
102
RTVSPost2010PropOp51
 70
     0
102
RTVSPost2010Prop52
140
1.0
102
RTVSPost2010PropOp52
 70
     0
102
RTVSPost2010Prop53
 90
        2
102
RTVSPost2010PropOp53
 70
     1
102
RTVSPost2010Prop54
  1
strokes_ogs.tif
102
RTVSPost2010PropOp54
 70
     1
102
RTVSPost2010Prop55
280
     0
102
RTVSPost2010PropOp55
 70
     1
102
RTVSPost2010Prop56
140
1.0
102
RTVSPost2010PropOp56
 70
     1
102
RTVSPost2010Prop57
140
1.0
102
RTVSPost2010PropOp57
 70
     1
  0
XRECORD
  5
19A
102
{ACAD_REACTORS
330
199
102
}
330
199
100
AcDbXrecord
280
     1
102
RTVSPost2010Prop28
280
     0
102
RTVSPost2010PropOp28
 70
     0
102
RTVSPost2010Prop29
280
     1
102
RTVSPost2010PropOp29
 70
     0
102
RTVSPost2010Prop30
280
     1
102
RTVSPost2010PropOp30
 70
     0
102
RTVSPost2010Prop31
280
     0
102
RTVSPost2010PropOp31
 70
     0
102
RTVSPost2010Prop32
280
     0
102
RTVSPost2010PropOp32
 70
     0
102
RTVSPost2010Prop33
280
     0
102
RTVSPost2010PropOp33
 70
     0
102
RTVSPost2010Prop34
280
     0
102
RTVSPost2010PropOp34
 70
     0
102
RTVSPost2010Prop35
280
     0
102
RTVSPost2010PropOp35
 70
     0
102
RTVSPost2010Prop36
280
     0
102
RTVSPost2010PropOp36
 70
     0
102
RTVSPost2010Prop37
 90
       50
102
RTVSPost2010PropOp37
 70
     0
102
RTVSPost2010Prop38
140
0.0
102
RTVSPost2010PropOp38
 70
     0
102
RTVSPost2010Prop39
140
1.0
102
RTVSPost2010PropOp39
 70
     0
102
RTVSPost2010Prop40
 90
        0
102
RTVSPost2010PropOp40
 70
     0
102
RTVSPost2010Prop41ColorIndex
 90
       18
102
RTVSPost2010Prop41ColorRGB
 90
        0
102
RTVSPost2010PropOp41
 70
     0
102
RTVSPost2010Prop42
 90
       50
102
RTVSPost2010PropOp42
 70
     0
102
RTVSPost2010Prop43
 90
        3
102
RTVSPost2010PropOp43
 70
     0
102
RTVSPost2010Prop44ColorIndex
 90
        5
102
RTVSPost2010Prop44ColorRGB
 90
      255
102
RTVSPost2010PropOp44
 70
     0
102
RTVSPost2010Prop45
280
     0
102
RTVSPost2010PropOp45
 70
     0
102
RTVSPost2010Prop46
 90
       50
102
RTVSPost2010PropOp46
 70
     0
102
RTVSPost2010Prop47
 90
       50
102
RTVSPost2010PropOp47
 70
     0
102
RTVSPost2010Prop48
 90
       50
102
RTVSPost2010PropOp48
 70
     0
102
RTVSPost2010Prop49
280
     0
102
RTVSPost2010PropOp49
 70
     0
102
RTVSPost2010Prop50
 90
       50
102
RTVSPost2010PropOp50
 70
     0
102
RTVSPost2010Prop51ColorIndex
 90
      256
102
RTVSPost2010Prop51ColorRGB
 90
-16777216
102
RTVSPost2010PropOp51
 70
     0
102
RTVSPost2010Prop52
140
1.0
102
RTVSPost2010PropOp52
 70
     0
102
RTVSPost2010Prop53
 90
        2
102
RTVSPost2010PropOp53
 70
     0
102
RTVSPost2010Prop54
  1
strokes_ogs.tif
102
RTVSPost2010PropOp54
 70
     0
102
RTVSPost2010Prop55
280
     0
102
RTVSPost2010PropOp55
 70
     0
102
RTVSPost2010Prop56
140
1.0
102
RTVSPost2010PropOp56
 70
     0
102
RTVSPost2010Prop57
140
1.0
102
RTVSPost2010PropOp57
 70
     0
  0
XRECORD
  5
180
102
{ACAD_REACTORS
330
17F
102
}
330
17F
100
AcDbXrecord
280
     1
102
RTVSPost2010Prop28
280
     0
102
RTVSPost2010PropOp28
 70
     1
102
RTVSPost2010Prop29
280
     1
102
RTVSPost2010PropOp29
 70
     1
102
RTVSPost2010Prop30
280
     1
102
RTVSPost2010PropOp30
 70
     1
102
RTVSPost2010Prop31
280
     0
102
RTVSPost2010PropOp31
 70
     1
102
RTVSPost2010Prop32
280
     0
102
RTVSPost2010PropOp32
 70
     1
102
RTVSPost2010Prop33
280
     0
102
RTVSPost2010PropOp33
 70
     1
102
RTVSPost2010Prop34
280
     0
102
RTVSPost2010PropOp34
 70
     1
102
RTVSPost2010Prop35
280
     0
102
RTVSPost2010PropOp35
 70
     1
102
RTVSPost2010Prop36
280
     0
102
RTVSPost2010PropOp36
 70
     1
102
RTVSPost2010Prop37
 90
       50
102
RTVSPost2010PropOp37
 70
     1
102
RTVSPost2010Prop38
140
0.0
102
RTVSPost2010PropOp38
 70
     1
102
RTVSPost2010Prop39
140
1.0
102
RTVSPost2010PropOp39
 70
     1
102
RTVSPost2010Prop40
 90
        0
102
RTVSPost2010PropOp40
 70
     1
102
RTVSPost2010Prop41ColorIndex
 90
       18
102
RTVSPost2010Prop41ColorRGB
 90
        0
102
RTVSPost2010PropOp41
 70
     1
102
RTVSPost2010Prop42
 90
       50
102
RTVSPost2010PropOp42
 70
     1
102
RTVSPost2010Prop43
 90
        3
102
RTVSPost2010PropOp43
 70
     1
102
RTVSPost2010Prop44ColorIndex
 90
        5
102
RTVSPost2010Prop44ColorRGB
 90
      255
102
RTVSPost2010PropOp44
 70
     1
102
RTVSPost2010Prop45
280
     0
102
RTVSPost2010PropOp45
 70
     1
102
RTVSPost2010Prop46
 90
       50
102
RTVSPost2010PropOp46
 70
     1
102
RTVSPost2010Prop47
 90
       50
102
RTVSPost2010PropOp47
 70
     1
102
RTVSPost2010Prop48
 90
       50
102
RTVSPost2010PropOp48
 70
     1
102
RTVSPost2010Prop49
280
     0
102
RTVSPost2010PropOp49
 70
     1
102
RTVSPost2010Prop50
 90
       50
102
RTVSPost2010PropOp50
 70
     1
102
RTVSPost2010Prop51ColorIndex
 90
      256
102
RTVSPost2010Prop51ColorRGB
 90
-16777216
102
RTVSPost2010PropOp51
 70
     0
102
RTVSPost2010Prop52
140
1.0
102
RTVSPost2010PropOp52
 70
     0
102
RTVSPost2010Prop53
 90
        2
102
RTVSPost2010PropOp53
 70
     1
102
RTVSPost2010Prop54
  1
strokes_ogs.tif
102
RTVSPost2010PropOp54
 70
     1
102
RTVSPost2010Prop55
280
     0
102
RTVSPost2010PropOp55
 70
     1
102
RTVSPost2010Prop56
140
1.0
102
RTVSPost2010PropOp56
 70
     1
102
RTVSPost2010Prop57
140
1.0
102
RTVSPost2010PropOp57
 70
     1
  0
XRECORD
  5
196
102
{ACAD_REACTORS
330
195
102
}
330
195
100
AcDbXrecord
280
     1
102
RTVSPost2010Prop28
280
     0
102
RTVSPost2010PropOp28
 70
     1
102
RTVSPost2010Prop29
280
     1
102
RTVSPost2010PropOp29
 70
     1
102
RTVSPost2010Prop30
280
     1
102
RTVSPost2010PropOp30
 70
     1
102
RTVSPost2010Prop31
280
     0
102
RTVSPost2010PropOp31
 70
     1
102
RTVSPost2010Prop32
280
     0
102
RTVSPost2010PropOp32
 70
     1
102
RTVSPost2010Prop33
280
     0
102
RTVSPost2010PropOp33
 70
     1
102
RTVSPost2010Prop34
280
     0
102
RTVSPost2010PropOp34
 70
     1
102
RTVSPost2010Prop35
280
     0
102
RTVSPost2010PropOp35
 70
     1
102
RTVSPost2010Prop36
280
     0
102
RTVSPost2010PropOp36
 70
     1
102
RTVSPost2010Prop37
 90
       50
102
RTVSPost2010PropOp37
 70
     1
102
RTVSPost2010Prop38
140
0.0
102
RTVSPost2010PropOp38
 70
     1
102
RTVSPost2010Prop39
140
1.0
102
RTVSPost2010PropOp39
 70
     1
102
RTVSPost2010Prop40
 90
        0
102
RTVSPost2010PropOp40
 70
     1
102
RTVSPost2010Prop41ColorIndex
 90
       18
102
RTVSPost2010Prop41ColorRGB
 90
        0
102
RTVSPost2010PropOp41
 70
     1
102
RTVSPost2010Prop42
 90
       50
102
RTVSPost2010PropOp42
 70
     1
102
RTVSPost2010Prop43
 90
        3
102
RTVSPost2010PropOp43
 70
     1
102
RTVSPost2010Prop44ColorIndex
 90
        5
102
RTVSPost2010Prop44ColorRGB
 90
      255
102
RTVSPost2010PropOp44
 70
     1
102
RTVSPost2010Prop45
280
     0
102
RTVSPost2010PropOp45
 70
     1
102
RTVSPost2010Prop46
 90
       50
102
RTVSPost2010PropOp46
 70
     1
102
RTVSPost2010Prop47
 90
       50
102
RTVSPost2010PropOp47
 70
     1
102
RTVSPost2010Prop48
 90
       50
102
RTVSPost2010PropOp48
 70
     1
102
RTVSPost2010Prop49
280
     0
102
RTVSPost2010PropOp49
 70
     1
102
RTVSPost2010Prop50
 90
       50
102
RTVSPost2010PropOp50
 70
     1
102
RTVSPost2010Prop51ColorIndex
 90
      256
102
RTVSPost2010Prop51ColorRGB
 90
-16777216
102
RTVSPost2010PropOp51
 70
     0
102
RTVSPost2010Prop52
140
1.0
102
RTVSPost2010PropOp52
 70
     0
102
RTVSPost2010Prop53
 90
        2
102
RTVSPost2010PropOp53
 70
     1
102
RTVSPost2010Prop54
  1
strokes_ogs.tif
102
RTVSPost2010PropOp54
 70
     1
102
RTVSPost2010Prop55
280
     0
102
RTVSPost2010PropOp55
 70
     1
102
RTVSPost2010Prop56
140
1.0
102
RTVSPost2010PropOp56
 70
     1
102
RTVSPost2010Prop57
140
1.0
102
RTVSPost2010PropOp57
 70
     1
  0
XRECORD
  5
194
102
{ACAD_REACTORS
330
193
102
}
330
193
100
AcDbXrecord
280
     1
102
RTVSPost2010Prop28
280
     0
102
RTVSPost2010PropOp28
 70
     1
102
RTVSPost2010Prop29
280
     1
102
RTVSPost2010PropOp29
 70
     1
102
RTVSPost2010Prop30
280
     1
102
RTVSPost2010PropOp30
 70
     1
102
RTVSPost2010Prop31
280
     0
102
RTVSPost2010PropOp31
 70
     1
102
RTVSPost2010Prop32
280
     0
102
RTVSPost2010PropOp32
 70
     1
102
RTVSPost2010Prop33
280
     0
102
RTVSPost2010PropOp33
 70
     1
102
RTVSPost2010Prop34
280
     0
102
RTVSPost2010PropOp34
 70
     1
102
RTVSPost2010Prop35
280
     0
102
RTVSPost2010PropOp35
 70
     1
102
RTVSPost2010Prop36
280
     0
102
RTVSPost2010PropOp36
 70
     1
102
RTVSPost2010Prop37
 90
       50
102
RTVSPost2010PropOp37
 70
     1
102
RTVSPost2010Prop38
140
0.0
102
RTVSPost2010PropOp38
 70
     1
102
RTVSPost2010Prop39
140
1.0
102
RTVSPost2010PropOp39
 70
     1
102
RTVSPost2010Prop40
 90
        0
102
RTVSPost2010PropOp40
 70
     1
102
RTVSPost2010Prop41ColorIndex
 90
       18
102
RTVSPost2010Prop41ColorRGB
 90
        0
102
RTVSPost2010PropOp41
 70
     1
102
RTVSPost2010Prop42
 90
       50
102
RTVSPost2010PropOp42
 70
     1
102
RTVSPost2010Prop43
 90
        3
102
RTVSPost2010PropOp43
 70
     1
102
RTVSPost2010Prop44ColorIndex
 90
        5
102
RTVSPost2010Prop44ColorRGB
 90
      255
102
RTVSPost2010PropOp44
 70
     1
102
RTVSPost2010Prop45
280
     0
102
RTVSPost2010PropOp45
 70
     1
102
RTVSPost2010Prop46
 90
       50
102
RTVSPost2010PropOp46
 70
     1
102
RTVSPost2010Prop47
 90
       50
102
RTVSPost2010PropOp47
 70
     1
102
RTVSPost2010Prop48
 90
       50
102
RTVSPost2010PropOp48
 70
     1
102
RTVSPost2010Prop49
280
     0
102
RTVSPost2010PropOp49
 70
     1
102
RTVSPost2010Prop50
 90
       50
102
RTVSPost2010PropOp50
 70
     1
102
RTVSPost2010Prop51ColorIndex
 90
      256
102
RTVSPost2010Prop51ColorRGB
 90
-16777216
102
RTVSPost2010PropOp51
 70
     0
102
RTVSPost2010Prop52
140
1.0
102
RTVSPost2010PropOp52
 70
     0
102
RTVSPost2010Prop53
 90
        2
102
RTVSPost2010PropOp53
 70
     1
102
RTVSPost2010Prop54
  1
strokes_ogs.tif
102
RTVSPost2010PropOp54
 70
     1
102
RTVSPost2010Prop55
280
     0
102
RTVSPost2010PropOp55
 70
     1
102
RTVSPost2010Prop56
140
1.0
102
RTVSPost2010PropOp56
 70
     1
102
RTVSPost2010Prop57
140
1.0
102
RTVSPost2010PropOp57
 70
     1
  0
XRECORD
  5
18E
102
{ACAD_REACTORS
330
18D
102
}
330
18D
100
AcDbXrecord
280
     1
102
RTVSPost2010Prop28
280
     0
102
RTVSPost2010PropOp28
 70
     1
102
RTVSPost2010Prop29
280
     1
102
RTVSPost2010PropOp29
 70
     1
102
RTVSPost2010Prop30
280
     1
102
RTVSPost2010PropOp30
 70
     1
102
RTVSPost2010Prop31
280
     0
102
RTVSPost2010PropOp31
 70
     1
102
RTVSPost2010Prop32
280
     0
102
RTVSPost2010PropOp32
 70
     1
102
RTVSPost2010Prop33
280
     0
102
RTVSPost2010PropOp33
 70
     1
102
RTVSPost2010Prop34
280
     0
102
RTVSPost2010PropOp34
 70
     1
102
RTVSPost2010Prop35
280
     0
102
RTVSPost2010PropOp35
 70
     1
102
RTVSPost2010Prop36
280
     0
102
RTVSPost2010PropOp36
 70
     1
102
RTVSPost2010Prop37
 90
       50
102
RTVSPost2010PropOp37
 70
     1
102
RTVSPost2010Prop38
140
0.0
102
RTVSPost2010PropOp38
 70
     1
102
RTVSPost2010Prop39
140
1.0
102
RTVSPost2010PropOp39
 70
     1
102
RTVSPost2010Prop40
 90
        0
102
RTVSPost2010PropOp40
 70
     1
102
RTVSPost2010Prop41ColorIndex
 90
       18
102
RTVSPost2010Prop41ColorRGB
 90
        0
102
RTVSPost2010PropOp41
 70
     1
102
RTVSPost2010Prop42
 90
       50
102
RTVSPost2010PropOp42
 70
     1
102
RTVSPost2010Prop43
 90
        3
102
RTVSPost2010PropOp43
 70
     1
102
RTVSPost2010Prop44ColorIndex
 90
        5
102
RTVSPost2010Prop44ColorRGB
 90
      255
102
RTVSPost2010PropOp44
 70
     1
102
RTVSPost2010Prop45
280
     0
102
RTVSPost2010PropOp45
 70
     1
102
RTVSPost2010Prop46
 90
       50
102
RTVSPost2010PropOp46
 70
     1
102
RTVSPost2010Prop47
 90
       50
102
RTVSPost2010PropOp47
 70
     1
102
RTVSPost2010Prop48
 90
       50
102
RTVSPost2010PropOp48
 70
     1
102
RTVSPost2010Prop49
280
     0
102
RTVSPost2010PropOp49
 70
     1
102
RTVSPost2010Prop50
 90
       50
102
RTVSPost2010PropOp50
 70
     1
102
RTVSPost2010Prop51ColorIndex
 90
      256
102
RTVSPost2010Prop51ColorRGB
 90
-16777216
102
RTVSPost2010PropOp51
 70
     0
102
RTVSPost2010Prop52
140
1.0
102
RTVSPost2010PropOp52
 70
     0
102
RTVSPost2010Prop53
 90
        2
102
RTVSPost2010PropOp53
 70
     1
102
RTVSPost2010Prop54
  1
strokes_ogs.tif
102
RTVSPost2010PropOp54
 70
     1
102
RTVSPost2010Prop55
280
     0
102
RTVSPost2010PropOp55
 70
     1
102
RTVSPost2010Prop56
140
1.0
102
RTVSPost2010PropOp56
 70
     1
102
RTVSPost2010Prop57
140
1.0
102
RTVSPost2010PropOp57
 70
     1
  0
XRECORD
  5
190
102
{ACAD_REACTORS
330
18F
102
}
330
18F
100
AcDbXrecord
280
     1
102
RTVSPost2010Prop28
280
     0
102
RTVSPost2010PropOp28
 70
     1
102
RTVSPost2010Prop29
280
     1
102
RTVSPost2010PropOp29
 70
     1
102
RTVSPost2010Prop30
280
     1
102
RTVSPost2010PropOp30
 70
     1
102
RTVSPost2010Prop31
280
     0
102
RTVSPost2010PropOp31
 70
     1
102
RTVSPost2010Prop32
280
     0
102
RTVSPost2010PropOp32
 70
     1
102
RTVSPost2010Prop33
280
     0
102
RTVSPost2010PropOp33
 70
     1
102
RTVSPost2010Prop34
280
     0
102
RTVSPost2010PropOp34
 70
     1
102
RTVSPost2010Prop35
280
     0
102
RTVSPost2010PropOp35
 70
     1
102
RTVSPost2010Prop36
280
     0
102
RTVSPost2010PropOp36
 70
     1
102
RTVSPost2010Prop37
 90
       50
102
RTVSPost2010PropOp37
 70
     1
102
RTVSPost2010Prop38
140
0.0
102
RTVSPost2010PropOp38
 70
     1
102
RTVSPost2010Prop39
140
1.0
102
RTVSPost2010PropOp39
 70
     1
102
RTVSPost2010Prop40
 90
        0
102
RTVSPost2010PropOp40
 70
     1
102
RTVSPost2010Prop41ColorIndex
 90
       18
102
RTVSPost2010Prop41ColorRGB
 90
        0
102
RTVSPost2010PropOp41
 70
     1
102
RTVSPost2010Prop42
 90
       50
102
RTVSPost2010PropOp42
 70
     1
102
RTVSPost2010Prop43
 90
        3
102
RTVSPost2010PropOp43
 70
     1
102
RTVSPost2010Prop44ColorIndex
 90
        5
102
RTVSPost2010Prop44ColorRGB
 90
      255
102
RTVSPost2010PropOp44
 70
     1
102
RTVSPost2010Prop45
280
     0
102
RTVSPost2010PropOp45
 70
     1
102
RTVSPost2010Prop46
 90
       50
102
RTVSPost2010PropOp46
 70
     1
102
RTVSPost2010Prop47
 90
       50
102
RTVSPost2010PropOp47
 70
     1
102
RTVSPost2010Prop48
 90
       50
102
RTVSPost2010PropOp48
 70
     1
102
RTVSPost2010Prop49
280
     0
102
RTVSPost2010PropOp49
 70
     1
102
RTVSPost2010Prop50
 90
       50
102
RTVSPost2010PropOp50
 70
     1
102
RTVSPost2010Prop51ColorIndex
 90
      256
102
RTVSPost2010Prop51ColorRGB
 90
-16777216
102
RTVSPost2010PropOp51
 70
     0
102
RTVSPost2010Prop52
140
1.0
102
RTVSPost2010PropOp52
 70
     0
102
RTVSPost2010Prop53
 90
        2
102
RTVSPost2010PropOp53
 70
     1
102
RTVSPost2010Prop54
  1
strokes_ogs.tif
102
RTVSPost2010PropOp54
 70
     1
102
RTVSPost2010Prop55
280
     0
102
RTVSPost2010PropOp55
 70
     1
102
RTVSPost2010Prop56
140
1.0
102
RTVSPost2010PropOp56
 70
     1
102
RTVSPost2010Prop57
140
1.0
102
RTVSPost2010PropOp57
 70
     1
  0
XRECORD
  5
186
102
{ACAD_REACTORS
330
185
102
}
330
185
100
AcDbXrecord
280
     1
102
RTVSPost2010Prop28
280
     0
102
RTVSPost2010PropOp28
 70
     1
102
RTVSPost2010Prop29
280
     1
102
RTVSPost2010PropOp29
 70
     1
102
RTVSPost2010Prop30
280
     1
102
RTVSPost2010PropOp30
 70
     1
102
RTVSPost2010Prop31
280
     0
102
RTVSPost2010PropOp31
 70
     1
102
RTVSPost2010Prop32
280
     0
102
RTVSPost2010PropOp32
 70
     1
102
RTVSPost2010Prop33
280
     0
102
RTVSPost2010PropOp33
 70
     1
102
RTVSPost2010Prop34
280
     0
102
RTVSPost2010PropOp34
 70
     1
102
RTVSPost2010Prop35
280
     0
102
RTVSPost2010PropOp35
 70
     1
102
RTVSPost2010Prop36
280
     0
102
RTVSPost2010PropOp36
 70
     1
102
RTVSPost2010Prop37
 90
       50
102
RTVSPost2010PropOp37
 70
     1
102
RTVSPost2010Prop38
140
0.0
102
RTVSPost2010PropOp38
 70
     1
102
RTVSPost2010Prop39
140
1.0
102
RTVSPost2010PropOp39
 70
     1
102
RTVSPost2010Prop40
 90
        0
102
RTVSPost2010PropOp40
 70
     1
102
RTVSPost2010Prop41ColorIndex
 90
       18
102
RTVSPost2010Prop41ColorRGB
 90
        0
102
RTVSPost2010PropOp41
 70
     1
102
RTVSPost2010Prop42
 90
       50
102
RTVSPost2010PropOp42
 70
     1
102
RTVSPost2010Prop43
 90
        3
102
RTVSPost2010PropOp43
 70
     1
102
RTVSPost2010Prop44ColorIndex
 90
        5
102
RTVSPost2010Prop44ColorRGB
 90
      255
102
RTVSPost2010PropOp44
 70
     1
102
RTVSPost2010Prop45
280
     0
102
RTVSPost2010PropOp45
 70
     1
102
RTVSPost2010Prop46
 90
       50
102
RTVSPost2010PropOp46
 70
     1
102
RTVSPost2010Prop47
 90
       50
102
RTVSPost2010PropOp47
 70
     1
102
RTVSPost2010Prop48
 90
       50
102
RTVSPost2010PropOp48
 70
     1
102
RTVSPost2010Prop49
280
     0
102
RTVSPost2010PropOp49
 70
     1
102
RTVSPost2010Prop50
 90
       50
102
RTVSPost2010PropOp50
 70
     1
102
RTVSPost2010Prop51ColorIndex
 90
      256
102
RTVSPost2010Prop51ColorRGB
 90
-16777216
102
RTVSPost2010PropOp51
 70
     0
102
RTVSPost2010Prop52
140
1.0
102
RTVSPost2010PropOp52
 70
     0
102
RTVSPost2010Prop53
 90
        2
102
RTVSPost2010PropOp53
 70
     1
102
RTVSPost2010Prop54
  1
strokes_ogs.tif
102
RTVSPost2010PropOp54
 70
     1
102
RTVSPost2010Prop55
280
     0
102
RTVSPost2010PropOp55
 70
     1
102
RTVSPost2010Prop56
140
1.0
102
RTVSPost2010PropOp56
 70
     1
102
RTVSPost2010Prop57
140
1.0
102
RTVSPost2010PropOp57
 70
     1
  0
XRECORD
  5
17A
102
{ACAD_REACTORS
330
179
102
}
330
179
100
AcDbXrecord
280
     1
102
RTVSPost2010Prop28
280
     0
102
RTVSPost2010PropOp28
 70
     1
102
RTVSPost2010Prop29
280
     1
102
RTVSPost2010PropOp29
 70
     1
102
RTVSPost2010Prop30
280
     1
102
RTVSPost2010PropOp30
 70
     1
102
RTVSPost2010Prop31
280
     0
102
RTVSPost2010PropOp31
 70
     1
102
RTVSPost2010Prop32
280
     0
102
RTVSPost2010PropOp32
 70
     1
102
RTVSPost2010Prop33
280
     0
102
RTVSPost2010PropOp33
 70
     1
102
RTVSPost2010Prop34
280
     0
102
RTVSPost2010PropOp34
 70
     1
102
RTVSPost2010Prop35
280
     0
102
RTVSPost2010PropOp35
 70
     1
102
RTVSPost2010Prop36
280
     0
102
RTVSPost2010PropOp36
 70
     1
102
RTVSPost2010Prop37
 90
       50
102
RTVSPost2010PropOp37
 70
     1
102
RTVSPost2010Prop38
140
0.0
102
RTVSPost2010PropOp38
 70
     1
102
RTVSPost2010Prop39
140
1.0
102
RTVSPost2010PropOp39
 70
     1
102
RTVSPost2010Prop40
 90
        0
102
RTVSPost2010PropOp40
 70
     1
102
RTVSPost2010Prop41ColorIndex
 90
       18
102
RTVSPost2010Prop41ColorRGB
 90
        0
102
RTVSPost2010PropOp41
 70
     1
102
RTVSPost2010Prop42
 90
       50
102
RTVSPost2010PropOp42
 70
     1
102
RTVSPost2010Prop43
 90
        3
102
RTVSPost2010PropOp43
 70
     1
102
RTVSPost2010Prop44ColorIndex
 90
        5
102
RTVSPost2010Prop44ColorRGB
 90
      255
102
RTVSPost2010PropOp44
 70
     1
102
RTVSPost2010Prop45
280
     0
102
RTVSPost2010PropOp45
 70
     1
102
RTVSPost2010Prop46
 90
       50
102
RTVSPost2010PropOp46
 70
     1
102
RTVSPost2010Prop47
 90
       50
102
RTVSPost2010PropOp47
 70
     1
102
RTVSPost2010Prop48
 90
       50
102
RTVSPost2010PropOp48
 70
     1
102
RTVSPost2010Prop49
280
     0
102
RTVSPost2010PropOp49
 70
     1
102
RTVSPost2010Prop50
 90
       50
102
RTVSPost2010PropOp50
 70
     1
102
RTVSPost2010Prop51ColorIndex
 90
      256
102
RTVSPost2010Prop51ColorRGB
 90
-16777216
102
RTVSPost2010PropOp51
 70
     0
102
RTVSPost2010Prop52
140
1.0
102
RTVSPost2010PropOp52
 70
     0
102
RTVSPost2010Prop53
 90
        2
102
RTVSPost2010PropOp53
 70
     1
102
RTVSPost2010Prop54
  1
strokes_ogs.tif
102
RTVSPost2010PropOp54
 70
     1
102
RTVSPost2010Prop55
280
     0
102
RTVSPost2010PropOp55
 70
     1
102
RTVSPost2010Prop56
140
1.0
102
RTVSPost2010PropOp56
 70
     1
102
RTVSPost2010Prop57
140
1.0
102
RTVSPost2010PropOp57
 70
     1
  0
XRECORD
  5
192
102
{ACAD_REACTORS
330
191
102
}
330
191
100
AcDbXrecord
280
     1
102
RTVSPost2010Prop28
280
     0
102
RTVSPost2010PropOp28
 70
     1
102
RTVSPost2010Prop29
280
     1
102
RTVSPost2010PropOp29
 70
     1
102
RTVSPost2010Prop30
280
     1
102
RTVSPost2010PropOp30
 70
     1
102
RTVSPost2010Prop31
280
     0
102
RTVSPost2010PropOp31
 70
     1
102
RTVSPost2010Prop32
280
     0
102
RTVSPost2010PropOp32
 70
     1
102
RTVSPost2010Prop33
280
     0
102
RTVSPost2010PropOp33
 70
     1
102
RTVSPost2010Prop34
280
     0
102
RTVSPost2010PropOp34
 70
     1
102
RTVSPost2010Prop35
280
     0
102
RTVSPost2010PropOp35
 70
     1
102
RTVSPost2010Prop36
280
     0
102
RTVSPost2010PropOp36
 70
     1
102
RTVSPost2010Prop37
 90
       50
102
RTVSPost2010PropOp37
 70
     1
102
RTVSPost2010Prop38
140
0.0
102
RTVSPost2010PropOp38
 70
     1
102
RTVSPost2010Prop39
140
1.0
102
RTVSPost2010PropOp39
 70
     1
102
RTVSPost2010Prop40
 90
        0
102
RTVSPost2010PropOp40
 70
     1
102
RTVSPost2010Prop41ColorIndex
 90
       18
102
RTVSPost2010Prop41ColorRGB
 90
        0
102
RTVSPost2010PropOp41
 70
     1
102
RTVSPost2010Prop42
 90
       50
102
RTVSPost2010PropOp42
 70
     1
102
RTVSPost2010Prop43
 90
        3
102
RTVSPost2010PropOp43
 70
     1
102
RTVSPost2010Prop44ColorIndex
 90
        5
102
RTVSPost2010Prop44ColorRGB
 90
      255
102
RTVSPost2010PropOp44
 70
     1
102
RTVSPost2010Prop45
280
     0
102
RTVSPost2010PropOp45
 70
     1
102
RTVSPost2010Prop46
 90
       50
102
RTVSPost2010PropOp46
 70
     1
102
RTVSPost2010Prop47
 90
       50
102
RTVSPost2010PropOp47
 70
     1
102
RTVSPost2010Prop48
 90
       50
102
RTVSPost2010PropOp48
 70
     1
102
RTVSPost2010Prop49
280
     0
102
RTVSPost2010PropOp49
 70
     1
102
RTVSPost2010Prop50
 90
       50
102
RTVSPost2010PropOp50
 70
     1
102
RTVSPost2010Prop51ColorIndex
 90
      256
102
RTVSPost2010Prop51ColorRGB
 90
-16777216
102
RTVSPost2010PropOp51
 70
     0
102
RTVSPost2010Prop52
140
1.0
102
RTVSPost2010PropOp52
 70
     0
102
RTVSPost2010Prop53
 90
        2
102
RTVSPost2010PropOp53
 70
     1
102
RTVSPost2010Prop54
  1
strokes_ogs.tif
102
RTVSPost2010PropOp54
 70
     1
102
RTVSPost2010Prop55
280
     0
102
RTVSPost2010PropOp55
 70
     1
102
RTVSPost2010Prop56
140
1.0
102
RTVSPost2010PropOp56
 70
     1
102
RTVSPost2010Prop57
140
1.0
102
RTVSPost2010PropOp57
 70
     1
  0
ENDSEC
  0
EOF
