  0
SECTION
  2
HEADER
  9
$ACADVER
  1
AC1024
  9
$ACADMAINTVER
 70
   205
  9
$DWGCODEPAGE
  3
ANSI_1251
  9
$INSBASE
 10
0.0
 20
0.0
 30
0.0
  9
$EXTMIN
 10
1.000000000000000E+20
 20
1.000000000000000E+20
 30
1.000000000000000E+20
  9
$EXTMAX
 10
-1.000000000000000E+20
 20
-1.000000000000000E+20
 30
-1.000000000000000E+20
  9
$LIMMIN
 10
0.0
 20
0.0
  9
$LIMMAX
 10
12.0
 20
9.0
  9
$ORTHOMODE
 70
     0
  9
$REGENMODE
 70
     1
  9
$FILLMODE
 70
     1
  9
$QTEXTMODE
 70
     0
  9
$MIRRTEXT
 70
     1
  9
$LTSCALE
 40
1.0
  9
$ATTMODE
 70
     1
  9
$TEXTSIZE
 40
0.2
  9
$TRACEWID
 40
0.05
  9
$TEXTSTYLE
  7
Standard
  9
$CLAYER
  8
OracDecor_cornice_mouldings
  9
$CELTYPE
  6
ByLayer
  9
$CECOLOR
 62
   256
  9
$CELTSCALE
 40
1.0
  9
$DISPSILH
 70
     0
  9
$DIMSCALE
 40
1.0
  9
$DIMASZ
 40
0.18
  9
$DIMEXO
 40
0.0625
  9
$DIMDLI
 40
0.38
  9
$DIMRND
 40
0.0
  9
$DIMDLE
 40
0.0
  9
$DIMEXE
 40
0.18
  9
$DIMTP
 40
0.0
  9
$DIMTM
 40
0.0
  9
$DIMTXT
 40
0.18
  9
$DIMCEN
 40
0.09
  9
$DIMTSZ
 40
0.0
  9
$DIMTOL
 70
     0
  9
$DIMLIM
 70
     0
  9
$DIMTIH
 70
     1
  9
$DIMTOH
 70
     1
  9
$DIMSE1
 70
     0
  9
$DIMSE2
 70
     0
  9
$DIMTAD
 70
     0
  9
$DIMZIN
 70
     0
  9
$DIMBLK
  1

  9
$DIMASO
 70
     1
  9
$DIMSHO
 70
     1
  9
$DIMPOST
  1

  9
$DIMAPOST
  1

  9
$DIMALT
 70
     0
  9
$DIMALTD
 70
     2
  9
$DIMALTF
 40
25.4
  9
$DIMLFAC
 40
1.0
  9
$DIMTOFL
 70
     0
  9
$DIMTVP
 40
0.0
  9
$DIMTIX
 70
     0
  9
$DIMSOXD
 70
     0
  9
$DIMSAH
 70
     0
  9
$DIMBLK1
  1

  9
$DIMBLK2
  1

  9
$DIMSTYLE
  2
Standard
  9
$DIMCLRD
 70
     0
  9
$DIMCLRE
 70
     0
  9
$DIMCLRT
 70
     0
  9
$DIMTFAC
 40
1.0
  9
$DIMGAP
 40
0.09
  9
$DIMJUST
 70
     0
  9
$DIMSD1
 70
     0
  9
$DIMSD2
 70
     0
  9
$DIMTOLJ
 70
     1
  9
$DIMTZIN
 70
     0
  9
$DIMALTZ
 70
     0
  9
$DIMALTTZ
 70
     0
  9
$DIMUPT
 70
     0
  9
$DIMDEC
 70
     4
  9
$DIMTDEC
 70
     4
  9
$DIMALTU
 70
     2
  9
$DIMALTTD
 70
     2
  9
$DIMTXSTY
  7
Standard
  9
$DIMAUNIT
 70
     0
  9
$DIMADEC
 70
     0
  9
$DIMALTRND
 40
0.0
  9
$DIMAZIN
 70
     0
  9
$DIMDSEP
 70
    46
  9
$DIMATFIT
 70
     3
  9
$DIMFRAC
 70
     0
  9
$DIMLDRBLK
  1

  9
$DIMLUNIT
 70
     2
  9
$DIMLWD
 70
    -2
  9
$DIMLWE
 70
    -2
  9
$DIMTMOVE
 70
     0
  9
$DIMFXL
 40
1.0
  9
$DIMFXLON
 70
     0
  9
$DIMJOGANG
 40
0.7853981633974483
  9
$DIMTFILL
 70
     0
  9
$DIMTFILLCLR
 70
     0
  9
$DIMARCSYM
 70
     0
  9
$DIMLTYPE
  6

  9
$DIMLTEX1
  6

  9
$DIMLTEX2
  6

  9
$DIMTXTDIRECTION
 70
     0
  9
$LUNITS
 70
     2
  9
$LUPREC
 70
     4
  9
$SKETCHINC
 40
0.1
  9
$FILLETRAD
 40
0.5
  9
$AUNITS
 70
     0
  9
$AUPREC
 70
     0
  9
$MENU
  1
.
  9
$ELEVATION
 40
0.0
  9
$PELEVATION
 40
0.0
  9
$THICKNESS
 40
0.0
  9
$LIMCHECK
 70
     0
  9
$CHAMFERA
 40
0.5
  9
$CHAMFERB
 40
0.5
  9
$CHAMFERC
 40
1.0
  9
$CHAMFERD
 40
0.0
  9
$SKPOLY
 70
     0
  9
$TDCREATE
 40
2451380.930432396
  9
$TDUCREATE
 40
2451380.805432396
  9
$TDUPDATE
 40
2451380.966180555
  9
$TDUUPDATE
 40
2451380.841180556
  9
$TDINDWG
 40
0.0075614583
  9
$TDUSRTIMER
 40
0.0075524190
  9
$USRTIMER
 70
     1
  9
$ANGBASE
 50
0.0
  9
$ANGDIR
 70
     0
  9
$PDMODE
 70
     0
  9
$PDSIZE
 40
0.0
  9
$PLINEWID
 40
0.0
  9
$SPLFRAME
 70
     0
  9
$SPLINETYPE
 70
     6
  9
$SPLINESEGS
 70
     8
  9
$HANDSEED
  5
189
  9
$SURFTAB1
 70
     6
  9
$SURFTAB2
 70
     6
  9
$SURFTYPE
 70
     6
  9
$SURFU
 70
     6
  9
$SURFV
 70
     6
  9
$UCSBASE
  2

  9
$UCSNAME
  2

  9
$UCSORG
 10
0.0
 20
0.0
 30
0.0
  9
$UCSXDIR
 10
1.0
 20
0.0
 30
0.0
  9
$UCSYDIR
 10
0.0
 20
1.0
 30
0.0
  9
$UCSORTHOREF
  2

  9
$UCSORTHOVIEW
 70
     0
  9
$UCSORGTOP
 10
0.0
 20
0.0
 30
0.0
  9
$UCSORGBOTTOM
 10
0.0
 20
0.0
 30
0.0
  9
$UCSORGLEFT
 10
0.0
 20
0.0
 30
0.0
  9
$UCSORGRIGHT
 10
0.0
 20
0.0
 30
0.0
  9
$UCSORGFRONT
 10
0.0
 20
0.0
 30
0.0
  9
$UCSORGBACK
 10
0.0
 20
0.0
 30
0.0
  9
$PUCSBASE
  2

  9
$PUCSNAME
  2

  9
$PUCSORG
 10
0.0
 20
0.0
 30
0.0
  9
$PUCSXDIR
 10
1.0
 20
0.0
 30
0.0
  9
$PUCSYDIR
 10
0.0
 20
1.0
 30
0.0
  9
$PUCSORTHOREF
  2

  9
$PUCSORTHOVIEW
 70
     0
  9
$PUCSORGTOP
 10
0.0
 20
0.0
 30
0.0
  9
$PUCSORGBOTTOM
 10
0.0
 20
0.0
 30
0.0
  9
$PUCSORGLEFT
 10
0.0
 20
0.0
 30
0.0
  9
$PUCSORGRIGHT
 10
0.0
 20
0.0
 30
0.0
  9
$PUCSORGFRONT
 10
0.0
 20
0.0
 30
0.0
  9
$PUCSORGBACK
 10
0.0
 20
0.0
 30
0.0
  9
$USERI1
 70
     0
  9
$USERI2
 70
     0
  9
$USERI3
 70
     0
  9
$USERI4
 70
     0
  9
$USERI5
 70
     0
  9
$USERR1
 40
0.0
  9
$USERR2
 40
0.0
  9
$USERR3
 40
0.0
  9
$USERR4
 40
0.0
  9
$USERR5
 40
0.0
  9
$WORLDVIEW
 70
     1
  9
$SHADEDGE
 70
     3
  9
$SHADEDIF
 70
    70
  9
$TILEMODE
 70
     1
  9
$MAXACTVP
 70
    64
  9
$PINSBASE
 10
0.0
 20
0.0
 30
0.0
  9
$PLIMCHECK
 70
     0
  9
$PEXTMIN
 10
1.000000000000000E+20
 20
1.000000000000000E+20
 30
1.000000000000000E+20
  9
$PEXTMAX
 10
-1.000000000000000E+20
 20
-1.000000000000000E+20
 30
-1.000000000000000E+20
  9
$PLIMMIN
 10
0.0
 20
0.0
  9
$PLIMMAX
 10
12.0
 20
9.0
  9
$UNITMODE
 70
     0
  9
$VISRETAIN
 70
     1
  9
$PLINEGEN
 70
     0
  9
$PSLTSCALE
 70
     1
  9
$TREEDEPTH
 70
  3020
  9
$CMLSTYLE
  2
Standard
  9
$CMLJUST
 70
     0
  9
$CMLSCALE
 40
1.0
  9
$PROXYGRAPHICS
 70
     1
  9
$MEASUREMENT
 70
     1
  9
$CELWEIGHT
370
    -1
  9
$ENDCAPS
280
     0
  9
$JOINSTYLE
280
     0
  9
$LWDISPLAY
290
     0
  9
$INSUNITS
 70
     4
  9
$HYPERLINKBASE
  1

  9
$STYLESHEET
  1

  9
$XEDIT
290
     1
  9
$CEPSNTYPE
380
     0
  9
$PSTYLEMODE
290
     1
  9
$FINGERPRINTGUID
  2
{12F50282-3ED8-11D3-A8B7-0060B0F84BC6}
  9
$VERSIONGUID
  2
{12F50293-3ED8-11D3-A8B7-0060B0F84BC6}
  9
$EXTNAMES
290
     1
  9
$PSVPSCALE
 40
0.0
  9
$OLESTARTUP
290
     0
  9
$SORTENTS
280
   127
  9
$INDEXCTL
280
     0
  9
$HIDETEXT
280
     0
  9
$XCLIPFRAME
280
     2
  9
$HALOGAP
280
     0
  9
$OBSCOLOR
 70
   257
  9
$OBSLTYPE
280
     0
  9
$INTERSECTIONDISPLAY
280
     0
  9
$INTERSECTIONCOLOR
 70
   257
  9
$DIMASSOC
280
     1
  9
$PROJECTNAME
  1

  9
$CAMERADISPLAY
290
     0
  9
$LENSLENGTH
 40
50.0
  9
$CAMERAHEIGHT
 40
0.0
  9
$STEPSPERSEC
 40
2.0
  9
$STEPSIZE
 40
6.0
  9
$3DDWFPREC
 40
2.0
  9
$PSOLWIDTH
 40
0.25
  9
$PSOLHEIGHT
 40
4.0
  9
$LOFTANG1
 40
1.570796326794896
  9
$LOFTANG2
 40
1.570796326794896
  9
$LOFTMAG1
 40
0.0
  9
$LOFTMAG2
 40
0.0
  9
$LOFTPARAM
 70
     7
  9
$LOFTNORMALS
280
     1
  9
$LATITUDE
 40
37.795
  9
$LONGITUDE
 40
-122.394
  9
$NORTHDIRECTION
 40
0.0
  9
$TIMEZONE
 70
 -8000
  9
$LIGHTGLYPHDISPLAY
280
     1
  9
$TILEMODELIGHTSYNCH
280
     1
  9
$CMATERIAL
347
AB
  9
$SOLIDHIST
280
     0
  9
$SHOWHIST
280
     1
  9
$DWFFRAME
280
     2
  9
$DGNFRAME
280
     0
  9
$REALWORLDSCALE
290
     1
  9
$INTERFERECOLOR
 62
     1
  9
$INTERFEREOBJVS
345
CD
  9
$INTERFEREVPVS
346
CA
  9
$CSHADOW
280
     0
  9
$SHADOWPLANELOCATION
 40
0.0
  0
ENDSEC
  0
SECTION
  2
CLASSES
  0
CLASS
  1
ACDBDICTIONARYWDFLT
  2
AcDbDictionaryWithDefault
  3
ObjectDBX Classes
 90
        0
 91
        1
280
     0
281
     0
  0
CLASS
  1
ACDBPLACEHOLDER
  2
AcDbPlaceHolder
  3
ObjectDBX Classes
 90
        0
 91
        2
280
     0
281
     0
  0
CLASS
  1
LAYOUT
  2
AcDbLayout
  3
ObjectDBX Classes
 90
        0
 91
        3
280
     0
281
     0
  0
CLASS
  1
MATERIAL
  2
AcDbMaterial
  3
ObjectDBX Classes
 90
     1153
 91
        3
280
     0
281
     0
  0
CLASS
  1
VISUALSTYLE
  2
AcDbVisualStyle
  3
ObjectDBX Classes
 90
     4095
 91
       24
280
     0
281
     0
  0
CLASS
  1
TABLESTYLE
  2
AcDbTableStyle
  3
ObjectDBX Classes
 90
     4095
 91
        1
280
     0
281
     0
  0
CLASS
  1
SCALE
  2
AcDbScale
  3
ObjectDBX Classes
 90
     1153
 91
       17
280
     0
281
     0
  0
CLASS
  1
MLEADERSTYLE
  2
AcDbMLeaderStyle
  3
ACDB_MLEADERSTYLE_CLASS
 90
     4095
 91
        1
280
     0
281
     0
  0
CLASS
  1
ACDBSECTIONVIEWSTYLE
  2
AcDbSectionViewStyle
  3
ObjectDBX Classes
 90
     1025
 91
        1
280
     0
281
     0
  0
CLASS
  1
ACDBDETAILVIEWSTYLE
  2
AcDbDetailViewStyle
  3
ObjectDBX Classes
 90
     1025
 91
        1
280
     0
281
     0
  0
CLASS
  1
MESH
  2
AcDbSubDMesh
  3
ObjectDBX Classes
 90
        0
 91
        1
280
     0
281
     1
  0
CLASS
  1
DICTIONARYVAR
  2
AcDbDictionaryVar
  3
ObjectDBX Classes
 90
        0
 91
        9
280
     0
281
     0
  0
CLASS
  1
CELLSTYLEMAP
  2
AcDbCellStyleMap
  3
ObjectDBX Classes
 90
     1152
 91
        1
280
     0
281
     0
  0
ENDSEC
  0
SECTION
  2
TABLES
  0
TABLE
  2
VPORT
  5
8
330
0
100
AcDbSymbolTable
 70
     1
  0
VPORT
  5
A8
330
8
100
AcDbSymbolTableRecord
100
AcDbViewportTableRecord
  2
*Active
 70
     0
 10
0.0
 20
0.0
 11
1.0
 21
1.0
 12
0.0000647375636618
 22
-5.307337760925292
 13
0.0
 23
0.0
 14
0.5
 24
0.5
 15
0.5
 25
0.5
 16
-1.0
 26
-1.0
 36
1.0
 17
0.0
 27
0.0
 37
0.0
 40
1078.999991866136
 41
1.711182542512435
 42
50.0
 43
0.0
 44
0.0
 50
0.0
 51
0.0
 71
     0
 72
   100
 73
     1
 74
     3
 75
     0
 76
     0
 77
     0
 78
     0
281
     0
 65
     1
110
0.0
120
0.0
130
0.0
111
1.0
121
0.0
131
0.0
112
0.0
122
1.0
132
0.0
 79
     0
146
0.0
348
C9
 60
     3
 61
     5
292
     1
282
     1
141
0.0
142
0.0
 63
   250
421
  3355443
  0
ENDTAB
  0
TABLE
  2
LTYPE
  5
5
330
0
100
AcDbSymbolTable
 70
     1
  0
LTYPE
  5
14
330
5
100
AcDbSymbolTableRecord
100
AcDbLinetypeTableRecord
  2
ByBlock
 70
     0
  3

 72
    65
 73
     0
 40
0.0
  0
LTYPE
  5
15
330
5
100
AcDbSymbolTableRecord
100
AcDbLinetypeTableRecord
  2
ByLayer
 70
     0
  3

 72
    65
 73
     0
 40
0.0
  0
LTYPE
  5
16
330
5
100
AcDbSymbolTableRecord
100
AcDbLinetypeTableRecord
  2
Continuous
 70
     0
  3
Solid line
 72
    65
 73
     0
 40
0.0
  0
ENDTAB
  0
TABLE
  2
LAYER
  5
2
330
0
100
AcDbSymbolTable
 70
     3
  0
LAYER
  5
10
330
2
100
AcDbSymbolTableRecord
100
AcDbLayerTableRecord
  2
0
 70
     0
 62
     7
  6
Continuous
370
    -3
390
F
347
BB
  0
LAYER
  5
2B
330
2
100
AcDbSymbolTableRecord
100
AcDbLayerTableRecord
  2
ASHADE
 70
     4
 62
     7
  6
Continuous
370
    -3
390
2D
347
BB
  0
LAYER
  5
F8
330
2
100
AcDbSymbolTableRecord
100
AcDbLayerTableRecord
  2
OracDecor_cornice_mouldings
 70
     0
 62
   206
420
  7080072
  6
Continuous
370
    -3
390
F
347
BB
  0
ENDTAB
  0
TABLE
  2
STYLE
  5
3
330
0
100
AcDbSymbolTable
 70
     2
  0
STYLE
  5
11
330
3
100
AcDbSymbolTableRecord
100
AcDbTextStyleTableRecord
  2
Standard
 70
     0
 40
0.0
 41
1.0
 50
0.0
 71
     0
 42
0.2
  3
txt
  4

  0
STYLE
  5
2C
330
3
100
AcDbSymbolTableRecord
100
AcDbTextStyleTableRecord
  2
ASHADE
 70
     0
 40
0.2
 41
1.0
 50
0.0
 71
     0
 42
0.2
  3
simplex
  4

  0
ENDTAB
  0
TABLE
  2
VIEW
  5
6
330
0
100
AcDbSymbolTable
 70
     0
  0
ENDTAB
  0
TABLE
  2
UCS
  5
7
330
0
100
AcDbSymbolTable
 70
     0
  0
ENDTAB
  0
TABLE
  2
APPID
  5
9
330
0
100
AcDbSymbolTable
 70
     6
  0
APPID
  5
12
330
9
100
AcDbSymbolTableRecord
100
AcDbRegAppTableRecord
  2
ACAD
 70
     0
  0
APPID
  5
8F
330
9
100
AcDbSymbolTableRecord
100
AcDbRegAppTableRecord
  2
AVE_RENDER
 70
     0
  0
APPID
  5
90
330
9
100
AcDbSymbolTableRecord
100
AcDbRegAppTableRecord
  2
AVE_ENTITY_MATERIAL
 70
     0
  0
APPID
  5
9C
330
9
100
AcDbSymbolTableRecord
100
AcDbRegAppTableRecord
  2
AVE_FINISH
 70
     0
  0
APPID
  5
9D
330
9
100
AcDbSymbolTableRecord
100
AcDbRegAppTableRecord
  2
AVE_MATERIAL
 70
     0
  0
APPID
  5
9E
330
9
100
AcDbSymbolTableRecord
100
AcDbRegAppTableRecord
  2
AVE_GLOBAL
 70
     0
  0
ENDTAB
  0
TABLE
  2
DIMSTYLE
  5
A
330
0
100
AcDbSymbolTable
 70
     1
100
AcDbDimStyleTable
 71
     0
  0
DIMSTYLE
105
27
330
A
100
AcDbSymbolTableRecord
100
AcDbDimStyleTableRecord
  2
Standard
 70
     0
340
11
  0
ENDTAB
  0
TABLE
  2
BLOCK_RECORD
  5
1
330
0
100
AcDbSymbolTable
 70
     6
  0
BLOCK_RECORD
  5
1F
330
1
100
AcDbSymbolTableRecord
100
AcDbBlockTableRecord
  2
*Model_Space
340
22
 70
     0
280
     1
281
     0
  0
BLOCK_RECORD
  5
1B
330
1
100
AcDbSymbolTableRecord
100
AcDbBlockTableRecord
  2
*Paper_Space
340
1E
 70
     0
280
     1
281
     0
  0
BLOCK_RECORD
  5
23
330
1
100
AcDbSymbolTableRecord
100
AcDbBlockTableRecord
  2
*Paper_Space0
340
26
 70
     0
280
     1
281
     0
  0
BLOCK_RECORD
  5
2E
330
1
100
AcDbSymbolTableRecord
100
AcDbBlockTableRecord
  2
direct
340
0
 70
     0
280
     1
281
     0
  0
BLOCK_RECORD
  5
42
330
1
100
AcDbSymbolTableRecord
100
AcDbBlockTableRecord
  2
overhead
340
0
 70
     0
280
     1
281
     0
  0
BLOCK_RECORD
  5
5F
330
1
100
AcDbSymbolTableRecord
100
AcDbBlockTableRecord
  2
sh_spot
340
0
 70
     0
280
     1
281
     0
  0
BLOCK_RECORD
  5
91
330
1
100
AcDbSymbolTableRecord
100
AcDbBlockTableRecord
  2
AVE_RENDER
340
0
102
{BLKREFS
331
94
331
95
331
96
331
97
331
98
331
99
331
9A
331
9B
102
}
 70
     0
280
     1
281
     0
  0
BLOCK_RECORD
  5
9F
330
1
100
AcDbSymbolTableRecord
100
AcDbBlockTableRecord
  2
AVE_GLOBAL
340
0
102
{BLKREFS
331
A2
102
}
 70
     0
280
     1
281
     0
  0
ENDTAB
  0
ENDSEC
  0
SECTION
  2
BLOCKS
  0
BLOCK
  5
20
330
1F
100
AcDbEntity
  8
0
100
AcDbBlockBegin
  2
*Model_Space
 70
     0
 10
0.0
 20
0.0
 30
0.0
  3
*Model_Space
  1

  0
ENDBLK
  5
21
330
1F
100
AcDbEntity
  8
0
100
AcDbBlockEnd
  0
BLOCK
  5
1C
330
1B
100
AcDbEntity
 67
     1
  8
0
100
AcDbBlockBegin
  2
*Paper_Space
 70
     0
 10
0.0
 20
0.0
 30
0.0
  3
*Paper_Space
  1

  0
ENDBLK
  5
1D
330
1B
100
AcDbEntity
 67
     1
  8
0
100
AcDbBlockEnd
  0
BLOCK
  5
24
330
23
100
AcDbEntity
 67
     1
  8
0
100
AcDbBlockBegin
  2
*Paper_Space0
 70
     0
 10
0.0
 20
0.0
 30
0.0
  3
*Paper_Space0
  1

  0
ENDBLK
  5
25
330
23
100
AcDbEntity
 67
     1
  8
0
100
AcDbBlockEnd
  0
BLOCK
  5
40
330
2E
100
AcDbEntity
  8
0
100
AcDbBlockBegin
  2
direct
 70
     2
 10
0.0
 20
0.0
 30
0.0
  3
direct
  1

  0
ATTDEF
  5
2F
330
2E
100
AcDbEntity
  8
ASHADE
  6
Continuous
 62
     1
100
AcDbText
 10
0.0
 20
-0.1
 30
0.0
 40
0.2
  1

  7
ASHADE
 72
     1
 11
0.0
 21
-0.1
 31
0.0
100
AcDbAttributeDefinition
280
     0
  3
Light Name
  2
SNAME
 70
     0
280
     0
  0
ARC
  5
30
330
2E
100
AcDbEntity
  8
ASHADE
  6
Continuous
 62
     7
100
AcDbCircle
 10
0.0
 20
0.0
 30
0.0
 40
0.3
100
AcDbArc
 50
205.6792886194569
 51
334.3207113805431
  0
ARC
  5
31
330
2E
100
AcDbEntity
  8
ASHADE
  6
Continuous
 62
     7
100
AcDbCircle
 10
0.0
 20
0.0
 30
0.0
 40
0.3
100
AcDbArc
 50
25.67928861945685
 51
154.3207113805431
  0
LINE
  5
32
330
2E
100
AcDbEntity
  8
ASHADE
  6
Continuous
 62
     7
100
AcDbLine
 10
-0.21
 20
0.2142428528562855
 30
0.0
 11
-0.21
 21
0.5
 31
0.0
  0
LINE
  5
33
330
2E
100
AcDbEntity
  8
ASHADE
  6
Continuous
 62
     7
100
AcDbLine
 10
-0.11
 20
0.2791057147390572
 30
0.0
 11
-0.11
 21
0.5
 31
0.0
  0
LINE
  5
34
330
2E
100
AcDbEntity
  8
ASHADE
  6
Continuous
 62
     7
100
AcDbLine
 10
0.21
 20
0.2142428528562855
 30
0.0
 11
0.21
 21
0.5
 31
0.0
  0
ATTDEF
  5
35
330
2E
100
AcDbEntity
  8
ASHADE
  6
Continuous
 62
     7
100
AcDbText
 10
0.0
 20
0.25
 30
0.0
 40
0.01
  1

100
AcDbAttributeDefinition
280
     0
  3
Look-at Y
  2
LAY
 70
     1
280
     0
  0
ATTDEF
  5
36
330
2E
100
AcDbEntity
  8
ASHADE
  6
Continuous
 62
     7
100
AcDbText
 10
0.0
 20
0.22
 30
0.0
 40
0.01
  1
1
100
AcDbAttributeDefinition
280
     0
  3
Light Intensity
  2
INTENSITY
 70
     1
280
     0
  0
ATTDEF
  5
37
330
2E
100
AcDbEntity
  8
ASHADE
  6
Continuous
 62
     7
100
AcDbText
 10
0.0
 20
0.16
 30
0.0
 40
0.01
  1
-1
100
AcDbAttributeDefinition
280
     0
  3
*not used*
  2
BEAMD
 70
     1
280
     0
  0
ATTDEF
  5
38
330
2E
100
AcDbEntity
  8
ASHADE
  6
Continuous
 62
     7
100
AcDbText
 10
0.0
 20
0.175
 30
0.0
 40
0.01
  1
-1
100
AcDbAttributeDefinition
280
     0
  3
*not used*
  2
CONED
 70
     1
280
     0
  0
ATTDEF
  5
39
330
2E
100
AcDbEntity
  8
ASHADE
  6
Continuous
 62
     7
100
AcDbText
 10
0.0
 20
0.19
 30
0.0
 40
0.01
  1
0
100
AcDbAttributeDefinition
280
     0
  3
Depth Map Size
  2
CONEA
 70
     1
280
     0
  0
ATTDEF
  5
3A
330
2E
100
AcDbEntity
  8
ASHADE
  6
Continuous
 62
     7
100
AcDbText
 10
0.0
 20
0.2050000000000001
 30
0.0
 40
0.01
  1
1,1,1
100
AcDbAttributeDefinition
280
     0
  3
Light Color (RGB)
  2
COLOR
 70
     1
280
     0
  0
ATTDEF
  5
3B
330
2E
100
AcDbEntity
  8
ASHADE
  6
Continuous
 62
     7
100
AcDbText
 10
0.0
 20
0.235
 30
0.0
 40
0.01
  1

100
AcDbAttributeDefinition
280
     0
  3
Look-at Z
  2
LAZ
 70
     1
280
     0
  0
LINE
  5
3C
330
2E
100
AcDbEntity
  8
ASHADE
  6
Continuous
 62
     7
100
AcDbLine
 10
0.0
 20
0.3
 30
0.0
 11
0.0
 21
0.5
 31
0.0
  0
LINE
  5
3D
330
2E
100
AcDbEntity
  8
ASHADE
  6
Continuous
 62
     7
100
AcDbLine
 10
0.11
 20
0.2791057147390572
 30
0.0
 11
0.11
 21
0.5
 31
0.0
  0
ATTDEF
  5
3E
330
2E
100
AcDbEntity
  8
ASHADE
  6
Continuous
 62
     7
100
AcDbText
 10
0.0
 20
0.265
 30
0.0
 40
0.01
  1

100
AcDbAttributeDefinition
280
     0
  3
Look-at X
  2
LAX
 70
     1
280
     0
  0
ATTDEF
  5
3F
330
2E
100
AcDbEntity
  8
ASHADE
  6
Continuous
 62
     7
100
AcDbText
 10
0.0
 20
0.28
 30
0.0
 40
0.01
  1

100
AcDbAttributeDefinition
280
     0
  3

  2
GNAME
 70
     1
280
     0
  0
ENDBLK
  5
41
330
2E
100
AcDbEntity
  8
0
100
AcDbBlockEnd
  0
BLOCK
  5
5D
330
42
100
AcDbEntity
  8
0
100
AcDbBlockBegin
  2
overhead
 70
     2
 10
0.0
 20
0.0
 30
0.0
  3
overhead
  1

  0
ATTDEF
  5
43
330
42
100
AcDbEntity
  8
ASHADE
  6
Continuous
 62
     1
100
AcDbText
 10
0.0
 20
-0.1
 30
0.0
 40
0.2
  1

  7
ASHADE
 72
     1
 11
0.0
 21
-0.1
 31
0.0
100
AcDbAttributeDefinition
280
     0
  3
Light Name
  2
SNAME
 70
     0
280
     0
  0
ARC
  5
44
330
42
100
AcDbEntity
  8
ASHADE
  6
Continuous
 62
     7
100
AcDbCircle
 10
0.0
 20
0.0
 30
0.0
 40
0.3
100
AcDbArc
 50
205.6792886194569
 51
334.3207113805431
  0
LINE
  5
45
330
42
100
AcDbEntity
  8
ASHADE
  6
Continuous
 62
     7
100
AcDbLine
 10
-0.2041413561583015
 20
-0.2198324514393848
 30
0.0
 11
-0.2721884748777353
 21
-0.2931099352525131
 31
0.0
  0
LINE
  5
46
330
42
100
AcDbEntity
  8
ASHADE
  6
Continuous
 62
     7
100
AcDbLine
 10
-0.1096591641591904
 20
-0.2792398032442862
 30
0.0
 11
-0.1279356915190555
 21
-0.3257797704516673
 31
0.0
  0
LINE
  5
47
330
42
100
AcDbEntity
  8
ASHADE
  6
Continuous
 62
     7
100
AcDbLine
 10
0.0
 20
-0.2999999999999999
 30
0.0
 11
0.0
 21
-0.4
 31
0.0
  0
LINE
  5
48
330
42
100
AcDbEntity
  8
ASHADE
  6
Continuous
 62
     7
100
AcDbLine
 10
0.1096591641591904
 20
-0.2792398032442862
 30
0.0
 11
0.1279356915190555
 21
-0.3257797704516673
 31
0.0
  0
LINE
  5
49
330
42
100
AcDbEntity
  8
ASHADE
  6
Continuous
 62
     7
100
AcDbLine
 10
0.2041413561583015
 20
-0.2198324514393848
 30
0.0
 11
0.2721884748777353
 21
-0.2931099352525131
 31
0.0
  0
ARC
  5
4A
330
42
100
AcDbEntity
  8
ASHADE
  6
Continuous
 62
     7
100
AcDbCircle
 10
0.0
 20
0.0
 30
0.0
 40
0.3
100
AcDbArc
 50
25.67928861945685
 51
154.3207113805431
  0
LINE
  5
4B
330
42
100
AcDbEntity
  8
ASHADE
  6
Continuous
 62
     7
100
AcDbLine
 10
-0.2703701166919155
 20
0.13
 30
0.0
 11
-0.3154318028072347
 21
0.1516666666666666
 31
0.0
  0
LINE
  5
4C
330
42
100
AcDbEntity
  8
ASHADE
  6
Continuous
 62
     7
100
AcDbLine
 10
-0.2703701166919155
 20
-0.13
 30
0.0
 11
-0.3154318028072347
 21
-0.1516666666666666
 31
0.0
  0
LINE
  5
4D
330
42
100
AcDbEntity
  8
ASHADE
  6
Continuous
 62
     7
100
AcDbLine
 10
-0.2041413561583015
 20
0.2198324514393849
 30
0.0
 11
-0.2721884748777353
 21
0.2931099352525131
 31
0.0
  0
LINE
  5
4E
330
42
100
AcDbEntity
  8
ASHADE
  6
Continuous
 62
     7
100
AcDbLine
 10
-0.1096591641591904
 20
0.2792398032442862
 30
0.0
 11
-0.1279356915190555
 21
0.3257797704516674
 31
0.0
  0
LINE
  5
4F
330
42
100
AcDbEntity
  8
ASHADE
  6
Continuous
 62
     7
100
AcDbLine
 10
0.2703701166919155
 20
-0.13
 30
0.0
 11
0.3154318028072347
 21
-0.1516666666666666
 31
0.0
  0
LINE
  5
50
330
42
100
AcDbEntity
  8
ASHADE
  6
Continuous
 62
     7
100
AcDbLine
 10
0.2703701166919155
 20
0.13
 30
0.0
 11
0.3154318028072347
 21
0.1516666666666666
 31
0.0
  0
LINE
  5
51
330
42
100
AcDbEntity
  8
ASHADE
  6
Continuous
 62
     7
100
AcDbLine
 10
0.0
 20
0.3
 30
0.0
 11
0.0
 21
0.4
 31
0.0
  0
ATTDEF
  5
52
330
42
100
AcDbEntity
  8
ASHADE
  6
Continuous
 62
     7
100
AcDbText
 10
0.0
 20
0.22
 30
0.0
 40
0.01
  1
1
100
AcDbAttributeDefinition
280
     0
  3
Light Intensity
  2
INTENSITY
 70
     1
280
     0
  0
ATTDEF
  5
53
330
42
100
AcDbEntity
  8
ASHADE
  6
Continuous
 62
     7
100
AcDbText
 10
0.0
 20
0.16
 30
0.0
 40
0.01
  1
-1
100
AcDbAttributeDefinition
280
     0
  3
*not used*
  2
BEAMD
 70
     1
280
     0
  0
ATTDEF
  5
54
330
42
100
AcDbEntity
  8
ASHADE
  6
Continuous
 62
     7
100
AcDbText
 10
0.0
 20
0.175
 30
0.0
 40
0.01
  1
-1
100
AcDbAttributeDefinition
280
     0
  3
*not used*
  2
CONED
 70
     1
280
     0
  0
ATTDEF
  5
55
330
42
100
AcDbEntity
  8
ASHADE
  6
Continuous
 62
     7
100
AcDbText
 10
0.0
 20
0.19
 30
0.0
 40
0.01
  1
0
100
AcDbAttributeDefinition
280
     0
  3
Depth Map Size
  2
CONEA
 70
     1
280
     0
  0
ATTDEF
  5
56
330
42
100
AcDbEntity
  8
ASHADE
  6
Continuous
 62
     7
100
AcDbText
 10
0.0
 20
0.2050000000000001
 30
0.0
 40
0.01
  1
1,1,1
100
AcDbAttributeDefinition
280
     0
  3
Light Color (RGB)
  2
COLOR
 70
     1
280
     0
  0
ATTDEF
  5
57
330
42
100
AcDbEntity
  8
ASHADE
  6
Continuous
 62
     7
100
AcDbText
 10
0.0
 20
0.235
 30
0.0
 40
0.01
  1

100
AcDbAttributeDefinition
280
     0
  3
Look-at Z
  2
LAZ
 70
     1
280
     0
  0
ATTDEF
  5
58
330
42
100
AcDbEntity
  8
ASHADE
  6
Continuous
 62
     7
100
AcDbText
 10
0.0
 20
0.25
 30
0.0
 40
0.01
  1

100
AcDbAttributeDefinition
280
     0
  3
Look-at Y
  2
LAY
 70
     1
280
     0
  0
ATTDEF
  5
59
330
42
100
AcDbEntity
  8
ASHADE
  6
Continuous
 62
     7
100
AcDbText
 10
0.0
 20
0.265
 30
0.0
 40
0.01
  1

100
AcDbAttributeDefinition
280
     0
  3
Look-at X
  2
LAX
 70
     1
280
     0
  0
ATTDEF
  5
5A
330
42
100
AcDbEntity
  8
ASHADE
  6
Continuous
 62
     7
100
AcDbText
 10
0.0
 20
0.28
 30
0.0
 40
0.01
  1

100
AcDbAttributeDefinition
280
     0
  3

  2
GNAME
 70
     1
280
     0
  0
LINE
  5
5B
330
42
100
AcDbEntity
  8
ASHADE
  6
Continuous
 62
     7
100
AcDbLine
 10
0.1096591641591904
 20
0.2792398032442862
 30
0.0
 11
0.1279356915190555
 21
0.3257797704516674
 31
0.0
  0
LINE
  5
5C
330
42
100
AcDbEntity
  8
ASHADE
  6
Continuous
 62
     7
100
AcDbLine
 10
0.2041413561583015
 20
0.2198324514393849
 30
0.0
 11
0.2721884748777353
 21
0.2931099352525131
 31
0.0
  0
ENDBLK
  5
5E
330
42
100
AcDbEntity
  8
0
100
AcDbBlockEnd
  0
BLOCK
  5
85
330
5F
100
AcDbEntity
  8
0
100
AcDbBlockBegin
  2
sh_spot
 70
     2
 10
0.0
 20
0.0
 30
0.0
  3
sh_spot
  1

  0
LINE
  5
60
330
5F
100
AcDbEntity
  8
ASHADE
  6
Continuous
 62
     7
100
AcDbLine
 10
0.25
 20
0.26
 30
0.0
 11
-0.25
 21
0.26
 31
0.0
  0
LINE
  5
61
330
5F
100
AcDbEntity
  8
ASHADE
  6
Continuous
 62
     7
100
AcDbLine
 10
-0.25
 20
-0.3399999999999999
 30
0.0
 11
0.25
 21
-0.3399999999999999
 31
0.0
  0
ATTDEF
  5
62
330
5F
100
AcDbEntity
  8
ASHADE
  6
Continuous
 62
     1
100
AcDbText
 10
0.0
 20
-0.1
 30
0.0
 40
0.2
  1

  7
ASHADE
 72
     1
 11
0.0
 21
-0.1
 31
0.0
100
AcDbAttributeDefinition
280
     0
  3
Light Name
  2
SNAME
 70
     0
280
     0
  0
LINE
  5
63
330
5F
100
AcDbEntity
  8
ASHADE
  6
Continuous
 62
     7
100
AcDbLine
 10
-0.25
 20
-0.13
 30
0.0
 11
-0.25
 21
-0.3399999999999999
 31
0.0
  0
LINE
  5
64
330
5F
100
AcDbEntity
  8
ASHADE
  6
Continuous
 62
     7
100
AcDbLine
 10
-0.25
 20
-0.18
 30
0.0
 11
-0.29
 21
-0.18
 31
0.0
  0
LINE
  5
65
330
5F
100
AcDbEntity
  8
ASHADE
  6
Continuous
 62
     7
100
AcDbLine
 10
-0.29
 20
-0.22
 30
0.0
 11
-0.25
 21
-0.22
 31
0.0
  0
LINE
  5
66
330
5F
100
AcDbEntity
  8
ASHADE
  6
Continuous
 62
     7
100
AcDbLine
 10
-0.29
 20
-0.18
 30
0.0
 11
-0.29
 21
-0.22
 31
0.0
  0
LINE
  5
67
330
5F
100
AcDbEntity
  8
ASHADE
  6
Continuous
 62
     7
100
AcDbLine
 10
-0.1045454545454545
 20
0.26
 30
0.0
 11
-0.15
 21
0.46
 31
0.0
  0
LINE
  5
68
330
5F
100
AcDbEntity
  8
ASHADE
  6
Continuous
 62
     7
100
AcDbLine
 10
-0.21
 20
0.26
 30
0.0
 11
-0.301304347826087
 21
0.46
 31
0.0
  0
LINE
  5
69
330
5F
100
AcDbEntity
  8
ASHADE
  6
Continuous
 62
     7
100
AcDbLine
 10
-0.25
 20
0.26
 30
0.0
 11
-0.25
 21
0.13
 31
0.0
  0
LINE
  5
6A
330
5F
100
AcDbEntity
  8
ASHADE
  6
Continuous
 62
     7
100
AcDbLine
 10
-0.25
 20
0.22
 30
0.0
 11
-0.29
 21
0.22
 31
0.0
  0
LINE
  5
6B
330
5F
100
AcDbEntity
  8
ASHADE
  6
Continuous
 62
     7
100
AcDbLine
 10
-0.29
 20
0.1799999999999999
 30
0.0
 11
-0.25
 21
0.1799999999999999
 31
0.0
  0
LINE
  5
6C
330
5F
100
AcDbEntity
  8
ASHADE
  6
Continuous
 62
     7
100
AcDbLine
 10
-0.29
 20
0.22
 30
0.0
 11
-0.29
 21
0.1799999999999999
 31
0.0
  0
ATTDEF
  5
6D
330
5F
100
AcDbEntity
  8
ASHADE
  6
Continuous
 62
     7
100
AcDbText
 10
0.0
 20
-0.24
 30
0.0
 40
0.01
  1
0
100
AcDbAttributeDefinition
280
     0
  3
Depth Map Size
  2
ZSIZE
 70
     1
280
     0
  0
ATTDEF
  5
6E
330
5F
100
AcDbEntity
  8
ASHADE
  6
Continuous
 62
     7
100
AcDbText
 10
0.0
 20
-0.3300000000000001
 30
0.0
 40
0.01
  1
0,0,0
100
AcDbAttributeDefinition
280
     0
  3
Look-from XYZ
  2
LFXYZ
 70
     1
280
     0
  0
ATTDEF
  5
6F
330
5F
100
AcDbEntity
  8
ASHADE
  6
Continuous
 62
     7
100
AcDbText
 10
0.0
 20
-0.315
 30
0.0
 40
0.01
  1
0.0
100
AcDbAttributeDefinition
280
     0
  3
Beam Distribution
  2
BEAMDI
 70
     1
280
     0
  0
ATTDEF
  5
70
330
5F
100
AcDbEntity
  8
ASHADE
  6
Continuous
 62
     7
100
AcDbText
 10
0.0
 20
-0.3
 30
0.0
 40
0.01
  1
0.0
100
AcDbAttributeDefinition
280
     0
  3
Cone Delta
  2
CONEDE
 70
     1
280
     0
  0
ATTDEF
  5
71
330
5F
100
AcDbEntity
  8
ASHADE
  6
Continuous
 62
     7
100
AcDbText
 10
0.0
 20
-0.2850000000000001
 30
0.0
 40
0.01
  1
10.0
100
AcDbAttributeDefinition
280
     0
  3
Cone Angle
  2
CONEAN
 70
     1
280
     0
  0
ATTDEF
  5
72
330
5F
100
AcDbEntity
  8
ASHADE
  6
Continuous
 62
     7
100
AcDbText
 10
0.0
 20
-0.27
 30
0.0
 40
0.01
  1
-1
100
AcDbAttributeDefinition
280
     0
  3
*not used*
  2
BIASMAX
 70
     1
280
     0
  0
ATTDEF
  5
73
330
5F
100
AcDbEntity
  8
ASHADE
  6
Continuous
 62
     7
100
AcDbText
 10
0.0
 20
-0.255
 30
0.0
 40
0.01
  1
-1
100
AcDbAttributeDefinition
280
     0
  3
*not used*
  2
BIASMIN
 70
     1
280
     0
  0
ATTDEF
  5
74
330
5F
100
AcDbEntity
  8
ASHADE
  6
Continuous
 62
     7
100
AcDbText
 10
0.0
 20
-0.225
 30
0.0
 40
0.01
  1
1,1,1
100
AcDbAttributeDefinition
280
     0
  3
Light Color (RGB)
  2
COLOR
 70
     1
280
     0
  0
ATTDEF
  5
75
330
5F
100
AcDbEntity
  8
ASHADE
  6
Continuous
 62
     7
100
AcDbText
 10
0.0
 20
-0.21
 30
0.0
 40
0.01
  1
1
100
AcDbAttributeDefinition
280
     0
  3
Light Intensity
  2
INTENSITY
 70
     1
280
     0
  0
ATTDEF
  5
76
330
5F
100
AcDbEntity
  8
ASHADE
  6
Continuous
 62
     7
100
AcDbText
 10
0.0
 20
-0.15
 30
0.0
 40
0.01
  1

100
AcDbAttributeDefinition
280
     0
  3

  2
GNAME
 70
     1
280
     0
  0
ATTDEF
  5
77
330
5F
100
AcDbEntity
  8
ASHADE
  6
Continuous
 62
     7
100
AcDbText
 10
0.0
 20
-0.195
 30
0.0
 40
0.01
  1

100
AcDbAttributeDefinition
280
     0
  3
Look-at Z
  2
LAZ
 70
     1
280
     0
  0
ATTDEF
  5
78
330
5F
100
AcDbEntity
  8
ASHADE
  6
Continuous
 62
     7
100
AcDbText
 10
0.0
 20
-0.18
 30
0.0
 40
0.01
  1

100
AcDbAttributeDefinition
280
     0
  3
Look-at Y
  2
LAY
 70
     1
280
     0
  0
ATTDEF
  5
79
330
5F
100
AcDbEntity
  8
ASHADE
  6
Continuous
 62
     7
100
AcDbText
 10
0.0
 20
-0.165
 30
0.0
 40
0.01
  1

100
AcDbAttributeDefinition
280
     0
  3
Look-at X
  2
LAX
 70
     1
280
     0
  0
LINE
  5
7A
330
5F
100
AcDbEntity
  8
ASHADE
  6
Continuous
 62
     7
100
AcDbLine
 10
0.25
 20
-0.3399999999999999
 30
0.0
 11
0.25
 21
-0.13
 31
0.0
  0
LINE
  5
7B
330
5F
100
AcDbEntity
  8
ASHADE
  6
Continuous
 62
     7
100
AcDbLine
 10
0.25
 20
-0.18
 30
0.0
 11
0.29
 21
-0.18
 31
0.0
  0
LINE
  5
7C
330
5F
100
AcDbEntity
  8
ASHADE
  6
Continuous
 62
     7
100
AcDbLine
 10
0.29
 20
-0.22
 30
0.0
 11
0.25
 21
-0.22
 31
0.0
  0
LINE
  5
7D
330
5F
100
AcDbEntity
  8
ASHADE
  6
Continuous
 62
     7
100
AcDbLine
 10
0.29
 20
-0.18
 30
0.0
 11
0.29
 21
-0.22
 31
0.0
  0
LINE
  5
7E
330
5F
100
AcDbEntity
  8
ASHADE
  6
Continuous
 62
     7
100
AcDbLine
 10
0.21
 20
0.26
 30
0.0
 11
0.301304347826087
 21
0.46
 31
0.0
  0
LINE
  5
7F
330
5F
100
AcDbEntity
  8
ASHADE
  6
Continuous
 62
     7
100
AcDbLine
 10
0.1045454545454545
 20
0.26
 30
0.0
 11
0.15
 21
0.46
 31
0.0
  0
LINE
  5
80
330
5F
100
AcDbEntity
  8
ASHADE
  6
Continuous
 62
     7
100
AcDbLine
 10
0.0
 20
0.26
 30
0.0
 11
0.0
 21
0.46
 31
0.0
  0
LINE
  5
81
330
5F
100
AcDbEntity
  8
ASHADE
  6
Continuous
 62
     7
100
AcDbLine
 10
0.25
 20
0.13
 30
0.0
 11
0.25
 21
0.26
 31
0.0
  0
LINE
  5
82
330
5F
100
AcDbEntity
  8
ASHADE
  6
Continuous
 62
     7
100
AcDbLine
 10
0.25
 20
0.22
 30
0.0
 11
0.29
 21
0.22
 31
0.0
  0
LINE
  5
83
330
5F
100
AcDbEntity
  8
ASHADE
  6
Continuous
 62
     7
100
AcDbLine
 10
0.29
 20
0.1799999999999999
 30
0.0
 11
0.25
 21
0.1799999999999999
 31
0.0
  0
LINE
  5
84
330
5F
100
AcDbEntity
  8
ASHADE
  6
Continuous
 62
     7
100
AcDbLine
 10
0.29
 20
0.22
 30
0.0
 11
0.29
 21
0.1799999999999999
 31
0.0
  0
ENDBLK
  5
86
330
5F
100
AcDbEntity
  8
0
100
AcDbBlockEnd
  0
BLOCK
  5
92
330
91
100
AcDbEntity
  8
ASHADE
100
AcDbBlockBegin
  2
AVE_RENDER
 70
     0
 10
0.0
 20
0.0
 30
0.0
  3
AVE_RENDER
  1
AVE_RENDER
  0
ENDBLK
  5
93
330
91
100
AcDbEntity
  8
0
100
AcDbBlockEnd
  0
BLOCK
  5
A0
330
9F
100
AcDbEntity
  8
ASHADE
100
AcDbBlockBegin
  2
AVE_GLOBAL
 70
     0
 10
0.0
 20
0.0
 30
0.0
  3
AVE_GLOBAL
  1
AVE_GLOBAL
  0
ENDBLK
  5
A1
330
9F
100
AcDbEntity
  8
0
100
AcDbBlockEnd
  0
ENDSEC
  0
SECTION
  2
ENTITIES
  0
INSERT
  5
94
330
1F
100
AcDbEntity
  8
ASHADE
 62
     1
100
AcDbBlockReference
  2
AVE_RENDER
 10
0.0
 20
0.0
 30
0.0
1001
AVE_RENDER
1002
{
1070
     7
1000
Pref
1070
    30
1070
    20
1070
     1
1070
     0
1000

1070
    10
1070
     1
1070
    10
1040
1.0
1070
     1
1040
0.3
1040
0.7
1040
0.0
1040
10.0
1010
-1.0
1020
-1.0
1030
-1.0
1040
0.3
1070
    49
1070
     0
1070
     0
1010
1.0
1020
1.0
1030
1.0
1040
45.0
1070
     1
1070
     0
1000
WCS
1040
0.0
1070
     0
1040
10.0
1002
}
  0
INSERT
  5
95
330
1F
100
AcDbEntity
  8
ASHADE
 62
     3
100
AcDbBlockReference
  2
AVE_RENDER
 10
0.0
 20
0.0
 30
0.0
1001
AVE_RENDER
1002
{
1070
     0
1000
Full Opt
1070
     0
1070
     1
1070
     1
1070
     1
1070
     0
1070
     0
1070
     0
1070
     1
1070
     1
1040
0.0001
1040
0.0001
1002
}
  0
INSERT
  5
96
330
1F
100
AcDbEntity
  8
ASHADE
 62
     4
100
AcDbBlockReference
  2
AVE_RENDER
 10
0.0
 20
0.0
 30
0.0
1001
AVE_RENDER
1002
{
1070
     0
1000
Quick Opt
1070
     0
1070
     1
1070
     1
1070
     1
1070
     0
1070
     0
1070
     1
1002
}
  0
INSERT
  5
97
330
1F
100
AcDbEntity
  8
ASHADE
 62
     5
100
AcDbBlockReference
  2
AVE_RENDER
 10
0.0
 20
0.0
 30
0.0
1001
AVE_RENDER
1002
{
1070
     1
1000
Scanl Opt
1070
     2
1070
     0
1070
     2
1040
2.0
1040
4.0
1070
     0
1070
     1
1070
     0
1040
0.03
1002
}
  0
INSERT
  5
98
330
1F
100
AcDbEntity
  8
ASHADE
 62
     6
100
AcDbBlockReference
  2
AVE_RENDER
 10
0.0
 20
0.0
 30
0.0
1001
AVE_RENDER
1002
{
1070
     2
1000
Raytr Opt
1070
     2
1070
     0
1070
     2
1040
2.0
1040
4.0
1070
     0
1070
     1
1070
     1
1040
0.03
1070
     3
1040
0.03
1002
}
  0
INSERT
  5
99
330
1F
100
AcDbEntity
  8
ASHADE
 62
     7
100
AcDbBlockReference
  2
AVE_RENDER
 10
0.0
 20
0.0
 30
0.0
1001
AVE_RENDER
1002
{
1070
     0
1000
RFile Opt
1070
     1
1070
   640
1070
   480
1070
 10000
1070
     1
1070
     8
1070
     8
1070
     0
1070
     0
1070
     0
1070
     0
1070
     0
1070
     0
1070
     0
1002
}
  0
INSERT
  5
9A
330
1F
100
AcDbEntity
  8
ASHADE
 62
     8
100
AcDbBlockReference
  2
AVE_RENDER
 10
0.0
 20
0.0
 30
0.0
1001
AVE_RENDER
1002
{
1070
     0
1000
Fog Opt
1070
     0
1070
     0
1040
0.0
1040
1.0
1040
0.0
1040
1.0
1010
0.5
1020
0.5
1030
0.5
1002
}
  0
INSERT
  5
9B
330
1F
100
AcDbEntity
  8
ASHADE
 62
     9
100
AcDbBlockReference
  2
AVE_RENDER
 10
0.0
 20
0.0
 30
0.0
1001
AVE_RENDER
1002
{
1070
     0
1000
BG Opt
1070
     0
1070
     1
1010
0.0
1020
0.0
1030
0.0
1010
1.0
1020
0.0
1030
0.0
1010
0.0
1020
1.0
1030
0.0
1010
0.0
1020
0.0
1030
1.0
1040
0.5
1040
0.33
1040
0.0
1000

1070
     1
1000

1070
     1
1070
     1
1040
1.0
1040
1.0
1040
0.0
1040
0.0
1070
     0
1002
}
  0
INSERT
  5
A2
330
1F
100
AcDbEntity
  8
ASHADE
 62
     1
100
AcDbBlockReference
  2
AVE_GLOBAL
 10
0.0
 20
0.0
 30
0.0
1001
AVE_MATERIAL
1002
{
1000
*GLOBAL*
1000
2
1000
Global finish.
1002
{
1002
}
1002
{
1070
    63
1002
{
1002
{
1010
-1.0
1020
-1.0
1030
-1.0
1002
}
1040
0.1000000014901161
1000

1040
0.0
1002
{
1002
}
1040
0.0
1002
{
1002
}
1040
0.0
1002
}
1002
{
1002
{
1010
-1.0
1020
-1.0
1030
-1.0
1002
}
1040
0.6999999880790711
1000

1040
0.0
1002
{
1002
}
1040
0.0
1002
{
1002
}
1040
0.0
1002
}
1002
{
1002
{
1010
-1.0
1020
-1.0
1030
-1.0
1002
}
1040
0.2000000029802322
1000

1040
0.0
1002
{
1002
}
1040
0.0
1002
{
1002
}
1040
0.0
1002
}
1002
{
1070
     0
1002
{
1070
     1
1002
{
1040
1.0
1040
1.0
1000

1040
0.0
1002
{
1002
}
1040
0.0
1002
{
1002
}
1040
0.0
1002
}
1002
}
1040
1.0
1040
0.0
1040
0.0
1002
}
1002
{
1040
1.0
1040
1.0
1000

1040
0.0
1002
{
1002
}
1040
0.0
1002
{
1002
}
1040
0.0
1002
}
1002
{
1040
0.5
1040
1.0
1000

1040
0.0
1002
{
1002
}
1040
0.0
1002
{
1002
}
1040
0.0
1002
}
1002
{
1070
     0
1040
0.0
1002
{
1002
}
1040
1.0
1002
{
1002
}
1040
0.0
1002
}
1002
{
1040
0.0
1002
{
1002
{
1010
0.0
1020
0.0
1030
0.0
1002
}
1040
1.0
1000

1040
0.0
1002
{
1002
}
1040
0.0
1002
{
1002
}
1040
0.0
1002
}
1002
}
1002
{
1002
{
1070
     1
1002
{
1040
0.0
1040
1.0
1000

1040
0.0
1002
{
1002
}
1040
0.0
1002
{
1002
}
1040
0.0
1002
}
1002
}
1040
0.0
1002
{
1002
}
1010
1.0
1020
0.0
1030
0.0
1010
0.0
1020
1.0
1030
0.0
1010
0.0
1020
0.0
1030
1.0
1070
     0
1002
}
1002
{
1002
{
1040
1.0
1040
1.0
1002
{
1070
     1
1002
{
1040
1.0
1040
1.0
1000

1040
0.0
1002
{
1002
}
1040
0.0
1002
{
1002
}
1040
0.0
1002
}
1002
}
1002
}
1070
     0
1040
0.0
1002
{
1002
}
1002
}
1002
{
1002
}
1002
}
1002
{
1071
        3
1070
     3
1070
     0
1002
{
1070
     2
1070
     0
1070
     0
1040
0.0
1002
}
1070
     0
1070
     2
1002
{
1002
}
1002
}
1002
{
1040
8030.0
1040
190.3000030517578
1040
0.3050000071525574
1040
228.0
1040
545.0
1040
14.0
1040
17.39999961853027
1040
0.4560000002384186
1002
}
1002
}
  0
MESH
  5
F9
330
1F
100
AcDbEntity
  8
OracDecor_cornice_mouldings
 62
   221
420
 15050455
160
             22040
310
18560000640200000C00000013000000020000003C00000006000000020000000000002000408FC00000000000C030BF000000000000D2BE0000002000408FC000000000004031BF00000040000029C00C000000130000000A0000003C00000006000000020000000000002000408FC0000000005FDC0AC000000000649ACC
310
BF0000002000408FC000000000004031BF00000040000029C00C00000013000000120000003C00000006000000020000000000002000408FC000000000E3CA07C0000000000000D2BE0000002000408FC0000000005FDC0AC000000000649ACCBF0C000000130000001A0000003C0000000600000002000000000000200040
310
8FC00000000000C030BF000000000000D2BE0000002000408FC000000000E3CA07C0000000000000D2BE0C00000013000000220000003C00000006000000020000000000002000408FC000000000004031BF00000040000029C00000002000408FC000000000005999BF00000040214F29C00C000000130000002A0000003C
310
00000006000000020000000000002000408FC00000000063900EC000000000294FE9BF0000002000408FC000000000005999BF00000040214F29C00C00000013000000320000003C00000006000000020000000000002000408FC0000000005FDC0AC000000000649ACCBF0000002000408FC00000000063900EC000000000
310
294FE9BF0C000000130000003A0000003C00000006000000020000000000002000408FC000000000005999BF00000040214F29C00000002000408FC0000000004085B8BF000000407B9629C00C00000013000000420000003C00000006000000020000000000002000408FC000000080BDC511C000000080FCCFF2BF000000
310
2000408FC0000000004085B8BF000000407B9629C00C000000130000004A0000003C00000006000000020000000000002000408FC00000000063900EC000000000294FE9BF0000002000408FC000000080BDC511C000000080FCCFF2BF0C00000013000000520000003C00000006000000020000000000002000408FC00000
310
00004085B8BF000000407B9629C00000002000408FC000000000C069CABF000000401ACF29C00C000000130000005A0000003C00000006000000020000000000002000408FC000000000B8AD14C0000000808893F4BF0000002000408FC000000000C069CABF000000401ACF29C00C00000013000000620000003C00000006
310
000000020000000000002000408FC000000080BDC511C000000080FCCFF2BF0000002000408FC000000000B8AD14C0000000808893F4BF0C000000130000006A0000003C00000006000000020000000000002000408FC000000000C069CABF000000401ACF29C00000002000408FC0000000001020D6BF0000004076F329C0
310
0C00000013000000720000003C00000006000000020000000000002000408FC000000040F86627C000000020C08615C00000002000408FC0000000001020D6BF0000004076F329C00C000000130000007A0000003C00000006000000020000000000002000408FC000000000B8AD14C0000000808893F4BF0000002000408F
310
C000000040F86627C000000020C08615C00C00000013000000820000003C00000006000000020000000000002000408FC000000000BFBB1BC00000000008D3BCBF0000002000408FC000000000FADA23C000000000202D9BBF0C000000130000008A0000003C00000006000000020000000000002000408FC0000000806B87
310
23C0000000000000D2BE0000002000408FC000000000FADA23C000000000202D9BBF0C00000013000000920000003C00000006000000020000000000002000408FC00000000092B81CC0000000000000D2BE0000002000408FC0000000806B8723C0000000000000D2BE0C000000130000009A0000003C0000000600000002
310
0000000000002000408FC000000000BFBB1BC00000000008D3BCBF0000002000408FC00000000092B81CC0000000000000D2BE0C00000013000000A20000003C00000006000000020000000000002000408FC000000000B0D719C000000000F110E5BF0000002000408FC000000000A92524C0000000008873BABF0C000000
310
13000000AA0000003C00000006000000020000000000002000408FC000000000FADA23C000000000202D9BBF0000002000408FC000000000A92524C0000000008873BABF0C00000013000000B20000003C00000006000000020000000000002000408FC000000000BFBB1BC00000000008D3BCBF0000002000408FC0000000
310
00B0D719C000000000F110E5BF0C00000013000000BA0000003C00000006000000020000000000002000408FC000000000B0D719C000000000F110E5BF0000002000408FC0000000808C5F24C0000000008471CCBF0C00000013000000C20000003C00000006000000020000000000002000408FC000000000A92524C00000
310
00008873BABF0000002000408FC0000000808C5F24C0000000008471CCBF0C00000013000000CA0000003C00000006000000020000000000002000408FC000000000B0D719C000000000F110E5BF0000002000408FC000000000808224C000000000D2B7D7BF0C00000013000000D20000003C000000060000000200000000
310
00002000408FC0000000808C5F24C0000000008471CCBF0000002000408FC000000000808224C000000000D2B7D7BF0C00000013000000DA0000003C00000006000000020000000000002000408FC000000000288617C0000000802CA8F1BF0000002000408FC0000000403CE826C000000020181B13C00C00000013000000
310
E20000003C00000006000000020000000000002000408FC000000000808224C000000000D2B7D7BF0000002000408FC0000000403CE826C000000020181B13C00C00000013000000EA0000003C00000006000000020000000000002000408FC000000000B0D719C000000000F110E5BF0000002000408FC000000000288617
310
C0000000802CA8F1BF0C00000013000000F20000003C00000006000000020000000000002000408FC0000000001020D6BF0000004076F329C00000002000408FC0000000001802E0BF0000004000002AC00C00000013000000FA0000003C00000006000000020000000000002000408FC000000080ED6E28C000000020C056
310
18C00000002000408FC0000000001802E0BF0000004000002AC00C00000013000000020100003C00000006000000020000000000002000408FC000000040F86627C000000020C08615C00000002000408FC000000080ED6E28C000000020C05618C00C000000130000000A0100003C00000006000000020000000000002000
310
408FC0000000001802E0BF0000004000002AC00000002000408FC000000080A4D429C00000002067731AC00C00000013000000120100003C00000006000000020000000000002000408FC000000080ED6E28C000000020C05618C00000002000408FC000000080A4D429C00000002067731AC00C000000130000001A010000
310
3C00000006000000020000000000002000408FC0000000001802E0BF0000004000002AC00000002000408FC0000000800A7A2BC00000004041AF1BC00C00000013000000220100003C00000006000000020000000000002000408FC0000000001802E0BF0000004000002AC00000002000408FC000000000B7CA2CC0000000
310
4000001CC00C000000130000002A0100003C00000006000000020000000000002000408FC0000000800A7A2BC00000004041AF1BC00000002000408FC000000000B7CA2CC00000004000001CC00C00000013000000320100003C00000006000000020000000000002000408FC000000080A4D429C00000002067731AC00000
310
002000408FC0000000800A7A2BC00000004041AF1BC00C000000130000003A0100003C00000006000000020000000000002000408FC0000000001802E0BF0000004000002AC00000002000408FC00000000056D439C0000000C000001CC00C00000013000000420100003C00000006000000020000000000002000408FC000
310
000000B7CA2CC00000004000001CC00000002000408FC00000000056D439C0000000C000001CC00C000000130000004A0100003C00000006000000020000000000002000408FC000000000EDD73AC000000040F53418C00000002000408FC000000080A1083FC000000020F63418C00C00000013000000520100003C000000
310
06000000020000000000002000408FC0000000008DBD3EC0000000006258DEBF0000002000408FC000000080A1083FC000000020F63418C00C000000130000005A0100003C00000006000000020000000000002000408FC00000004001233BC0000000006658DEBF0000002000408FC0000000008DBD3EC0000000006258DE
310
BF0C00000013000000620100003C00000006000000020000000000002000408FC000000000EDD73AC000000040F53418C00000002000408FC00000004001233BC0000000006658DEBF0C000000130000006A0100003C00000006000000020000000000002000408FC0000000808EBE3AC0000000C0D8A819C0000000200040
310
8FC000000080FF213FC000000020D9A819C00C00000013000000720100003C00000006000000020000000000002000408FC000000080A1083FC000000020F63418C00000002000408FC000000080FF213FC000000020D9A819C00C000000130000007A0100003C00000006000000020000000000002000408FC000000000ED
310
D73AC000000040F53418C00000002000408FC0000000808EBE3AC0000000C0D8A819C00C00000013000000820100003C00000006000000020000000000002000408FC00000008052873AC0000000C091E61AC00000002000408FC0000000803B593FC00000002091E61AC00C000000130000008A0100003C00000006000000
310
020000000000002000408FC000000080FF213FC000000020D9A819C00000002000408FC0000000803B593FC00000002091E61AC00C00000013000000920100003C00000006000000020000000000002000408FC0000000808EBE3AC0000000C0D8A819C00000002000408FC00000008052873AC0000000C091E61AC00C0000
310
00130000009A0100003C00000006000000020000000000002000408FC000000080EC333AC00000004070AF1BC00000002000408FC000000000A2AC3FC0000000A06FAF1BC00C00000013000000A20100003C00000006000000020000000000002000408FC0000000803B593FC00000002091E61AC00000002000408FC00000
310
0000A2AC3FC0000000A06FAF1BC00C00000013000000AA0100003C00000006000000020000000000002000408FC00000008052873AC0000000C091E61AC00000002000408FC000000080EC333AC00000004070AF1BC00C00000013000000B20100003C00000006000000020000000000002000408FC00000000056D439C000
310
0000C000001CC00000002000408FC0000000401C0640C0000000A000001CC00C00000013000000BA0100003C00000006000000020000000000002000408FC000000000A2AC3FC0000000A06FAF1BC00000002000408FC0000000401C0640C0000000A000001CC00C00000013000000C20100003C0000000600000002000000
310
0000002000408FC00000000056D439C0000000C000001CC00000002000408FC000000080EC333AC00000004070AF1BC00C00000013000000CA0100003C00000006000000020000000000002000408FC0000000008DBD3EC0000000006258DEBF0000002000408FC0000000C0CFB13EC000000000D29DD2BF0C000000130000
310
00D20100003C00000006000000020000000000002000408FC000000080BE2E3BC000000000E69DD2BF0000002000408FC0000000C0CFB13EC000000000D29DD2BF0C00000013000000DA0100003C00000006000000020000000000002000408FC00000004001233BC0000000006658DEBF0000002000408FC000000080BE2E
310
3BC000000000E69DD2BF0C00000013000000E20100003C00000006000000020000000000002000408FC0000000C0CFB13EC000000000D29DD2BF0000002000408FC00000000040953EC0000000000497C1BF0C00000013000000EA0100003C00000006000000020000000000002000408FC0000000404E4B3BC0000000000C
310
97C1BF0000002000408FC00000000040953EC0000000000497C1BF0C00000013000000F20100003C00000006000000020000000000002000408FC000000080BE2E3BC000000000E69DD2BF0000002000408FC0000000404E4B3BC0000000000C97C1BF0C00000013000000FA0100003C000000060000000200000000000020
310
00408FC00000000040953EC0000000000497C1BF0000002000408FC000000080EF6B3EC000000000903DA2BF0C00000013000000020200003C00000006000000020000000000002000408FC0000000C09E743BC000000000103EA2BF0000002000408FC000000080EF6B3EC000000000903DA2BF0C000000130000000A0200
310
003C00000006000000020000000000002000408FC0000000404E4B3BC0000000000C97C1BF0000002000408FC0000000C09E743BC000000000103EA2BF0C00000013000000120200003C00000006000000020000000000002000408FC000000080EF6B3EC000000000903DA2BF0000002000408FC000000080C13B3EC00000
310
00000000A0BE0C000000130000001A0200003C00000006000000020000000000002000408FC0000000C0CCA43BC0000000000000A0BE0000002000408FC000000080C13B3EC0000000000000A0BE0C00000013000000220200003C00000006000000020000000000002000408FC0000000C09E743BC000000000103EA2BF00
310
00002000408FC0000000C0CCA43BC0000000000000A0BE0C000000130000002A0200003C00000006000000020000000000002000408FC0000000001802E0BF0000004000002AC00000002000408FC000000080FF5F50C00000000001002AC00C00000013000000320200003C00000006000000020000000000002000408FC0
310
000000401C0640C0000000A000001CC00000002000408FC000000080FF5F50C00000000001002AC00C000000130000003A0200003C00000006000000020000000000002000408FC000000080FF5F50C00000000001002AC00000002000408FC0000000C058CD49C00000002001001CC00C00000013000000420200003C0000
310
0006000000020000000000002000408FC0000000401C0640C0000000A000001CC00000002000408FC0000000C058CD49C00000002001001CC00C000000130000004A0200003C00000006000000020000000000002000408FC0000000C09CF64BC000000000C873BABF0000002000408FC0000000800C9A4DC000000000649A
310
CCBF0C00000013000000520200003C00000006000000020000000000002000408FC00000008048094CC000000000202E9BBF0000002000408FC0000000800C9A4DC000000000649ACCBF0C000000130000005A0200003C00000006000000020000000000002000408FC0000000C09CF64BC000000000C873BABF0000002000
310
408FC00000008048094CC000000000202E9BBF0C00000013000000620200003C00000006000000020000000000002000408FC0000000800C9A4DC000000000649ACCBF0000002000408FC0000000C0F4684DC0000000000000D2BE0C000000130000006A0200003C00000006000000020000000000002000408FC000000040
310
2C1E4CC0000000000000D2BE0000002000408FC0000000C0F4684DC0000000000000D2BE0C00000013000000720200003C00000006000000020000000000002000408FC00000008048094CC000000000202E9BBF0000002000408FC0000000402C1E4CC0000000000000D2BE0C000000130000007A0200003C000000060000
310
00020000000000002000408FC00000000067DF4BC000000000D2B7D7BF0000002000408FC0000000804CD54DC000000000294FE9BF0C00000013000000820200003C00000006000000020000000000002000408FC00000000024E84BC000000000A471CCBF0000002000408FC0000000804CD54DC000000000294FE9BF0C00
310
0000130000008A0200003C00000006000000020000000000002000408FC00000000067DF4BC000000000D2B7D7BF0000002000408FC00000000024E84BC000000000A471CCBF0C00000013000000920200003C00000006000000020000000000002000408FC0000000800C9A4DC000000000649ACCBF0000002000408FC000
310
0000804CD54DC000000000294FE9BF0C000000130000009A0200003C00000006000000020000000000002000408FC0000000C09CF64BC000000000C873BABF0000002000408FC00000000024E84BC000000000A471CCBF0C00000013000000A20200003C00000006000000020000000000002000408FC0000000C0F7454BC0
310
00000020191B13C00000002000408FC000000040FE244EC00000008000D0F2BF0C00000013000000AA0200003C00000006000000020000000000002000408FC0000000804CD54DC000000000294FE9BF0000002000408FC000000040FE244EC00000008000D0F2BF0C00000013000000B20200003C00000006000000020000
310
000000002000408FC00000000067DF4BC000000000D2B7D7BF0000002000408FC0000000C0F7454BC000000020191B13C00C00000013000000BA0200003C00000006000000020000000000002000408FC000000040BE634FC000000000C8D2BCBF0000002000408FC000000080FF7F50C000000080000029C00C0000001300
310
0000C20200003C00000006000000020000000000002000408FC000000080FF7F50C0000000000000D2BE0000002000408FC000000080FF7F50C000000080000029C00C00000013000000CA0200003C00000006000000020000000000002000408FC00000008058834FC0000000000000D2BE0000002000408FC000000080FF
310
7F50C0000000000000D2BE0C00000013000000D20200003C00000006000000020000000000002000408FC000000040BE634FC000000000C8D2BCBF0000002000408FC00000008058834FC0000000000000D2BE0C00000013000000DA0200003C00000006000000020000000000002000408FC0000000403C274FC000000000
310
F110E5BF0000002000408FC0000000406E7E50C000000080214F29C00C00000013000000E20200003C00000006000000020000000000002000408FC000000080FF7F50C000000080000029C00000002000408FC0000000406E7E50C000000080214F29C00C00000013000000EA0200003C0000000600000002000000000000
310
2000408FC000000040BE634FC000000000C8D2BCBF0000002000408FC0000000403C274FC000000000F110E5BF0C00000013000000F20200003C00000006000000020000000000002000408FC0000000403C274FC000000000F110E5BF0000002000408FC000000080E27950C0000000C07B9629C00C00000013000000FA02
310
00003C00000006000000020000000000002000408FC0000000406E7E50C000000080214F29C00000002000408FC000000080E27950C0000000C07B9629C00C00000013000000020300003C00000006000000020000000000002000408FC0000000400BDD4EC0000000402CA8F1BF0000002000408FC000000000CF7250C000
310
0000C019CF29C00C000000130000000A0300003C00000006000000020000000000002000408FC000000080E27950C0000000C07B9629C00000002000408FC000000000CF7250C0000000C019CF29C00C00000013000000120300003C00000006000000020000000000002000408FC0000000403C274FC000000000F110E5BF
310
0000002000408FC0000000400BDD4EC0000000402CA8F1BF0C000000130000001A0300003C00000006000000020000000000002000408FC0000000400BDD4EC0000000402CA8F1BF0000002000408FC000000080E36950C0000000C077F329C00C00000013000000220300003C00000006000000020000000000002000408F
310
C000000000CF7250C0000000C019CF29C00000002000408FC000000080E36950C0000000C077F329C00C000000130000002A0300003C00000006000000020000000000002000408FC000000080FF5F50C00000000001002AC00000002000408FC000000040FD814EC0000000808C93F4BF0C00000013000000320300003C00
310
000006000000020000000000002000408FC000000080FF5F50C00000000001002AC00000002000408FC000000080E36950C0000000C077F329C00C000000130000003A0300003C00000006000000020000000000002000408FC0000000400BDD4EC0000000402CA8F1BF0000002000408FC000000040FD814EC0000000808C
310
93F4BF0C00000013000000420300003C00000006000000020000000000002000408FC000000040FD814EC0000000808C93F4BF0000002000408FC0000000C048264BC000000020C18615C00C000000130000004A0300003C00000006000000020000000000002000408FC000000040FE244EC00000008000D0F2BF00000020
310
00408FC000000040FD814EC0000000808C93F4BF0C00000013000000520300003C00000006000000020000000000002000408FC0000000C0F7454BC000000020191B13C00000002000408FC0000000C048264BC000000020C18615C00C000000130000005A0300003C00000006000000020000000000002000408FC0000000
310
80FF5F50C00000000001002AC00000002000408FC0000000804BE44AC000000020C15618C00C00000013000000620300003C00000006000000020000000000002000408FC0000000C048264BC000000020C18615C00000002000408FC0000000804BE44AC000000020C15618C00C000000130000006A0300003C0000000600
310
0000020000000000002000408FC000000080FF5F50C00000000001002AC00000002000408FC0000000C0DD8A4AC00000002067731AC00C00000013000000720300003C00000006000000020000000000002000408FC0000000804BE44AC000000020C15618C00000002000408FC0000000C0DD8A4AC00000002067731AC00C
310
000000130000007A0300003C00000006000000020000000000002000408FC000000080FF5F50C00000000001002AC00000002000408FC00000000084214AC00000002043AF1BC00C00000013000000820300003C00000006000000020000000000002000408FC0000000C0DD8A4AC00000002067731AC00000002000408FC0
310
0000000084214AC00000002043AF1BC00C000000130000008A0300003C00000006000000020000000000002000408FC0000000C058CD49C00000002001001CC00000002000408FC00000000084214AC00000002043AF1BC00C00000013000000920300003C00000006000000020000000000002000408FC000000040F86627
310
C000000020C08615C00000002000408FC0000000403CE826C000000020181B13C00C000000130000009A0300003C00000006000000020000000000002000408FC000000000B8AD14C0000000808893F4BF0000002000408FC000000000288617C0000000802CA8F1BF0C00000013000000A20300003C000000060000000200
310
00000000000000408F4000000060FB7F50C0000000800E0029C00000000000408F40000000206A7E50C0000000802F4F29C00C00000013000000AA0300003C00000006000000020000000000000000408F4000000060FB7F50C0000000800E0029C00000002000408FC000000080FF7F50C000000080000029C00C00000013
310
000000B20300003C00000006000000020000000000002000408FC0000000406E7E50C000000080214F29C00000000000408F40000000206A7E50C0000000802F4F29C00C00000013000000BA0300003C00000006000000020000000000000000408F4000000060FB7F50C0000000800E0029C00000000000408F4000000060
310
FB7F50C00000000000201DBF0C00000013000000C20300003C00000006000000020000000000002000408FC000000080FF7F50C0000000000000D2BE0000000000408F4000000060FB7F50C00000000000201DBF0C00000013000000CA0300003C00000006000000020000000000000000408F4000000060FB7F50C0000000
310
0000201DBF0000000000408F400000004051834FC00000000000201DBF0C00000013000000D20300003C00000006000000020000000000002000408FC00000008058834FC0000000000000D2BE0000000000408F400000004051834FC00000000000201DBF0C00000013000000DA0300003C00000006000000020000000000
310
000000408F4000000000B7634FC00000000008DABCBF0000000000408F400000004051834FC00000000000201DBF0C00000013000000E20300003C00000006000000020000000000002000408FC000000040BE634FC000000000C8D2BCBF0000000000408F4000000000B7634FC00000000008DABCBF0C00000013000000EA
310
0300003C00000006000000020000000000000000408F400000004035274FC000000000D111E5BF0000000000408F4000000000B7634FC00000000008DABCBF0C00000013000000F20300003C00000006000000020000000000000000408F400000004035274FC000000000D111E5BF0000002000408FC0000000403C274FC0
310
00000000F110E5BF0C00000013000000FA0300003C00000006000000020000000000000000408F400000004004DD4EC000000040A0A8F1BF0000000000408F400000004035274FC000000000D111E5BF0C00000013000000020400003C00000006000000020000000000000000408F400000004004DD4EC000000040A0A8F1
310
BF0000002000408FC0000000400BDD4EC0000000402CA8F1BF0C000000130000000A0400003C00000006000000020000000000000000408F400000004004DD4EC000000040A0A8F1BF0000000000408F4000000000F6814EC000000080FC93F4BF0C00000013000000120400003C0000000600000002000000000000200040
310
8FC000000040FD814EC0000000808C93F4BF0000000000408F4000000000F6814EC000000080FC93F4BF0C000000130000001A0400003C00000006000000020000000000000000408F4000000000F7244EC00000008070D0F2BF0000000000408F4000000000F6814EC000000080FC93F4BF0C00000013000000220400003C
310
00000006000000020000000000000000408F4000000000F7244EC00000008070D0F2BF0000002000408FC000000040FE244EC00000008000D0F2BF0C000000130000002A0400003C00000006000000020000000000000000408F400000000045D54DC0000000000950E9BF0000000000408F4000000000F7244EC000000080
310
70D0F2BF0C00000013000000320400003C00000006000000020000000000000000408F400000000045D54DC0000000000950E9BF0000002000408FC0000000804CD54DC000000000294FE9BF0C000000130000003A0400003C00000006000000020000000000000000408F4000000000059A4DC000000000E49DCCBF000000
310
0000408F400000000045D54DC0000000000950E9BF0C00000013000000420400003C00000006000000020000000000000000408F4000000000059A4DC000000000E49DCCBF0000002000408FC0000000800C9A4DC000000000649ACCBF0C000000130000004A0400003C00000006000000020000000000000000408F400000
310
0000059A4DC000000000E49DCCBF0000000000408F4000000040ED684DC00000000000201EBF0C00000013000000520400003C00000006000000020000000000002000408FC0000000C0F4684DC0000000000000D2BE0000000000408F4000000040ED684DC00000000000201EBF0C000000130000005A0400003C00000006
310
000000020000000000000000408F40000000C0241E4CC00000000000201EBF0000000000408F4000000040ED684DC00000000000201EBF0C00000013000000620400003C00000006000000020000000000000000408F40000000C0241E4CC00000000000201EBF0000002000408FC0000000402C1E4CC0000000000000D2BE
310
0C000000130000006A0400003C00000006000000020000000000000000408F40000000C0241E4CC00000000000201EBF0000000000408F400000000041094CC000000000204A9BBF0C00000013000000720400003C00000006000000020000000000002000408FC00000008048094CC000000000202E9BBF0000000000408F
310
400000000041094CC000000000204A9BBF0C000000130000007A0400003C00000006000000020000000000000000408F400000004095F64BC000000000C87ABABF0000000000408F400000000041094CC000000000204A9BBF0C00000013000000820400003C00000006000000020000000000000000408F400000004095F6
310
4BC000000000C87ABABF0000002000408FC0000000C09CF64BC000000000C873BABF0C000000130000008A0400003C00000006000000020000000000000000408F40000000801CE84BC0000000002475CCBF0000000000408F400000004095F64BC000000000C87ABABF0C00000013000000920400003C0000000600000002
310
0000000000000000408F40000000801CE84BC0000000002475CCBF0000002000408FC00000000024E84BC000000000A471CCBF0C000000130000009A0400003C00000006000000020000000000000000408F40000000805FDF4BC00000000092B9D7BF0000000000408F40000000801CE84BC0000000002475CCBF0C000000
310
13000000A20400003C00000006000000020000000000000000408F40000000805FDF4BC00000000092B9D7BF0000002000408FC00000000067DF4BC000000000D2B7D7BF0C00000013000000AA0400003C00000006000000020000000000000000408F4000000040F0454BC000000020351B13C00000000000408F40000000
310
805FDF4BC00000000092B9D7BF0C00000013000000B20400003C00000006000000020000000000000000408F4000000040F0454BC000000020351B13C00000002000408FC0000000C0F7454BC000000020191B13C00C00000013000000BA0400003C00000006000000020000000000000000408F400000004041264BC00000
310
0020DD8615C00000000000408F4000000040F0454BC000000020351B13C00C00000013000000C20400003C00000006000000020000000000000000408F400000004041264BC000000020DD8615C00000002000408FC0000000C048264BC000000020C18615C00C00000013000000CA0400003C000000060000000200000000
310
00000000408F400000004041264BC000000020DD8615C00000000000408F400000000044E44AC000000020DD5618C00C00000013000000D20400003C00000006000000020000000000002000408FC0000000804BE44AC000000020C15618C00000000000408F400000000044E44AC000000020DD5618C00C00000013000000
310
DA0400003C00000006000000020000000000000000408F4000000040D68A4AC00000002085731AC00000000000408F400000000044E44AC000000020DD5618C00C00000013000000E20400003C00000006000000020000000000002000408FC0000000C0DD8A4AC00000002067731AC00000000000408F4000000040D68A4A
310
C00000002085731AC00C00000013000000EA0400003C00000006000000020000000000000000408F40000000C07C214AC0000000205FAF1BC00000000000408F4000000040D68A4AC00000002085731AC00C00000013000000F20400003C00000006000000020000000000002000408FC00000000084214AC00000002043AF
310
1BC00000000000408F40000000C07C214AC0000000205FAF1BC00C00000013000000FA0400003C00000006000000020000000000000000408F400000008051CD49C0000000201D001CC00000000000408F40000000C07C214AC0000000205FAF1BC00C00000013000000020500003C00000006000000020000000000000000
310
408F400000008051CD49C0000000201D001CC00000002000408FC0000000C058CD49C00000002001001CC00C000000130000000A0500003C00000006000000020000000000000000408F400000008051CD49C0000000201D001CC00000000000408F4000000080140640C0000000201D001CC00C0000001300000012050000
310
3C00000006000000020000000000002000408FC0000000401C0640C0000000A000001CC00000000000408F4000000080140640C0000000201D001CC00C000000130000001A0500003C00000006000000020000000000000000408F40000000C092AC3FC0000000208CAF1BC00000000000408F4000000080140640C0000000
310
201D001CC00C00000013000000220500003C00000006000000020000000000000000408F40000000C092AC3FC0000000208CAF1BC00000002000408FC000000000A2AC3FC0000000A06FAF1BC00C000000130000002A0500003C00000006000000020000000000000000408F40000000C092AC3FC0000000208CAF1BC00000
310
000000408F40000000402C593FC000000020AEE61AC00C00000013000000320500003C00000006000000020000000000000000408F40000000402C593FC000000020AEE61AC00000002000408FC0000000803B593FC00000002091E61AC00C000000130000003A0500003C00000006000000020000000000000000408F4000
310
000040F0213FC000000020F5A819C00000000000408F40000000402C593FC000000020AEE61AC00C00000013000000420500003C00000006000000020000000000000000408F4000000040F0213FC000000020F5A819C00000002000408FC000000080FF213FC000000020D9A819C00C000000130000004A0500003C000000
310
06000000020000000000000000408F4000000040F0213FC000000020F5A819C00000000000408F400000000092083FC000000020123518C00C00000013000000520500003C00000006000000020000000000000000408F400000000092083FC000000020123518C00000002000408FC000000080A1083FC000000020F63418
310
C00C000000130000005A0500003C00000006000000020000000000000000408F400000000092083FC000000020123518C00000000000408F40000000C07DBD3EC000000000225ADEBF0C00000013000000620500003C00000006000000020000000000002000408FC0000000008DBD3EC0000000006258DEBF000000000040
310
8F40000000C07DBD3EC000000000225ADEBF0C000000130000006A0500003C00000006000000020000000000000000408F4000000040C0B13EC000000000A29FD2BF0000000000408F40000000C07DBD3EC000000000225ADEBF0C00000013000000720500003C00000006000000020000000000002000408FC0000000C0CF
310
B13EC000000000D29DD2BF0000000000408F4000000040C0B13EC000000000A29FD2BF0C000000130000007A0500003C00000006000000020000000000000000408F400000000031953EC000000000A49AC1BF0000000000408F4000000040C0B13EC000000000A29FD2BF0C00000013000000820500003C00000006000000
310
020000000000002000408FC00000000040953EC0000000000497C1BF0000000000408F400000000031953EC000000000A49AC1BF0C000000130000008A0500003C00000006000000020000000000000000408F4000000040E06B3EC000000000104CA2BF0000000000408F400000000031953EC000000000A49AC1BF0C0000
310
0013000000920500003C00000006000000020000000000000000408F4000000040E06B3EC000000000104CA2BF0000002000408FC000000080EF6B3EC000000000903DA2BF0C000000130000009A0500003C00000006000000020000000000000000408F4000000040E06B3EC000000000104CA2BF0000000000408F400000
310
0040B23B3EC00000000000201DBF0C00000013000000A20500003C00000006000000020000000000002000408FC000000080C13B3EC0000000000000A0BE0000000000408F4000000040B23B3EC00000000000201DBF0C00000013000000AA0500003C00000006000000020000000000000000408F4000000040BDA43BC000
310
00000000201CBF0000000000408F4000000040B23B3EC00000000000201DBF0C00000013000000B20500003C00000006000000020000000000002000408FC0000000C0CCA43BC0000000000000A0BE0000000000408F4000000040BDA43BC00000000000201CBF0C00000013000000BA0500003C0000000600000002000000
310
0000000000408F40000000008F743BC000000000104CA2BF0000000000408F4000000040BDA43BC00000000000201CBF0C00000013000000C20500003C00000006000000020000000000002000408FC0000000C09E743BC000000000103EA2BF0000000000408F40000000008F743BC000000000104CA2BF0C000000130000
310
00CA0500003C00000006000000020000000000000000408F40000000003F4B3BC000000000AC9AC1BF0000000000408F40000000008F743BC000000000104CA2BF0C00000013000000D20500003C00000006000000020000000000000000408F40000000003F4B3BC000000000AC9AC1BF0000002000408FC0000000404E4B
310
3BC0000000000C97C1BF0C00000013000000DA0500003C00000006000000020000000000000000408F4000000040AF2E3BC000000000A69FD2BF0000000000408F40000000003F4B3BC000000000AC9AC1BF0C00000013000000E20500003C00000006000000020000000000000000408F4000000040AF2E3BC000000000A6
310
9FD2BF0000002000408FC000000080BE2E3BC000000000E69DD2BF0C00000013000000EA0500003C00000006000000020000000000000000408F4000000000F2223BC000000000265ADEBF0000000000408F4000000040AF2E3BC000000000A69FD2BF0C00000013000000F20500003C000000060000000200000000000000
310
00408F4000000000F2223BC000000000265ADEBF0000002000408FC00000004001233BC0000000006658DEBF0C00000013000000FA0500003C00000006000000020000000000000000408F4000000080DDD73AC000000040123518C00000000000408F4000000000F2223BC000000000265ADEBF0C00000013000000020600
310
003C00000006000000020000000000000000408F4000000080DDD73AC000000040123518C00000002000408FC000000000EDD73AC000000040F53418C00C000000130000000A0600003C00000006000000020000000000000000408F4000000080DDD73AC000000040123518C00000000000408F40000000807FBE3AC00000
310
00C0F5A819C00C00000013000000120600003C00000006000000020000000000002000408FC0000000808EBE3AC0000000C0D8A819C00000000000408F40000000807FBE3AC0000000C0F5A819C00C000000130000001A0600003C00000006000000020000000000000000408F400000008043873AC000000040AEE61AC000
310
00000000408F40000000807FBE3AC0000000C0F5A819C00C00000013000000220600003C00000006000000020000000000000000408F400000008043873AC000000040AEE61AC00000002000408FC00000008052873AC0000000C091E61AC00C000000130000002A0600003C00000006000000020000000000000000408F40
310
0000008043873AC000000040AEE61AC00000000000408F4000000000DD333AC0000000408CAF1BC00C00000013000000320600003C00000006000000020000000000002000408FC000000080EC333AC00000004070AF1BC00000000000408F4000000000DD333AC0000000408CAF1BC00C000000130000003A0600003C0000
310
0006000000020000000000000000408F40000000C046D439C0000000C01C001CC00000000000408F4000000000DD333AC0000000408CAF1BC00C00000013000000420600003C00000006000000020000000000000000408F40000000C046D439C0000000C01C001CC00000002000408FC00000000056D439C0000000C00000
310
1CC00C000000130000004A0600003C00000006000000020000000000000000408F40000000C046D439C0000000C01C001CC00000000000408F400000000098CA2CC0000000C01C001CC00C00000013000000520600003C00000006000000020000000000002000408FC000000000B7CA2CC00000004000001CC00000000000
310
408F400000000098CA2CC0000000C01C001CC00C000000130000005A0600003C00000006000000020000000000000000408F4000000000ED792BC0000000C05DAF1BC00000000000408F400000000098CA2CC0000000C01C001CC00C00000013000000620600003C00000006000000020000000000002000408FC000000080
310
0A7A2BC00000004041AF1BC00000000000408F4000000000ED792BC0000000C05DAF1BC00C000000130000006A0600003C00000006000000020000000000000000408F400000008086D429C00000002083731AC00000000000408F4000000000ED792BC0000000C05DAF1BC00C00000013000000720600003C000000060000
310
00020000000000000000408F400000008086D429C00000002083731AC00000002000408FC000000080A4D429C00000002067731AC00C000000130000007A0600003C00000006000000020000000000000000408F400000008086D429C00000002083731AC00000000000408F4000000080CF6E28C000000020DC5618C00C00
310
000013000000820600003C00000006000000020000000000002000408FC000000080ED6E28C000000020C05618C00000000000408F4000000080CF6E28C000000020DC5618C00C000000130000008A0600003C00000006000000020000000000000000408F4000000040DA6627C000000020DC8615C00000000000408F4000
310
000080CF6E28C000000020DC5618C00C00000013000000920600003C00000006000000020000000000000000408F4000000040DA6627C000000020DC8615C00000002000408FC000000040F86627C000000020C08615C00C000000130000009A0600003C00000006000000020000000000000000408F40000000C01CE826C0
310
00000020341B13C00000000000408F4000000040DA6627C000000020DC8615C00C00000013000000A20600003C00000006000000020000000000000000408F40000000C01CE826C000000020341B13C00000002000408FC0000000403CE826C000000020181B13C00C00000013000000AA0600003C00000006000000020000
310
000000000000408F40000000C01CE826C000000020341B13C00000000000408F4000000000628224C00000000092B9D7BF0C00000013000000B20600003C00000006000000020000000000000000408F4000000000628224C00000000092B9D7BF0000002000408FC000000000808224C000000000D2B7D7BF0C0000001300
310
0000BA0600003C00000006000000020000000000000000408F4000000000628224C00000000092B9D7BF0000000000408F40000000006E5F24C0000000002475CCBF0C00000013000000C20600003C00000006000000020000000000002000408FC0000000808C5F24C0000000008471CCBF0000000000408F40000000006E
310
5F24C0000000002475CCBF0C00000013000000CA0600003C00000006000000020000000000000000408F40000000808A2524C000000000C87ABABF0000000000408F40000000006E5F24C0000000002475CCBF0C00000013000000D20600003C00000006000000020000000000002000408FC000000000A92524C000000000
310
8873BABF0000000000408F40000000808A2524C000000000C87ABABF0C00000013000000DA0600003C00000006000000020000000000000000408F4000000080DBDA23C000000000204A9BBF0000000000408F40000000808A2524C000000000C87ABABF0C00000013000000E20600003C0000000600000002000000000000
310
2000408FC000000000FADA23C000000000202D9BBF0000000000408F4000000080DBDA23C000000000204A9BBF0C00000013000000EA0600003C00000006000000020000000000000000408F40000000004D8723C00000000000201DBF0000000000408F4000000080DBDA23C000000000204A9BBF0C00000013000000F206
310
00003C00000006000000020000000000000000408F40000000004D8723C00000000000201DBF0000002000408FC0000000806B8723C0000000000000D2BE0C00000013000000FA0600003C0000000600000002000000000000C0FF3F8F400000008054B81CC00000000000201DBF0000000000408F40000000004D8723C000
310
00000000201DBF0C00000013000000020700003C0000000600000002000000000000C0FF3F8F400000008054B81CC00000000000201DBF0000002000408FC00000000092B81CC0000000000000D2BE0C000000130000000A0700003C0000000600000002000000000000C0FF3F8F40000000807FBB1BC00000000008DABCBF
310
000000C0FF3F8F400000008054B81CC00000000000201DBF0C00000013000000120700003C0000000600000002000000000000C0FF3F8F40000000807FBB1BC00000000008DABCBF0000002000408FC000000000BFBB1BC00000000008D3BCBF0C000000130000001A0700003C0000000600000002000000000000C0FF3F8F
310
40000000807FBB1BC00000000008DABCBF000000C0FF3F8F400000008072D719C000000000D111E5BF0C00000013000000220700003C00000006000000020000000000002000408FC000000000B0D719C000000000F110E5BF000000C0FF3F8F400000008072D719C000000000D111E5BF0C000000130000002A0700003C00
310
00000600000002000000000000C0FF3F8F4000000080EB8517C0000000809CA8F1BF000000C0FF3F8F400000008072D719C000000000D111E5BF0C00000013000000320700003C0000000600000002000000000000C0FF3F8F4000000080EB8517C0000000809CA8F1BF0000002000408FC000000000288617C0000000802C
310
A8F1BF0C000000130000003A0700003C0000000600000002000000000000C0FF3F8F40000000807BAD14C000000080F893F4BF000000C0FF3F8F4000000080EB8517C0000000809CA8F1BF0C00000013000000420700003C0000000600000002000000000000C0FF3F8F40000000807BAD14C000000080F893F4BF00000020
310
00408FC000000000B8AD14C0000000808893F4BF0C000000130000004A0700003C0000000600000002000000000000C0FF3F8F400000000082C511C00000008070D0F2BF000000C0FF3F8F40000000807BAD14C000000080F893F4BF0C00000013000000520700003C0000000600000002000000000000C0FF3F8F40000000
310
0082C511C00000008070D0F2BF0000002000408FC000000080BDC511C000000080FCCFF2BF0C000000130000005A0700003C0000000600000002000000000000C0FF3F8F4000000000E98F0EC0000000000950E9BF000000C0FF3F8F400000000082C511C00000008070D0F2BF0C00000013000000620700003C0000000600
310
000002000000000000C0FF3F8F4000000000E98F0EC0000000000950E9BF0000002000408FC00000000063900EC000000000294FE9BF0C000000130000006A0700003C0000000600000002000000000000C0FF3F8F4000000000E5DB0AC000000000E49DCCBF000000C0FF3F8F4000000000E98F0EC0000000000950E9BF0C
310
00000013000000720700003C0000000600000002000000000000C0FF3F8F4000000000E5DB0AC000000000E49DCCBF0000002000408FC0000000005FDC0AC000000000649ACCBF0C000000130000007A0700003C0000000600000002000000000000C0FF3F8F4000000000E5DB0AC000000000E49DCCBF000000C0FF3F8F40
310
000000006DCA07C00000000000201DBF0C00000013000000820700003C00000006000000020000000000002000408FC000000000E3CA07C0000000000000D2BE000000C0FF3F8F40000000006DCA07C00000000000201DBF0C000000130000008A0700003C0000000600000002000000000000C0FF3F8F40000000000000F0
310
BE0000000000201DBF000000C0FF3F8F40000000006DCA07C00000000000201DBF0C00000013000000920700003C00000006000000020000000000002000408FC00000000000C030BF000000000000D2BE000000C0FF3F8F40000000000000F0BE0000000000201DBF0C000000130000009A0700003C000000060000000200
310
0000000000C0FF3F8F40000000000000F0BE000000400E0029C0000000C0FF3F8F40000000000000F0BE0000000000201DBF0C00000013000000A20700003C0000000600000002000000000000C0FF3F8F40000000000000F0BE000000400E0029C00000002000408FC000000000004031BF00000040000029C00C00000013
310
000000AA0700003C0000000600000002000000000000C0FF3F8F4000000000001899BF000000402F4F29C0000000C0FF3F8F40000000000000F0BE000000400E0029C00C00000013000000B20700003C0000000600000002000000000000C0FF3F8F4000000000001899BF000000402F4F29C00000002000408FC000000000
310
005999BF00000040214F29C00C00000013000000BA0700003C0000000600000002000000000000C0FF3F8F4000000000001899BF000000402F4F29C0000000C0FF3F8F40000000000075B8BF00000040899629C00C00000013000000C20700003C00000006000000020000000000002000408FC0000000004085B8BF000000
310
407B9629C0000000C0FF3F8F40000000000075B8BF00000040899629C00C00000013000000CA0700003C0000000600000002000000000000C0FF3F8F40000000004062CABF0000004027CF29C0000000C0FF3F8F40000000000075B8BF00000040899629C00C00000013000000D20700003C00000006000000020000000000
310
002000408FC000000000C069CABF000000401ACF29C0000000C0FF3F8F40000000004062CABF0000004027CF29C00C00000013000000DA0700003C0000000600000002000000000000C0FF3F8F4000000000401CD6BF0000004084F329C0000000C0FF3F8F40000000004062CABF0000004027CF29C00C00000013000000E2
310
0700003C00000006000000020000000000002000408FC0000000001020D6BF0000004076F329C0000000C0FF3F8F4000000000401CD6BF0000004084F329C00C00000013000000EA0700003C0000000600000002000000000000C0FF3F8F40000000003000E0BF000000400E002AC0000000C0FF3F8F4000000000401CD6BF
310
0000004084F329C00C00000013000000F20700003C0000000600000002000000000000C0FF3F8F40000000003000E0BF000000400E002AC00000002000408FC0000000001802E0BF0000004000002AC00C00000013000000FA0700003C0000000600000002000000000000C0FF3F8F40000000003000E0BF000000400E002A
310
C00000000000408F4000000060FB5F50C0000000000F002AC00C00000013000000020800003C00000006000000020000000000000000408F4000000060FB5F50C0000000000F002AC00000002000408FC000000080FF5F50C00000000001002AC00C000000130000000A0800003C0000000600000002000000000000000040
310
8F4000000060FB5F50C0000000000F002AC00000000000408F4000000060DF6950C0000000C085F329C00C00000013000000120800003C00000006000000020000000000000000408F4000000060DF6950C0000000C085F329C00000002000408FC000000080E36950C0000000C077F329C00C000000130000001A0800003C
310
00000006000000020000000000000000408F4000000060CA7250C0000000C027CF29C00000000000408F4000000060DF6950C0000000C085F329C00C00000013000000220800003C00000006000000020000000000000000408F4000000060CA7250C0000000C027CF29C00000002000408FC000000000CF7250C0000000C0
310
19CF29C00C000000130000002A0800003C00000006000000020000000000000000408F4000000060CA7250C0000000C027CF29C00000000000408F4000000060DE7950C0000000C0899629C00C00000013000000320800003C00000006000000020000000000002000408FC000000080E27950C0000000C07B9629C0000000
310
0000408F4000000060DE7950C0000000C0899629C00C000000130000003A0800003C00000006000000020000000000000000408F40000000206A7E50C0000000802F4F29C00000000000408F4000000060DE7950C0000000C0899629C00C00000013000000420800003C0000000600000002000000000000C0FF3F8F400000
310
00000000F0BE000000400E0029C0000000C0FF3F8F4000000000E5DB0AC000000000E49DCCBF0C000000130000004A0800003C0000000600000002000000000000C0FF3F8F4000000000001899BF000000402F4F29C0000000C0FF3F8F4000000000E98F0EC0000000000950E9BF0C00000013000000520800003C00000006
310
00000002000000000000C0FF3F8F400000000082C511C00000008070D0F2BF000000C0FF3F8F40000000000075B8BF00000040899629C00C000000130000005A0800003C0000000600000002000000000000C0FF3F8F40000000807BAD14C000000080F893F4BF000000C0FF3F8F40000000004062CABF0000004027CF29C0
310
0C00000013000000620800003C0000000600000002000000000000C0FF3F8F40000000807BAD14C000000080F893F4BF0000000000408F4000000040DA6627C000000020DC8615C00C000000130000006A0800003C00000006000000020000000000000000408F4000000040DA6627C000000020DC8615C0000000C0FF3F8F
310
4000000000401CD6BF0000004084F329C00C00000013000000720800003C0000000600000002000000000000C0FF3F8F40000000807FBB1BC00000000008DABCBF0000000000408F4000000080DBDA23C000000000204A9BBF0C000000130000007A0800003C0000000600000002000000000000C0FF3F8F400000008072D7
310
19C000000000D111E5BF0000000000408F40000000808A2524C000000000C87ABABF0C00000013000000820800003C0000000600000002000000000000C0FF3F8F400000008072D719C000000000D111E5BF0000000000408F40000000006E5F24C0000000002475CCBF0C000000130000008A0800003C0000000600000002
310
0000000000000000408F4000000000628224C00000000092B9D7BF000000C0FF3F8F400000008072D719C000000000D111E5BF0C00000013000000920800003C0000000600000002000000000000C0FF3F8F4000000080EB8517C0000000809CA8F1BF0000000000408F40000000C01CE826C000000020341B13C00C000000
310
130000009A0800003C0000000600000002000000000000C0FF3F8F40000000003000E0BF000000400E002AC00000000000408F4000000080CF6E28C000000020DC5618C00C00000013000000A20800003C0000000600000002000000000000C0FF3F8F40000000003000E0BF000000400E002AC00000000000408F40000000
310
8086D429C00000002083731AC00C00000013000000AA0800003C0000000600000002000000000000C0FF3F8F40000000003000E0BF000000400E002AC00000000000408F400000000098CA2CC0000000C01C001CC00C00000013000000B20800003C0000000600000002000000000000C0FF3F8F40000000003000E0BF0000
310
00400E002AC00000000000408F4000000000ED792BC0000000C05DAF1BC00C00000013000000BA0800003C0000000600000002000000000000C0FF3F8F40000000003000E0BF000000400E002AC00000000000408F40000000C046D439C0000000C01C001CC00C00000013000000C20800003C000000060000000200000000
310
00000000408F4000000000F2223BC000000000265ADEBF0000000000408F40000000C07DBD3EC000000000225ADEBF0C00000013000000CA0800003C00000006000000020000000000000000408F4000000080DDD73AC000000040123518C00000000000408F400000000092083FC000000020123518C00C00000013000000
310
D20800003C00000006000000020000000000000000408F4000000040F0213FC000000020F5A819C00000000000408F40000000807FBE3AC0000000C0F5A819C00C00000013000000DA0800003C00000006000000020000000000000000408F400000008043873AC000000040AEE61AC00000000000408F40000000402C593F
310
C000000020AEE61AC00C00000013000000E20800003C00000006000000020000000000000000408F40000000C092AC3FC0000000208CAF1BC00000000000408F4000000000DD333AC0000000408CAF1BC00C00000013000000EA0800003C00000006000000020000000000000000408F40000000C046D439C0000000C01C00
310
1CC00000000000408F4000000080140640C0000000201D001CC00C00000013000000F20800003C00000006000000020000000000000000408F4000000040AF2E3BC000000000A69FD2BF0000000000408F4000000040C0B13EC000000000A29FD2BF0C00000013000000FA0800003C00000006000000020000000000000000
310
408F40000000003F4B3BC000000000AC9AC1BF0000000000408F400000000031953EC000000000A49AC1BF0C00000013000000020900003C00000006000000020000000000000000408F4000000040E06B3EC000000000104CA2BF0000000000408F40000000008F743BC000000000104CA2BF0C000000130000000A090000
310
3C00000006000000020000000000000000408F4000000060FB5F50C0000000000F002AC00000000000408F4000000080140640C0000000201D001CC00C00000013000000120900003C00000006000000020000000000000000408F4000000060FB5F50C0000000000F002AC00000000000408F400000008051CD49C0000000
310
201D001CC00C000000130000001A0900003C00000006000000020000000000000000408F4000000000059A4DC000000000E49DCCBF0000000000408F400000000041094CC000000000204A9BBF0C00000013000000220900003C00000006000000020000000000000000408F400000004095F64BC000000000C87ABABF0000
310
000000408F4000000000059A4DC000000000E49DCCBF0C000000130000002A0900003C00000006000000020000000000000000408F40000000801CE84BC0000000002475CCBF0000000000408F400000000045D54DC0000000000950E9BF0C00000013000000320900003C00000006000000020000000000000000408F4000
310
0000805FDF4BC00000000092B9D7BF0000000000408F400000000045D54DC0000000000950E9BF0C000000130000003A0900003C00000006000000020000000000000000408F4000000040F0454BC000000020351B13C00000000000408F4000000000F7244EC00000008070D0F2BF0C00000013000000420900003C000000
310
06000000020000000000000000408F4000000060FB7F50C0000000800E0029C00000000000408F4000000000B7634FC00000000008DABCBF0C000000130000004A0900003C00000006000000020000000000000000408F400000004035274FC000000000D111E5BF0000000000408F40000000206A7E50C0000000802F4F29
310
C00C00000013000000520900003C00000006000000020000000000000000408F400000004035274FC000000000D111E5BF0000000000408F4000000060DE7950C0000000C0899629C00C000000130000005A0900003C00000006000000020000000000000000408F400000004004DD4EC000000040A0A8F1BF000000000040
310
8F4000000060CA7250C0000000C027CF29C00C00000013000000620900003C00000006000000020000000000000000408F400000004004DD4EC000000040A0A8F1BF0000000000408F4000000060DF6950C0000000C085F329C00C000000130000006A0900003C00000006000000020000000000000000408F4000000060FB
310
5F50C0000000000F002AC00000000000408F4000000000F6814EC000000080FC93F4BF0C00000013000000720900003C00000006000000020000000000000000408F400000004041264BC000000020DD8615C00000000000408F4000000000F6814EC000000080FC93F4BF0C000000130000007A0900003C00000006000000
310
020000000000000000408F4000000060FB5F50C0000000000F002AC00000000000408F400000000044E44AC000000020DD5618C00C00000013000000820900003C00000006000000020000000000000000408F4000000060FB5F50C0000000000F002AC00000000000408F4000000040D68A4AC00000002085731AC00C0000
310
00130000008A0900003C00000006000000020000000000000000408F4000000060FB5F50C0000000000F002AC00000000000408F40000000C07C214AC0000000205FAF1BC0
100
AcDbSubDMesh
 71
     2
 72
     0
 91
        0
 92
      148
 10
999.9998779296875
 20
-0.024505615234375
 30
-12.6546573638916
 10
999.9998779296875
 20
-0.0000152587890625
 30
-12.50010871887207
 10
999.9998779296875
 20
-0.5000228881835938
 30
-13.00010871887207
 10
999.9998779296875
 20
-3.357370376586914
 30
-0.2235684394836426
 10
999.9998779296875
 20
-3.820268630981445
 30
-0.7910199165344239
 10
999.9998779296875
 20
-4.442878723144531
 30
-1.175888538360595
 10
999.9998779296875
 20
-5.169416427612304
 30
-1.286125659942626
 10
999.9998779296875
 20
-5.880781173706054
 30
-1.103664875030517
 10
999.9998779296875
 20
-6.933103561401367
 30
-0.1127018928527832
 10
1000.0
 20
-11.45334434509277
 30
-4.77656602859497
 10
1000.0
 20
-11.70088386535644
 30
-5.381699085235595
 10
1000.0
 20
-10.25465393066406
 30
-0.3707013130187988
 10
1000.0
 20
-12.91508865356445
 30
-6.612804889678955
 10
1000.0
 20
-65.49971771240234
 30
-13.00011444091797
 10
1000.0
 20
-25.82920455932617
 30
-7.000109672546386
 10
1000.0
 20
-26.52837371826172
 30
-6.725274085998535
 10
1000.0
 20
-31.67411422729492
 30
-6.921432971954345
 10
1000.0
 20
-26.84322357177734
 30
-6.051827430725097
 10
1000.0
 20
-31.13257217407227
 30
-6.414997577667236
 10
1000.0
 20
-27.13650512695313
 30
-0.4742522239685059
 10
1000.0
 20
-31.34833145141602
 30
-6.725273609161376
 10
1000.0
 20
-27.1823616027832
 30
-0.2909941673278808
 10
1000.0
 20
-27.29393005371094
 30
-0.1375327110290527
 10
1000.0
 20
-31.03347778320312
 30
-6.051826953887939
 10
1000.0
 20
-30.42139053344727
 30
-0.0357365608215332
 10
1000.0
 20
-51.60404968261719
 30
-7.000111103057861
 10
1000.0
 20
-54.29886627197266
 30
-5.381702899932861
 10
1000.0
 20
-54.54639434814453
 30
-4.776569843292236
 10
1000.0
 20
-55.74510192871094
 30
-0.3707013130187988
 10
1000.0
 20
-55.81336975097656
 30
-0.2223248481750488
 10
1000.0
 20
-55.92642974853515
 30
-0.1034359931945801
 10
1000.0
 20
-56.23549652099609
 30
-0.000114917755127
 10
1000.0
 20
-59.20327758789063
 30
-0.2235684394836426
 10
1000.0
 20
-59.66616821289062
 30
-0.7910199165344239
 10
1000.0
 20
-60.28878784179688
 30
-1.175888538360595
 10
1000.0
 20
-61.72669219970703
 30
-1.103668451309204
 10
1000.0
 20
-62.30631256103515
 30
-0.6584248542785645
 10
1000.0
 20
-65.99971771240234
 30
-12.5001106262207
 10
1000.0
 20
-65.79360198974609
 30
-12.90460014343262
 10
1000.0
 20
-65.65425872802734
 30
-12.97562980651855
 10
999.9998779296875
 20
-7.180009841918945
 30
-0.0001111030578613
 10
1000.0
 20
-9.764259338378906
 30
-0.0001111030578613
 10
-1000.000061035156
 20
-0.0002555847167969
 30
-0.0000042915344238
 10
-1000.000061035156
 20
-2.974065780639648
 30
-0.0000042915344238
 10
-1000.000061035156
 20
-3.357603073120117
 30
-0.2234616279602051
 10
-1000.000061035156
 20
-0.0002632141113281
 30
-12.50000190734863
 10
-1000.000061035156
 20
-3.820501327514648
 30
-0.7909131050109864
 10
-1000.000061035156
 20
-0.0247535705566406
 30
-12.65455055236816
 10
-1000.000061035156
 20
-4.443105697631835
 30
-1.175777912139892
 10
-1000.000061035156
 20
-0.0957832336425781
 30
-12.79390907287597
 10
-1000.000061035156
 20
-5.169647216796875
 30
-1.286018848419189
 10
-1000.000061035156
 20
-0.2063522338867187
 30
-12.90449714660644
 10
-1000.000061035156
 20
-11.70111274719238
 30
-5.381592273712158
 10
-1000.000061035156
 20
-0.3457069396972656
 30
-12.97551155090332
 10
-1000.000061035156
 20
-6.933345794677734
 30
-0.1125950813293457
 10
-1000.000061035156
 20
-7.180244445800781
 30
-0.0000042915344238
 10
-1000.000061035156
 20
-9.764492034912109
 30
-0.0000042915344238
 10
-1000.000061035156
 20
-9.927688598632812
 30
-0.0265393257141113
 10
-1000.000061035156
 20
-6.46063232421875
 30
-0.658318042755127
 10
-1000.000061035156
 20
-10.07355499267578
 30
-0.1033253669738769
 10
-1000.000061035156
 20
-10.18661880493164
 30
-0.2222142219543457
 10
-1000.000061035156
 20
-10.2548828125
 30
-0.3705945014953613
 10
-1000.000061035156
 20
-5.881011962890625
 30
-1.10355806350708
 10
-1000.000061035156
 20
-11.45358467102051
 30
-4.776459217071533
 10
-1000.000061035156
 20
-12.21665573120117
 30
-6.084717273712158
 10
-1000.000061035156
 20
-0.5002555847167969
 30
-13.00000190734863
 10
-1000.000061035156
 20
-12.91531753540039
 30
-6.612698078155517
 10
-1000.000061035156
 20
-13.73836135864258
 30
-6.921147346496582
 10
-1000.000061035156
 20
-14.39592742919922
 30
-7.000000953674316
 10
-1000.000061035156
 20
-25.82943725585938
 30
-7.000002861022949
 10
-1000.000061035156
 20
-26.84346008300781
 30
-6.051716804504394
 10
-1000.000061035156
 20
-27.13673782348633
 30
-0.4741454124450684
 10
-1000.000061035156
 20
-30.74043273925781
 30
-0.474144458770752
 10
-1000.000061035156
 20
-31.0337142944336
 30
-6.051720142364501
 10
-1000.000061035156
 20
-26.74436187744141
 30
-6.414889335632324
 10
-1000.000061035156
 20
-31.13280487060547
 30
-6.414890766143798
 10
-1000.000061035156
 20
-26.52860260009766
 30
-6.725165367126464
 10
-1000.000061035156
 20
-31.34856414794922
 30
-6.725162982940673
 10
-1000.000061035156
 20
-26.20282745361328
 30
-6.921326637268066
 10
-1000.000061035156
 20
-31.67434692382812
 30
-6.921324253082275
 10
-1000.000061035156
 20
-32.04773712158203
 30
-7.000002384185791
 10
-1000.000061035156
 20
-27.18259429931641
 30
-0.2908873558044433
 10
-1000.000061035156
 20
-30.69457626342773
 30
-0.2908825874328613
 10
-1000.000061035156
 20
-27.29416275024414
 30
-0.1374220848083496
 10
-1000.000061035156
 20
-30.5830078125
 30
-0.1374211311340332
 10
-1000.000061035156
 20
-27.45554733276367
 30
-0.0356297492980957
 10
-1000.000061035156
 20
-30.42162322998047
 30
-0.0356259346008301
 10
-1000.000061035156
 20
-27.64374923706055
 30
-0.0000004768371582
 10
-1000.000061035156
 20
-30.23342132568359
 30
-0.0000004768371582
 10
-1000.000061035156
 20
-65.49996948242188
 30
-13.00000762939453
 10
-1000.000061035156
 20
-51.60427093505859
 30
-7.000004291534423
 10
-1000.000061035156
 20
-55.92665863037109
 30
-0.1033291816711426
 10
-1000.000061035156
 20
-56.07252502441406
 30
-0.026543140411377
 10
-1000.000061035156
 20
-59.20350646972656
 30
-0.2234616279602051
 10
-1000.000061035156
 20
-56.23572540283203
 30
-0.0000042915344238
 10
-1000.000061035156
 20
-58.8199691772461
 30
-0.0000042915344238
 10
-1000.000061035156
 20
-55.74533081054688
 30
-0.3705945014953613
 10
-1000.000061035156
 20
-55.8135986328125
 30
-0.2222180366516113
 10
-1000.000061035156
 20
-59.66639709472656
 30
-0.7909131050109864
 10
-1000.000061035156
 20
-54.54662322998046
 30
-4.776463031768798
 10
-1000.000061035156
 20
-60.28900909423828
 30
-1.175781726837158
 10
-1000.000061035156
 20
-62.77924346923828
 30
-0.1125912666320801
 10
-1000.000061035156
 20
-63.02613830566406
 30
-0.0000042915344238
 10
-1000.000061035156
 20
-65.99996948242187
 30
-0.0000042915344238
 10
-1000.000061035156
 20
-65.99996948242187
 30
-12.50000381469726
 10
-1000.000061035156
 20
-62.30652618408203
 30
-0.658318042755127
 10
-1000.000061035156
 20
-65.97547912597656
 30
-12.65455245971679
 10
-1000.000061035156
 20
-65.90444946289062
 30
-12.79391288757324
 10
-1000.000061035156
 20
-61.7269058227539
 30
-1.1035578250885
 10
-1000.000061035156
 20
-65.79388427734375
 30
-12.90449333190918
 10
-1000.000061035156
 20
-65.65451049804687
 30
-12.97552299499512
 10
-1000.000061035156
 20
-61.01554107666015
 30
-1.286022663116455
 10
-1000.000061035156
 20
-54.2990951538086
 30
-5.381596088409423
 10
-1000.000061035156
 20
-53.78355407714844
 30
-6.084721088409423
 10
-1000.000061035156
 20
-53.08489227294922
 30
-6.612698078155517
 10
-1000.000061035156
 20
-52.2618408203125
 30
-6.921154499053955
 10
999.9998779296875
 20
-0.3454742431640625
 30
-12.97561836242676
 10
999.9998779296875
 20
-0.2061233520507812
 30
-12.90459632873535
 10
999.9998779296875
 20
-0.0955352783203125
 30
-12.79401588439941
 10
1000.0
 20
-12.21642684936523
 30
-6.084824085235595
 10
999.9998779296875
 20
-6.460397720336914
 30
-0.6584248542785645
 10
1000.0
 20
-9.927455902099609
 30
-0.0266499519348145
 10
1000.0
 20
-10.07332229614258
 30
-0.1034359931945801
 10
1000.0
 20
-10.18638610839843
 30
-0.2223248481750488
 10
1000.0
 20
-13.7381362915039
 30
-6.921256065368652
 10
1000.0
 20
-14.39569091796875
 30
-7.000109672546386
 10
1000.0
 20
-26.20259094238281
 30
-6.921433448791503
 10
1000.0
 20
-26.74413299560547
 30
-6.414999961853027
 10
1000.0
 20
-27.45530700683594
 30
-0.0357365608215332
 10
1000.0
 20
-27.64351272583008
 30
-0.0001072883605957
 10
1000.0
 20
-30.23318862915039
 30
-0.0001111030578613
 10
1000.0
 20
-30.58277893066406
 30
-0.1375317573547363
 10
1000.0
 20
-30.69433975219727
 30
-0.2909932136535644
 10
1000.0
 20
-30.74020004272461
 30
-0.4742512702941895
 10
1000.0
 20
-32.04750061035156
 30
-7.000111103057861
 10
1000.0
 20
-52.26161956787109
 30
-6.921261310577392
 10
1000.0
 20
-53.08466339111328
 30
-6.612812519073486
 10
1000.0
 20
-53.7833251953125
 30
-6.084827899932861
 10
1000.0
 20
-56.07229614257812
 30
-0.0266499519348145
 10
1000.0
 20
-61.01531982421875
 30
-1.286129474639892
 10
1000.0
 20
-62.77902221679688
 30
-0.1127018928527832
 10
1000.0
 20
-65.99971771240234
 30
-0.0001111030578613
 10
1000.0
 20
-65.97522735595703
 30
-12.65465927124023
 10
1000.0
 20
-65.90419769287109
 30
-12.79401969909668
 10
1000.0
 20
-58.81974029541016
 30
-0.000114917755127
 10
1000.0
 20
-63.02591705322265
 30
-0.0001111030578613
 10
999.9998779296875
 20
-0.0000152587890625
 30
-0.0001111030578613
 10
999.9998779296875
 20
-2.973840713500976
 30
-0.0001111030578613
 93
      772
 90
        4
 90
       42
 90
       45
 90
       44
 90
       43
 90
        4
 90
       44
 90
       45
 90
       47
 90
       46
 90
        4
 90
       46
 90
       47
 90
       49
 90
       48
 90
        4
 90
       48
 90
       49
 90
       51
 90
       50
 90
        4
 90
       50
 90
       51
 90
       53
 90
       52
 90
        4
 90
       54
 90
       57
 90
       56
 90
       55
 90
        4
 90
       58
 90
       59
 90
       57
 90
       54
 90
        3
 90
       58
 90
       60
 90
       59
 90
        3
 90
       58
 90
       61
 90
       60
 90
        4
 90
       62
 90
       63
 90
       61
 90
       58
 90
        4
 90
       52
 90
       53
 90
       65
 90
       64
 90
        3
 90
       64
 90
       65
 90
       66
 90
        3
 90
       67
 90
       65
 90
       68
 90
        3
 90
       66
 90
       65
 90
       67
 90
        3
 90
       68
 90
       65
 90
       69
 90
        4
 90
       70
 90
       73
 90
       72
 90
       71
 90
        4
 90
       74
 90
       75
 90
       73
 90
       70
 90
        4
 90
       76
 90
       77
 90
       75
 90
       74
 90
        4
 90
       78
 90
       79
 90
       77
 90
       76
 90
        4
 90
       69
 90
       80
 90
       79
 90
       78
 90
        4
 90
       71
 90
       72
 90
       82
 90
       81
 90
        4
 90
       81
 90
       82
 90
       84
 90
       83
 90
        4
 90
       83
 90
       84
 90
       86
 90
       85
 90
        4
 90
       85
 90
       86
 90
       88
 90
       87
 90
        4
 90
       69
 90
       65
 90
       89
 90
       80
 90
        3
 90
       80
 90
       89
 90
       90
 90
        3
 90
       91
 90
       93
 90
       92
 90
        4
 90
       92
 90
       93
 90
       95
 90
       94
 90
        3
 90
       96
 90
       98
 90
       97
 90
        4
 90
       97
 90
       98
 90
       93
 90
       91
 90
        4
 90
       99
 90
      100
 90
       98
 90
       96
 90
        4
 90
      101
 90
      104
 90
      103
 90
      102
 90
        4
 90
      105
 90
      106
 90
      104
 90
      101
 90
        3
 90
      105
 90
      107
 90
      106
 90
        4
 90
      108
 90
      109
 90
      107
 90
      105
 90
        3
 90
      108
 90
      110
 90
      109
 90
        4
 90
      111
 90
       89
 90
      110
 90
      108
 90
        4
 90
      112
 90
      111
 90
      100
 90
       99
 90
        4
 90
      113
 90
       89
 90
      111
 90
      112
 90
        3
 90
      114
 90
       89
 90
      113
 90
        3
 90
      115
 90
       89
 90
      114
 90
        3
 90
       90
 90
       89
 90
      115
 90
        4
 90
       50
 90
       52
 90
       63
 90
       62
 90
        4
 90
      142
 90
       37
 90
      104
 90
      106
 90
        4
 90
       37
 90
      141
 90
      103
 90
      104
 90
        4
 90
      141
 90
      145
 90
      102
 90
      103
 90
        4
 90
      145
 90
      140
 90
      101
 90
      102
 90
        4
 90
      140
 90
       36
 90
      105
 90
      101
 90
        4
 90
       36
 90
       35
 90
      108
 90
      105
 90
        4
 90
       35
 90
      139
 90
      111
 90
      108
 90
        4
 90
      139
 90
       34
 90
      100
 90
      111
 90
        4
 90
       34
 90
       33
 90
       98
 90
      100
 90
        4
 90
       33
 90
       32
 90
       93
 90
       98
 90
        4
 90
       32
 90
      144
 90
       95
 90
       93
 90
        4
 90
      144
 90
       31
 90
       94
 90
       95
 90
        4
 90
       31
 90
      138
 90
       92
 90
       94
 90
        4
 90
      138
 90
       30
 90
       91
 90
       92
 90
        4
 90
       30
 90
       29
 90
       97
 90
       91
 90
        4
 90
       29
 90
       28
 90
       96
 90
       97
 90
        4
 90
       28
 90
       27
 90
       99
 90
       96
 90
        4
 90
       27
 90
       26
 90
      112
 90
       99
 90
        4
 90
       26
 90
      137
 90
      113
 90
      112
 90
        4
 90
      137
 90
      136
 90
      114
 90
      113
 90
        4
 90
      136
 90
      135
 90
      115
 90
      114
 90
        4
 90
      135
 90
       25
 90
       90
 90
      115
 90
        4
 90
       25
 90
      134
 90
       80
 90
       90
 90
        4
 90
      134
 90
       16
 90
       79
 90
       80
 90
        4
 90
       16
 90
       20
 90
       77
 90
       79
 90
        4
 90
       20
 90
       18
 90
       75
 90
       77
 90
        4
 90
       18
 90
       23
 90
       73
 90
       75
 90
        4
 90
       23
 90
      133
 90
       72
 90
       73
 90
        4
 90
      133
 90
      132
 90
       82
 90
       72
 90
        4
 90
      132
 90
      131
 90
       84
 90
       82
 90
        4
 90
      131
 90
       24
 90
       86
 90
       84
 90
        4
 90
       24
 90
      130
 90
       88
 90
       86
 90
        4
 90
      130
 90
      129
 90
       87
 90
       88
 90
        4
 90
      129
 90
      128
 90
       85
 90
       87
 90
        4
 90
      128
 90
       22
 90
       83
 90
       85
 90
        4
 90
       22
 90
       21
 90
       81
 90
       83
 90
        4
 90
       21
 90
       19
 90
       71
 90
       81
 90
        4
 90
       19
 90
       17
 90
       70
 90
       71
 90
        4
 90
       17
 90
      127
 90
       74
 90
       70
 90
        4
 90
      127
 90
       15
 90
       76
 90
       74
 90
        4
 90
       15
 90
      126
 90
       78
 90
       76
 90
        4
 90
      126
 90
       14
 90
       69
 90
       78
 90
        4
 90
       14
 90
      125
 90
       68
 90
       69
 90
        4
 90
      125
 90
      124
 90
       67
 90
       68
 90
        4
 90
      124
 90
       12
 90
       66
 90
       67
 90
        4
 90
       12
 90
      119
 90
       64
 90
       66
 90
        4
 90
      119
 90
       10
 90
       52
 90
       64
 90
        4
 90
       10
 90
        9
 90
       63
 90
       52
 90
        4
 90
        9
 90
       11
 90
       61
 90
       63
 90
        4
 90
       11
 90
      123
 90
       60
 90
       61
 90
        4
 90
      123
 90
      122
 90
       59
 90
       60
 90
        4
 90
      122
 90
      121
 90
       57
 90
       59
 90
        4
 90
      121
 90
       41
 90
       56
 90
       57
 90
        4
 90
       41
 90
       40
 90
       55
 90
       56
 90
        4
 90
       40
 90
        8
 90
       54
 90
       55
 90
        4
 90
        8
 90
      120
 90
       58
 90
       54
 90
        4
 90
      120
 90
        7
 90
       62
 90
       58
 90
        4
 90
        7
 90
        6
 90
       50
 90
       62
 90
        4
 90
        6
 90
        5
 90
       48
 90
       50
 90
        4
 90
        5
 90
        4
 90
       46
 90
       48
 90
        4
 90
        4
 90
        3
 90
       44
 90
       46
 90
        4
 90
        3
 90
      147
 90
       43
 90
       44
 90
        4
 90
      147
 90
      146
 90
       42
 90
       43
 90
        4
 90
      146
 90
        1
 90
       45
 90
       42
 90
        4
 90
        1
 90
        0
 90
       47
 90
       45
 90
        4
 90
        0
 90
      118
 90
       49
 90
       47
 90
        4
 90
      118
 90
      117
 90
       51
 90
       49
 90
        4
 90
      117
 90
      116
 90
       53
 90
       51
 90
        4
 90
      116
 90
        2
 90
       65
 90
       53
 90
        4
 90
        2
 90
       13
 90
       89
 90
       65
 90
        4
 90
       13
 90
       39
 90
      110
 90
       89
 90
        4
 90
       39
 90
       38
 90
      109
 90
      110
 90
        4
 90
       38
 90
      143
 90
      107
 90
      109
 90
        4
 90
      143
 90
      142
 90
      106
 90
      107
 90
        4
 90
      146
 90
      147
 90
        3
 90
        1
 90
        4
 90
        3
 90
        4
 90
        0
 90
        1
 90
        4
 90
        4
 90
        5
 90
      118
 90
        0
 90
        4
 90
        5
 90
        6
 90
      117
 90
      118
 90
        4
 90
        6
 90
       10
 90
      116
 90
      117
 90
        4
 90
        8
 90
       40
 90
       41
 90
      121
 90
        4
 90
      120
 90
        8
 90
      121
 90
      122
 90
        3
 90
      120
 90
      122
 90
      123
 90
        3
 90
      120
 90
      123
 90
       11
 90
        4
 90
        7
 90
      120
 90
       11
 90
        9
 90
        4
 90
       10
 90
      119
 90
        2
 90
      116
 90
        3
 90
      119
 90
       12
 90
        2
 90
        3
 90
      124
 90
      125
 90
        2
 90
        3
 90
       12
 90
      124
 90
        2
 90
        3
 90
      125
 90
       14
 90
        2
 90
        4
 90
       17
 90
       19
 90
      133
 90
       23
 90
        4
 90
      127
 90
       17
 90
       23
 90
       18
 90
        4
 90
       15
 90
      127
 90
       18
 90
       20
 90
        4
 90
      126
 90
       15
 90
       20
 90
       16
 90
        4
 90
       14
 90
      126
 90
       16
 90
      134
 90
        4
 90
       19
 90
       21
 90
      132
 90
      133
 90
        4
 90
       21
 90
       22
 90
      131
 90
      132
 90
        4
 90
       22
 90
      128
 90
       24
 90
      131
 90
        4
 90
      128
 90
      129
 90
      130
 90
       24
 90
        4
 90
       14
 90
      134
 90
       13
 90
        2
 90
        3
 90
      134
 90
       25
 90
       13
 90
        3
 90
       30
 90
      138
 90
       32
 90
        4
 90
      138
 90
       31
 90
      144
 90
       32
 90
        3
 90
       28
 90
       29
 90
       33
 90
        4
 90
       29
 90
       30
 90
       32
 90
       33
 90
        4
 90
       27
 90
       28
 90
       33
 90
       34
 90
        4
 90
      140
 90
      145
 90
      141
 90
       37
 90
        4
 90
       36
 90
      140
 90
       37
 90
      142
 90
        3
 90
       36
 90
      142
 90
      143
 90
        4
 90
       35
 90
       36
 90
      143
 90
       38
 90
        3
 90
       35
 90
       38
 90
       39
 90
        4
 90
      139
 90
       35
 90
       39
 90
       13
 90
        4
 90
       26
 90
       27
 90
       34
 90
      139
 90
        4
 90
      137
 90
       26
 90
      139
 90
       13
 90
        3
 90
      136
 90
      137
 90
       13
 90
        3
 90
      135
 90
      136
 90
       13
 90
        3
 90
       25
 90
      135
 90
       13
 90
        4
 90
        6
 90
        7
 90
        9
 90
       10
 94
      306
 90
       42
 90
       45
 90
       44
 90
       45
 90
       43
 90
       44
 90
       42
 90
       43
 90
       45
 90
       47
 90
       46
 90
       47
 90
       44
 90
       46
 90
       47
 90
       49
 90
       48
 90
       49
 90
       46
 90
       48
 90
       49
 90
       51
 90
       50
 90
       51
 90
       48
 90
       50
 90
       51
 90
       53
 90
       52
 90
       53
 90
       50
 90
       52
 90
       54
 90
       57
 90
       56
 90
       57
 90
       55
 90
       56
 90
       54
 90
       55
 90
       58
 90
       59
 90
       57
 90
       59
 90
       54
 90
       58
 90
       58
 90
       60
 90
       59
 90
       60
 90
       58
 90
       61
 90
       60
 90
       61
 90
       62
 90
       63
 90
       61
 90
       63
 90
       58
 90
       62
 90
       53
 90
       65
 90
       64
 90
       65
 90
       52
 90
       64
 90
       65
 90
       66
 90
       64
 90
       66
 90
       65
 90
       67
 90
       65
 90
       68
 90
       67
 90
       68
 90
       66
 90
       67
 90
       65
 90
       69
 90
       68
 90
       69
 90
       70
 90
       73
 90
       72
 90
       73
 90
       71
 90
       72
 90
       70
 90
       71
 90
       74
 90
       75
 90
       73
 90
       75
 90
       70
 90
       74
 90
       76
 90
       77
 90
       75
 90
       77
 90
       74
 90
       76
 90
       78
 90
       79
 90
       77
 90
       79
 90
       76
 90
       78
 90
       69
 90
       80
 90
       79
 90
       80
 90
       69
 90
       78
 90
       72
 90
       82
 90
       81
 90
       82
 90
       71
 90
       81
 90
       82
 90
       84
 90
       83
 90
       84
 90
       81
 90
       83
 90
       84
 90
       86
 90
       85
 90
       86
 90
       83
 90
       85
 90
       86
 90
       88
 90
       87
 90
       88
 90
       85
 90
       87
 90
       65
 90
       89
 90
       80
 90
       89
 90
       89
 90
       90
 90
       80
 90
       90
 90
       91
 90
       93
 90
       92
 90
       93
 90
       91
 90
       92
 90
       93
 90
       95
 90
       94
 90
       95
 90
       92
 90
       94
 90
       96
 90
       98
 90
       97
 90
       98
 90
       96
 90
       97
 90
       93
 90
       98
 90
       91
 90
       97
 90
       99
 90
      100
 90
       98
 90
      100
 90
       96
 90
       99
 90
      101
 90
      104
 90
      103
 90
      104
 90
      102
 90
      103
 90
      101
 90
      102
 90
      105
 90
      106
 90
      104
 90
      106
 90
      101
 90
      105
 90
      105
 90
      107
 90
      106
 90
      107
 90
      108
 90
      109
 90
      107
 90
      109
 90
      105
 90
      108
 90
      108
 90
      110
 90
      109
 90
      110
 90
       89
 90
      111
 90
       89
 90
      110
 90
      108
 90
      111
 90
      111
 90
      112
 90
      100
 90
      111
 90
       99
 90
      112
 90
       89
 90
      113
 90
      112
 90
      113
 90
       89
 90
      114
 90
      113
 90
      114
 90
       89
 90
      115
 90
      114
 90
      115
 90
       90
 90
      115
 90
       52
 90
       63
 90
       50
 90
       62
 90
       37
 90
      142
 90
       37
 90
      104
 90
      106
 90
      142
 90
       37
 90
      141
 90
      103
 90
      141
 90
      141
 90
      145
 90
      102
 90
      145
 90
      140
 90
      145
 90
      101
 90
      140
 90
       36
 90
      140
 90
       36
 90
      105
 90
       35
 90
       36
 90
       35
 90
      108
 90
       35
 90
      139
 90
      111
 90
      139
 90
       34
 90
      139
 90
       34
 90
      100
 90
       33
 90
       34
 90
       33
 90
       98
 90
       32
 90
       33
 90
       32
 90
       93
 90
       32
 90
      144
 90
       95
 90
      144
 90
       31
 90
      144
 90
       31
 90
       94
 90
       31
 90
      138
 90
       92
 90
      138
 90
       30
 90
      138
 90
       30
 90
       91
 90
       29
 90
       30
 90
       29
 90
       97
 90
       28
 90
       29
 90
       28
 90
       96
 90
       27
 90
       28
 90
       27
 90
       99
 90
       26
 90
       27
 90
       26
 90
      112
 90
       26
 90
      137
 90
      113
 90
      137
 90
      136
 90
      137
 90
      114
 90
      136
 90
      135
 90
      136
 90
      115
 90
      135
 90
       25
 90
      135
 90
       25
 90
       90
 90
       25
 90
      134
 90
       80
 90
      134
 90
       16
 90
      134
 90
       16
 90
       79
 90
       16
 90
       20
 90
       20
 90
       77
 90
       18
 90
       20
 90
       18
 90
       75
 90
       18
 90
       23
 90
       23
 90
       73
 90
       23
 90
      133
 90
       72
 90
      133
 90
      132
 90
      133
 90
       82
 90
      132
 90
      131
 90
      132
 90
       84
 90
      131
 90
       24
 90
      131
 90
       24
 90
       86
 90
       24
 90
      130
 90
       88
 90
      130
 90
      129
 90
      130
 90
       87
 90
      129
 90
      128
 90
      129
 90
       85
 90
      128
 90
       22
 90
      128
 90
       22
 90
       83
 90
       21
 90
       22
 90
       21
 90
       81
 90
       19
 90
       21
 90
       19
 90
       71
 90
       17
 90
       19
 90
       17
 90
       70
 90
       17
 90
      127
 90
       74
 90
      127
 90
       15
 90
      127
 90
       15
 90
       76
 90
       15
 90
      126
 90
       78
 90
      126
 90
       14
 90
      126
 90
       14
 90
       69
 90
       14
 90
      125
 90
       68
 90
      125
 90
      124
 90
      125
 90
       67
 90
      124
 90
       12
 90
      124
 90
       12
 90
       66
 90
       12
 90
      119
 90
       64
 90
      119
 90
       10
 90
      119
 90
       10
 90
       52
 90
        9
 90
       10
 90
        9
 90
       63
 90
        9
 90
       11
 90
       11
 90
       61
 90
       11
 90
      123
 90
       60
 90
      123
 90
      122
 90
      123
 90
       59
 90
      122
 90
      121
 90
      122
 90
       57
 90
      121
 90
       41
 90
      121
 90
       41
 90
       56
 90
       40
 90
       41
 90
       40
 90
       55
 90
        8
 90
       40
 90
        8
 90
       54
 90
        8
 90
      120
 90
       58
 90
      120
 90
        7
 90
      120
 90
        7
 90
       62
 90
        6
 90
        7
 90
        6
 90
       50
 90
        5
 90
        6
 90
        5
 90
       48
 90
        4
 90
        5
 90
        4
 90
       46
 90
        3
 90
        4
 90
        3
 90
       44
 90
        3
 90
      147
 90
       43
 90
      147
 90
      146
 90
      147
 90
       42
 90
      146
 90
        1
 90
      146
 90
        1
 90
       45
 90
        0
 90
        1
 90
        0
 90
       47
 90
        0
 90
      118
 90
       49
 90
      118
 90
      117
 90
      118
 90
       51
 90
      117
 90
      116
 90
      117
 90
       53
 90
      116
 90
        2
 90
      116
 90
        2
 90
       65
 90
        2
 90
       13
 90
       13
 90
       89
 90
       13
 90
       39
 90
       39
 90
      110
 90
       38
 90
       39
 90
       38
 90
      109
 90
       38
 90
      143
 90
      107
 90
      143
 90
      142
 90
      143
 90
        1
 90
        3
 90
        0
 90
        4
 90
        5
 90
      118
 90
        6
 90
      117
 90
        6
 90
       10
 90
       10
 90
      116
 90
        8
 90
      121
 90
      120
 90
      122
 90
      120
 90
      123
 90
       11
 90
      120
 90
        7
 90
        9
 90
        2
 90
      119
 90
        2
 90
       12
 90
        2
 90
      125
 90
        2
 90
      124
 90
        2
 90
       14
 90
       19
 90
      133
 90
       17
 90
       23
 90
       18
 90
      127
 90
       15
 90
       20
 90
       16
 90
      126
 90
       14
 90
      134
 90
       21
 90
      132
 90
       22
 90
      131
 90
       24
 90
      128
 90
       13
 90
      134
 90
       13
 90
       25
 90
       32
 90
      138
 90
       30
 90
       32
 90
       29
 90
       33
 90
       28
 90
       33
 90
       27
 90
       34
 90
       37
 90
      140
 90
       36
 90
      142
 90
       36
 90
      143
 90
       35
 90
       38
 90
       35
 90
       39
 90
       13
 90
      139
 90
       26
 90
      139
 90
       13
 90
      137
 90
       13
 90
      136
 90
       13
 90
      135
 95
      306
140
0.0
140
0.0
140
0.0
140
0.0
140
0.0
140
0.0
140
0.0
140
0.0
140
0.0
140
0.0
140
0.0
140
0.0
140
0.0
140
0.0
140
0.0
140
0.0
140
0.0
140
0.0
140
0.0
140
0.0
140
0.0
140
0.0
140
0.0
140
0.0
140
0.0
140
0.0
140
0.0
140
0.0
140
0.0
140
0.0
140
0.0
140
0.0
140
0.0
140
0.0
140
0.0
140
0.0
140
0.0
140
0.0
140
0.0
140
0.0
140
0.0
140
0.0
140
0.0
140
0.0
140
0.0
140
0.0
140
0.0
140
0.0
140
0.0
140
0.0
140
0.0
140
0.0
140
0.0
140
0.0
140
0.0
140
0.0
140
0.0
140
0.0
140
0.0
140
0.0
140
0.0
140
0.0
140
0.0
140
0.0
140
0.0
140
0.0
140
0.0
140
0.0
140
0.0
140
0.0
140
0.0
140
0.0
140
0.0
140
0.0
140
0.0
140
0.0
140
0.0
140
0.0
140
0.0
140
0.0
140
0.0
140
0.0
140
0.0
140
0.0
140
0.0
140
0.0
140
0.0
140
0.0
140
0.0
140
0.0
140
0.0
140
0.0
140
0.0
140
0.0
140
0.0
140
0.0
140
0.0
140
0.0
140
0.0
140
0.0
140
0.0
140
0.0
140
0.0
140
0.0
140
0.0
140
0.0
140
0.0
140
0.0
140
0.0
140
0.0
140
0.0
140
0.0
140
0.0
140
0.0
140
0.0
140
0.0
140
0.0
140
0.0
140
0.0
140
0.0
140
0.0
140
0.0
140
0.0
140
0.0
140
0.0
140
0.0
140
0.0
140
0.0
140
0.0
140
0.0
140
0.0
140
0.0
140
0.0
140
0.0
140
0.0
140
0.0
140
0.0
140
0.0
140
0.0
140
0.0
140
0.0
140
0.0
140
0.0
140
0.0
140
0.0
140
0.0
140
0.0
140
0.0
140
0.0
140
0.0
140
0.0
140
0.0
140
0.0
140
0.0
140
0.0
140
0.0
140
0.0
140
0.0
140
0.0
140
0.0
140
0.0
140
0.0
140
0.0
140
0.0
140
0.0
140
0.0
140
0.0
140
0.0
140
0.0
140
0.0
140
0.0
140
0.0
140
0.0
140
0.0
140
0.0
140
0.0
140
0.0
140
0.0
140
0.0
140
0.0
140
0.0
140
0.0
140
0.0
140
0.0
140
0.0
140
0.0
140
0.0
140
0.0
140
0.0
140
0.0
140
0.0
140
0.0
140
0.0
140
0.0
140
0.0
140
0.0
140
0.0
140
0.0
140
0.0
140
0.0
140
0.0
140
0.0
140
0.0
140
0.0
140
0.0
140
0.0
140
0.0
140
0.0
140
0.0
140
0.0
140
0.0
140
0.0
140
0.0
140
0.0
140
0.0
140
0.0
140
0.0
140
0.0
140
0.0
140
0.0
140
0.0
140
0.0
140
0.0
140
0.0
140
0.0
140
0.0
140
0.0
140
0.0
140
0.0
140
0.0
140
0.0
140
0.0
140
0.0
140
0.0
140
0.0
140
0.0
140
0.0
140
0.0
140
0.0
140
0.0
140
0.0
140
0.0
140
0.0
140
0.0
140
0.0
140
0.0
140
0.0
140
0.0
140
0.0
140
0.0
140
0.0
140
0.0
140
0.0
140
0.0
140
0.0
140
0.0
140
0.0
140
0.0
140
0.0
140
0.0
140
0.0
140
0.0
140
0.0
140
0.0
140
0.0
140
0.0
140
0.0
140
0.0
140
0.0
140
0.0
140
0.0
140
0.0
140
0.0
140
0.0
140
0.0
140
0.0
140
0.0
140
0.0
140
0.0
140
0.0
140
0.0
140
0.0
140
0.0
140
0.0
140
0.0
140
0.0
140
0.0
140
0.0
140
0.0
140
0.0
140
0.0
140
0.0
140
0.0
140
0.0
140
0.0
140
0.0
140
0.0
140
0.0
140
0.0
140
0.0
140
0.0
140
0.0
140
0.0
140
0.0
140
0.0
140
0.0
 90
        0
  0
POLYLINE
  5
FA
330
1F
100
AcDbEntity
  8
OracDecor_cornice_mouldings
 62
    73
420
  9429335
100
AcDb3dPolyline
 66
     1
 10
0.0
 20
0.0
 30
0.0
 70
     9
  0
VERTEX
  5
FB
330
FA
100
AcDbEntity
  8
OracDecor_cornice_mouldings
 62
    73
420
  9429335
100
AcDbVertex
100
AcDb3dPolylineVertex
 10
-0.0000207966731978
 20
0.000023350074116
 30
-0.0000081136831795
 70
    32
  0
VERTEX
  5
FC
330
FA
100
AcDbEntity
  8
OracDecor_cornice_mouldings
 62
    73
420
  9429335
100
AcDbVertex
100
AcDb3dPolylineVertex
 10
-0.0000202502760658
 20
0.000023350074116
 30
-12.50000762939453
 70
    32
  0
VERTEX
  5
FD
330
FA
100
AcDbEntity
  8
OracDecor_cornice_mouldings
 62
    73
420
  9429335
100
AcDbVertex
100
AcDb3dPolylineVertex
 10
-0.0000202387509489
 20
0.0245137065649033
 30
-12.65455627441406
 70
    32
  0
VERTEX
  5
FE
330
FA
100
AcDbEntity
  8
OracDecor_cornice_mouldings
 62
    73
420
  9429335
100
AcDbVertex
100
AcDb3dPolylineVertex
 10
-0.000020218831196
 20
0.0955433696508408
 30
-12.79391288757324
 70
    32
  0
VERTEX
  5
FF
330
FA
100
AcDbEntity
  8
OracDecor_cornice_mouldings
 62
    73
420
  9429335
100
AcDbVertex
100
AcDb3dPolylineVertex
 10
-0.0000201924685825
 20
0.2061238139867783
 30
-12.90449523925781
 70
    32
  0
VERTEX
  5
100
330
FA
100
AcDbEntity
  8
OracDecor_cornice_mouldings
 62
    73
420
  9429335
100
AcDbVertex
100
AcDb3dPolylineVertex
 10
-0.0000201622315217
 20
0.3454747200012207
 30
-12.97551727294922
 70
    32
  0
VERTEX
  5
101
330
FA
100
AcDbEntity
  8
OracDecor_cornice_mouldings
 62
    73
420
  9429335
100
AcDbVertex
100
AcDb3dPolylineVertex
 10
-0.0000201310704142
 20
0.500023365020752
 30
-13.00000762939453
 70
    32
  0
VERTEX
  5
102
330
FA
100
AcDbEntity
  8
OracDecor_cornice_mouldings
 62
    73
420
  9429335
100
AcDbVertex
100
AcDb3dPolylineVertex
 10
0.0000230424157053
 20
65.49972534179687
 30
-13.0
 70
    32
  0
VERTEX
  5
103
330
FA
100
AcDbEntity
  8
OracDecor_cornice_mouldings
 62
    73
420
  9429335
100
AcDbVertex
100
AcDb3dPolylineVertex
 10
0.0000230714395002
 20
65.65428161621094
 30
-12.97551155090332
 70
    32
  0
VERTEX
  5
104
330
FA
100
AcDbEntity
  8
OracDecor_cornice_mouldings
 62
    73
420
  9429335
100
AcDbVertex
100
AcDb3dPolylineVertex
 10
0.0000230954647122
 20
65.79362487792969
 30
-12.90448570251465
 70
    32
  0
VERTEX
  5
105
330
FA
100
AcDbEntity
  8
OracDecor_cornice_mouldings
 62
    73
420
  9429335
100
AcDbVertex
100
AcDb3dPolylineVertex
 10
0.0000231121666729
 20
65.90422058105469
 30
-12.79390144348144
 70
    32
  0
VERTEX
  5
106
330
FA
100
AcDbEntity
  8
OracDecor_cornice_mouldings
 62
    73
420
  9429335
100
AcDbVertex
100
AcDb3dPolylineVertex
 10
0.0000231198991969
 20
65.97523498535156
 30
-12.65454483032226
 70
    32
  0
VERTEX
  5
107
330
FA
100
AcDbEntity
  8
OracDecor_cornice_mouldings
 62
    73
420
  9429335
100
AcDbVertex
100
AcDb3dPolylineVertex
 10
0.0000231179146795
 20
65.99972534179688
 30
-12.49999809265136
 70
    32
  0
VERTEX
  5
108
330
FA
100
AcDbEntity
  8
OracDecor_cornice_mouldings
 62
    73
420
  9429335
100
AcDbVertex
100
AcDb3dPolylineVertex
 10
0.0000225715230044
 20
65.99972534179688
 30
-0.0000042989845497
 70
    32
  0
VERTEX
  5
109
330
FA
100
AcDbEntity
  8
OracDecor_cornice_mouldings
 62
    73
420
  9429335
100
AcDbVertex
100
AcDb3dPolylineVertex
 10
0.0000219924968405
 20
63.02590942382813
 30
-0.0000042989845497
 70
    32
  0
VERTEX
  5
10A
330
FA
100
AcDbEntity
  8
OracDecor_cornice_mouldings
 62
    73
420
  9429335
100
AcDbVertex
100
AcDb3dPolylineVertex
 10
0.0000219493485929
 20
62.77901458740235
 30
-0.1125950887799263
 70
    32
  0
VERTEX
  5
10B
330
FA
100
AcDbEntity
  8
OracDecor_cornice_mouldings
 62
    73
420
  9429335
100
AcDbVertex
100
AcDb3dPolylineVertex
 10
0.0000218811601371
 20
62.30630111694336
 30
-0.658318042755127
 70
    32
  0
VERTEX
  5
10C
330
FA
100
AcDbEntity
  8
OracDecor_cornice_mouldings
 62
    73
420
  9429335
100
AcDbVertex
100
AcDb3dPolylineVertex
 10
0.0000217877677642
 20
61.72668075561523
 30
-1.10355806350708
 70
    32
  0
VERTEX
  5
10D
330
FA
100
AcDbEntity
  8
OracDecor_cornice_mouldings
 62
    73
420
  9429335
100
AcDbVertex
100
AcDb3dPolylineVertex
 10
0.0000216572334466
 20
61.01531219482422
 30
-1.286018848419189
 70
    32
  0
VERTEX
  5
10E
330
FA
100
AcDbEntity
  8
OracDecor_cornice_mouldings
 62
    73
420
  9429335
100
AcDbVertex
100
AcDb3dPolylineVertex
 10
0.0000215109557757
 20
60.28878021240235
 30
-1.175781726837158
 70
    32
  0
VERTEX
  5
10F
330
FA
100
AcDbEntity
  8
OracDecor_cornice_mouldings
 62
    73
420
  9429335
100
AcDbVertex
100
AcDb3dPolylineVertex
 10
0.000021372903575
 20
59.66616821289062
 30
-0.7909131050109864
 70
    32
  0
VERTEX
  5
110
330
FA
100
AcDbEntity
  8
OracDecor_cornice_mouldings
 62
    73
420
  9429335
100
AcDbVertex
100
AcDb3dPolylineVertex
 10
0.0000212579743675
 20
59.20327758789063
 30
-0.2234578132629394
 70
    32
  0
VERTEX
  5
111
330
FA
100
AcDbEntity
  8
OracDecor_cornice_mouldings
 62
    73
420
  9429335
100
AcDbVertex
100
AcDb3dPolylineVertex
 10
0.0000211735241464
 20
58.81973648071289
 30
-0.0000042989845497
 70
    32
  0
VERTEX
  5
112
330
FA
100
AcDbEntity
  8
OracDecor_cornice_mouldings
 62
    73
420
  9429335
100
AcDbVertex
100
AcDb3dPolylineVertex
 10
0.0000054115680541
 20
56.23549270629883
 30
-0.0000042989850044
 70
    32
  0
VERTEX
  5
113
330
FA
100
AcDbEntity
  8
OracDecor_cornice_mouldings
 62
    73
420
  9429335
100
AcDbVertex
100
AcDb3dPolylineVertex
 10
0.0000053809526435
 20
56.07229614257812
 30
-0.0265431478619576
 70
    32
  0
VERTEX
  5
114
330
FA
100
AcDbEntity
  8
OracDecor_cornice_mouldings
 62
    73
420
  9429335
100
AcDbVertex
100
AcDb3dPolylineVertex
 10
0.0000053559087974
 20
55.92642974853515
 30
-0.1033253744244575
 70
    32
  0
VERTEX
  5
115
330
FA
100
AcDbEntity
  8
OracDecor_cornice_mouldings
 62
    73
420
  9429335
100
AcDbVertex
100
AcDb3dPolylineVertex
 10
0.0000053390904213
 20
55.8133659362793
 30
-0.2222142219543457
 70
    32
  0
VERTEX
  5
116
330
FA
100
AcDbEntity
  8
OracDecor_cornice_mouldings
 62
    73
420
  9429335
100
AcDbVertex
100
AcDb3dPolylineVertex
 10
0.0000053322842177
 20
55.74509811401367
 30
-0.3705906867980957
 70
    32
  0
VERTEX
  5
117
330
FA
100
AcDbEntity
  8
OracDecor_cornice_mouldings
 62
    73
420
  9429335
100
AcDbVertex
100
AcDb3dPolylineVertex
 10
0.0000052914733715
 20
54.54639053344727
 30
-4.776459217071533
 70
    32
  0
VERTEX
  5
118
330
FA
100
AcDbEntity
  8
OracDecor_cornice_mouldings
 62
    73
420
  9429335
100
AcDbVertex
100
AcDb3dPolylineVertex
 10
0.0000052697309911
 20
54.29886627197266
 30
-5.381592273712158
 70
    32
  0
VERTEX
  5
119
330
FA
100
AcDbEntity
  8
OracDecor_cornice_mouldings
 62
    73
420
  9429335
100
AcDbVertex
100
AcDb3dPolylineVertex
 10
0.0000052000859796
 20
53.7833251953125
 30
-6.084717273712158
 70
    32
  0
VERTEX
  5
11A
330
FA
100
AcDbEntity
  8
OracDecor_cornice_mouldings
 62
    73
420
  9429335
100
AcDbVertex
100
AcDb3dPolylineVertex
 10
0.0000050871294661
 20
53.08466339111328
 30
-6.612701892852783
 70
    32
  0
VERTEX
  5
11B
330
FA
100
AcDbEntity
  8
OracDecor_cornice_mouldings
 62
    73
420
  9429335
100
AcDbVertex
100
AcDb3dPolylineVertex
 10
0.0000049403597586
 20
52.26161575317383
 30
-6.921150684356689
 70
    32
  0
VERTEX
  5
11C
330
FA
100
AcDbEntity
  8
OracDecor_cornice_mouldings
 62
    73
420
  9429335
100
AcDbVertex
100
AcDb3dPolylineVertex
 10
0.0000048157717174
 20
51.60404586791992
 30
-7.000004291534423
 70
    32
  0
VERTEX
  5
11D
330
FA
100
AcDbEntity
  8
OracDecor_cornice_mouldings
 62
    73
420
  9429335
100
AcDbVertex
100
AcDb3dPolylineVertex
 10
0.0000010079725143
 20
32.04750061035156
 30
-7.000004291534423
 70
    32
  0
VERTEX
  5
11E
330
FA
100
AcDbEntity
  8
OracDecor_cornice_mouldings
 62
    73
420
  9429335
100
AcDbVertex
100
AcDb3dPolylineVertex
 10
0.0000009318318916
 20
31.67411422729492
 30
-6.921326160430908
 70
    32
  0
VERTEX
  5
11F
330
FA
100
AcDbEntity
  8
OracDecor_cornice_mouldings
 62
    73
420
  9429335
100
AcDbVertex
100
AcDb3dPolylineVertex
 10
0.0000008598262866
 20
31.34833145141602
 30
-6.725166797637939
 70
    32
  0
VERTEX
  5
120
330
FA
100
AcDbEntity
  8
OracDecor_cornice_mouldings
 62
    73
420
  9429335
100
AcDbVertex
100
AcDb3dPolylineVertex
 10
0.0000008042534319
 20
31.13257217407227
 30
-6.414890766143798
 70
    32
  0
VERTEX
  5
121
330
FA
100
AcDbEntity
  8
OracDecor_cornice_mouldings
 62
    73
420
  9429335
100
AcDbVertex
100
AcDb3dPolylineVertex
 10
0.0000007690850907
 20
31.03347778320312
 30
-6.051720142364501
 70
    32
  0
VERTEX
  5
122
330
FA
100
AcDbEntity
  8
OracDecor_cornice_mouldings
 62
    73
420
  9429335
100
AcDbVertex
100
AcDb3dPolylineVertex
 10
0.0000004681769497
 20
30.74020004272461
 30
-0.4741482734680176
 70
    32
  0
VERTEX
  5
123
330
FA
100
AcDbEntity
  8
OracDecor_cornice_mouldings
 62
    73
420
  9429335
100
AcDbVertex
100
AcDb3dPolylineVertex
 10
0.0000004512380656
 20
30.69433975219727
 30
-0.2908864021301269
 70
    32
  0
VERTEX
  5
124
330
FA
100
AcDbEntity
  8
OracDecor_cornice_mouldings
 62
    73
420
  9429335
100
AcDbVertex
100
AcDb3dPolylineVertex
 10
0.0000004228081707
 20
30.58277893066406
 30
-0.1374249458312988
 70
    32
  0
VERTEX
  5
125
330
FA
100
AcDbEntity
  8
OracDecor_cornice_mouldings
 62
    73
420
  9429335
100
AcDbVertex
100
AcDb3dPolylineVertex
 10
0.0000003869345164
 20
30.42139053344727
 30
-0.0356297567486763
 70
    32
  0
VERTEX
  5
126
330
FA
100
AcDbEntity
  8
OracDecor_cornice_mouldings
 62
    73
420
  9429335
100
AcDbVertex
100
AcDb3dPolylineVertex
 10
0.0000003487334652
 20
30.23318862915039
 30
-0.0000042989850044
 70
    32
  0
VERTEX
  5
127
330
FA
100
AcDbEntity
  8
OracDecor_cornice_mouldings
 62
    73
420
  9429335
100
AcDbVertex
100
AcDb3dPolylineVertex
 10
-0.0000001554958544
 20
27.64351272583008
 30
-0.0000042989850044
 70
    32
  0
VERTEX
  5
128
330
FA
100
AcDbEntity
  8
OracDecor_cornice_mouldings
 62
    73
420
  9429335
100
AcDbVertex
100
AcDb3dPolylineVertex
 10
-0.0000001905827958
 20
27.45530700683594
 30
-0.0356297567486763
 70
    32
  0
VERTEX
  5
129
330
FA
100
AcDbEntity
  8
OracDecor_cornice_mouldings
 62
    73
420
  9429335
100
AcDbVertex
100
AcDb3dPolylineVertex
 10
-0.0000002175543159
 20
27.29393005371094
 30
-0.1374249458312988
 70
    32
  0
VERTEX
  5
12A
330
FA
100
AcDbEntity
  8
OracDecor_cornice_mouldings
 62
    73
420
  9429335
100
AcDbVertex
100
AcDb3dPolylineVertex
 10
-0.0000002325700734
 20
27.1823616027832
 30
-0.2908864021301269
 70
    32
  0
VERTEX
  5
12B
330
FA
100
AcDbEntity
  8
OracDecor_cornice_mouldings
 62
    73
420
  9429335
100
AcDbVertex
100
AcDb3dPolylineVertex
 10
-0.0000002334877536
 20
27.13650512695313
 30
-0.4741482734680176
 70
    32
  0
VERTEX
  5
12C
330
FA
100
AcDbEntity
  8
OracDecor_cornice_mouldings
 62
    73
420
  9429335
100
AcDbVertex
100
AcDb3dPolylineVertex
 10
-0.0000000467880454
 20
26.84322357177734
 30
-6.051723957061767
 70
    32
  0
VERTEX
  5
12D
330
FA
100
AcDbEntity
  8
OracDecor_cornice_mouldings
 62
    73
420
  9429335
100
AcDbVertex
100
AcDb3dPolylineVertex
 10
-0.0000000502063813
 20
26.74413299560547
 30
-6.414894580841064
 70
    32
  0
VERTEX
  5
12E
330
FA
100
AcDbEntity
  8
OracDecor_cornice_mouldings
 62
    73
420
  9429335
100
AcDbVertex
100
AcDb3dPolylineVertex
 10
-0.0000000786544661
 20
26.52837371826172
 30
-6.725166797637939
 70
    32
  0
VERTEX
  5
12F
330
FA
100
AcDbEntity
  8
OracDecor_cornice_mouldings
 62
    73
420
  9429335
100
AcDbVertex
100
AcDb3dPolylineVertex
 10
-0.000000133512458
 20
26.20259094238281
 30
-6.921326160430908
 70
    32
  0
VERTEX
  5
130
330
FA
100
AcDbEntity
  8
OracDecor_cornice_mouldings
 62
    73
420
  9429335
100
AcDbVertex
100
AcDb3dPolylineVertex
 10
-0.0000002027745722
 20
25.82920455932617
 30
-7.000004291534423
 70
    32
  0
VERTEX
  5
131
330
FA
100
AcDbEntity
  8
OracDecor_cornice_mouldings
 62
    73
420
  9429335
100
AcDbVertex
100
AcDb3dPolylineVertex
 10
-0.0000024289615794
 20
14.39569091796875
 30
-7.000004291534423
 70
    32
  0
VERTEX
  5
132
330
FA
100
AcDbEntity
  8
OracDecor_cornice_mouldings
 62
    73
420
  9429335
100
AcDbVertex
100
AcDb3dPolylineVertex
 10
-0.0000025604385883
 20
13.7381362915039
 30
-6.921150684356689
 70
    32
  0
VERTEX
  5
133
330
FA
100
AcDbEntity
  8
OracDecor_cornice_mouldings
 62
    73
420
  9429335
100
AcDbVertex
100
AcDb3dPolylineVertex
 10
-0.0000027341745863
 20
12.91508865356445
 30
-6.612701892852783
 70
    32
  0
VERTEX
  5
134
330
FA
100
AcDbEntity
  8
OracDecor_cornice_mouldings
 62
    73
420
  9429335
100
AcDbVertex
100
AcDb3dPolylineVertex
 10
-0.0000028932877285
 20
12.21642684936523
 30
-6.084721088409423
 70
    32
  0
VERTEX
  5
135
330
FA
100
AcDbEntity
  8
OracDecor_cornice_mouldings
 62
    73
420
  9429335
100
AcDbVertex
100
AcDb3dPolylineVertex
 10
-0.0000030244020763
 20
11.70088577270508
 30
-5.381592273712158
 70
    32
  0
VERTEX
  5
136
330
FA
100
AcDbEntity
  8
OracDecor_cornice_mouldings
 62
    73
420
  9429335
100
AcDbVertex
100
AcDb3dPolylineVertex
 10
-0.0000030990515825
 20
11.4533462524414
 30
-4.776463031768798
 70
    32
  0
VERTEX
  5
137
330
FA
100
AcDbEntity
  8
OracDecor_cornice_mouldings
 62
    73
420
  9429335
100
AcDbVertex
100
AcDb3dPolylineVertex
 10
-0.0000035250311612
 20
10.25465393066406
 30
-0.3705983161926269
 70
    32
  0
VERTEX
  5
138
330
FA
100
AcDbEntity
  8
OracDecor_cornice_mouldings
 62
    73
420
  9429335
100
AcDbVertex
100
AcDb3dPolylineVertex
 10
-0.0000035448092603
 20
10.18638610839843
 30
-0.2222180366516113
 70
    32
  0
VERTEX
  5
139
330
FA
100
AcDbEntity
  8
OracDecor_cornice_mouldings
 62
    73
420
  9429335
100
AcDbVertex
100
AcDb3dPolylineVertex
 10
-0.0000035720208871
 20
10.07332229614258
 30
-0.1033291891217232
 70
    32
  0
VERTEX
  5
13A
330
FA
100
AcDbEntity
  8
OracDecor_cornice_mouldings
 62
    73
420
  9429335
100
AcDbVertex
100
AcDb3dPolylineVertex
 10
-0.0000036037786231
 20
9.927455902099609
 30
-0.0265431478619576
 70
    32
  0
VERTEX
  5
13B
330
FA
100
AcDbEntity
  8
OracDecor_cornice_mouldings
 62
    73
420
  9429335
100
AcDbVertex
100
AcDb3dPolylineVertex
 10
-0.0000036367143821
 20
9.764259338378906
 30
-0.0000081136822701
 70
    32
  0
VERTEX
  5
13C
330
FA
100
AcDbEntity
  8
OracDecor_cornice_mouldings
 62
    73
420
  9429335
100
AcDbVertex
100
AcDb3dPolylineVertex
 10
-0.0000193986743398
 20
7.180014133453369
 30
-0.0000081136831795
 70
    32
  0
VERTEX
  5
13D
330
FA
100
AcDbEntity
  8
OracDecor_cornice_mouldings
 62
    73
420
  9429335
100
AcDbVertex
100
AcDb3dPolylineVertex
 10
-0.0000194418262254
 20
6.933107852935791
 30
-0.1125950887799263
 70
    32
  0
VERTEX
  5
13E
330
FA
100
AcDbEntity
  8
OracDecor_cornice_mouldings
 62
    73
420
  9429335
100
AcDbVertex
100
AcDb3dPolylineVertex
 10
-0.0000195100110432
 20
6.460402011871337
 30
-0.658318042755127
 70
    32
  0
VERTEX
  5
13F
330
FA
100
AcDbEntity
  8
OracDecor_cornice_mouldings
 62
    73
420
  9429335
100
AcDbVertex
100
AcDb3dPolylineVertex
 10
-0.0000196034052351
 20
5.880785465240478
 30
-1.103561878204345
 70
    32
  0
VERTEX
  5
140
330
FA
100
AcDbEntity
  8
OracDecor_cornice_mouldings
 62
    73
420
  9429335
100
AcDbVertex
100
AcDb3dPolylineVertex
 10
-0.0000197339377337
 20
5.169420719146728
 30
-1.286018848419189
 70
    32
  0
VERTEX
  5
141
330
FA
100
AcDbEntity
  8
OracDecor_cornice_mouldings
 62
    73
420
  9429335
100
AcDbVertex
100
AcDb3dPolylineVertex
 10
-0.0000198802208615
 20
4.442881107330322
 30
-1.175781726837158
 70
    32
  0
VERTEX
  5
142
330
FA
100
AcDbEntity
  8
OracDecor_cornice_mouldings
 62
    73
420
  9429335
100
AcDbVertex
100
AcDb3dPolylineVertex
 10
-0.0000200182694243
 20
3.820272922515869
 30
-0.790916919708252
 70
    32
  0
VERTEX
  5
143
330
FA
100
AcDbEntity
  8
OracDecor_cornice_mouldings
 62
    73
420
  9429335
100
AcDbVertex
100
AcDb3dPolylineVertex
 10
-0.0000201332040888
 20
3.357370853424072
 30
-0.2234654426574707
 70
    32
  0
VERTEX
  5
144
330
FA
100
AcDbEntity
  8
OracDecor_cornice_mouldings
 62
    73
420
  9429335
100
AcDbVertex
100
AcDb3dPolylineVertex
 10
-0.0000202176470339
 20
2.973841190338134
 30
-0.0000081136831795
 70
    32
  0
SEQEND
  5
145
330
FA
100
AcDbEntity
  8
OracDecor_cornice_mouldings
 62
    73
420
  9429335
  0
ENDSEC
  0
SECTION
  2
OBJECTS
  0
DICTIONARY
  5
C
330
0
100
AcDbDictionary
281
     1
  3
ACAD_COLOR
350
DC
  3
ACAD_DETAILVIEWSTYLE
350
F5
  3
ACAD_GROUP
350
D
  3
ACAD_LAYOUT
350
1A
  3
ACAD_MATERIAL
350
AA
  3
ACAD_MLEADERSTYLE
350
F1
  3
ACAD_MLINESTYLE
350
17
  3
ACAD_PLOTSETTINGS
350
19
  3
ACAD_PLOTSTYLENAME
350
E
  3
ACAD_SCALELIST
350
DF
  3
ACAD_SECTIONVIEWSTYLE
350
F3
  3
ACAD_TABLESTYLE
350
DD
  3
ACAD_VISUALSTYLE
350
C3
  3
ACDB_RECOMPOSE_DATA
350
152
  3
AcDbVariableDictionary
350
146
  0
DICTIONARY
  5
DC
102
{ACAD_REACTORS
330
C
102
}
330
C
100
AcDbDictionary
281
     1
  0
DICTIONARY
  5
F5
102
{ACAD_REACTORS
330
C
102
}
330
C
100
AcDbDictionary
281
     1
  3
Imperial24
350
F6
  0
DICTIONARY
  5
D
102
{ACAD_REACTORS
330
C
102
}
330
C
100
AcDbDictionary
281
     1
  0
DICTIONARY
  5
1A
102
{ACAD_REACTORS
330
C
102
}
330
C
100
AcDbDictionary
281
     1
  3
Layout1
350
1E
  3
Layout2
350
26
  3
Model
350
22
  0
DICTIONARY
  5
AA
102
{ACAD_REACTORS
330
C
102
}
330
C
100
AcDbDictionary
281
     1
  3
ByBlock
350
B3
  3
ByLayer
350
AB
  3
Global
350
BB
  0
DICTIONARY
  5
F1
102
{ACAD_REACTORS
330
C
102
}
330
C
100
AcDbDictionary
281
     1
  3
Standard
350
F2
  0
DICTIONARY
  5
17
102
{ACAD_REACTORS
330
C
102
}
330
C
100
AcDbDictionary
281
     1
  3
Standard
350
18
  0
DICTIONARY
  5
19
102
{ACAD_REACTORS
330
C
102
}
330
C
100
AcDbDictionary
281
     1
  0
ACDBDICTIONARYWDFLT
  5
E
102
{ACAD_REACTORS
330
C
102
}
330
C
100
AcDbDictionary
281
     1
  3
ByLayer
350
2D
  3
Normal
350
F
100
AcDbDictionaryWithDefault
340
F
  0
DICTIONARY
  5
DF
102
{ACAD_REACTORS
330
C
102
}
330
C
100
AcDbDictionary
281
     1
  3
A0
350
E0
  3
A1
350
E1
  3
A2
350
E2
  3
A3
350
E3
  3
A4
350
E4
  3
A5
350
E5
  3
A6
350
E6
  3
A7
350
E7
  3
A8
350
E8
  3
A9
350
E9
  3
B0
350
EA
  3
B1
350
EB
  3
B2
350
EC
  3
B3
350
ED
  3
B4
350
EE
  3
B5
350
EF
  3
B6
350
F0
  0
DICTIONARY
  5
F3
102
{ACAD_REACTORS
330
C
102
}
330
C
100
AcDbDictionary
281
     1
  3
Imperial24
350
F4
  0
DICTIONARY
  5
DD
102
{ACAD_REACTORS
330
C
102
}
330
C
100
AcDbDictionary
281
     1
  3
Standard
350
DE
  0
DICTIONARY
  5
C3
102
{ACAD_REACTORS
330
C
102
}
330
C
100
AcDbDictionary
281
     1
  3
2dWireframe
350
C9
  3
Basic
350
C8
  3
Brighten
350
CF
  3
ColorChange
350
D3
  3
Conceptual
350
CC
  3
Dim
350
CE
  3
EdgeColorOff
350
DB
  3
Facepattern
350
D2
  3
Flat
350
C4
  3
FlatWithEdges
350
C5
  3
Gouraud
350
C6
  3
GouraudWithEdges
350
C7
  3
Hidden
350
CB
  3
JitterOff
350
D9
  3
Linepattern
350
D1
  3
OverhangOff
350
DA
  3
Realistic
350
CD
  3
Shaded
350
D8
  3
Shaded with edges
350
D7
  3
Shades of Gray
350
D4
  3
Sketchy
350
D5
  3
Thicken
350
D0
  3
Wireframe
350
CA
  3
X-Ray
350
D6
  0
XRECORD
  5
152
102
{ACAD_REACTORS
330
C
102
}
330
C
100
AcDbXrecord
280
     1
 90
        1
330
DE
  0
DICTIONARY
  5
146
102
{ACAD_REACTORS
330
C
102
}
330
C
100
AcDbDictionary
281
     1
  3
CANNOSCALE
350
14C
  3
CMLEADERSTYLE
350
148
  3
CTABLESTYLE
350
147
  3
CVIEWDETAILSTYLE
350
149
  3
CVIEWSECTIONSTYLE
350
14A
  3
LAYEREVAL
350
14E
  3
LAYERNOTIFY
350
14F
  3
LIGHTINGUNITS
350
14D
  3
MSLTSCALE
350
14B
  0
ACDBDETAILVIEWSTYLE
  5
F6
102
{ACAD_XDICTIONARY
360
187
102
}
102
{ACAD_REACTORS
330
F5
102
}
330
F5
100
AcDbModelDocViewStyle
 70
     0
  3
Imperial24
290
     0
100
AcDbDetailViewStyle
 70
     0
 71
     0
 90
        3
 71
     1
340
11
 62
   256
 40
0.24
340
0
 62
   256
 40
0.24
300

 40
0.36
280
     3
 71
     2
340
16
 90
       25
 62
   256
 71
     3
340
11
 62
   256
 40
0.24
 90
        1
 40
0.75
 90
        1
300
%<\AcVar ViewType \f "%tc1">% %<\AcVar ViewDetailId>%\PSCALE %<\AcVar ViewScale \f "%sn">%
 71
     4
340
16
 90
       25
 62
   256
340
16
 90
       25
 62
   256
280
     0
  0
LAYOUT
  5
1E
102
{ACAD_REACTORS
330
1A
102
}
330
1A
100
AcDbPlotSettings
  1

  2
\\KTXNTBDC\CASF2PN1
  4

  6

 40
0.0
 41
0.0
 42
0.0
 43
0.0
 44
0.0
 45
0.0
 46
0.0
 47
0.0
 48
0.0
 49
0.0
140
0.0
141
0.0
142
1.0
143
1.0
 70
   688
 72
     0
 73
     0
 74
     5
  7

 75
    16
147
1.0
 76
     0
 77
     2
 78
   300
148
0.0
149
0.0
100
AcDbLayout
  1
Layout1
 70
     1
 71
     1
 10
0.0
 20
0.0
 11
12.0
 21
9.0
 12
0.0
 22
0.0
 32
0.0
 14
1.000000000000000E+20
 24
1.000000000000000E+20
 34
1.000000000000000E+20
 15
-1.000000000000000E+20
 25
-1.000000000000000E+20
 35
-1.000000000000000E+20
146
0.0
 13
0.0
 23
0.0
 33
0.0
 16
1.0
 26
0.0
 36
0.0
 17
0.0
 27
1.0
 37
0.0
 76
     0
330
1B
  0
LAYOUT
  5
26
102
{ACAD_REACTORS
330
1A
102
}
330
1A
100
AcDbPlotSettings
  1

  2
\\KTXNTBDC\CASF2PN1
  4

  6

 40
0.0
 41
0.0
 42
0.0
 43
0.0
 44
0.0
 45
0.0
 46
0.0
 47
0.0
 48
0.0
 49
0.0
140
0.0
141
0.0
142
1.0
143
1.0
 70
   688
 72
     0
 73
     0
 74
     5
  7

 75
    16
147
1.0
 76
     0
 77
     2
 78
   300
148
0.0
149
0.0
100
AcDbLayout
  1
Layout2
 70
     1
 71
     2
 10
0.0
 20
0.0
 11
12.0
 21
9.0
 12
0.0
 22
0.0
 32
0.0
 14
0.0
 24
0.0
 34
0.0
 15
0.0
 25
0.0
 35
0.0
146
0.0
 13
0.0
 23
0.0
 33
0.0
 16
1.0
 26
0.0
 36
0.0
 17
0.0
 27
1.0
 37
0.0
 76
     0
330
23
  0
LAYOUT
  5
22
102
{ACAD_REACTORS
330
1A
102
}
330
1A
100
AcDbPlotSettings
  1

  2
\\KTXNTBDC\CASF2PN1
  4

  6

 40
0.0
 41
0.0
 42
0.0
 43
0.0
 44
0.0
 45
0.0
 46
0.0
 47
0.0
 48
0.0
 49
0.0
140
0.0
141
0.0
142
1.0
143
1.0
 70
  1712
 72
     0
 73
     0
 74
     0
  7

 75
     0
147
1.0
 76
     0
 77
     2
 78
   300
148
0.0
149
0.0
100
AcDbLayout
  1
Model
 70
     1
 71
     0
 10
0.0
 20
0.0
 11
12.0
 21
9.0
 12
0.0
 22
0.0
 32
0.0
 14
0.0
 24
0.0
 34
0.0
 15
0.0
 25
0.0
 35
0.0
146
0.0
 13
0.0
 23
0.0
 33
0.0
 16
1.0
 26
0.0
 36
0.0
 17
0.0
 27
1.0
 37
0.0
 76
     0
330
1F
  0
MATERIAL
  5
B3
102
{ACAD_XDICTIONARY
360
B4
102
}
102
{ACAD_REACTORS
330
AA
102
}
330
AA
100
AcDbMaterial
  1
ByBlock
 72
     0
 43
0.0208333333333333
 43
0.0
 43
0.0
 43
0.0
 43
0.0
 43
0.0208333333333333
 43
0.0
 43
0.0
 43
0.0
 43
0.0
 43
1.0
 43
0.0
 43
0.0
 43
0.0
 43
0.0
 43
1.0
 77
     0
 47
0.0208333333333333
 47
0.0
 47
0.0
 47
0.0
 47
0.0
 47
0.0208333333333333
 47
0.0
 47
0.0
 47
0.0
 47
0.0
 47
1.0
 47
0.0
 47
0.0
 47
0.0
 47
0.0
 47
1.0
171
     0
 49
0.0208333333333333
 49
0.0
 49
0.0
 49
0.0
 49
0.0
 49
0.0208333333333333
 49
0.0
 49
0.0
 49
0.0
 49
0.0
 49
1.0
 49
0.0
 49
0.0
 49
0.0
 49
0.0
 49
1.0
175
     0
142
0.0208333333333333
142
0.0
142
0.0
142
0.0
142
0.0
142
0.0208333333333333
142
0.0
142
0.0
142
0.0
142
0.0
142
1.0
142
0.0
142
0.0
142
0.0
142
0.0
142
1.0
179
     0
144
0.0208333333333333
144
0.0
144
0.0
144
0.0
144
0.0
144
0.0208333333333333
144
0.0
144
0.0
144
0.0
144
0.0
144
1.0
144
0.0
144
0.0
144
0.0
144
0.0
144
1.0
147
0.0208333333333333
147
0.0
147
0.0
147
0.0
147
0.0
147
0.0208333333333333
147
0.0
147
0.0
147
0.0
147
0.0
147
1.0
147
0.0
147
0.0
147
0.0
147
0.0
147
1.0
  0
MATERIAL
  5
AB
102
{ACAD_XDICTIONARY
360
AC
102
}
102
{ACAD_REACTORS
330
AA
102
}
330
AA
100
AcDbMaterial
  1
ByLayer
 72
     0
 43
0.0208333333333333
 43
0.0
 43
0.0
 43
0.0
 43
0.0
 43
0.0208333333333333
 43
0.0
 43
0.0
 43
0.0
 43
0.0
 43
1.0
 43
0.0
 43
0.0
 43
0.0
 43
0.0
 43
1.0
 77
     0
 47
0.0208333333333333
 47
0.0
 47
0.0
 47
0.0
 47
0.0
 47
0.0208333333333333
 47
0.0
 47
0.0
 47
0.0
 47
0.0
 47
1.0
 47
0.0
 47
0.0
 47
0.0
 47
0.0
 47
1.0
171
     0
 49
0.0208333333333333
 49
0.0
 49
0.0
 49
0.0
 49
0.0
 49
0.0208333333333333
 49
0.0
 49
0.0
 49
0.0
 49
0.0
 49
1.0
 49
0.0
 49
0.0
 49
0.0
 49
0.0
 49
1.0
175
     0
142
0.0208333333333333
142
0.0
142
0.0
142
0.0
142
0.0
142
0.0208333333333333
142
0.0
142
0.0
142
0.0
142
0.0
142
1.0
142
0.0
142
0.0
142
0.0
142
0.0
142
1.0
179
     0
144
0.0208333333333333
144
0.0
144
0.0
144
0.0
144
0.0
144
0.0208333333333333
144
0.0
144
0.0
144
0.0
144
0.0
144
1.0
144
0.0
144
0.0
144
0.0
144
0.0
144
1.0
147
0.0208333333333333
147
0.0
147
0.0
147
0.0
147
0.0
147
0.0208333333333333
147
0.0
147
0.0
147
0.0
147
0.0
147
1.0
147
0.0
147
0.0
147
0.0
147
0.0
147
1.0
  0
MATERIAL
  5
BB
102
{ACAD_XDICTIONARY
360
BC
102
}
102
{ACAD_REACTORS
330
AA
102
}
330
AA
100
AcDbMaterial
  1
Global
 72
     0
 43
0.0208333333333333
 43
0.0
 43
0.0
 43
0.0
 43
0.0
 43
0.0208333333333333
 43
0.0
 43
0.0
 43
0.0
 43
0.0
 43
1.0
 43
0.0
 43
0.0
 43
0.0
 43
0.0
 43
1.0
 77
     0
 47
0.0208333333333333
 47
0.0
 47
0.0
 47
0.0
 47
0.0
 47
0.0208333333333333
 47
0.0
 47
0.0
 47
0.0
 47
0.0
 47
1.0
 47
0.0
 47
0.0
 47
0.0
 47
0.0
 47
1.0
171
     0
 49
0.0208333333333333
 49
0.0
 49
0.0
 49
0.0
 49
0.0
 49
0.0208333333333333
 49
0.0
 49
0.0
 49
0.0
 49
0.0
 49
1.0
 49
0.0
 49
0.0
 49
0.0
 49
0.0
 49
1.0
175
     0
142
0.0208333333333333
142
0.0
142
0.0
142
0.0
142
0.0
142
0.0208333333333333
142
0.0
142
0.0
142
0.0
142
0.0
142
1.0
142
0.0
142
0.0
142
0.0
142
0.0
142
1.0
179
     0
144
0.0208333333333333
144
0.0
144
0.0
144
0.0
144
0.0
144
0.0208333333333333
144
0.0
144
0.0
144
0.0
144
0.0
144
1.0
144
0.0
144
0.0
144
0.0
144
0.0
144
1.0
147
0.0208333333333333
147
0.0
147
0.0
147
0.0
147
0.0
147
0.0208333333333333
147
0.0
147
0.0
147
0.0
147
0.0
147
1.0
147
0.0
147
0.0
147
0.0
147
0.0
147
1.0
  0
MLEADERSTYLE
  5
F2
102
{ACAD_XDICTIONARY
360
183
102
}
102
{ACAD_REACTORS
330
F1
102
}
330
F1
100
AcDbMLeaderStyle
179
     2
170
     2
171
     1
172
     0
 90
        2
 40
0.0
 41
0.0
173
     1
 91
-1056964608
340
14
 92
       -2
290
     1
 42
0.09
291
     1
 43
0.36
  3
Standard
 44
0.18
300

342
11
174
     1
178
     6
175
     1
176
     0
 93
-1056964608
 45
0.18
292
     0
297
     0
 46
0.18
 94
-1056964608
 47
1.0
 49
1.0
140
1.0
293
     1
141
0.0
294
     1
177
     0
142
1.0
295
     0
296
     0
143
0.125
271
     0
272
     9
273
     9
  0
MLINESTYLE
  5
18
102
{ACAD_REACTORS
330
17
102
}
330
17
100
AcDbMlineStyle
  2
STANDARD
 70
     0
  3

 62
   256
 51
90.0
 52
90.0
 71
     2
 49
0.5
 62
   256
  6
BYLAYER
 49
-0.5
 62
   256
  6
BYLAYER
  0
ACDBPLACEHOLDER
  5
2D
102
{ACAD_REACTORS
330
E
102
}
330
E
  0
ACDBPLACEHOLDER
  5
F
102
{ACAD_REACTORS
330
E
102
}
330
E
  0
SCALE
  5
E0
102
{ACAD_REACTORS
330
DF
102
}
330
DF
100
AcDbScale
 70
     0
300
1:1
140
1.0
141
1.0
290
     1
  0
SCALE
  5
E1
102
{ACAD_REACTORS
330
DF
102
}
330
DF
100
AcDbScale
 70
     0
300
1/128" = 1'-0"
140
0.0078125
141
12.0
290
     0
  0
SCALE
  5
E2
102
{ACAD_REACTORS
330
DF
102
}
330
DF
100
AcDbScale
 70
     0
300
1/64" = 1'-0"
140
0.015625
141
12.0
290
     0
  0
SCALE
  5
E3
102
{ACAD_REACTORS
330
DF
102
}
330
DF
100
AcDbScale
 70
     0
300
1/32" = 1'-0"
140
0.03125
141
12.0
290
     0
  0
SCALE
  5
E4
102
{ACAD_REACTORS
330
DF
102
}
330
DF
100
AcDbScale
 70
     0
300
1/16" = 1'-0"
140
0.0625
141
12.0
290
     0
  0
SCALE
  5
E5
102
{ACAD_REACTORS
330
DF
102
}
330
DF
100
AcDbScale
 70
     0
300
3/32" = 1'-0"
140
0.09375
141
12.0
290
     0
  0
SCALE
  5
E6
102
{ACAD_REACTORS
330
DF
102
}
330
DF
100
AcDbScale
 70
     0
300
1/8" = 1'-0"
140
0.125
141
12.0
290
     0
  0
SCALE
  5
E7
102
{ACAD_REACTORS
330
DF
102
}
330
DF
100
AcDbScale
 70
     0
300
3/16" = 1'-0"
140
0.1875
141
12.0
290
     0
  0
SCALE
  5
E8
102
{ACAD_REACTORS
330
DF
102
}
330
DF
100
AcDbScale
 70
     0
300
1/4" = 1'-0"
140
0.25
141
12.0
290
     0
  0
SCALE
  5
E9
102
{ACAD_REACTORS
330
DF
102
}
330
DF
100
AcDbScale
 70
     0
300
3/8" = 1'-0"
140
0.375
141
12.0
290
     0
  0
SCALE
  5
EA
102
{ACAD_REACTORS
330
DF
102
}
330
DF
100
AcDbScale
 70
     0
300
1/2" = 1'-0"
140
0.5
141
12.0
290
     0
  0
SCALE
  5
EB
102
{ACAD_REACTORS
330
DF
102
}
330
DF
100
AcDbScale
 70
     0
300
3/4" = 1'-0"
140
0.75
141
12.0
290
     0
  0
SCALE
  5
EC
102
{ACAD_REACTORS
330
DF
102
}
330
DF
100
AcDbScale
 70
     0
300
1" = 1'-0"
140
1.0
141
12.0
290
     0
  0
SCALE
  5
ED
102
{ACAD_REACTORS
330
DF
102
}
330
DF
100
AcDbScale
 70
     0
300
1-1/2" = 1'-0"
140
1.5
141
12.0
290
     0
  0
SCALE
  5
EE
102
{ACAD_REACTORS
330
DF
102
}
330
DF
100
AcDbScale
 70
     0
300
3" = 1'-0"
140
3.0
141
12.0
290
     0
  0
SCALE
  5
EF
102
{ACAD_REACTORS
330
DF
102
}
330
DF
100
AcDbScale
 70
     0
300
6" = 1'-0"
140
6.0
141
12.0
290
     0
  0
SCALE
  5
F0
102
{ACAD_REACTORS
330
DF
102
}
330
DF
100
AcDbScale
 70
     0
300
1'-0" = 1'-0"
140
12.0
141
12.0
290
     0
  0
ACDBSECTIONVIEWSTYLE
  5
F4
102
{ACAD_XDICTIONARY
360
185
102
}
102
{ACAD_REACTORS
330
F3
102
}
330
F3
100
AcDbModelDocViewStyle
 70
     0
  3
Imperial24
290
     0
100
AcDbSectionViewStyle
 70
     0
 71
     0
 90
       78
 71
     1
340
11
 62
   256
 40
0.24
340
0
340
0
 62
   256
 40
0.24
300
I, O, Q, S, X, Z
 40
0.48
 90
        3
 40
0.18
 90
        1
 71
     2
340
16
 90
       25
 62
   256
340
16
 90
       50
 62
   256
 40
0.24
 40
0.0
 40
0.24
 71
     3
340
11
 62
   256
 40
0.24
 90
        1
 40
0.75
 90
        1
300
%<\AcVar ViewType \f "%tc1">% %<\AcVar ViewSectionStartId>%-%<\AcVar ViewSectionEndId>%\PSCALE %<\AcVar ViewScale \f "%sn">%
 71
     4
 62
   256
 62
   257
300
ANSI31
 40
1.0
 90
        0
290
     0
290
     0
 90
        6
 40
0.0
 40
1.570796326794896
 40
0.2617993877991494
 40
1.308996938995747
 40
-0.2617993877991494
 40
1.832595714594046
  0
TABLESTYLE
  5
DE
102
{ACAD_XDICTIONARY
360
150
102
}
102
{ACAD_REACTORS
330
DD
102
}
330
DD
100
AcDbTableStyle
280
     0
  3
Standard
 70
     0
 71
     0
 40
0.06
 41
0.06
280
     0
281
     0
  7
Standard
140
0.18
170
     2
 62
     0
 63
     7
283
     0
 90
      512
 91
        0
  1

274
    -2
284
     1
 64
     0
275
    -2
285
     1
 65
     0
276
    -2
286
     1
 66
     0
277
    -2
287
     1
 67
     0
278
    -2
288
     1
 68
     0
279
    -2
289
     1
 69
     0
  7
Standard
140
0.25
170
     5
 62
     0
 63
     7
283
     0
 90
      512
 91
        0
  1

274
    -2
284
     1
 64
     0
275
    -2
285
     1
 65
     0
276
    -2
286
     1
 66
     0
277
    -2
287
     1
 67
     0
278
    -2
288
     1
 68
     0
279
    -2
289
     1
 69
     0
  7
Standard
140
0.18
170
     5
 62
     0
 63
     7
283
     0
 90
      512
 91
        0
  1

274
    -2
284
     1
 64
     0
275
    -2
285
     1
 65
     0
276
    -2
286
     1
 66
     0
277
    -2
287
     1
 67
     0
278
    -2
288
     1
 68
     0
279
    -2
289
     1
 69
     0
  0
VISUALSTYLE
  5
C9
102
{ACAD_XDICTIONARY
360
15D
102
}
102
{ACAD_REACTORS
330
C3
102
}
330
C3
100
AcDbVisualStyle
  2
2dWireframe
 70
     4
177
     2
291
     0
 71
     0
176
     1
 72
     2
176
     1
 73
     0
176
     1
 90
        0
176
     1
 40
0.6
176
     1
 41
30.0
176
     1
 63
     7
421
 16777215
176
     1
 74
     1
176
     1
 91
        4
176
     1
 64
     7
176
     1
 65
   257
176
     1
 75
     1
176
     1
175
     1
176
     1
 42
1.0
176
     1
 92
        0
176
     1
 66
   257
176
     1
 43
1.0
176
     1
 76
     1
176
     1
 77
     6
176
     1
 78
     2
176
     1
 67
     7
176
     1
 79
     5
176
     1
170
     0
176
     1
171
     0
176
     1
290
     0
176
     1
 93
        1
176
     1
 44
0.0
176
     1
173
     0
176
     1
1001
ACAD
1000
AcDbSavedByObjectVersion
1070
     0
  0
VISUALSTYLE
  5
C8
102
{ACAD_XDICTIONARY
360
15B
102
}
102
{ACAD_REACTORS
330
C3
102
}
330
C3
100
AcDbVisualStyle
  2
Basic
 70
     7
177
     2
291
     1
 71
     1
176
     1
 72
     0
176
     1
 73
     1
176
     1
 90
        0
176
     1
 40
0.6
176
     1
 41
30.0
176
     1
 63
     7
421
 16777215
176
     1
 74
     0
176
     1
 91
        4
176
     1
 64
     7
176
     1
 65
   257
176
     1
 75
     1
176
     1
175
     1
176
     1
 42
1.0
176
     1
 92
        8
176
     1
 66
     7
176
     1
 43
1.0
176
     1
 76
     1
176
     1
 77
     6
176
     1
 78
     2
176
     1
 67
     7
176
     1
 79
     5
176
     1
170
     0
176
     1
171
     0
176
     1
290
     0
176
     1
 93
        1
176
     1
 44
0.0
176
     1
173
     0
176
     1
1001
ACAD
1000
AcDbSavedByObjectVersion
1070
     0
  0
VISUALSTYLE
  5
CF
102
{ACAD_XDICTIONARY
360
169
102
}
102
{ACAD_REACTORS
330
C3
102
}
330
C3
100
AcDbVisualStyle
  2
Brighten
 70
    12
177
     2
291
     1
 71
     2
176
     1
 72
     2
176
     1
 73
     0
176
     1
 90
        0
176
     1
 40
0.6
176
     1
 41
30.0
176
     1
 63
     7
421
 16777215
176
     1
 74
     1
176
     1
 91
        4
176
     1
 64
     7
176
     1
 65
   257
176
     1
 75
     1
176
     1
175
     1
176
     1
 42
1.0
176
     1
 92
        8
176
     1
 66
     7
176
     1
 43
1.0
176
     1
 76
     1
176
     1
 77
     6
176
     1
 78
     2
176
     1
 67
     7
176
     1
 79
     5
176
     1
170
     0
176
     1
171
     0
176
     1
290
     0
176
     1
 93
        1
176
     1
 44
50.0
176
     1
173
     0
176
     1
1001
ACAD
1000
AcDbSavedByObjectVersion
1070
     0
  0
VISUALSTYLE
  5
D3
102
{ACAD_XDICTIONARY
360
171
102
}
102
{ACAD_REACTORS
330
C3
102
}
330
C3
100
AcDbVisualStyle
  2
ColorChange
 70
    16
177
     2
291
     1
 71
     2
176
     1
 72
     2
176
     1
 73
     3
176
     1
 90
        0
176
     1
 40
0.6
176
     1
 41
30.0
176
     1
 63
     8
421
  8421504
176
     1
 74
     1
176
     1
 91
        4
176
     1
 64
     7
176
     1
 65
   257
176
     1
 75
     1
176
     1
175
     1
176
     1
 42
1.0
176
     1
 92
        8
176
     1
 66
     8
424
  8421504
176
     1
 43
1.0
176
     1
 76
     1
176
     1
 77
     6
176
     1
 78
     2
176
     1
 67
     7
176
     1
 79
     5
176
     1
170
     0
176
     1
171
     0
176
     1
290
     0
176
     1
 93
        1
176
     1
 44
0.0
176
     1
173
     0
176
     1
1001
ACAD
1000
AcDbSavedByObjectVersion
1070
     0
  0
VISUALSTYLE
  5
CC
102
{ACAD_XDICTIONARY
360
163
102
}
102
{ACAD_REACTORS
330
C3
102
}
330
C3
100
AcDbVisualStyle
  2
Conceptual
 70
     9
177
     2
291
     0
 71
     3
176
     1
 72
     2
176
     1
 73
     0
176
     1
 90
        0
176
     1
 40
0.6
176
     1
 41
30.0
176
     1
 63
     7
421
 16777215
176
     1
 74
     2
176
     1
 91
        2
176
     1
 64
     7
176
     1
 65
   257
176
     1
 75
     1
176
     1
175
     1
176
     1
 42
179.0
176
     1
 92
        8
176
     1
 66
     7
176
     1
 43
1.0
176
     1
 76
     1
176
     1
 77
     6
176
     1
 78
     2
176
     1
 67
     7
176
     1
 79
     3
176
     1
170
     0
176
     1
171
     0
176
     1
290
     0
176
     1
 93
        1
176
     1
 44
0.0
176
     1
173
     0
176
     1
1001
ACAD
1000
AcDbSavedByObjectVersion
1070
     0
  0
VISUALSTYLE
  5
CE
102
{ACAD_XDICTIONARY
360
167
102
}
102
{ACAD_REACTORS
330
C3
102
}
330
C3
100
AcDbVisualStyle
  2
Dim
 70
    11
177
     2
291
     1
 71
     2
176
     1
 72
     2
176
     1
 73
     0
176
     1
 90
        0
176
     1
 40
0.6
176
     1
 41
30.0
176
     1
 63
     7
421
 16777215
176
     1
 74
     1
176
     1
 91
        4
176
     1
 64
     7
176
     1
 65
   257
176
     1
 75
     1
176
     1
175
     1
176
     1
 42
1.0
176
     1
 92
        8
176
     1
 66
     7
176
     1
 43
1.0
176
     1
 76
     1
176
     1
 77
     6
176
     1
 78
     2
176
     1
 67
     7
176
     1
 79
     5
176
     1
170
     0
176
     1
171
     0
176
     1
290
     0
176
     1
 93
        1
176
     1
 44
-50.0
176
     1
173
     0
176
     1
1001
ACAD
1000
AcDbSavedByObjectVersion
1070
     0
  0
VISUALSTYLE
  5
DB
102
{ACAD_XDICTIONARY
360
181
102
}
102
{ACAD_REACTORS
330
C3
102
}
330
C3
100
AcDbVisualStyle
  2
EdgeColorOff
 70
    22
177
     2
291
     1
 71
     2
176
     0
 72
     2
176
     0
 73
     0
176
     0
 90
        0
176
     0
 40
0.6
176
     0
 41
30.0
176
     0
 63
     7
421
 16777215
176
     0
 74
     1
176
     0
 91
        4
176
     0
 64
     7
176
     0
 65
   257
176
     0
 75
     1
176
     0
175
     1
176
     0
 42
1.0
176
     0
 92
        8
176
     2
 66
     7
176
     0
 43
1.0
176
     0
 76
     1
176
     0
 77
     6
176
     0
 78
     2
176
     0
 67
     7
176
     0
 79
     5
176
     0
170
     0
176
     0
171
     0
176
     0
290
     0
176
     0
 93
        1
176
     0
 44
0.0
176
     0
173
     0
176
     0
1001
ACAD
1000
AcDbSavedByObjectVersion
1070
     0
  0
VISUALSTYLE
  5
D2
102
{ACAD_XDICTIONARY
360
16F
102
}
102
{ACAD_REACTORS
330
C3
102
}
330
C3
100
AcDbVisualStyle
  2
Facepattern
 70
    15
177
     2
291
     1
 71
     2
176
     1
 72
     2
176
     1
 73
     0
176
     1
 90
        0
176
     1
 40
0.6
176
     1
 41
30.0
176
     1
 63
     7
421
 16777215
176
     1
 74
     1
176
     1
 91
        4
176
     1
 64
     7
176
     1
 65
   257
176
     1
 75
     1
176
     1
175
     1
176
     1
 42
1.0
176
     1
 92
        8
176
     1
 66
     7
176
     1
 43
1.0
176
     1
 76
     1
176
     1
 77
     6
176
     1
 78
     2
176
     1
 67
     7
176
     1
 79
     5
176
     1
170
     0
176
     1
171
     0
176
     1
290
     0
176
     1
 93
        1
176
     1
 44
0.0
176
     1
173
     0
176
     1
1001
ACAD
1000
AcDbSavedByObjectVersion
1070
     0
  0
VISUALSTYLE
  5
C4
102
{ACAD_XDICTIONARY
360
153
102
}
102
{ACAD_REACTORS
330
C3
102
}
330
C3
100
AcDbVisualStyle
  2
Flat
 70
     0
177
     2
291
     1
 71
     2
176
     1
 72
     1
176
     1
 73
     1
176
     1
 90
        2
176
     1
 40
0.6
176
     1
 41
30.0
176
     1
 63
     7
421
 16777215
176
     1
 74
     0
176
     1
 91
        0
176
     1
 64
     7
176
     1
 65
   257
176
     1
 75
     1
176
     1
175
     1
176
     1
 42
1.0
176
     1
 92
        8
176
     1
 66
     7
176
     1
 43
1.0
176
     1
 76
     1
176
     1
 77
     6
176
     1
 78
     2
176
     1
 67
     7
176
     1
 79
     5
176
     1
170
     0
176
     1
171
     0
176
     1
290
     0
176
     1
 93
       13
176
     1
 44
0.0
176
     1
173
     0
176
     1
1001
ACAD
1000
AcDbSavedByObjectVersion
1070
     0
  0
VISUALSTYLE
  5
C5
102
{ACAD_XDICTIONARY
360
155
102
}
102
{ACAD_REACTORS
330
C3
102
}
330
C3
100
AcDbVisualStyle
  2
FlatWithEdges
 70
     1
177
     2
291
     1
 71
     2
176
     1
 72
     1
176
     1
 73
     1
176
     1
 90
        2
176
     1
 40
0.6
176
     1
 41
30.0
176
     1
 63
     7
421
 16777215
176
     1
 74
     1
176
     1
 91
        0
176
     1
 64
     7
176
     1
 65
   257
176
     1
 75
     1
176
     1
175
     1
176
     1
 42
1.0
176
     1
 92
        0
176
     1
 66
   257
176
     1
 43
1.0
176
     1
 76
     1
176
     1
 77
     6
176
     1
 78
     2
176
     1
 67
     7
176
     1
 79
     5
176
     1
170
     0
176
     1
171
     0
176
     1
290
     0
176
     1
 93
       13
176
     1
 44
0.0
176
     1
173
     0
176
     1
1001
ACAD
1000
AcDbSavedByObjectVersion
1070
     0
  0
VISUALSTYLE
  5
C6
102
{ACAD_XDICTIONARY
360
157
102
}
102
{ACAD_REACTORS
330
C3
102
}
330
C3
100
AcDbVisualStyle
  2
Gouraud
 70
     2
177
     2
291
     1
 71
     2
176
     1
 72
     2
176
     1
 73
     1
176
     1
 90
        2
176
     1
 40
0.6
176
     1
 41
30.0
176
     1
 63
     7
421
 16777215
176
     1
 74
     0
176
     1
 91
        0
176
     1
 64
     7
176
     1
 65
   257
176
     1
 75
     1
176
     1
175
     1
176
     1
 42
1.0
176
     1
 92
        0
176
     1
 66
     7
176
     1
 43
1.0
176
     1
 76
     1
176
     1
 77
     6
176
     1
 78
     2
176
     1
 67
     7
176
     1
 79
     5
176
     1
170
     0
176
     1
171
     0
176
     1
290
     0
176
     1
 93
       13
176
     1
 44
0.0
176
     1
173
     0
176
     1
1001
ACAD
1000
AcDbSavedByObjectVersion
1070
     0
  0
VISUALSTYLE
  5
C7
102
{ACAD_XDICTIONARY
360
159
102
}
102
{ACAD_REACTORS
330
C3
102
}
330
C3
100
AcDbVisualStyle
  2
GouraudWithEdges
 70
     3
177
     2
291
     1
 71
     2
176
     1
 72
     2
176
     1
 73
     1
176
     1
 90
        2
176
     1
 40
0.6
176
     1
 41
30.0
176
     1
 63
     7
421
 16777215
176
     1
 74
     1
176
     1
 91
        0
176
     1
 64
     7
176
     1
 65
   257
176
     1
 75
     1
176
     1
175
     1
176
     1
 42
1.0
176
     1
 92
        0
176
     1
 66
   257
176
     1
 43
1.0
176
     1
 76
     1
176
     1
 77
     6
176
     1
 78
     2
176
     1
 67
     7
176
     1
 79
     5
176
     1
170
     0
176
     1
171
     0
176
     1
290
     0
176
     1
 93
       13
176
     1
 44
0.0
176
     1
173
     0
176
     1
1001
ACAD
1000
AcDbSavedByObjectVersion
1070
     0
  0
VISUALSTYLE
  5
CB
102
{ACAD_XDICTIONARY
360
161
102
}
102
{ACAD_REACTORS
330
C3
102
}
330
C3
100
AcDbVisualStyle
  2
Hidden
 70
     6
177
     2
291
     0
 71
     1
176
     1
 72
     2
176
     1
 73
     2
176
     1
 90
        0
176
     1
 40
0.6
176
     1
 41
30.0
176
     1
 63
     7
421
 16777215
176
     1
 74
     2
176
     1
 91
        2
176
     1
 64
     7
176
     1
 65
   257
176
     1
 75
     2
176
     1
175
     1
176
     1
 42
40.0
176
     1
 92
        0
176
     1
 66
   257
176
     1
 43
1.0
176
     1
 76
     1
176
     1
 77
     6
176
     1
 78
     2
176
     1
 67
     7
176
     1
 79
     3
176
     1
170
     0
176
     1
171
     0
176
     1
290
     0
176
     1
 93
        1
176
     1
 44
0.0
176
     1
173
     0
176
     1
1001
ACAD
1000
AcDbSavedByObjectVersion
1070
     0
  0
VISUALSTYLE
  5
D9
102
{ACAD_XDICTIONARY
360
17D
102
}
102
{ACAD_REACTORS
330
C3
102
}
330
C3
100
AcDbVisualStyle
  2
JitterOff
 70
    20
177
     2
291
     1
 71
     2
176
     0
 72
     2
176
     0
 73
     0
176
     0
 90
        0
176
     0
 40
0.6
176
     0
 41
30.0
176
     0
 63
     7
421
 16777215
176
     0
 74
     1
176
     0
 91
        4
176
     0
 64
     7
176
     0
 65
   257
176
     0
 75
     1
176
     0
175
     1
176
     0
 42
1.0
176
     0
 92
       10
176
     2
 66
     7
176
     0
 43
1.0
176
     0
 76
     1
176
     0
 77
     6
176
     0
 78
     2
176
     0
 67
     7
176
     0
 79
     5
176
     0
170
     0
176
     0
171
     0
176
     0
290
     0
176
     0
 93
        1
176
     0
 44
0.0
176
     0
173
     0
176
     0
1001
ACAD
1000
AcDbSavedByObjectVersion
1070
     0
  0
VISUALSTYLE
  5
D1
102
{ACAD_XDICTIONARY
360
16D
102
}
102
{ACAD_REACTORS
330
C3
102
}
330
C3
100
AcDbVisualStyle
  2
Linepattern
 70
    14
177
     2
291
     1
 71
     2
176
     1
 72
     2
176
     1
 73
     0
176
     1
 90
        0
176
     1
 40
0.6
176
     1
 41
30.0
176
     1
 63
     7
421
 16777215
176
     1
 74
     1
176
     1
 91
        4
176
     1
 64
     7
176
     1
 65
   257
176
     1
 75
     7
176
     1
175
     7
176
     1
 42
1.0
176
     1
 92
        8
176
     1
 66
     7
176
     1
 43
1.0
176
     1
 76
     1
176
     1
 77
     6
176
     1
 78
     2
176
     1
 67
     7
176
     1
 79
     5
176
     1
170
     0
176
     1
171
     0
176
     1
290
     0
176
     1
 93
        1
176
     1
 44
0.0
176
     1
173
     0
176
     1
1001
ACAD
1000
AcDbSavedByObjectVersion
1070
     0
  0
VISUALSTYLE
  5
DA
102
{ACAD_XDICTIONARY
360
17F
102
}
102
{ACAD_REACTORS
330
C3
102
}
330
C3
100
AcDbVisualStyle
  2
OverhangOff
 70
    21
177
     2
291
     1
 71
     2
176
     0
 72
     2
176
     0
 73
     0
176
     0
 90
        0
176
     0
 40
0.6
176
     0
 41
30.0
176
     0
 63
     7
421
 16777215
176
     0
 74
     1
176
     0
 91
        4
176
     0
 64
     7
176
     0
 65
   257
176
     0
 75
     1
176
     0
175
     1
176
     0
 42
1.0
176
     0
 92
        9
176
     2
 66
     7
176
     0
 43
1.0
176
     0
 76
     1
176
     0
 77
     6
176
     0
 78
     2
176
     0
 67
     7
176
     0
 79
     5
176
     0
170
     0
176
     0
171
     0
176
     0
290
     0
176
     0
 93
        1
176
     0
 44
0.0
176
     0
173
     0
176
     0
1001
ACAD
1000
AcDbSavedByObjectVersion
1070
     0
  0
VISUALSTYLE
  5
CD
102
{ACAD_XDICTIONARY
360
165
102
}
102
{ACAD_REACTORS
330
C3
102
}
330
C3
100
AcDbVisualStyle
  2
Realistic
 70
     8
177
     2
291
     0
 71
     2
176
     1
 72
     3
176
     1
 73
     0
176
     1
 90
        2
176
     1
 40
0.6
176
     1
 41
30.0
176
     1
 63
     7
421
 16777215
176
     1
 74
     0
176
     1
 91
        0
176
     1
 64
     7
176
     1
 65
   257
176
     1
 75
     1
176
     1
175
     1
176
     1
 42
1.0
176
     1
 92
        8
176
     1
 66
   257
176
     1
 43
1.0
176
     1
 76
     1
176
     1
 77
     6
176
     1
 78
     2
176
     1
 67
     7
176
     1
 79
     3
176
     1
170
     0
176
     1
171
     0
176
     1
290
     0
176
     1
 93
       13
176
     1
 44
0.0
176
     1
173
     0
176
     1
1001
ACAD
1000
AcDbSavedByObjectVersion
1070
     0
  0
VISUALSTYLE
  5
D8
102
{ACAD_XDICTIONARY
360
17B
102
}
102
{ACAD_REACTORS
330
C3
102
}
330
C3
100
AcDbVisualStyle
  2
Shaded
 70
    27
177
     2
291
     0
 71
     2
176
     1
 72
     2
176
     1
 73
     1
176
     1
 90
        2
176
     1
 40
0.6
176
     1
 41
30.0
176
     1
 63
     7
421
 16777215
176
     1
 74
     0
176
     1
 91
        4
176
     1
 64
     7
176
     1
 65
   257
176
     1
 75
     1
176
     1
175
     1
176
     1
 42
1.0
176
     1
 92
        8
176
     1
 66
   257
176
     1
 43
1.0
176
     1
 76
     1
176
     1
 77
     6
176
     1
 78
     2
176
     1
 67
     8
425
  7895160
176
     1
 79
     3
176
     1
170
     0
176
     1
171
     0
176
     1
290
     0
176
     1
 93
        5
176
     1
 44
0.0
176
     1
173
     0
176
     1
1001
ACAD
1000
AcDbSavedByObjectVersion
1070
     0
  0
VISUALSTYLE
  5
D7
102
{ACAD_XDICTIONARY
360
179
102
}
102
{ACAD_REACTORS
330
C3
102
}
330
C3
100
AcDbVisualStyle
  2
Shaded with edges
 70
    26
177
     2
291
     0
 71
     2
176
     1
 72
     2
176
     1
 73
     1
176
     1
 90
        2
176
     1
 40
0.6
176
     1
 41
30.0
176
     1
 63
     7
421
 16777215
176
     1
 74
     1
176
     1
 91
       10
176
     1
 64
     7
176
     1
 65
   257
176
     1
 75
     2
176
     1
175
     1
176
     1
 42
1.0
176
     1
 92
        8
176
     1
 66
   257
176
     1
 43
1.0
176
     1
 76
     1
176
     1
 77
     6
176
     1
 78
     2
176
     1
 67
     7
176
     1
 79
     3
176
     1
170
     0
176
     1
171
     0
176
     1
290
     0
176
     1
 93
        5
176
     1
 44
0.0
176
     1
173
     0
176
     1
1001
ACAD
1000
AcDbSavedByObjectVersion
1070
     0
  0
VISUALSTYLE
  5
D4
102
{ACAD_XDICTIONARY
360
173
102
}
102
{ACAD_REACTORS
330
C3
102
}
330
C3
100
AcDbVisualStyle
  2
Shades of Gray
 70
    23
177
     2
291
     0
 71
     2
176
     1
 72
     2
176
     1
 73
     3
176
     1
 90
        0
176
     1
 40
0.6
176
     1
 41
30.0
176
     1
 63
     7
421
 16777215
176
     1
 74
     2
176
     1
 91
        2
176
     1
 64
     7
176
     1
 65
     7
176
     1
 75
     1
176
     1
175
     1
176
     1
 42
40.0
176
     1
 92
        8
176
     1
 66
     7
176
     1
 43
1.0
176
     1
 76
     1
176
     1
 77
     6
176
     1
 78
     2
176
     1
 67
     7
176
     1
 79
     3
176
     1
170
     0
176
     1
171
     0
176
     1
290
     0
176
     1
 93
        1
176
     1
 44
0.0
176
     1
173
     0
176
     1
1001
ACAD
1000
AcDbSavedByObjectVersion
1070
     0
  0
VISUALSTYLE
  5
D5
102
{ACAD_XDICTIONARY
360
175
102
}
102
{ACAD_REACTORS
330
C3
102
}
330
C3
100
AcDbVisualStyle
  2
Sketchy
 70
    24
177
     2
291
     0
 71
     1
176
     1
 72
     2
176
     1
 73
     2
176
     1
 90
        0
176
     1
 40
0.6
176
     1
 41
30.0
176
     1
 63
     7
421
 16777215
176
     1
 74
     2
176
     1
 91
        2
176
     1
 64
     7
176
     1
 65
     7
176
     1
 75
     1
176
     1
175
     1
176
     1
 42
40.0
176
     1
 92
       11
176
     1
 66
     7
176
     1
 43
1.0
176
     1
 76
     1
176
     1
 77
     6
176
     1
 78
     2
176
     1
 67
     7
176
     1
 79
     6
176
     1
170
     0
176
     1
171
     0
176
     1
290
     0
176
     1
 93
        1
176
     1
 44
0.0
176
     1
173
     0
176
     1
1001
ACAD
1000
AcDbSavedByObjectVersion
1070
     0
  0
VISUALSTYLE
  5
D0
102
{ACAD_XDICTIONARY
360
16B
102
}
102
{ACAD_REACTORS
330
C3
102
}
330
C3
100
AcDbVisualStyle
  2
Thicken
 70
    13
177
     2
291
     1
 71
     2
176
     1
 72
     2
176
     1
 73
     0
176
     1
 90
        0
176
     1
 40
0.6
176
     1
 41
30.0
176
     1
 63
     7
421
 16777215
176
     1
 74
     1
176
     1
 91
        4
176
     1
 64
     7
176
     1
 65
   257
176
     1
 75
     1
176
     1
175
     1
176
     1
 42
1.0
176
     1
 92
       12
176
     1
 66
     7
176
     1
 43
1.0
176
     1
 76
     1
176
     1
 77
     6
176
     1
 78
     2
176
     1
 67
     7
176
     1
 79
     5
176
     1
170
     0
176
     1
171
     0
176
     1
290
     0
176
     1
 93
        1
176
     1
 44
0.0
176
     1
173
     0
176
     1
1001
ACAD
1000
AcDbSavedByObjectVersion
1070
     0
  0
VISUALSTYLE
  5
CA
102
{ACAD_XDICTIONARY
360
15F
102
}
102
{ACAD_REACTORS
330
C3
102
}
330
C3
100
AcDbVisualStyle
  2
Wireframe
 70
     5
177
     2
291
     0
 71
     0
176
     1
 72
     2
176
     1
 73
     0
176
     1
 90
        0
176
     1
 40
0.6
176
     1
 41
30.0
176
     1
 63
     7
421
 16777215
176
     1
 74
     1
176
     1
 91
        4
176
     1
 64
     7
176
     1
 65
   257
176
     1
 75
     1
176
     1
175
     1
176
     1
 42
1.0
176
     1
 92
        0
176
     1
 66
   257
176
     1
 43
1.0
176
     1
 76
     1
176
     1
 77
     6
176
     1
 78
     2
176
     1
 67
     7
176
     1
 79
     3
176
     1
170
     0
176
     1
171
     0
176
     1
290
     0
176
     1
 93
        1
176
     1
 44
0.0
176
     1
173
     0
176
     1
1001
ACAD
1000
AcDbSavedByObjectVersion
1070
     0
  0
VISUALSTYLE
  5
D6
102
{ACAD_XDICTIONARY
360
177
102
}
102
{ACAD_REACTORS
330
C3
102
}
330
C3
100
AcDbVisualStyle
  2
X-Ray
 70
    25
177
     2
291
     0
 71
     2
176
     1
 72
     2
176
     1
 73
     1
176
     1
 90
        1
176
     1
 40
0.5
176
     1
 41
30.0
176
     1
 63
     7
421
 16777215
176
     1
 74
     1
176
     1
 91
        0
176
     1
 64
     7
176
     1
 65
   257
176
     1
 75
     1
176
     1
175
     1
176
     1
 42
1.0
176
     1
 92
        8
176
     1
 66
     7
176
     1
 43
1.0
176
     1
 76
     1
176
     1
 77
     6
176
     1
 78
     2
176
     1
 67
     7
176
     1
 79
     3
176
     1
170
     0
176
     1
171
     0
176
     1
290
     0
176
     1
 93
       13
176
     1
 44
0.0
176
     1
173
     0
176
     1
1001
ACAD
1000
AcDbSavedByObjectVersion
1070
     0
  0
DICTIONARYVAR
  5
14C
102
{ACAD_REACTORS
330
146
102
}
330
146
100
DictionaryVariables
280
     0
  1
1:1
  0
DICTIONARYVAR
  5
148
102
{ACAD_REACTORS
330
146
102
}
330
146
100
DictionaryVariables
280
     0
  1
STANDARD
  0
DICTIONARYVAR
  5
147
102
{ACAD_REACTORS
330
146
102
}
330
146
100
DictionaryVariables
280
     0
  1
STANDARD
  0
DICTIONARYVAR
  5
149
102
{ACAD_REACTORS
330
146
102
}
330
146
100
DictionaryVariables
280
     0
  1
Imperial24
  0
DICTIONARYVAR
  5
14A
102
{ACAD_REACTORS
330
146
102
}
330
146
100
DictionaryVariables
280
     0
  1
Imperial24
  0
DICTIONARYVAR
  5
14E
102
{ACAD_REACTORS
330
146
102
}
330
146
100
DictionaryVariables
280
     0
  1
1
  0
DICTIONARYVAR
  5
14F
102
{ACAD_REACTORS
330
146
102
}
330
146
100
DictionaryVariables
280
     0
  1
15
  0
DICTIONARYVAR
  5
14D
102
{ACAD_REACTORS
330
146
102
}
330
146
100
DictionaryVariables
280
     0
  1
0
  0
DICTIONARYVAR
  5
14B
102
{ACAD_REACTORS
330
146
102
}
330
146
100
DictionaryVariables
280
     0
  1
0
  0
DICTIONARY
  5
187
330
F6
100
AcDbDictionary
280
     1
281
     1
  3
ACAD_XREC_ROUNDTRIP
360
188
  0
DICTIONARY
  5
B4
330
B3
100
AcDbDictionary
280
     1
281
     1
  3
BUMPTILE
360
B6
  3
DIFFUSETILE
360
B5
  3
OPACITYTILE
360
B9
  3
REFLECTIONTILE
360
B8
  3
REFRACTIONTILE
360
BA
  3
SPECULARTILE
360
B7
  0
DICTIONARY
  5
AC
330
AB
100
AcDbDictionary
280
     1
281
     1
  3
BUMPTILE
360
AE
  3
DIFFUSETILE
360
AD
  3
OPACITYTILE
360
B1
  3
REFLECTIONTILE
360
B0
  3
REFRACTIONTILE
360
B2
  3
SPECULARTILE
360
AF
  0
DICTIONARY
  5
BC
330
BB
100
AcDbDictionary
280
     1
281
     1
  3
BUMPTILE
360
BE
  3
DIFFUSETILE
360
BD
  3
OPACITYTILE
360
C1
  3
REFLECTIONTILE
360
C0
  3
REFRACTIONTILE
360
C2
  3
SPECULARTILE
360
BF
  0
DICTIONARY
  5
183
330
F2
100
AcDbDictionary
280
     1
281
     1
  3
ACAD_XREC_ROUNDTRIP
360
184
  0
DICTIONARY
  5
185
330
F4
100
AcDbDictionary
280
     1
281
     1
  3
ACAD_XREC_ROUNDTRIP
360
186
  0
DICTIONARY
  5
150
330
DE
100
AcDbDictionary
280
     1
281
     1
  3
ACAD_ROUNDTRIP_2008_TABLESTYLE_CELLSTYLEMAP
360
151
  0
DICTIONARY
  5
15D
330
C9
100
AcDbDictionary
280
     1
281
     1
  3
ACAD_XREC_ROUNDTRIP
360
15E
  0
DICTIONARY
  5
15B
330
C8
100
AcDbDictionary
280
     1
281
     1
  3
ACAD_XREC_ROUNDTRIP
360
15C
  0
DICTIONARY
  5
169
330
CF
100
AcDbDictionary
280
     1
281
     1
  3
ACAD_XREC_ROUNDTRIP
360
16A
  0
DICTIONARY
  5
171
330
D3
100
AcDbDictionary
280
     1
281
     1
  3
ACAD_XREC_ROUNDTRIP
360
172
  0
DICTIONARY
  5
163
330
CC
100
AcDbDictionary
280
     1
281
     1
  3
ACAD_XREC_ROUNDTRIP
360
164
  0
DICTIONARY
  5
167
330
CE
100
AcDbDictionary
280
     1
281
     1
  3
ACAD_XREC_ROUNDTRIP
360
168
  0
DICTIONARY
  5
181
330
DB
100
AcDbDictionary
280
     1
281
     1
  3
ACAD_XREC_ROUNDTRIP
360
182
  0
DICTIONARY
  5
16F
330
D2
100
AcDbDictionary
280
     1
281
     1
  3
ACAD_XREC_ROUNDTRIP
360
170
  0
DICTIONARY
  5
153
330
C4
100
AcDbDictionary
280
     1
281
     1
  3
ACAD_XREC_ROUNDTRIP
360
154
  0
DICTIONARY
  5
155
330
C5
100
AcDbDictionary
280
     1
281
     1
  3
ACAD_XREC_ROUNDTRIP
360
156
  0
DICTIONARY
  5
157
330
C6
100
AcDbDictionary
280
     1
281
     1
  3
ACAD_XREC_ROUNDTRIP
360
158
  0
DICTIONARY
  5
159
330
C7
100
AcDbDictionary
280
     1
281
     1
  3
ACAD_XREC_ROUNDTRIP
360
15A
  0
DICTIONARY
  5
161
330
CB
100
AcDbDictionary
280
     1
281
     1
  3
ACAD_XREC_ROUNDTRIP
360
162
  0
DICTIONARY
  5
17D
330
D9
100
AcDbDictionary
280
     1
281
     1
  3
ACAD_XREC_ROUNDTRIP
360
17E
  0
DICTIONARY
  5
16D
330
D1
100
AcDbDictionary
280
     1
281
     1
  3
ACAD_XREC_ROUNDTRIP
360
16E
  0
DICTIONARY
  5
17F
330
DA
100
AcDbDictionary
280
     1
281
     1
  3
ACAD_XREC_ROUNDTRIP
360
180
  0
DICTIONARY
  5
165
330
CD
100
AcDbDictionary
280
     1
281
     1
  3
ACAD_XREC_ROUNDTRIP
360
166
  0
DICTIONARY
  5
17B
330
D8
100
AcDbDictionary
280
     1
281
     1
  3
ACAD_XREC_ROUNDTRIP
360
17C
  0
DICTIONARY
  5
179
330
D7
100
AcDbDictionary
280
     1
281
     1
  3
ACAD_XREC_ROUNDTRIP
360
17A
  0
DICTIONARY
  5
173
330
D4
100
AcDbDictionary
280
     1
281
     1
  3
ACAD_XREC_ROUNDTRIP
360
174
  0
DICTIONARY
  5
175
330
D5
100
AcDbDictionary
280
     1
281
     1
  3
ACAD_XREC_ROUNDTRIP
360
176
  0
DICTIONARY
  5
16B
330
D0
100
AcDbDictionary
280
     1
281
     1
  3
ACAD_XREC_ROUNDTRIP
360
16C
  0
DICTIONARY
  5
15F
330
CA
100
AcDbDictionary
280
     1
281
     1
  3
ACAD_XREC_ROUNDTRIP
360
160
  0
DICTIONARY
  5
177
330
D6
100
AcDbDictionary
280
     1
281
     1
  3
ACAD_XREC_ROUNDTRIP
360
178
  0
XRECORD
  5
188
102
{ACAD_REACTORS
330
187
102
}
330
187
100
AcDbXrecord
280
     1
102
DISPLAYNAME
  1
Imperial24
102
FLAGS
 90
        0
  0
XRECORD
  5
B6
102
{ACAD_REACTORS
330
B4
102
}
330
B4
100
AcDbXrecord
280
     1
270
     1
271
     1
  0
XRECORD
  5
B5
102
{ACAD_REACTORS
330
B4
102
}
330
B4
100
AcDbXrecord
280
     1
270
     1
271
     1
  0
XRECORD
  5
B9
102
{ACAD_REACTORS
330
B4
102
}
330
B4
100
AcDbXrecord
280
     1
270
     1
271
     1
  0
XRECORD
  5
B8
102
{ACAD_REACTORS
330
B4
102
}
330
B4
100
AcDbXrecord
280
     1
270
     1
271
     1
  0
XRECORD
  5
BA
102
{ACAD_REACTORS
330
B4
102
}
330
B4
100
AcDbXrecord
280
     1
270
     1
271
     1
  0
XRECORD
  5
B7
102
{ACAD_REACTORS
330
B4
102
}
330
B4
100
AcDbXrecord
280
     1
270
     1
271
     1
  0
XRECORD
  5
AE
102
{ACAD_REACTORS
330
AC
102
}
330
AC
100
AcDbXrecord
280
     1
270
     1
271
     1
  0
XRECORD
  5
AD
102
{ACAD_REACTORS
330
AC
102
}
330
AC
100
AcDbXrecord
280
     1
270
     1
271
     1
  0
XRECORD
  5
B1
102
{ACAD_REACTORS
330
AC
102
}
330
AC
100
AcDbXrecord
280
     1
270
     1
271
     1
  0
XRECORD
  5
B0
102
{ACAD_REACTORS
330
AC
102
}
330
AC
100
AcDbXrecord
280
     1
270
     1
271
     1
  0
XRECORD
  5
B2
102
{ACAD_REACTORS
330
AC
102
}
330
AC
100
AcDbXrecord
280
     1
270
     1
271
     1
  0
XRECORD
  5
AF
102
{ACAD_REACTORS
330
AC
102
}
330
AC
100
AcDbXrecord
280
     1
270
     1
271
     1
  0
XRECORD
  5
BE
102
{ACAD_REACTORS
330
BC
102
}
330
BC
100
AcDbXrecord
280
     1
270
     1
271
     1
  0
XRECORD
  5
BD
102
{ACAD_REACTORS
330
BC
102
}
330
BC
100
AcDbXrecord
280
     1
270
     1
271
     1
  0
XRECORD
  5
C1
102
{ACAD_REACTORS
330
BC
102
}
330
BC
100
AcDbXrecord
280
     1
270
     1
271
     1
  0
XRECORD
  5
C0
102
{ACAD_REACTORS
330
BC
102
}
330
BC
100
AcDbXrecord
280
     1
270
     1
271
     1
  0
XRECORD
  5
C2
102
{ACAD_REACTORS
330
BC
102
}
330
BC
100
AcDbXrecord
280
     1
270
     1
271
     1
  0
XRECORD
  5
BF
102
{ACAD_REACTORS
330
BC
102
}
330
BC
100
AcDbXrecord
280
     1
270
     1
271
     1
  0
XRECORD
  5
184
102
{ACAD_REACTORS
330
183
102
}
330
183
100
AcDbXrecord
280
     1
102
ACAD_ROUNDTRIP_2012_MLEADER_STYLE
298
     1
  0
XRECORD
  5
186
102
{ACAD_REACTORS
330
185
102
}
330
185
100
AcDbXrecord
280
     1
102
DISPLAYNAME
  1
Imperial24
102
FLAGS
 90
        0
  0
CELLSTYLEMAP
  5
151
102
{ACAD_REACTORS
330
150
102
}
330
150
100
AcDbCellStyleMap
 90
        3
300
CELLSTYLE
  1
TABLEFORMAT_BEGIN
 90
        5
170
     1
 91
        0
 92
    32768
 62
   257
 93
        1
300
CONTENTFORMAT
  1
CONTENTFORMAT_BEGIN
 90
        0
 91
        0
 92
      512
 93
        0
300

 40
0.0
140
1.0
 94
        5
 62
     0
340
11
144
0.25
309
CONTENTFORMAT_END
171
     0
 94
        0
309
TABLEFORMAT_END
  1
CELLSTYLE_BEGIN
 90
        1
 91
        1
300
_TITLE
309
CELLSTYLE_END
300
CELLSTYLE
  1
TABLEFORMAT_BEGIN
 90
        5
170
     1
 91
        0
 92
        0
 62
   257
 93
        1
300
CONTENTFORMAT
  1
CONTENTFORMAT_BEGIN
 90
        0
 91
        0
 92
      512
 93
        0
300

 40
0.0
140
1.0
 94
        5
 62
     0
340
11
144
0.18
309
CONTENTFORMAT_END
171
     0
 94
        0
309
TABLEFORMAT_END
  1
CELLSTYLE_BEGIN
 90
        2
 91
        1
300
_HEADER
309
CELLSTYLE_END
300
CELLSTYLE
  1
TABLEFORMAT_BEGIN
 90
        5
170
     1
 91
        0
 92
        0
 62
   257
 93
        1
300
CONTENTFORMAT
  1
CONTENTFORMAT_BEGIN
 90
        0
 91
        0
 92
      512
 93
        0
300

 40
0.0
140
1.0
 94
        2
 62
     0
340
11
144
0.18
309
CONTENTFORMAT_END
171
     0
 94
        0
309
TABLEFORMAT_END
  1
CELLSTYLE_BEGIN
 90
        3
 91
        2
300
_DATA
309
CELLSTYLE_END
  0
XRECORD
  5
15E
102
{ACAD_REACTORS
330
15D
102
}
330
15D
100
AcDbXrecord
280
     1
102
RTVSPost2010Prop28
280
     1
102
RTVSPost2010PropOp28
 70
     1
102
RTVSPost2010Prop29
280
     1
102
RTVSPost2010PropOp29
 70
     1
102
RTVSPost2010Prop30
280
     0
102
RTVSPost2010PropOp30
 70
     1
102
RTVSPost2010Prop31
280
     0
102
RTVSPost2010PropOp31
 70
     1
102
RTVSPost2010Prop32
280
     0
102
RTVSPost2010PropOp32
 70
     1
102
RTVSPost2010Prop33
280
     0
102
RTVSPost2010PropOp33
 70
     1
102
RTVSPost2010Prop34
280
     0
102
RTVSPost2010PropOp34
 70
     1
102
RTVSPost2010Prop35
280
     0
102
RTVSPost2010PropOp35
 70
     1
102
RTVSPost2010Prop36
280
     0
102
RTVSPost2010PropOp36
 70
     1
102
RTVSPost2010Prop37
 90
       50
102
RTVSPost2010PropOp37
 70
     1
102
RTVSPost2010Prop38
140
0.0
102
RTVSPost2010PropOp38
 70
     1
102
RTVSPost2010Prop39
140
1.0
102
RTVSPost2010PropOp39
 70
     1
102
RTVSPost2010Prop40
 90
        0
102
RTVSPost2010PropOp40
 70
     1
102
RTVSPost2010Prop41ColorIndex
 90
       18
102
RTVSPost2010Prop41ColorRGB
 90
        0
102
RTVSPost2010PropOp41
 70
     1
102
RTVSPost2010Prop42
 90
       50
102
RTVSPost2010PropOp42
 70
     1
102
RTVSPost2010Prop43
 90
        3
102
RTVSPost2010PropOp43
 70
     1
102
RTVSPost2010Prop44ColorIndex
 90
        5
102
RTVSPost2010Prop44ColorRGB
 90
      255
102
RTVSPost2010PropOp44
 70
     1
102
RTVSPost2010Prop45
280
     0
102
RTVSPost2010PropOp45
 70
     1
102
RTVSPost2010Prop46
 90
       50
102
RTVSPost2010PropOp46
 70
     1
102
RTVSPost2010Prop47
 90
       50
102
RTVSPost2010PropOp47
 70
     1
102
RTVSPost2010Prop48
 90
       50
102
RTVSPost2010PropOp48
 70
     1
102
RTVSPost2010Prop49
280
     0
102
RTVSPost2010PropOp49
 70
     1
102
RTVSPost2010Prop50
 90
       50
102
RTVSPost2010PropOp50
 70
     1
102
RTVSPost2010Prop51ColorIndex
 90
      256
102
RTVSPost2010Prop51ColorRGB
 90
-16777216
102
RTVSPost2010PropOp51
 70
     0
102
RTVSPost2010Prop52
140
1.0
102
RTVSPost2010PropOp52
 70
     0
102
RTVSPost2010Prop53
 90
        2
102
RTVSPost2010PropOp53
 70
     1
102
RTVSPost2010Prop54
  1
strokes_ogs.tif
102
RTVSPost2010PropOp54
 70
     1
102
RTVSPost2010Prop55
280
     0
102
RTVSPost2010PropOp55
 70
     1
102
RTVSPost2010Prop56
140
1.0
102
RTVSPost2010PropOp56
 70
     1
102
RTVSPost2010Prop57
140
1.0
102
RTVSPost2010PropOp57
 70
     1
  0
XRECORD
  5
15C
102
{ACAD_REACTORS
330
15B
102
}
330
15B
100
AcDbXrecord
280
     1
102
RTVSPost2010Prop28
280
     0
102
RTVSPost2010PropOp28
 70
     1
102
RTVSPost2010Prop29
280
     1
102
RTVSPost2010PropOp29
 70
     1
102
RTVSPost2010Prop30
280
     1
102
RTVSPost2010PropOp30
 70
     1
102
RTVSPost2010Prop31
280
     0
102
RTVSPost2010PropOp31
 70
     1
102
RTVSPost2010Prop32
280
     0
102
RTVSPost2010PropOp32
 70
     1
102
RTVSPost2010Prop33
280
     0
102
RTVSPost2010PropOp33
 70
     1
102
RTVSPost2010Prop34
280
     0
102
RTVSPost2010PropOp34
 70
     1
102
RTVSPost2010Prop35
280
     0
102
RTVSPost2010PropOp35
 70
     1
102
RTVSPost2010Prop36
280
     0
102
RTVSPost2010PropOp36
 70
     1
102
RTVSPost2010Prop37
 90
       50
102
RTVSPost2010PropOp37
 70
     1
102
RTVSPost2010Prop38
140
0.0
102
RTVSPost2010PropOp38
 70
     1
102
RTVSPost2010Prop39
140
1.0
102
RTVSPost2010PropOp39
 70
     1
102
RTVSPost2010Prop40
 90
        0
102
RTVSPost2010PropOp40
 70
     1
102
RTVSPost2010Prop41ColorIndex
 90
       18
102
RTVSPost2010Prop41ColorRGB
 90
        0
102
RTVSPost2010PropOp41
 70
     1
102
RTVSPost2010Prop42
 90
       50
102
RTVSPost2010PropOp42
 70
     1
102
RTVSPost2010Prop43
 90
        3
102
RTVSPost2010PropOp43
 70
     1
102
RTVSPost2010Prop44ColorIndex
 90
        5
102
RTVSPost2010Prop44ColorRGB
 90
      255
102
RTVSPost2010PropOp44
 70
     1
102
RTVSPost2010Prop45
280
     0
102
RTVSPost2010PropOp45
 70
     1
102
RTVSPost2010Prop46
 90
       50
102
RTVSPost2010PropOp46
 70
     1
102
RTVSPost2010Prop47
 90
       50
102
RTVSPost2010PropOp47
 70
     1
102
RTVSPost2010Prop48
 90
       50
102
RTVSPost2010PropOp48
 70
     1
102
RTVSPost2010Prop49
280
     0
102
RTVSPost2010PropOp49
 70
     1
102
RTVSPost2010Prop50
 90
       50
102
RTVSPost2010PropOp50
 70
     1
102
RTVSPost2010Prop51ColorIndex
 90
      256
102
RTVSPost2010Prop51ColorRGB
 90
-16777216
102
RTVSPost2010PropOp51
 70
     0
102
RTVSPost2010Prop52
140
1.0
102
RTVSPost2010PropOp52
 70
     0
102
RTVSPost2010Prop53
 90
        2
102
RTVSPost2010PropOp53
 70
     1
102
RTVSPost2010Prop54
  1
strokes_ogs.tif
102
RTVSPost2010PropOp54
 70
     1
102
RTVSPost2010Prop55
280
     0
102
RTVSPost2010PropOp55
 70
     1
102
RTVSPost2010Prop56
140
1.0
102
RTVSPost2010PropOp56
 70
     1
102
RTVSPost2010Prop57
140
1.0
102
RTVSPost2010PropOp57
 70
     1
  0
XRECORD
  5
16A
102
{ACAD_REACTORS
330
169
102
}
330
169
100
AcDbXrecord
280
     1
102
RTVSPost2010Prop28
280
     0
102
RTVSPost2010PropOp28
 70
     1
102
RTVSPost2010Prop29
280
     1
102
RTVSPost2010PropOp29
 70
     1
102
RTVSPost2010Prop30
280
     1
102
RTVSPost2010PropOp30
 70
     1
102
RTVSPost2010Prop31
280
     0
102
RTVSPost2010PropOp31
 70
     1
102
RTVSPost2010Prop32
280
     0
102
RTVSPost2010PropOp32
 70
     1
102
RTVSPost2010Prop33
280
     0
102
RTVSPost2010PropOp33
 70
     1
102
RTVSPost2010Prop34
280
     0
102
RTVSPost2010PropOp34
 70
     1
102
RTVSPost2010Prop35
280
     0
102
RTVSPost2010PropOp35
 70
     1
102
RTVSPost2010Prop36
280
     0
102
RTVSPost2010PropOp36
 70
     1
102
RTVSPost2010Prop37
 90
       50
102
RTVSPost2010PropOp37
 70
     1
102
RTVSPost2010Prop38
140
0.0
102
RTVSPost2010PropOp38
 70
     1
102
RTVSPost2010Prop39
140
1.0
102
RTVSPost2010PropOp39
 70
     1
102
RTVSPost2010Prop40
 90
        0
102
RTVSPost2010PropOp40
 70
     1
102
RTVSPost2010Prop41ColorIndex
 90
       18
102
RTVSPost2010Prop41ColorRGB
 90
        0
102
RTVSPost2010PropOp41
 70
     1
102
RTVSPost2010Prop42
 90
       50
102
RTVSPost2010PropOp42
 70
     1
102
RTVSPost2010Prop43
 90
        3
102
RTVSPost2010PropOp43
 70
     1
102
RTVSPost2010Prop44ColorIndex
 90
        5
102
RTVSPost2010Prop44ColorRGB
 90
      255
102
RTVSPost2010PropOp44
 70
     1
102
RTVSPost2010Prop45
280
     0
102
RTVSPost2010PropOp45
 70
     1
102
RTVSPost2010Prop46
 90
       50
102
RTVSPost2010PropOp46
 70
     1
102
RTVSPost2010Prop47
 90
       50
102
RTVSPost2010PropOp47
 70
     1
102
RTVSPost2010Prop48
 90
       50
102
RTVSPost2010PropOp48
 70
     1
102
RTVSPost2010Prop49
280
     0
102
RTVSPost2010PropOp49
 70
     1
102
RTVSPost2010Prop50
 90
       50
102
RTVSPost2010PropOp50
 70
     1
102
RTVSPost2010Prop51ColorIndex
 90
      256
102
RTVSPost2010Prop51ColorRGB
 90
-16777216
102
RTVSPost2010PropOp51
 70
     0
102
RTVSPost2010Prop52
140
1.0
102
RTVSPost2010PropOp52
 70
     0
102
RTVSPost2010Prop53
 90
        2
102
RTVSPost2010PropOp53
 70
     1
102
RTVSPost2010Prop54
  1
strokes_ogs.tif
102
RTVSPost2010PropOp54
 70
     1
102
RTVSPost2010Prop55
280
     0
102
RTVSPost2010PropOp55
 70
     1
102
RTVSPost2010Prop56
140
1.0
102
RTVSPost2010PropOp56
 70
     1
102
RTVSPost2010Prop57
140
1.0
102
RTVSPost2010PropOp57
 70
     1
  0
XRECORD
  5
172
102
{ACAD_REACTORS
330
171
102
}
330
171
100
AcDbXrecord
280
     1
102
RTVSPost2010Prop28
280
     0
102
RTVSPost2010PropOp28
 70
     1
102
RTVSPost2010Prop29
280
     1
102
RTVSPost2010PropOp29
 70
     1
102
RTVSPost2010Prop30
280
     1
102
RTVSPost2010PropOp30
 70
     1
102
RTVSPost2010Prop31
280
     0
102
RTVSPost2010PropOp31
 70
     1
102
RTVSPost2010Prop32
280
     0
102
RTVSPost2010PropOp32
 70
     1
102
RTVSPost2010Prop33
280
     0
102
RTVSPost2010PropOp33
 70
     1
102
RTVSPost2010Prop34
280
     0
102
RTVSPost2010PropOp34
 70
     1
102
RTVSPost2010Prop35
280
     0
102
RTVSPost2010PropOp35
 70
     1
102
RTVSPost2010Prop36
280
     0
102
RTVSPost2010PropOp36
 70
     1
102
RTVSPost2010Prop37
 90
       50
102
RTVSPost2010PropOp37
 70
     1
102
RTVSPost2010Prop38
140
0.0
102
RTVSPost2010PropOp38
 70
     1
102
RTVSPost2010Prop39
140
1.0
102
RTVSPost2010PropOp39
 70
     1
102
RTVSPost2010Prop40
 90
        0
102
RTVSPost2010PropOp40
 70
     1
102
RTVSPost2010Prop41ColorIndex
 90
       18
102
RTVSPost2010Prop41ColorRGB
 90
        0
102
RTVSPost2010PropOp41
 70
     1
102
RTVSPost2010Prop42
 90
       50
102
RTVSPost2010PropOp42
 70
     1
102
RTVSPost2010Prop43
 90
        3
102
RTVSPost2010PropOp43
 70
     1
102
RTVSPost2010Prop44ColorIndex
 90
        5
102
RTVSPost2010Prop44ColorRGB
 90
      255
102
RTVSPost2010PropOp44
 70
     1
102
RTVSPost2010Prop45
280
     0
102
RTVSPost2010PropOp45
 70
     1
102
RTVSPost2010Prop46
 90
       50
102
RTVSPost2010PropOp46
 70
     1
102
RTVSPost2010Prop47
 90
       50
102
RTVSPost2010PropOp47
 70
     1
102
RTVSPost2010Prop48
 90
       50
102
RTVSPost2010PropOp48
 70
     1
102
RTVSPost2010Prop49
280
     0
102
RTVSPost2010PropOp49
 70
     1
102
RTVSPost2010Prop50
 90
       50
102
RTVSPost2010PropOp50
 70
     1
102
RTVSPost2010Prop51ColorIndex
 90
      256
102
RTVSPost2010Prop51ColorRGB
 90
-16777216
102
RTVSPost2010PropOp51
 70
     0
102
RTVSPost2010Prop52
140
1.0
102
RTVSPost2010PropOp52
 70
     0
102
RTVSPost2010Prop53
 90
        2
102
RTVSPost2010PropOp53
 70
     1
102
RTVSPost2010Prop54
  1
strokes_ogs.tif
102
RTVSPost2010PropOp54
 70
     1
102
RTVSPost2010Prop55
280
     0
102
RTVSPost2010PropOp55
 70
     1
102
RTVSPost2010Prop56
140
1.0
102
RTVSPost2010PropOp56
 70
     1
102
RTVSPost2010Prop57
140
1.0
102
RTVSPost2010PropOp57
 70
     1
  0
XRECORD
  5
164
102
{ACAD_REACTORS
330
163
102
}
330
163
100
AcDbXrecord
280
     1
102
RTVSPost2010Prop28
280
     0
102
RTVSPost2010PropOp28
 70
     1
102
RTVSPost2010Prop29
280
     1
102
RTVSPost2010PropOp29
 70
     1
102
RTVSPost2010Prop30
280
     1
102
RTVSPost2010PropOp30
 70
     1
102
RTVSPost2010Prop31
280
     0
102
RTVSPost2010PropOp31
 70
     1
102
RTVSPost2010Prop32
280
     0
102
RTVSPost2010PropOp32
 70
     1
102
RTVSPost2010Prop33
280
     0
102
RTVSPost2010PropOp33
 70
     1
102
RTVSPost2010Prop34
280
     0
102
RTVSPost2010PropOp34
 70
     1
102
RTVSPost2010Prop35
280
     0
102
RTVSPost2010PropOp35
 70
     1
102
RTVSPost2010Prop36
280
     0
102
RTVSPost2010PropOp36
 70
     1
102
RTVSPost2010Prop37
 90
       50
102
RTVSPost2010PropOp37
 70
     1
102
RTVSPost2010Prop38
140
0.0
102
RTVSPost2010PropOp38
 70
     1
102
RTVSPost2010Prop39
140
1.0
102
RTVSPost2010PropOp39
 70
     1
102
RTVSPost2010Prop40
 90
        0
102
RTVSPost2010PropOp40
 70
     1
102
RTVSPost2010Prop41ColorIndex
 90
       18
102
RTVSPost2010Prop41ColorRGB
 90
        0
102
RTVSPost2010PropOp41
 70
     1
102
RTVSPost2010Prop42
 90
       50
102
RTVSPost2010PropOp42
 70
     1
102
RTVSPost2010Prop43
 90
        3
102
RTVSPost2010PropOp43
 70
     1
102
RTVSPost2010Prop44ColorIndex
 90
        5
102
RTVSPost2010Prop44ColorRGB
 90
      255
102
RTVSPost2010PropOp44
 70
     1
102
RTVSPost2010Prop45
280
     0
102
RTVSPost2010PropOp45
 70
     1
102
RTVSPost2010Prop46
 90
       50
102
RTVSPost2010PropOp46
 70
     1
102
RTVSPost2010Prop47
 90
       50
102
RTVSPost2010PropOp47
 70
     1
102
RTVSPost2010Prop48
 90
       50
102
RTVSPost2010PropOp48
 70
     1
102
RTVSPost2010Prop49
280
     0
102
RTVSPost2010PropOp49
 70
     1
102
RTVSPost2010Prop50
 90
       50
102
RTVSPost2010PropOp50
 70
     1
102
RTVSPost2010Prop51ColorIndex
 90
      256
102
RTVSPost2010Prop51ColorRGB
 90
-16777216
102
RTVSPost2010PropOp51
 70
     0
102
RTVSPost2010Prop52
140
1.0
102
RTVSPost2010PropOp52
 70
     0
102
RTVSPost2010Prop53
 90
        2
102
RTVSPost2010PropOp53
 70
     1
102
RTVSPost2010Prop54
  1
strokes_ogs.tif
102
RTVSPost2010PropOp54
 70
     1
102
RTVSPost2010Prop55
280
     0
102
RTVSPost2010PropOp55
 70
     1
102
RTVSPost2010Prop56
140
1.0
102
RTVSPost2010PropOp56
 70
     1
102
RTVSPost2010Prop57
140
1.0
102
RTVSPost2010PropOp57
 70
     1
  0
XRECORD
  5
168
102
{ACAD_REACTORS
330
167
102
}
330
167
100
AcDbXrecord
280
     1
102
RTVSPost2010Prop28
280
     0
102
RTVSPost2010PropOp28
 70
     1
102
RTVSPost2010Prop29
280
     1
102
RTVSPost2010PropOp29
 70
     1
102
RTVSPost2010Prop30
280
     1
102
RTVSPost2010PropOp30
 70
     1
102
RTVSPost2010Prop31
280
     0
102
RTVSPost2010PropOp31
 70
     1
102
RTVSPost2010Prop32
280
     0
102
RTVSPost2010PropOp32
 70
     1
102
RTVSPost2010Prop33
280
     0
102
RTVSPost2010PropOp33
 70
     1
102
RTVSPost2010Prop34
280
     0
102
RTVSPost2010PropOp34
 70
     1
102
RTVSPost2010Prop35
280
     0
102
RTVSPost2010PropOp35
 70
     1
102
RTVSPost2010Prop36
280
     0
102
RTVSPost2010PropOp36
 70
     1
102
RTVSPost2010Prop37
 90
       50
102
RTVSPost2010PropOp37
 70
     1
102
RTVSPost2010Prop38
140
0.0
102
RTVSPost2010PropOp38
 70
     1
102
RTVSPost2010Prop39
140
1.0
102
RTVSPost2010PropOp39
 70
     1
102
RTVSPost2010Prop40
 90
        0
102
RTVSPost2010PropOp40
 70
     1
102
RTVSPost2010Prop41ColorIndex
 90
       18
102
RTVSPost2010Prop41ColorRGB
 90
        0
102
RTVSPost2010PropOp41
 70
     1
102
RTVSPost2010Prop42
 90
       50
102
RTVSPost2010PropOp42
 70
     1
102
RTVSPost2010Prop43
 90
        3
102
RTVSPost2010PropOp43
 70
     1
102
RTVSPost2010Prop44ColorIndex
 90
        5
102
RTVSPost2010Prop44ColorRGB
 90
      255
102
RTVSPost2010PropOp44
 70
     1
102
RTVSPost2010Prop45
280
     0
102
RTVSPost2010PropOp45
 70
     1
102
RTVSPost2010Prop46
 90
       50
102
RTVSPost2010PropOp46
 70
     1
102
RTVSPost2010Prop47
 90
       50
102
RTVSPost2010PropOp47
 70
     1
102
RTVSPost2010Prop48
 90
       50
102
RTVSPost2010PropOp48
 70
     1
102
RTVSPost2010Prop49
280
     0
102
RTVSPost2010PropOp49
 70
     1
102
RTVSPost2010Prop50
 90
       50
102
RTVSPost2010PropOp50
 70
     1
102
RTVSPost2010Prop51ColorIndex
 90
      256
102
RTVSPost2010Prop51ColorRGB
 90
-16777216
102
RTVSPost2010PropOp51
 70
     0
102
RTVSPost2010Prop52
140
1.0
102
RTVSPost2010PropOp52
 70
     0
102
RTVSPost2010Prop53
 90
        2
102
RTVSPost2010PropOp53
 70
     1
102
RTVSPost2010Prop54
  1
strokes_ogs.tif
102
RTVSPost2010PropOp54
 70
     1
102
RTVSPost2010Prop55
280
     0
102
RTVSPost2010PropOp55
 70
     1
102
RTVSPost2010Prop56
140
1.0
102
RTVSPost2010PropOp56
 70
     1
102
RTVSPost2010Prop57
140
1.0
102
RTVSPost2010PropOp57
 70
     1
  0
XRECORD
  5
182
102
{ACAD_REACTORS
330
181
102
}
330
181
100
AcDbXrecord
280
     1
102
RTVSPost2010Prop28
280
     0
102
RTVSPost2010PropOp28
 70
     0
102
RTVSPost2010Prop29
280
     1
102
RTVSPost2010PropOp29
 70
     0
102
RTVSPost2010Prop30
280
     1
102
RTVSPost2010PropOp30
 70
     0
102
RTVSPost2010Prop31
280
     0
102
RTVSPost2010PropOp31
 70
     0
102
RTVSPost2010Prop32
280
     0
102
RTVSPost2010PropOp32
 70
     0
102
RTVSPost2010Prop33
280
     0
102
RTVSPost2010PropOp33
 70
     0
102
RTVSPost2010Prop34
280
     0
102
RTVSPost2010PropOp34
 70
     0
102
RTVSPost2010Prop35
280
     0
102
RTVSPost2010PropOp35
 70
     0
102
RTVSPost2010Prop36
280
     0
102
RTVSPost2010PropOp36
 70
     0
102
RTVSPost2010Prop37
 90
       50
102
RTVSPost2010PropOp37
 70
     0
102
RTVSPost2010Prop38
140
0.0
102
RTVSPost2010PropOp38
 70
     0
102
RTVSPost2010Prop39
140
1.0
102
RTVSPost2010PropOp39
 70
     0
102
RTVSPost2010Prop40
 90
        0
102
RTVSPost2010PropOp40
 70
     0
102
RTVSPost2010Prop41ColorIndex
 90
       18
102
RTVSPost2010Prop41ColorRGB
 90
        0
102
RTVSPost2010PropOp41
 70
     0
102
RTVSPost2010Prop42
 90
       50
102
RTVSPost2010PropOp42
 70
     0
102
RTVSPost2010Prop43
 90
        3
102
RTVSPost2010PropOp43
 70
     0
102
RTVSPost2010Prop44ColorIndex
 90
        5
102
RTVSPost2010Prop44ColorRGB
 90
      255
102
RTVSPost2010PropOp44
 70
     0
102
RTVSPost2010Prop45
280
     0
102
RTVSPost2010PropOp45
 70
     0
102
RTVSPost2010Prop46
 90
       50
102
RTVSPost2010PropOp46
 70
     0
102
RTVSPost2010Prop47
 90
       50
102
RTVSPost2010PropOp47
 70
     0
102
RTVSPost2010Prop48
 90
       50
102
RTVSPost2010PropOp48
 70
     0
102
RTVSPost2010Prop49
280
     0
102
RTVSPost2010PropOp49
 70
     0
102
RTVSPost2010Prop50
 90
       50
102
RTVSPost2010PropOp50
 70
     0
102
RTVSPost2010Prop51ColorIndex
 90
      256
102
RTVSPost2010Prop51ColorRGB
 90
-16777216
102
RTVSPost2010PropOp51
 70
     0
102
RTVSPost2010Prop52
140
1.0
102
RTVSPost2010PropOp52
 70
     0
102
RTVSPost2010Prop53
 90
        2
102
RTVSPost2010PropOp53
 70
     0
102
RTVSPost2010Prop54
  1
strokes_ogs.tif
102
RTVSPost2010PropOp54
 70
     0
102
RTVSPost2010Prop55
280
     0
102
RTVSPost2010PropOp55
 70
     0
102
RTVSPost2010Prop56
140
1.0
102
RTVSPost2010PropOp56
 70
     0
102
RTVSPost2010Prop57
140
1.0
102
RTVSPost2010PropOp57
 70
     0
  0
XRECORD
  5
170
102
{ACAD_REACTORS
330
16F
102
}
330
16F
100
AcDbXrecord
280
     1
102
RTVSPost2010Prop28
280
     0
102
RTVSPost2010PropOp28
 70
     1
102
RTVSPost2010Prop29
280
     1
102
RTVSPost2010PropOp29
 70
     1
102
RTVSPost2010Prop30
280
     1
102
RTVSPost2010PropOp30
 70
     1
102
RTVSPost2010Prop31
280
     0
102
RTVSPost2010PropOp31
 70
     1
102
RTVSPost2010Prop32
280
     0
102
RTVSPost2010PropOp32
 70
     1
102
RTVSPost2010Prop33
280
     0
102
RTVSPost2010PropOp33
 70
     1
102
RTVSPost2010Prop34
280
     0
102
RTVSPost2010PropOp34
 70
     1
102
RTVSPost2010Prop35
280
     0
102
RTVSPost2010PropOp35
 70
     1
102
RTVSPost2010Prop36
280
     0
102
RTVSPost2010PropOp36
 70
     1
102
RTVSPost2010Prop37
 90
       50
102
RTVSPost2010PropOp37
 70
     1
102
RTVSPost2010Prop38
140
0.0
102
RTVSPost2010PropOp38
 70
     1
102
RTVSPost2010Prop39
140
1.0
102
RTVSPost2010PropOp39
 70
     1
102
RTVSPost2010Prop40
 90
        0
102
RTVSPost2010PropOp40
 70
     1
102
RTVSPost2010Prop41ColorIndex
 90
       18
102
RTVSPost2010Prop41ColorRGB
 90
        0
102
RTVSPost2010PropOp41
 70
     1
102
RTVSPost2010Prop42
 90
       50
102
RTVSPost2010PropOp42
 70
     1
102
RTVSPost2010Prop43
 90
        3
102
RTVSPost2010PropOp43
 70
     1
102
RTVSPost2010Prop44ColorIndex
 90
        5
102
RTVSPost2010Prop44ColorRGB
 90
      255
102
RTVSPost2010PropOp44
 70
     1
102
RTVSPost2010Prop45
280
     0
102
RTVSPost2010PropOp45
 70
     1
102
RTVSPost2010Prop46
 90
       50
102
RTVSPost2010PropOp46
 70
     1
102
RTVSPost2010Prop47
 90
       50
102
RTVSPost2010PropOp47
 70
     1
102
RTVSPost2010Prop48
 90
       50
102
RTVSPost2010PropOp48
 70
     1
102
RTVSPost2010Prop49
280
     0
102
RTVSPost2010PropOp49
 70
     1
102
RTVSPost2010Prop50
 90
       50
102
RTVSPost2010PropOp50
 70
     1
102
RTVSPost2010Prop51ColorIndex
 90
      256
102
RTVSPost2010Prop51ColorRGB
 90
-16777216
102
RTVSPost2010PropOp51
 70
     0
102
RTVSPost2010Prop52
140
1.0
102
RTVSPost2010PropOp52
 70
     0
102
RTVSPost2010Prop53
 90
        2
102
RTVSPost2010PropOp53
 70
     1
102
RTVSPost2010Prop54
  1
strokes_ogs.tif
102
RTVSPost2010PropOp54
 70
     1
102
RTVSPost2010Prop55
280
     0
102
RTVSPost2010PropOp55
 70
     1
102
RTVSPost2010Prop56
140
1.0
102
RTVSPost2010PropOp56
 70
     1
102
RTVSPost2010Prop57
140
1.0
102
RTVSPost2010PropOp57
 70
     1
  0
XRECORD
  5
154
102
{ACAD_REACTORS
330
153
102
}
330
153
100
AcDbXrecord
280
     1
102
RTVSPost2010Prop28
280
     0
102
RTVSPost2010PropOp28
 70
     1
102
RTVSPost2010Prop29
280
     1
102
RTVSPost2010PropOp29
 70
     1
102
RTVSPost2010Prop30
280
     1
102
RTVSPost2010PropOp30
 70
     1
102
RTVSPost2010Prop31
280
     0
102
RTVSPost2010PropOp31
 70
     1
102
RTVSPost2010Prop32
280
     0
102
RTVSPost2010PropOp32
 70
     1
102
RTVSPost2010Prop33
280
     0
102
RTVSPost2010PropOp33
 70
     1
102
RTVSPost2010Prop34
280
     0
102
RTVSPost2010PropOp34
 70
     1
102
RTVSPost2010Prop35
280
     0
102
RTVSPost2010PropOp35
 70
     1
102
RTVSPost2010Prop36
280
     0
102
RTVSPost2010PropOp36
 70
     1
102
RTVSPost2010Prop37
 90
       50
102
RTVSPost2010PropOp37
 70
     1
102
RTVSPost2010Prop38
140
0.0
102
RTVSPost2010PropOp38
 70
     1
102
RTVSPost2010Prop39
140
1.0
102
RTVSPost2010PropOp39
 70
     1
102
RTVSPost2010Prop40
 90
        0
102
RTVSPost2010PropOp40
 70
     1
102
RTVSPost2010Prop41ColorIndex
 90
       18
102
RTVSPost2010Prop41ColorRGB
 90
        0
102
RTVSPost2010PropOp41
 70
     1
102
RTVSPost2010Prop42
 90
       50
102
RTVSPost2010PropOp42
 70
     1
102
RTVSPost2010Prop43
 90
        3
102
RTVSPost2010PropOp43
 70
     1
102
RTVSPost2010Prop44ColorIndex
 90
        5
102
RTVSPost2010Prop44ColorRGB
 90
      255
102
RTVSPost2010PropOp44
 70
     1
102
RTVSPost2010Prop45
280
     0
102
RTVSPost2010PropOp45
 70
     1
102
RTVSPost2010Prop46
 90
       50
102
RTVSPost2010PropOp46
 70
     1
102
RTVSPost2010Prop47
 90
       50
102
RTVSPost2010PropOp47
 70
     1
102
RTVSPost2010Prop48
 90
       50
102
RTVSPost2010PropOp48
 70
     1
102
RTVSPost2010Prop49
280
     0
102
RTVSPost2010PropOp49
 70
     1
102
RTVSPost2010Prop50
 90
       50
102
RTVSPost2010PropOp50
 70
     1
102
RTVSPost2010Prop51ColorIndex
 90
      256
102
RTVSPost2010Prop51ColorRGB
 90
-16777216
102
RTVSPost2010PropOp51
 70
     0
102
RTVSPost2010Prop52
140
1.0
102
RTVSPost2010PropOp52
 70
     0
102
RTVSPost2010Prop53
 90
        2
102
RTVSPost2010PropOp53
 70
     1
102
RTVSPost2010Prop54
  1
strokes_ogs.tif
102
RTVSPost2010PropOp54
 70
     1
102
RTVSPost2010Prop55
280
     0
102
RTVSPost2010PropOp55
 70
     1
102
RTVSPost2010Prop56
140
1.0
102
RTVSPost2010PropOp56
 70
     1
102
RTVSPost2010Prop57
140
1.0
102
RTVSPost2010PropOp57
 70
     1
  0
XRECORD
  5
156
102
{ACAD_REACTORS
330
155
102
}
330
155
100
AcDbXrecord
280
     1
102
RTVSPost2010Prop28
280
     0
102
RTVSPost2010PropOp28
 70
     1
102
RTVSPost2010Prop29
280
     1
102
RTVSPost2010PropOp29
 70
     1
102
RTVSPost2010Prop30
280
     1
102
RTVSPost2010PropOp30
 70
     1
102
RTVSPost2010Prop31
280
     0
102
RTVSPost2010PropOp31
 70
     1
102
RTVSPost2010Prop32
280
     0
102
RTVSPost2010PropOp32
 70
     1
102
RTVSPost2010Prop33
280
     0
102
RTVSPost2010PropOp33
 70
     1
102
RTVSPost2010Prop34
280
     0
102
RTVSPost2010PropOp34
 70
     1
102
RTVSPost2010Prop35
280
     0
102
RTVSPost2010PropOp35
 70
     1
102
RTVSPost2010Prop36
280
     0
102
RTVSPost2010PropOp36
 70
     1
102
RTVSPost2010Prop37
 90
       50
102
RTVSPost2010PropOp37
 70
     1
102
RTVSPost2010Prop38
140
0.0
102
RTVSPost2010PropOp38
 70
     1
102
RTVSPost2010Prop39
140
1.0
102
RTVSPost2010PropOp39
 70
     1
102
RTVSPost2010Prop40
 90
        0
102
RTVSPost2010PropOp40
 70
     1
102
RTVSPost2010Prop41ColorIndex
 90
       18
102
RTVSPost2010Prop41ColorRGB
 90
        0
102
RTVSPost2010PropOp41
 70
     1
102
RTVSPost2010Prop42
 90
       50
102
RTVSPost2010PropOp42
 70
     1
102
RTVSPost2010Prop43
 90
        3
102
RTVSPost2010PropOp43
 70
     1
102
RTVSPost2010Prop44ColorIndex
 90
        5
102
RTVSPost2010Prop44ColorRGB
 90
      255
102
RTVSPost2010PropOp44
 70
     1
102
RTVSPost2010Prop45
280
     0
102
RTVSPost2010PropOp45
 70
     1
102
RTVSPost2010Prop46
 90
       50
102
RTVSPost2010PropOp46
 70
     1
102
RTVSPost2010Prop47
 90
       50
102
RTVSPost2010PropOp47
 70
     1
102
RTVSPost2010Prop48
 90
       50
102
RTVSPost2010PropOp48
 70
     1
102
RTVSPost2010Prop49
280
     0
102
RTVSPost2010PropOp49
 70
     1
102
RTVSPost2010Prop50
 90
       50
102
RTVSPost2010PropOp50
 70
     1
102
RTVSPost2010Prop51ColorIndex
 90
      256
102
RTVSPost2010Prop51ColorRGB
 90
-16777216
102
RTVSPost2010PropOp51
 70
     0
102
RTVSPost2010Prop52
140
1.0
102
RTVSPost2010PropOp52
 70
     0
102
RTVSPost2010Prop53
 90
        2
102
RTVSPost2010PropOp53
 70
     1
102
RTVSPost2010Prop54
  1
strokes_ogs.tif
102
RTVSPost2010PropOp54
 70
     1
102
RTVSPost2010Prop55
280
     0
102
RTVSPost2010PropOp55
 70
     1
102
RTVSPost2010Prop56
140
1.0
102
RTVSPost2010PropOp56
 70
     1
102
RTVSPost2010Prop57
140
1.0
102
RTVSPost2010PropOp57
 70
     1
  0
XRECORD
  5
158
102
{ACAD_REACTORS
330
157
102
}
330
157
100
AcDbXrecord
280
     1
102
RTVSPost2010Prop28
280
     0
102
RTVSPost2010PropOp28
 70
     1
102
RTVSPost2010Prop29
280
     1
102
RTVSPost2010PropOp29
 70
     1
102
RTVSPost2010Prop30
280
     1
102
RTVSPost2010PropOp30
 70
     1
102
RTVSPost2010Prop31
280
     0
102
RTVSPost2010PropOp31
 70
     1
102
RTVSPost2010Prop32
280
     0
102
RTVSPost2010PropOp32
 70
     1
102
RTVSPost2010Prop33
280
     0
102
RTVSPost2010PropOp33
 70
     1
102
RTVSPost2010Prop34
280
     0
102
RTVSPost2010PropOp34
 70
     1
102
RTVSPost2010Prop35
280
     0
102
RTVSPost2010PropOp35
 70
     1
102
RTVSPost2010Prop36
280
     0
102
RTVSPost2010PropOp36
 70
     1
102
RTVSPost2010Prop37
 90
       50
102
RTVSPost2010PropOp37
 70
     1
102
RTVSPost2010Prop38
140
0.0
102
RTVSPost2010PropOp38
 70
     1
102
RTVSPost2010Prop39
140
1.0
102
RTVSPost2010PropOp39
 70
     1
102
RTVSPost2010Prop40
 90
        0
102
RTVSPost2010PropOp40
 70
     1
102
RTVSPost2010Prop41ColorIndex
 90
       18
102
RTVSPost2010Prop41ColorRGB
 90
        0
102
RTVSPost2010PropOp41
 70
     1
102
RTVSPost2010Prop42
 90
       50
102
RTVSPost2010PropOp42
 70
     1
102
RTVSPost2010Prop43
 90
        3
102
RTVSPost2010PropOp43
 70
     1
102
RTVSPost2010Prop44ColorIndex
 90
        5
102
RTVSPost2010Prop44ColorRGB
 90
      255
102
RTVSPost2010PropOp44
 70
     1
102
RTVSPost2010Prop45
280
     0
102
RTVSPost2010PropOp45
 70
     1
102
RTVSPost2010Prop46
 90
       50
102
RTVSPost2010PropOp46
 70
     1
102
RTVSPost2010Prop47
 90
       50
102
RTVSPost2010PropOp47
 70
     1
102
RTVSPost2010Prop48
 90
       50
102
RTVSPost2010PropOp48
 70
     1
102
RTVSPost2010Prop49
280
     0
102
RTVSPost2010PropOp49
 70
     1
102
RTVSPost2010Prop50
 90
       50
102
RTVSPost2010PropOp50
 70
     1
102
RTVSPost2010Prop51ColorIndex
 90
      256
102
RTVSPost2010Prop51ColorRGB
 90
-16777216
102
RTVSPost2010PropOp51
 70
     0
102
RTVSPost2010Prop52
140
1.0
102
RTVSPost2010PropOp52
 70
     0
102
RTVSPost2010Prop53
 90
        2
102
RTVSPost2010PropOp53
 70
     1
102
RTVSPost2010Prop54
  1
strokes_ogs.tif
102
RTVSPost2010PropOp54
 70
     1
102
RTVSPost2010Prop55
280
     0
102
RTVSPost2010PropOp55
 70
     1
102
RTVSPost2010Prop56
140
1.0
102
RTVSPost2010PropOp56
 70
     1
102
RTVSPost2010Prop57
140
1.0
102
RTVSPost2010PropOp57
 70
     1
  0
XRECORD
  5
15A
102
{ACAD_REACTORS
330
159
102
}
330
159
100
AcDbXrecord
280
     1
102
RTVSPost2010Prop28
280
     0
102
RTVSPost2010PropOp28
 70
     1
102
RTVSPost2010Prop29
280
     1
102
RTVSPost2010PropOp29
 70
     1
102
RTVSPost2010Prop30
280
     1
102
RTVSPost2010PropOp30
 70
     1
102
RTVSPost2010Prop31
280
     0
102
RTVSPost2010PropOp31
 70
     1
102
RTVSPost2010Prop32
280
     0
102
RTVSPost2010PropOp32
 70
     1
102
RTVSPost2010Prop33
280
     0
102
RTVSPost2010PropOp33
 70
     1
102
RTVSPost2010Prop34
280
     0
102
RTVSPost2010PropOp34
 70
     1
102
RTVSPost2010Prop35
280
     0
102
RTVSPost2010PropOp35
 70
     1
102
RTVSPost2010Prop36
280
     0
102
RTVSPost2010PropOp36
 70
     1
102
RTVSPost2010Prop37
 90
       50
102
RTVSPost2010PropOp37
 70
     1
102
RTVSPost2010Prop38
140
0.0
102
RTVSPost2010PropOp38
 70
     1
102
RTVSPost2010Prop39
140
1.0
102
RTVSPost2010PropOp39
 70
     1
102
RTVSPost2010Prop40
 90
        0
102
RTVSPost2010PropOp40
 70
     1
102
RTVSPost2010Prop41ColorIndex
 90
       18
102
RTVSPost2010Prop41ColorRGB
 90
        0
102
RTVSPost2010PropOp41
 70
     1
102
RTVSPost2010Prop42
 90
       50
102
RTVSPost2010PropOp42
 70
     1
102
RTVSPost2010Prop43
 90
        3
102
RTVSPost2010PropOp43
 70
     1
102
RTVSPost2010Prop44ColorIndex
 90
        5
102
RTVSPost2010Prop44ColorRGB
 90
      255
102
RTVSPost2010PropOp44
 70
     1
102
RTVSPost2010Prop45
280
     0
102
RTVSPost2010PropOp45
 70
     1
102
RTVSPost2010Prop46
 90
       50
102
RTVSPost2010PropOp46
 70
     1
102
RTVSPost2010Prop47
 90
       50
102
RTVSPost2010PropOp47
 70
     1
102
RTVSPost2010Prop48
 90
       50
102
RTVSPost2010PropOp48
 70
     1
102
RTVSPost2010Prop49
280
     0
102
RTVSPost2010PropOp49
 70
     1
102
RTVSPost2010Prop50
 90
       50
102
RTVSPost2010PropOp50
 70
     1
102
RTVSPost2010Prop51ColorIndex
 90
      256
102
RTVSPost2010Prop51ColorRGB
 90
-16777216
102
RTVSPost2010PropOp51
 70
     0
102
RTVSPost2010Prop52
140
1.0
102
RTVSPost2010PropOp52
 70
     0
102
RTVSPost2010Prop53
 90
        2
102
RTVSPost2010PropOp53
 70
     1
102
RTVSPost2010Prop54
  1
strokes_ogs.tif
102
RTVSPost2010PropOp54
 70
     1
102
RTVSPost2010Prop55
280
     0
102
RTVSPost2010PropOp55
 70
     1
102
RTVSPost2010Prop56
140
1.0
102
RTVSPost2010PropOp56
 70
     1
102
RTVSPost2010Prop57
140
1.0
102
RTVSPost2010PropOp57
 70
     1
  0
XRECORD
  5
162
102
{ACAD_REACTORS
330
161
102
}
330
161
100
AcDbXrecord
280
     1
102
RTVSPost2010Prop28
280
     0
102
RTVSPost2010PropOp28
 70
     1
102
RTVSPost2010Prop29
280
     1
102
RTVSPost2010PropOp29
 70
     1
102
RTVSPost2010Prop30
280
     1
102
RTVSPost2010PropOp30
 70
     1
102
RTVSPost2010Prop31
280
     0
102
RTVSPost2010PropOp31
 70
     1
102
RTVSPost2010Prop32
280
     0
102
RTVSPost2010PropOp32
 70
     1
102
RTVSPost2010Prop33
280
     0
102
RTVSPost2010PropOp33
 70
     1
102
RTVSPost2010Prop34
280
     0
102
RTVSPost2010PropOp34
 70
     1
102
RTVSPost2010Prop35
280
     0
102
RTVSPost2010PropOp35
 70
     1
102
RTVSPost2010Prop36
280
     0
102
RTVSPost2010PropOp36
 70
     1
102
RTVSPost2010Prop37
 90
       50
102
RTVSPost2010PropOp37
 70
     1
102
RTVSPost2010Prop38
140
0.0
102
RTVSPost2010PropOp38
 70
     1
102
RTVSPost2010Prop39
140
1.0
102
RTVSPost2010PropOp39
 70
     1
102
RTVSPost2010Prop40
 90
        0
102
RTVSPost2010PropOp40
 70
     1
102
RTVSPost2010Prop41ColorIndex
 90
       18
102
RTVSPost2010Prop41ColorRGB
 90
        0
102
RTVSPost2010PropOp41
 70
     1
102
RTVSPost2010Prop42
 90
       50
102
RTVSPost2010PropOp42
 70
     1
102
RTVSPost2010Prop43
 90
        3
102
RTVSPost2010PropOp43
 70
     1
102
RTVSPost2010Prop44ColorIndex
 90
        5
102
RTVSPost2010Prop44ColorRGB
 90
      255
102
RTVSPost2010PropOp44
 70
     1
102
RTVSPost2010Prop45
280
     0
102
RTVSPost2010PropOp45
 70
     1
102
RTVSPost2010Prop46
 90
       50
102
RTVSPost2010PropOp46
 70
     1
102
RTVSPost2010Prop47
 90
       50
102
RTVSPost2010PropOp47
 70
     1
102
RTVSPost2010Prop48
 90
       50
102
RTVSPost2010PropOp48
 70
     1
102
RTVSPost2010Prop49
280
     0
102
RTVSPost2010PropOp49
 70
     1
102
RTVSPost2010Prop50
 90
       50
102
RTVSPost2010PropOp50
 70
     1
102
RTVSPost2010Prop51ColorIndex
 90
      256
102
RTVSPost2010Prop51ColorRGB
 90
-16777216
102
RTVSPost2010PropOp51
 70
     0
102
RTVSPost2010Prop52
140
1.0
102
RTVSPost2010PropOp52
 70
     0
102
RTVSPost2010Prop53
 90
        2
102
RTVSPost2010PropOp53
 70
     1
102
RTVSPost2010Prop54
  1
strokes_ogs.tif
102
RTVSPost2010PropOp54
 70
     1
102
RTVSPost2010Prop55
280
     0
102
RTVSPost2010PropOp55
 70
     1
102
RTVSPost2010Prop56
140
1.0
102
RTVSPost2010PropOp56
 70
     1
102
RTVSPost2010Prop57
140
1.0
102
RTVSPost2010PropOp57
 70
     1
  0
XRECORD
  5
17E
102
{ACAD_REACTORS
330
17D
102
}
330
17D
100
AcDbXrecord
280
     1
102
RTVSPost2010Prop28
280
     0
102
RTVSPost2010PropOp28
 70
     0
102
RTVSPost2010Prop29
280
     1
102
RTVSPost2010PropOp29
 70
     0
102
RTVSPost2010Prop30
280
     1
102
RTVSPost2010PropOp30
 70
     0
102
RTVSPost2010Prop31
280
     0
102
RTVSPost2010PropOp31
 70
     0
102
RTVSPost2010Prop32
280
     0
102
RTVSPost2010PropOp32
 70
     0
102
RTVSPost2010Prop33
280
     0
102
RTVSPost2010PropOp33
 70
     0
102
RTVSPost2010Prop34
280
     0
102
RTVSPost2010PropOp34
 70
     0
102
RTVSPost2010Prop35
280
     0
102
RTVSPost2010PropOp35
 70
     0
102
RTVSPost2010Prop36
280
     0
102
RTVSPost2010PropOp36
 70
     0
102
RTVSPost2010Prop37
 90
       50
102
RTVSPost2010PropOp37
 70
     0
102
RTVSPost2010Prop38
140
0.0
102
RTVSPost2010PropOp38
 70
     0
102
RTVSPost2010Prop39
140
1.0
102
RTVSPost2010PropOp39
 70
     0
102
RTVSPost2010Prop40
 90
        0
102
RTVSPost2010PropOp40
 70
     0
102
RTVSPost2010Prop41ColorIndex
 90
       18
102
RTVSPost2010Prop41ColorRGB
 90
        0
102
RTVSPost2010PropOp41
 70
     0
102
RTVSPost2010Prop42
 90
       50
102
RTVSPost2010PropOp42
 70
     0
102
RTVSPost2010Prop43
 90
        3
102
RTVSPost2010PropOp43
 70
     0
102
RTVSPost2010Prop44ColorIndex
 90
        5
102
RTVSPost2010Prop44ColorRGB
 90
      255
102
RTVSPost2010PropOp44
 70
     0
102
RTVSPost2010Prop45
280
     0
102
RTVSPost2010PropOp45
 70
     0
102
RTVSPost2010Prop46
 90
       50
102
RTVSPost2010PropOp46
 70
     0
102
RTVSPost2010Prop47
 90
       50
102
RTVSPost2010PropOp47
 70
     0
102
RTVSPost2010Prop48
 90
       50
102
RTVSPost2010PropOp48
 70
     0
102
RTVSPost2010Prop49
280
     0
102
RTVSPost2010PropOp49
 70
     0
102
RTVSPost2010Prop50
 90
       50
102
RTVSPost2010PropOp50
 70
     0
102
RTVSPost2010Prop51ColorIndex
 90
      256
102
RTVSPost2010Prop51ColorRGB
 90
-16777216
102
RTVSPost2010PropOp51
 70
     0
102
RTVSPost2010Prop52
140
1.0
102
RTVSPost2010PropOp52
 70
     0
102
RTVSPost2010Prop53
 90
        2
102
RTVSPost2010PropOp53
 70
     0
102
RTVSPost2010Prop54
  1
strokes_ogs.tif
102
RTVSPost2010PropOp54
 70
     0
102
RTVSPost2010Prop55
280
     0
102
RTVSPost2010PropOp55
 70
     0
102
RTVSPost2010Prop56
140
1.0
102
RTVSPost2010PropOp56
 70
     0
102
RTVSPost2010Prop57
140
1.0
102
RTVSPost2010PropOp57
 70
     0
  0
XRECORD
  5
16E
102
{ACAD_REACTORS
330
16D
102
}
330
16D
100
AcDbXrecord
280
     1
102
RTVSPost2010Prop28
280
     0
102
RTVSPost2010PropOp28
 70
     1
102
RTVSPost2010Prop29
280
     1
102
RTVSPost2010PropOp29
 70
     1
102
RTVSPost2010Prop30
280
     1
102
RTVSPost2010PropOp30
 70
     1
102
RTVSPost2010Prop31
280
     0
102
RTVSPost2010PropOp31
 70
     1
102
RTVSPost2010Prop32
280
     0
102
RTVSPost2010PropOp32
 70
     1
102
RTVSPost2010Prop33
280
     0
102
RTVSPost2010PropOp33
 70
     1
102
RTVSPost2010Prop34
280
     0
102
RTVSPost2010PropOp34
 70
     1
102
RTVSPost2010Prop35
280
     0
102
RTVSPost2010PropOp35
 70
     1
102
RTVSPost2010Prop36
280
     0
102
RTVSPost2010PropOp36
 70
     1
102
RTVSPost2010Prop37
 90
       50
102
RTVSPost2010PropOp37
 70
     1
102
RTVSPost2010Prop38
140
0.0
102
RTVSPost2010PropOp38
 70
     1
102
RTVSPost2010Prop39
140
1.0
102
RTVSPost2010PropOp39
 70
     1
102
RTVSPost2010Prop40
 90
        0
102
RTVSPost2010PropOp40
 70
     1
102
RTVSPost2010Prop41ColorIndex
 90
       18
102
RTVSPost2010Prop41ColorRGB
 90
        0
102
RTVSPost2010PropOp41
 70
     1
102
RTVSPost2010Prop42
 90
       50
102
RTVSPost2010PropOp42
 70
     1
102
RTVSPost2010Prop43
 90
        3
102
RTVSPost2010PropOp43
 70
     1
102
RTVSPost2010Prop44ColorIndex
 90
        5
102
RTVSPost2010Prop44ColorRGB
 90
      255
102
RTVSPost2010PropOp44
 70
     1
102
RTVSPost2010Prop45
280
     0
102
RTVSPost2010PropOp45
 70
     1
102
RTVSPost2010Prop46
 90
       50
102
RTVSPost2010PropOp46
 70
     1
102
RTVSPost2010Prop47
 90
       50
102
RTVSPost2010PropOp47
 70
     1
102
RTVSPost2010Prop48
 90
       50
102
RTVSPost2010PropOp48
 70
     1
102
RTVSPost2010Prop49
280
     0
102
RTVSPost2010PropOp49
 70
     1
102
RTVSPost2010Prop50
 90
       50
102
RTVSPost2010PropOp50
 70
     1
102
RTVSPost2010Prop51ColorIndex
 90
      256
102
RTVSPost2010Prop51ColorRGB
 90
-16777216
102
RTVSPost2010PropOp51
 70
     0
102
RTVSPost2010Prop52
140
1.0
102
RTVSPost2010PropOp52
 70
     0
102
RTVSPost2010Prop53
 90
        2
102
RTVSPost2010PropOp53
 70
     1
102
RTVSPost2010Prop54
  1
strokes_ogs.tif
102
RTVSPost2010PropOp54
 70
     1
102
RTVSPost2010Prop55
280
     0
102
RTVSPost2010PropOp55
 70
     1
102
RTVSPost2010Prop56
140
1.0
102
RTVSPost2010PropOp56
 70
     1
102
RTVSPost2010Prop57
140
1.0
102
RTVSPost2010PropOp57
 70
     1
  0
XRECORD
  5
180
102
{ACAD_REACTORS
330
17F
102
}
330
17F
100
AcDbXrecord
280
     1
102
RTVSPost2010Prop28
280
     0
102
RTVSPost2010PropOp28
 70
     0
102
RTVSPost2010Prop29
280
     1
102
RTVSPost2010PropOp29
 70
     0
102
RTVSPost2010Prop30
280
     1
102
RTVSPost2010PropOp30
 70
     0
102
RTVSPost2010Prop31
280
     0
102
RTVSPost2010PropOp31
 70
     0
102
RTVSPost2010Prop32
280
     0
102
RTVSPost2010PropOp32
 70
     0
102
RTVSPost2010Prop33
280
     0
102
RTVSPost2010PropOp33
 70
     0
102
RTVSPost2010Prop34
280
     0
102
RTVSPost2010PropOp34
 70
     0
102
RTVSPost2010Prop35
280
     0
102
RTVSPost2010PropOp35
 70
     0
102
RTVSPost2010Prop36
280
     0
102
RTVSPost2010PropOp36
 70
     0
102
RTVSPost2010Prop37
 90
       50
102
RTVSPost2010PropOp37
 70
     0
102
RTVSPost2010Prop38
140
0.0
102
RTVSPost2010PropOp38
 70
     0
102
RTVSPost2010Prop39
140
1.0
102
RTVSPost2010PropOp39
 70
     0
102
RTVSPost2010Prop40
 90
        0
102
RTVSPost2010PropOp40
 70
     0
102
RTVSPost2010Prop41ColorIndex
 90
       18
102
RTVSPost2010Prop41ColorRGB
 90
        0
102
RTVSPost2010PropOp41
 70
     0
102
RTVSPost2010Prop42
 90
       50
102
RTVSPost2010PropOp42
 70
     0
102
RTVSPost2010Prop43
 90
        3
102
RTVSPost2010PropOp43
 70
     0
102
RTVSPost2010Prop44ColorIndex
 90
        5
102
RTVSPost2010Prop44ColorRGB
 90
      255
102
RTVSPost2010PropOp44
 70
     0
102
RTVSPost2010Prop45
280
     0
102
RTVSPost2010PropOp45
 70
     0
102
RTVSPost2010Prop46
 90
       50
102
RTVSPost2010PropOp46
 70
     0
102
RTVSPost2010Prop47
 90
       50
102
RTVSPost2010PropOp47
 70
     0
102
RTVSPost2010Prop48
 90
       50
102
RTVSPost2010PropOp48
 70
     0
102
RTVSPost2010Prop49
280
     0
102
RTVSPost2010PropOp49
 70
     0
102
RTVSPost2010Prop50
 90
       50
102
RTVSPost2010PropOp50
 70
     0
102
RTVSPost2010Prop51ColorIndex
 90
      256
102
RTVSPost2010Prop51ColorRGB
 90
-16777216
102
RTVSPost2010PropOp51
 70
     0
102
RTVSPost2010Prop52
140
1.0
102
RTVSPost2010PropOp52
 70
     0
102
RTVSPost2010Prop53
 90
        2
102
RTVSPost2010PropOp53
 70
     0
102
RTVSPost2010Prop54
  1
strokes_ogs.tif
102
RTVSPost2010PropOp54
 70
     0
102
RTVSPost2010Prop55
280
     0
102
RTVSPost2010PropOp55
 70
     0
102
RTVSPost2010Prop56
140
1.0
102
RTVSPost2010PropOp56
 70
     0
102
RTVSPost2010Prop57
140
1.0
102
RTVSPost2010PropOp57
 70
     0
  0
XRECORD
  5
166
102
{ACAD_REACTORS
330
165
102
}
330
165
100
AcDbXrecord
280
     1
102
RTVSPost2010Prop28
280
     0
102
RTVSPost2010PropOp28
 70
     1
102
RTVSPost2010Prop29
280
     1
102
RTVSPost2010PropOp29
 70
     1
102
RTVSPost2010Prop30
280
     1
102
RTVSPost2010PropOp30
 70
     1
102
RTVSPost2010Prop31
280
     0
102
RTVSPost2010PropOp31
 70
     1
102
RTVSPost2010Prop32
280
     0
102
RTVSPost2010PropOp32
 70
     1
102
RTVSPost2010Prop33
280
     0
102
RTVSPost2010PropOp33
 70
     1
102
RTVSPost2010Prop34
280
     0
102
RTVSPost2010PropOp34
 70
     1
102
RTVSPost2010Prop35
280
     0
102
RTVSPost2010PropOp35
 70
     1
102
RTVSPost2010Prop36
280
     0
102
RTVSPost2010PropOp36
 70
     1
102
RTVSPost2010Prop37
 90
       50
102
RTVSPost2010PropOp37
 70
     1
102
RTVSPost2010Prop38
140
0.0
102
RTVSPost2010PropOp38
 70
     1
102
RTVSPost2010Prop39
140
1.0
102
RTVSPost2010PropOp39
 70
     1
102
RTVSPost2010Prop40
 90
        0
102
RTVSPost2010PropOp40
 70
     1
102
RTVSPost2010Prop41ColorIndex
 90
       18
102
RTVSPost2010Prop41ColorRGB
 90
        0
102
RTVSPost2010PropOp41
 70
     1
102
RTVSPost2010Prop42
 90
       50
102
RTVSPost2010PropOp42
 70
     1
102
RTVSPost2010Prop43
 90
        3
102
RTVSPost2010PropOp43
 70
     1
102
RTVSPost2010Prop44ColorIndex
 90
        5
102
RTVSPost2010Prop44ColorRGB
 90
      255
102
RTVSPost2010PropOp44
 70
     1
102
RTVSPost2010Prop45
280
     0
102
RTVSPost2010PropOp45
 70
     1
102
RTVSPost2010Prop46
 90
       50
102
RTVSPost2010PropOp46
 70
     1
102
RTVSPost2010Prop47
 90
       50
102
RTVSPost2010PropOp47
 70
     1
102
RTVSPost2010Prop48
 90
       50
102
RTVSPost2010PropOp48
 70
     1
102
RTVSPost2010Prop49
280
     0
102
RTVSPost2010PropOp49
 70
     1
102
RTVSPost2010Prop50
 90
       50
102
RTVSPost2010PropOp50
 70
     1
102
RTVSPost2010Prop51ColorIndex
 90
      256
102
RTVSPost2010Prop51ColorRGB
 90
-16777216
102
RTVSPost2010PropOp51
 70
     0
102
RTVSPost2010Prop52
140
1.0
102
RTVSPost2010PropOp52
 70
     0
102
RTVSPost2010Prop53
 90
        2
102
RTVSPost2010PropOp53
 70
     1
102
RTVSPost2010Prop54
  1
strokes_ogs.tif
102
RTVSPost2010PropOp54
 70
     1
102
RTVSPost2010Prop55
280
     0
102
RTVSPost2010PropOp55
 70
     1
102
RTVSPost2010Prop56
140
1.0
102
RTVSPost2010PropOp56
 70
     1
102
RTVSPost2010Prop57
140
1.0
102
RTVSPost2010PropOp57
 70
     1
  0
XRECORD
  5
17C
102
{ACAD_REACTORS
330
17B
102
}
330
17B
100
AcDbXrecord
280
     1
102
RTVSPost2010Prop28
280
     0
102
RTVSPost2010PropOp28
 70
     1
102
RTVSPost2010Prop29
280
     1
102
RTVSPost2010PropOp29
 70
     1
102
RTVSPost2010Prop30
280
     1
102
RTVSPost2010PropOp30
 70
     1
102
RTVSPost2010Prop31
280
     0
102
RTVSPost2010PropOp31
 70
     1
102
RTVSPost2010Prop32
280
     0
102
RTVSPost2010PropOp32
 70
     1
102
RTVSPost2010Prop33
280
     0
102
RTVSPost2010PropOp33
 70
     1
102
RTVSPost2010Prop34
280
     0
102
RTVSPost2010PropOp34
 70
     1
102
RTVSPost2010Prop35
280
     0
102
RTVSPost2010PropOp35
 70
     1
102
RTVSPost2010Prop36
280
     0
102
RTVSPost2010PropOp36
 70
     1
102
RTVSPost2010Prop37
 90
       50
102
RTVSPost2010PropOp37
 70
     1
102
RTVSPost2010Prop38
140
0.0
102
RTVSPost2010PropOp38
 70
     1
102
RTVSPost2010Prop39
140
1.0
102
RTVSPost2010PropOp39
 70
     1
102
RTVSPost2010Prop40
 90
        0
102
RTVSPost2010PropOp40
 70
     1
102
RTVSPost2010Prop41ColorIndex
 90
       18
102
RTVSPost2010Prop41ColorRGB
 90
        0
102
RTVSPost2010PropOp41
 70
     1
102
RTVSPost2010Prop42
 90
       50
102
RTVSPost2010PropOp42
 70
     1
102
RTVSPost2010Prop43
 90
        3
102
RTVSPost2010PropOp43
 70
     1
102
RTVSPost2010Prop44ColorIndex
 90
        5
102
RTVSPost2010Prop44ColorRGB
 90
      255
102
RTVSPost2010PropOp44
 70
     1
102
RTVSPost2010Prop45
280
     0
102
RTVSPost2010PropOp45
 70
     1
102
RTVSPost2010Prop46
 90
       50
102
RTVSPost2010PropOp46
 70
     1
102
RTVSPost2010Prop47
 90
       50
102
RTVSPost2010PropOp47
 70
     1
102
RTVSPost2010Prop48
 90
       50
102
RTVSPost2010PropOp48
 70
     1
102
RTVSPost2010Prop49
280
     0
102
RTVSPost2010PropOp49
 70
     1
102
RTVSPost2010Prop50
 90
       50
102
RTVSPost2010PropOp50
 70
     1
102
RTVSPost2010Prop51ColorIndex
 90
      256
102
RTVSPost2010Prop51ColorRGB
 90
-16777216
102
RTVSPost2010PropOp51
 70
     0
102
RTVSPost2010Prop52
140
1.0
102
RTVSPost2010PropOp52
 70
     0
102
RTVSPost2010Prop53
 90
        2
102
RTVSPost2010PropOp53
 70
     1
102
RTVSPost2010Prop54
  1
strokes_ogs.tif
102
RTVSPost2010PropOp54
 70
     1
102
RTVSPost2010Prop55
280
     0
102
RTVSPost2010PropOp55
 70
     1
102
RTVSPost2010Prop56
140
1.0
102
RTVSPost2010PropOp56
 70
     1
102
RTVSPost2010Prop57
140
1.0
102
RTVSPost2010PropOp57
 70
     1
  0
XRECORD
  5
17A
102
{ACAD_REACTORS
330
179
102
}
330
179
100
AcDbXrecord
280
     1
102
RTVSPost2010Prop28
280
     0
102
RTVSPost2010PropOp28
 70
     1
102
RTVSPost2010Prop29
280
     1
102
RTVSPost2010PropOp29
 70
     1
102
RTVSPost2010Prop30
280
     1
102
RTVSPost2010PropOp30
 70
     1
102
RTVSPost2010Prop31
280
     0
102
RTVSPost2010PropOp31
 70
     1
102
RTVSPost2010Prop32
280
     0
102
RTVSPost2010PropOp32
 70
     1
102
RTVSPost2010Prop33
280
     0
102
RTVSPost2010PropOp33
 70
     1
102
RTVSPost2010Prop34
280
     0
102
RTVSPost2010PropOp34
 70
     1
102
RTVSPost2010Prop35
280
     0
102
RTVSPost2010PropOp35
 70
     1
102
RTVSPost2010Prop36
280
     0
102
RTVSPost2010PropOp36
 70
     1
102
RTVSPost2010Prop37
 90
       50
102
RTVSPost2010PropOp37
 70
     1
102
RTVSPost2010Prop38
140
0.0
102
RTVSPost2010PropOp38
 70
     1
102
RTVSPost2010Prop39
140
1.0
102
RTVSPost2010PropOp39
 70
     1
102
RTVSPost2010Prop40
 90
        0
102
RTVSPost2010PropOp40
 70
     1
102
RTVSPost2010Prop41ColorIndex
 90
       18
102
RTVSPost2010Prop41ColorRGB
 90
        0
102
RTVSPost2010PropOp41
 70
     1
102
RTVSPost2010Prop42
 90
       50
102
RTVSPost2010PropOp42
 70
     1
102
RTVSPost2010Prop43
 90
        3
102
RTVSPost2010PropOp43
 70
     1
102
RTVSPost2010Prop44ColorIndex
 90
        5
102
RTVSPost2010Prop44ColorRGB
 90
      255
102
RTVSPost2010PropOp44
 70
     1
102
RTVSPost2010Prop45
280
     0
102
RTVSPost2010PropOp45
 70
     1
102
RTVSPost2010Prop46
 90
       50
102
RTVSPost2010PropOp46
 70
     1
102
RTVSPost2010Prop47
 90
       50
102
RTVSPost2010PropOp47
 70
     1
102
RTVSPost2010Prop48
 90
       50
102
RTVSPost2010PropOp48
 70
     1
102
RTVSPost2010Prop49
280
     0
102
RTVSPost2010PropOp49
 70
     1
102
RTVSPost2010Prop50
 90
       50
102
RTVSPost2010PropOp50
 70
     1
102
RTVSPost2010Prop51ColorIndex
 90
      256
102
RTVSPost2010Prop51ColorRGB
 90
-16777216
102
RTVSPost2010PropOp51
 70
     0
102
RTVSPost2010Prop52
140
1.0
102
RTVSPost2010PropOp52
 70
     0
102
RTVSPost2010Prop53
 90
        2
102
RTVSPost2010PropOp53
 70
     1
102
RTVSPost2010Prop54
  1
strokes_ogs.tif
102
RTVSPost2010PropOp54
 70
     1
102
RTVSPost2010Prop55
280
     0
102
RTVSPost2010PropOp55
 70
     1
102
RTVSPost2010Prop56
140
1.0
102
RTVSPost2010PropOp56
 70
     1
102
RTVSPost2010Prop57
140
1.0
102
RTVSPost2010PropOp57
 70
     1
  0
XRECORD
  5
174
102
{ACAD_REACTORS
330
173
102
}
330
173
100
AcDbXrecord
280
     1
102
RTVSPost2010Prop28
280
     0
102
RTVSPost2010PropOp28
 70
     1
102
RTVSPost2010Prop29
280
     1
102
RTVSPost2010PropOp29
 70
     1
102
RTVSPost2010Prop30
280
     1
102
RTVSPost2010PropOp30
 70
     1
102
RTVSPost2010Prop31
280
     0
102
RTVSPost2010PropOp31
 70
     1
102
RTVSPost2010Prop32
280
     0
102
RTVSPost2010PropOp32
 70
     1
102
RTVSPost2010Prop33
280
     0
102
RTVSPost2010PropOp33
 70
     1
102
RTVSPost2010Prop34
280
     0
102
RTVSPost2010PropOp34
 70
     1
102
RTVSPost2010Prop35
280
     0
102
RTVSPost2010PropOp35
 70
     1
102
RTVSPost2010Prop36
280
     0
102
RTVSPost2010PropOp36
 70
     1
102
RTVSPost2010Prop37
 90
       50
102
RTVSPost2010PropOp37
 70
     1
102
RTVSPost2010Prop38
140
0.0
102
RTVSPost2010PropOp38
 70
     1
102
RTVSPost2010Prop39
140
1.0
102
RTVSPost2010PropOp39
 70
     1
102
RTVSPost2010Prop40
 90
        0
102
RTVSPost2010PropOp40
 70
     1
102
RTVSPost2010Prop41ColorIndex
 90
       18
102
RTVSPost2010Prop41ColorRGB
 90
        0
102
RTVSPost2010PropOp41
 70
     1
102
RTVSPost2010Prop42
 90
       50
102
RTVSPost2010PropOp42
 70
     1
102
RTVSPost2010Prop43
 90
        3
102
RTVSPost2010PropOp43
 70
     1
102
RTVSPost2010Prop44ColorIndex
 90
        5
102
RTVSPost2010Prop44ColorRGB
 90
      255
102
RTVSPost2010PropOp44
 70
     1
102
RTVSPost2010Prop45
280
     0
102
RTVSPost2010PropOp45
 70
     1
102
RTVSPost2010Prop46
 90
       50
102
RTVSPost2010PropOp46
 70
     1
102
RTVSPost2010Prop47
 90
       50
102
RTVSPost2010PropOp47
 70
     1
102
RTVSPost2010Prop48
 90
       50
102
RTVSPost2010PropOp48
 70
     1
102
RTVSPost2010Prop49
280
     0
102
RTVSPost2010PropOp49
 70
     1
102
RTVSPost2010Prop50
 90
       50
102
RTVSPost2010PropOp50
 70
     1
102
RTVSPost2010Prop51ColorIndex
 90
      256
102
RTVSPost2010Prop51ColorRGB
 90
-16777216
102
RTVSPost2010PropOp51
 70
     0
102
RTVSPost2010Prop52
140
1.0
102
RTVSPost2010PropOp52
 70
     0
102
RTVSPost2010Prop53
 90
        2
102
RTVSPost2010PropOp53
 70
     1
102
RTVSPost2010Prop54
  1
strokes_ogs.tif
102
RTVSPost2010PropOp54
 70
     1
102
RTVSPost2010Prop55
280
     0
102
RTVSPost2010PropOp55
 70
     1
102
RTVSPost2010Prop56
140
1.0
102
RTVSPost2010PropOp56
 70
     1
102
RTVSPost2010Prop57
140
1.0
102
RTVSPost2010PropOp57
 70
     1
  0
XRECORD
  5
176
102
{ACAD_REACTORS
330
175
102
}
330
175
100
AcDbXrecord
280
     1
102
RTVSPost2010Prop28
280
     0
102
RTVSPost2010PropOp28
 70
     1
102
RTVSPost2010Prop29
280
     1
102
RTVSPost2010PropOp29
 70
     1
102
RTVSPost2010Prop30
280
     1
102
RTVSPost2010PropOp30
 70
     1
102
RTVSPost2010Prop31
280
     0
102
RTVSPost2010PropOp31
 70
     1
102
RTVSPost2010Prop32
280
     0
102
RTVSPost2010PropOp32
 70
     1
102
RTVSPost2010Prop33
280
     0
102
RTVSPost2010PropOp33
 70
     1
102
RTVSPost2010Prop34
280
     0
102
RTVSPost2010PropOp34
 70
     1
102
RTVSPost2010Prop35
280
     0
102
RTVSPost2010PropOp35
 70
     1
102
RTVSPost2010Prop36
280
     0
102
RTVSPost2010PropOp36
 70
     1
102
RTVSPost2010Prop37
 90
       50
102
RTVSPost2010PropOp37
 70
     1
102
RTVSPost2010Prop38
140
0.0
102
RTVSPost2010PropOp38
 70
     1
102
RTVSPost2010Prop39
140
1.0
102
RTVSPost2010PropOp39
 70
     1
102
RTVSPost2010Prop40
 90
        0
102
RTVSPost2010PropOp40
 70
     1
102
RTVSPost2010Prop41ColorIndex
 90
       18
102
RTVSPost2010Prop41ColorRGB
 90
        0
102
RTVSPost2010PropOp41
 70
     1
102
RTVSPost2010Prop42
 90
       50
102
RTVSPost2010PropOp42
 70
     1
102
RTVSPost2010Prop43
 90
        3
102
RTVSPost2010PropOp43
 70
     1
102
RTVSPost2010Prop44ColorIndex
 90
        5
102
RTVSPost2010Prop44ColorRGB
 90
      255
102
RTVSPost2010PropOp44
 70
     1
102
RTVSPost2010Prop45
280
     0
102
RTVSPost2010PropOp45
 70
     1
102
RTVSPost2010Prop46
 90
       50
102
RTVSPost2010PropOp46
 70
     1
102
RTVSPost2010Prop47
 90
       50
102
RTVSPost2010PropOp47
 70
     1
102
RTVSPost2010Prop48
 90
       50
102
RTVSPost2010PropOp48
 70
     1
102
RTVSPost2010Prop49
280
     0
102
RTVSPost2010PropOp49
 70
     1
102
RTVSPost2010Prop50
 90
       50
102
RTVSPost2010PropOp50
 70
     1
102
RTVSPost2010Prop51ColorIndex
 90
      256
102
RTVSPost2010Prop51ColorRGB
 90
-16777216
102
RTVSPost2010PropOp51
 70
     0
102
RTVSPost2010Prop52
140
1.0
102
RTVSPost2010PropOp52
 70
     0
102
RTVSPost2010Prop53
 90
        2
102
RTVSPost2010PropOp53
 70
     1
102
RTVSPost2010Prop54
  1
strokes_ogs.tif
102
RTVSPost2010PropOp54
 70
     1
102
RTVSPost2010Prop55
280
     0
102
RTVSPost2010PropOp55
 70
     1
102
RTVSPost2010Prop56
140
1.0
102
RTVSPost2010PropOp56
 70
     1
102
RTVSPost2010Prop57
140
1.0
102
RTVSPost2010PropOp57
 70
     1
  0
XRECORD
  5
16C
102
{ACAD_REACTORS
330
16B
102
}
330
16B
100
AcDbXrecord
280
     1
102
RTVSPost2010Prop28
280
     0
102
RTVSPost2010PropOp28
 70
     1
102
RTVSPost2010Prop29
280
     1
102
RTVSPost2010PropOp29
 70
     1
102
RTVSPost2010Prop30
280
     1
102
RTVSPost2010PropOp30
 70
     1
102
RTVSPost2010Prop31
280
     0
102
RTVSPost2010PropOp31
 70
     1
102
RTVSPost2010Prop32
280
     0
102
RTVSPost2010PropOp32
 70
     1
102
RTVSPost2010Prop33
280
     0
102
RTVSPost2010PropOp33
 70
     1
102
RTVSPost2010Prop34
280
     0
102
RTVSPost2010PropOp34
 70
     1
102
RTVSPost2010Prop35
280
     0
102
RTVSPost2010PropOp35
 70
     1
102
RTVSPost2010Prop36
280
     0
102
RTVSPost2010PropOp36
 70
     1
102
RTVSPost2010Prop37
 90
       50
102
RTVSPost2010PropOp37
 70
     1
102
RTVSPost2010Prop38
140
0.0
102
RTVSPost2010PropOp38
 70
     1
102
RTVSPost2010Prop39
140
1.0
102
RTVSPost2010PropOp39
 70
     1
102
RTVSPost2010Prop40
 90
        0
102
RTVSPost2010PropOp40
 70
     1
102
RTVSPost2010Prop41ColorIndex
 90
       18
102
RTVSPost2010Prop41ColorRGB
 90
        0
102
RTVSPost2010PropOp41
 70
     1
102
RTVSPost2010Prop42
 90
       50
102
RTVSPost2010PropOp42
 70
     1
102
RTVSPost2010Prop43
 90
        3
102
RTVSPost2010PropOp43
 70
     1
102
RTVSPost2010Prop44ColorIndex
 90
        5
102
RTVSPost2010Prop44ColorRGB
 90
      255
102
RTVSPost2010PropOp44
 70
     1
102
RTVSPost2010Prop45
280
     0
102
RTVSPost2010PropOp45
 70
     1
102
RTVSPost2010Prop46
 90
       50
102
RTVSPost2010PropOp46
 70
     1
102
RTVSPost2010Prop47
 90
       50
102
RTVSPost2010PropOp47
 70
     1
102
RTVSPost2010Prop48
 90
       50
102
RTVSPost2010PropOp48
 70
     1
102
RTVSPost2010Prop49
280
     0
102
RTVSPost2010PropOp49
 70
     1
102
RTVSPost2010Prop50
 90
       50
102
RTVSPost2010PropOp50
 70
     1
102
RTVSPost2010Prop51ColorIndex
 90
      256
102
RTVSPost2010Prop51ColorRGB
 90
-16777216
102
RTVSPost2010PropOp51
 70
     0
102
RTVSPost2010Prop52
140
1.0
102
RTVSPost2010PropOp52
 70
     0
102
RTVSPost2010Prop53
 90
        2
102
RTVSPost2010PropOp53
 70
     1
102
RTVSPost2010Prop54
  1
strokes_ogs.tif
102
RTVSPost2010PropOp54
 70
     1
102
RTVSPost2010Prop55
280
     0
102
RTVSPost2010PropOp55
 70
     1
102
RTVSPost2010Prop56
140
1.0
102
RTVSPost2010PropOp56
 70
     1
102
RTVSPost2010Prop57
140
1.0
102
RTVSPost2010PropOp57
 70
     1
  0
XRECORD
  5
160
102
{ACAD_REACTORS
330
15F
102
}
330
15F
100
AcDbXrecord
280
     1
102
RTVSPost2010Prop28
280
     0
102
RTVSPost2010PropOp28
 70
     1
102
RTVSPost2010Prop29
280
     1
102
RTVSPost2010PropOp29
 70
     1
102
RTVSPost2010Prop30
280
     1
102
RTVSPost2010PropOp30
 70
     1
102
RTVSPost2010Prop31
280
     0
102
RTVSPost2010PropOp31
 70
     1
102
RTVSPost2010Prop32
280
     0
102
RTVSPost2010PropOp32
 70
     1
102
RTVSPost2010Prop33
280
     0
102
RTVSPost2010PropOp33
 70
     1
102
RTVSPost2010Prop34
280
     0
102
RTVSPost2010PropOp34
 70
     1
102
RTVSPost2010Prop35
280
     0
102
RTVSPost2010PropOp35
 70
     1
102
RTVSPost2010Prop36
280
     0
102
RTVSPost2010PropOp36
 70
     1
102
RTVSPost2010Prop37
 90
       50
102
RTVSPost2010PropOp37
 70
     1
102
RTVSPost2010Prop38
140
0.0
102
RTVSPost2010PropOp38
 70
     1
102
RTVSPost2010Prop39
140
1.0
102
RTVSPost2010PropOp39
 70
     1
102
RTVSPost2010Prop40
 90
        0
102
RTVSPost2010PropOp40
 70
     1
102
RTVSPost2010Prop41ColorIndex
 90
       18
102
RTVSPost2010Prop41ColorRGB
 90
        0
102
RTVSPost2010PropOp41
 70
     1
102
RTVSPost2010Prop42
 90
       50
102
RTVSPost2010PropOp42
 70
     1
102
RTVSPost2010Prop43
 90
        3
102
RTVSPost2010PropOp43
 70
     1
102
RTVSPost2010Prop44ColorIndex
 90
        5
102
RTVSPost2010Prop44ColorRGB
 90
      255
102
RTVSPost2010PropOp44
 70
     1
102
RTVSPost2010Prop45
280
     0
102
RTVSPost2010PropOp45
 70
     1
102
RTVSPost2010Prop46
 90
       50
102
RTVSPost2010PropOp46
 70
     1
102
RTVSPost2010Prop47
 90
       50
102
RTVSPost2010PropOp47
 70
     1
102
RTVSPost2010Prop48
 90
       50
102
RTVSPost2010PropOp48
 70
     1
102
RTVSPost2010Prop49
280
     0
102
RTVSPost2010PropOp49
 70
     1
102
RTVSPost2010Prop50
 90
       50
102
RTVSPost2010PropOp50
 70
     1
102
RTVSPost2010Prop51ColorIndex
 90
      256
102
RTVSPost2010Prop51ColorRGB
 90
-16777216
102
RTVSPost2010PropOp51
 70
     0
102
RTVSPost2010Prop52
140
1.0
102
RTVSPost2010PropOp52
 70
     0
102
RTVSPost2010Prop53
 90
        2
102
RTVSPost2010PropOp53
 70
     1
102
RTVSPost2010Prop54
  1
strokes_ogs.tif
102
RTVSPost2010PropOp54
 70
     1
102
RTVSPost2010Prop55
280
     0
102
RTVSPost2010PropOp55
 70
     1
102
RTVSPost2010Prop56
140
1.0
102
RTVSPost2010PropOp56
 70
     1
102
RTVSPost2010Prop57
140
1.0
102
RTVSPost2010PropOp57
 70
     1
  0
XRECORD
  5
178
102
{ACAD_REACTORS
330
177
102
}
330
177
100
AcDbXrecord
280
     1
102
RTVSPost2010Prop28
280
     0
102
RTVSPost2010PropOp28
 70
     1
102
RTVSPost2010Prop29
280
     1
102
RTVSPost2010PropOp29
 70
     1
102
RTVSPost2010Prop30
280
     1
102
RTVSPost2010PropOp30
 70
     1
102
RTVSPost2010Prop31
280
     0
102
RTVSPost2010PropOp31
 70
     1
102
RTVSPost2010Prop32
280
     0
102
RTVSPost2010PropOp32
 70
     1
102
RTVSPost2010Prop33
280
     0
102
RTVSPost2010PropOp33
 70
     1
102
RTVSPost2010Prop34
280
     0
102
RTVSPost2010PropOp34
 70
     1
102
RTVSPost2010Prop35
280
     0
102
RTVSPost2010PropOp35
 70
     1
102
RTVSPost2010Prop36
280
     0
102
RTVSPost2010PropOp36
 70
     1
102
RTVSPost2010Prop37
 90
       50
102
RTVSPost2010PropOp37
 70
     1
102
RTVSPost2010Prop38
140
0.0
102
RTVSPost2010PropOp38
 70
     1
102
RTVSPost2010Prop39
140
1.0
102
RTVSPost2010PropOp39
 70
     1
102
RTVSPost2010Prop40
 90
        0
102
RTVSPost2010PropOp40
 70
     1
102
RTVSPost2010Prop41ColorIndex
 90
       18
102
RTVSPost2010Prop41ColorRGB
 90
        0
102
RTVSPost2010PropOp41
 70
     1
102
RTVSPost2010Prop42
 90
       50
102
RTVSPost2010PropOp42
 70
     1
102
RTVSPost2010Prop43
 90
        3
102
RTVSPost2010PropOp43
 70
     1
102
RTVSPost2010Prop44ColorIndex
 90
        5
102
RTVSPost2010Prop44ColorRGB
 90
      255
102
RTVSPost2010PropOp44
 70
     1
102
RTVSPost2010Prop45
280
     0
102
RTVSPost2010PropOp45
 70
     1
102
RTVSPost2010Prop46
 90
       50
102
RTVSPost2010PropOp46
 70
     1
102
RTVSPost2010Prop47
 90
       50
102
RTVSPost2010PropOp47
 70
     1
102
RTVSPost2010Prop48
 90
       50
102
RTVSPost2010PropOp48
 70
     1
102
RTVSPost2010Prop49
280
     0
102
RTVSPost2010PropOp49
 70
     1
102
RTVSPost2010Prop50
 90
       50
102
RTVSPost2010PropOp50
 70
     1
102
RTVSPost2010Prop51ColorIndex
 90
      256
102
RTVSPost2010Prop51ColorRGB
 90
-16777216
102
RTVSPost2010PropOp51
 70
     0
102
RTVSPost2010Prop52
140
1.0
102
RTVSPost2010PropOp52
 70
     0
102
RTVSPost2010Prop53
 90
        2
102
RTVSPost2010PropOp53
 70
     1
102
RTVSPost2010Prop54
  1
strokes_ogs.tif
102
RTVSPost2010PropOp54
 70
     1
102
RTVSPost2010Prop55
280
     0
102
RTVSPost2010PropOp55
 70
     1
102
RTVSPost2010Prop56
140
1.0
102
RTVSPost2010PropOp56
 70
     1
102
RTVSPost2010Prop57
140
1.0
102
RTVSPost2010PropOp57
 70
     1
  0
ENDSEC
  0
EOF
