  0
SECTION
  2
HEADER
  9
$ACADVER
  1
AC1024
  9
$ACADMAINTVER
 70
   205
  9
$DWGCODEPAGE
  3
ANSI_1251
  9
$INSBASE
 10
0.0
 20
0.0
 30
0.0
  9
$EXTMIN
 10
1.000000000000000E+20
 20
1.000000000000000E+20
 30
1.000000000000000E+20
  9
$EXTMAX
 10
-1.000000000000000E+20
 20
-1.000000000000000E+20
 30
-1.000000000000000E+20
  9
$LIMMIN
 10
0.0
 20
0.0
  9
$LIMMAX
 10
12.0
 20
9.0
  9
$ORTHOMODE
 70
     0
  9
$REGENMODE
 70
     1
  9
$FILLMODE
 70
     1
  9
$QTEXTMODE
 70
     0
  9
$MIRRTEXT
 70
     1
  9
$LTSCALE
 40
1.0
  9
$ATTMODE
 70
     1
  9
$TEXTSIZE
 40
0.2
  9
$TRACEWID
 40
0.05
  9
$TEXTSTYLE
  7
Standard
  9
$CLAYER
  8
OracDecor_skirtings
  9
$CELTYPE
  6
ByLayer
  9
$CECOLOR
 62
   256
  9
$CELTSCALE
 40
1.0
  9
$DISPSILH
 70
     0
  9
$DIMSCALE
 40
1.0
  9
$DIMASZ
 40
0.18
  9
$DIMEXO
 40
0.0625
  9
$DIMDLI
 40
0.38
  9
$DIMRND
 40
0.0
  9
$DIMDLE
 40
0.0
  9
$DIMEXE
 40
0.18
  9
$DIMTP
 40
0.0
  9
$DIMTM
 40
0.0
  9
$DIMTXT
 40
0.18
  9
$DIMCEN
 40
0.09
  9
$DIMTSZ
 40
0.0
  9
$DIMTOL
 70
     0
  9
$DIMLIM
 70
     0
  9
$DIMTIH
 70
     1
  9
$DIMTOH
 70
     1
  9
$DIMSE1
 70
     0
  9
$DIMSE2
 70
     0
  9
$DIMTAD
 70
     0
  9
$DIMZIN
 70
     0
  9
$DIMBLK
  1

  9
$DIMASO
 70
     1
  9
$DIMSHO
 70
     1
  9
$DIMPOST
  1

  9
$DIMAPOST
  1

  9
$DIMALT
 70
     0
  9
$DIMALTD
 70
     2
  9
$DIMALTF
 40
25.4
  9
$DIMLFAC
 40
1.0
  9
$DIMTOFL
 70
     0
  9
$DIMTVP
 40
0.0
  9
$DIMTIX
 70
     0
  9
$DIMSOXD
 70
     0
  9
$DIMSAH
 70
     0
  9
$DIMBLK1
  1

  9
$DIMBLK2
  1

  9
$DIMSTYLE
  2
Standard
  9
$DIMCLRD
 70
     0
  9
$DIMCLRE
 70
     0
  9
$DIMCLRT
 70
     0
  9
$DIMTFAC
 40
1.0
  9
$DIMGAP
 40
0.09
  9
$DIMJUST
 70
     0
  9
$DIMSD1
 70
     0
  9
$DIMSD2
 70
     0
  9
$DIMTOLJ
 70
     1
  9
$DIMTZIN
 70
     0
  9
$DIMALTZ
 70
     0
  9
$DIMALTTZ
 70
     0
  9
$DIMUPT
 70
     0
  9
$DIMDEC
 70
     4
  9
$DIMTDEC
 70
     4
  9
$DIMALTU
 70
     2
  9
$DIMALTTD
 70
     2
  9
$DIMTXSTY
  7
Standard
  9
$DIMAUNIT
 70
     0
  9
$DIMADEC
 70
     0
  9
$DIMALTRND
 40
0.0
  9
$DIMAZIN
 70
     0
  9
$DIMDSEP
 70
    46
  9
$DIMATFIT
 70
     3
  9
$DIMFRAC
 70
     0
  9
$DIMLDRBLK
  1

  9
$DIMLUNIT
 70
     2
  9
$DIMLWD
 70
    -2
  9
$DIMLWE
 70
    -2
  9
$DIMTMOVE
 70
     0
  9
$DIMFXL
 40
1.0
  9
$DIMFXLON
 70
     0
  9
$DIMJOGANG
 40
0.7853981633974483
  9
$DIMTFILL
 70
     0
  9
$DIMTFILLCLR
 70
     0
  9
$DIMARCSYM
 70
     0
  9
$DIMLTYPE
  6

  9
$DIMLTEX1
  6

  9
$DIMLTEX2
  6

  9
$DIMTXTDIRECTION
 70
     0
  9
$LUNITS
 70
     2
  9
$LUPREC
 70
     4
  9
$SKETCHINC
 40
0.1
  9
$FILLETRAD
 40
0.5
  9
$AUNITS
 70
     0
  9
$AUPREC
 70
     0
  9
$MENU
  1
.
  9
$ELEVATION
 40
0.0
  9
$PELEVATION
 40
0.0
  9
$THICKNESS
 40
0.0
  9
$LIMCHECK
 70
     0
  9
$CHAMFERA
 40
0.5
  9
$CHAMFERB
 40
0.5
  9
$CHAMFERC
 40
1.0
  9
$CHAMFERD
 40
0.0
  9
$SKPOLY
 70
     0
  9
$TDCREATE
 40
2451380.930432396
  9
$TDUCREATE
 40
2451380.805432396
  9
$TDUPDATE
 40
2451380.966180555
  9
$TDUUPDATE
 40
2451380.841180556
  9
$TDINDWG
 40
0.0075640278
  9
$TDUSRTIMER
 40
0.0075549884
  9
$USRTIMER
 70
     1
  9
$ANGBASE
 50
0.0
  9
$ANGDIR
 70
     0
  9
$PDMODE
 70
     0
  9
$PDSIZE
 40
0.0
  9
$PLINEWID
 40
0.0
  9
$SPLFRAME
 70
     0
  9
$SPLINETYPE
 70
     6
  9
$SPLINESEGS
 70
     8
  9
$HANDSEED
  5
1B4
  9
$SURFTAB1
 70
     6
  9
$SURFTAB2
 70
     6
  9
$SURFTYPE
 70
     6
  9
$SURFU
 70
     6
  9
$SURFV
 70
     6
  9
$UCSBASE
  2

  9
$UCSNAME
  2

  9
$UCSORG
 10
0.0
 20
0.0
 30
0.0
  9
$UCSXDIR
 10
1.0
 20
0.0
 30
0.0
  9
$UCSYDIR
 10
0.0
 20
1.0
 30
0.0
  9
$UCSORTHOREF
  2

  9
$UCSORTHOVIEW
 70
     0
  9
$UCSORGTOP
 10
0.0
 20
0.0
 30
0.0
  9
$UCSORGBOTTOM
 10
0.0
 20
0.0
 30
0.0
  9
$UCSORGLEFT
 10
0.0
 20
0.0
 30
0.0
  9
$UCSORGRIGHT
 10
0.0
 20
0.0
 30
0.0
  9
$UCSORGFRONT
 10
0.0
 20
0.0
 30
0.0
  9
$UCSORGBACK
 10
0.0
 20
0.0
 30
0.0
  9
$PUCSBASE
  2

  9
$PUCSNAME
  2

  9
$PUCSORG
 10
0.0
 20
0.0
 30
0.0
  9
$PUCSXDIR
 10
1.0
 20
0.0
 30
0.0
  9
$PUCSYDIR
 10
0.0
 20
1.0
 30
0.0
  9
$PUCSORTHOREF
  2

  9
$PUCSORTHOVIEW
 70
     0
  9
$PUCSORGTOP
 10
0.0
 20
0.0
 30
0.0
  9
$PUCSORGBOTTOM
 10
0.0
 20
0.0
 30
0.0
  9
$PUCSORGLEFT
 10
0.0
 20
0.0
 30
0.0
  9
$PUCSORGRIGHT
 10
0.0
 20
0.0
 30
0.0
  9
$PUCSORGFRONT
 10
0.0
 20
0.0
 30
0.0
  9
$PUCSORGBACK
 10
0.0
 20
0.0
 30
0.0
  9
$USERI1
 70
     0
  9
$USERI2
 70
     0
  9
$USERI3
 70
     0
  9
$USERI4
 70
     0
  9
$USERI5
 70
     0
  9
$USERR1
 40
0.0
  9
$USERR2
 40
0.0
  9
$USERR3
 40
0.0
  9
$USERR4
 40
0.0
  9
$USERR5
 40
0.0
  9
$WORLDVIEW
 70
     1
  9
$SHADEDGE
 70
     3
  9
$SHADEDIF
 70
    70
  9
$TILEMODE
 70
     1
  9
$MAXACTVP
 70
    64
  9
$PINSBASE
 10
0.0
 20
0.0
 30
0.0
  9
$PLIMCHECK
 70
     0
  9
$PEXTMIN
 10
1.000000000000000E+20
 20
1.000000000000000E+20
 30
1.000000000000000E+20
  9
$PEXTMAX
 10
-1.000000000000000E+20
 20
-1.000000000000000E+20
 30
-1.000000000000000E+20
  9
$PLIMMIN
 10
0.0
 20
0.0
  9
$PLIMMAX
 10
12.0
 20
9.0
  9
$UNITMODE
 70
     0
  9
$VISRETAIN
 70
     1
  9
$PLINEGEN
 70
     0
  9
$PSLTSCALE
 70
     1
  9
$TREEDEPTH
 70
  3020
  9
$CMLSTYLE
  2
Standard
  9
$CMLJUST
 70
     0
  9
$CMLSCALE
 40
1.0
  9
$PROXYGRAPHICS
 70
     1
  9
$MEASUREMENT
 70
     1
  9
$CELWEIGHT
370
    -1
  9
$ENDCAPS
280
     0
  9
$JOINSTYLE
280
     0
  9
$LWDISPLAY
290
     0
  9
$INSUNITS
 70
     4
  9
$HYPERLINKBASE
  1

  9
$STYLESHEET
  1

  9
$XEDIT
290
     1
  9
$CEPSNTYPE
380
     0
  9
$PSTYLEMODE
290
     1
  9
$FINGERPRINTGUID
  2
{12F50282-3ED8-11D3-A8B7-0060B0F84BC6}
  9
$VERSIONGUID
  2
{12F50293-3ED8-11D3-A8B7-0060B0F84BC6}
  9
$EXTNAMES
290
     1
  9
$PSVPSCALE
 40
0.0
  9
$OLESTARTUP
290
     0
  9
$SORTENTS
280
   127
  9
$INDEXCTL
280
     0
  9
$HIDETEXT
280
     0
  9
$XCLIPFRAME
280
     2
  9
$HALOGAP
280
     0
  9
$OBSCOLOR
 70
   257
  9
$OBSLTYPE
280
     0
  9
$INTERSECTIONDISPLAY
280
     0
  9
$INTERSECTIONCOLOR
 70
   257
  9
$DIMASSOC
280
     1
  9
$PROJECTNAME
  1

  9
$CAMERADISPLAY
290
     0
  9
$LENSLENGTH
 40
50.0
  9
$CAMERAHEIGHT
 40
0.0
  9
$STEPSPERSEC
 40
2.0
  9
$STEPSIZE
 40
6.0
  9
$3DDWFPREC
 40
2.0
  9
$PSOLWIDTH
 40
0.25
  9
$PSOLHEIGHT
 40
4.0
  9
$LOFTANG1
 40
1.570796326794896
  9
$LOFTANG2
 40
1.570796326794896
  9
$LOFTMAG1
 40
0.0
  9
$LOFTMAG2
 40
0.0
  9
$LOFTPARAM
 70
     7
  9
$LOFTNORMALS
280
     1
  9
$LATITUDE
 40
37.795
  9
$LONGITUDE
 40
-122.394
  9
$NORTHDIRECTION
 40
0.0
  9
$TIMEZONE
 70
 -8000
  9
$LIGHTGLYPHDISPLAY
280
     1
  9
$TILEMODELIGHTSYNCH
280
     1
  9
$CMATERIAL
347
AB
  9
$SOLIDHIST
280
     0
  9
$SHOWHIST
280
     1
  9
$DWFFRAME
280
     2
  9
$DGNFRAME
280
     0
  9
$REALWORLDSCALE
290
     1
  9
$INTERFERECOLOR
 62
     1
  9
$INTERFEREOBJVS
345
CD
  9
$INTERFEREVPVS
346
CA
  9
$CSHADOW
280
     0
  9
$SHADOWPLANELOCATION
 40
0.0
  0
ENDSEC
  0
SECTION
  2
CLASSES
  0
CLASS
  1
ACDBDICTIONARYWDFLT
  2
AcDbDictionaryWithDefault
  3
ObjectDBX Classes
 90
        0
 91
        1
280
     0
281
     0
  0
CLASS
  1
ACDBPLACEHOLDER
  2
AcDbPlaceHolder
  3
ObjectDBX Classes
 90
        0
 91
        2
280
     0
281
     0
  0
CLASS
  1
LAYOUT
  2
AcDbLayout
  3
ObjectDBX Classes
 90
        0
 91
        3
280
     0
281
     0
  0
CLASS
  1
MATERIAL
  2
AcDbMaterial
  3
ObjectDBX Classes
 90
     1153
 91
        3
280
     0
281
     0
  0
CLASS
  1
VISUALSTYLE
  2
AcDbVisualStyle
  3
ObjectDBX Classes
 90
     4095
 91
       24
280
     0
281
     0
  0
CLASS
  1
TABLESTYLE
  2
AcDbTableStyle
  3
ObjectDBX Classes
 90
     4095
 91
        1
280
     0
281
     0
  0
CLASS
  1
SCALE
  2
AcDbScale
  3
ObjectDBX Classes
 90
     1153
 91
       17
280
     0
281
     0
  0
CLASS
  1
MLEADERSTYLE
  2
AcDbMLeaderStyle
  3
ACDB_MLEADERSTYLE_CLASS
 90
     4095
 91
        1
280
     0
281
     0
  0
CLASS
  1
ACDBSECTIONVIEWSTYLE
  2
AcDbSectionViewStyle
  3
ObjectDBX Classes
 90
     1025
 91
        1
280
     0
281
     0
  0
CLASS
  1
ACDBDETAILVIEWSTYLE
  2
AcDbDetailViewStyle
  3
ObjectDBX Classes
 90
     1025
 91
        1
280
     0
281
     0
  0
CLASS
  1
MESH
  2
AcDbSubDMesh
  3
ObjectDBX Classes
 90
        0
 91
        1
280
     0
281
     1
  0
CLASS
  1
DICTIONARYVAR
  2
AcDbDictionaryVar
  3
ObjectDBX Classes
 90
        0
 91
        9
280
     0
281
     0
  0
CLASS
  1
CELLSTYLEMAP
  2
AcDbCellStyleMap
  3
ObjectDBX Classes
 90
     1152
 91
        1
280
     0
281
     0
  0
ENDSEC
  0
SECTION
  2
TABLES
  0
TABLE
  2
VPORT
  5
8
330
0
100
AcDbSymbolTable
 70
     1
  0
VPORT
  5
A8
330
8
100
AcDbSymbolTableRecord
100
AcDbViewportTableRecord
  2
*Active
 70
     0
 10
0.0
 20
0.0
 11
1.0
 21
1.0
 12
-0.0000431583757745
 22
40.82479095458984
 13
0.0
 23
0.0
 14
0.5
 24
0.5
 15
0.5
 25
0.5
 16
-1.0
 26
-1.0
 36
1.0
 17
0.0
 27
0.0
 37
0.0
 40
1116.000011417756
 41
1.57684911210426
 42
50.0
 43
0.0
 44
0.0
 50
0.0
 51
0.0
 71
     0
 72
   100
 73
     1
 74
     3
 75
     0
 76
     0
 77
     0
 78
     0
281
     0
 65
     1
110
0.0
120
0.0
130
0.0
111
1.0
121
0.0
131
0.0
112
0.0
122
1.0
132
0.0
 79
     0
146
0.0
348
C9
 60
     3
 61
     5
292
     1
282
     1
141
0.0
142
0.0
 63
   250
421
  3355443
  0
ENDTAB
  0
TABLE
  2
LTYPE
  5
5
330
0
100
AcDbSymbolTable
 70
     1
  0
LTYPE
  5
14
330
5
100
AcDbSymbolTableRecord
100
AcDbLinetypeTableRecord
  2
ByBlock
 70
     0
  3

 72
    65
 73
     0
 40
0.0
  0
LTYPE
  5
15
330
5
100
AcDbSymbolTableRecord
100
AcDbLinetypeTableRecord
  2
ByLayer
 70
     0
  3

 72
    65
 73
     0
 40
0.0
  0
LTYPE
  5
16
330
5
100
AcDbSymbolTableRecord
100
AcDbLinetypeTableRecord
  2
Continuous
 70
     0
  3
Solid line
 72
    65
 73
     0
 40
0.0
  0
ENDTAB
  0
TABLE
  2
LAYER
  5
2
330
0
100
AcDbSymbolTable
 70
     3
  0
LAYER
  5
10
330
2
100
AcDbSymbolTableRecord
100
AcDbLayerTableRecord
  2
0
 70
     0
 62
     7
  6
Continuous
370
    -3
390
F
347
BB
  0
LAYER
  5
2B
330
2
100
AcDbSymbolTableRecord
100
AcDbLayerTableRecord
  2
ASHADE
 70
     4
 62
     7
  6
Continuous
370
    -3
390
2D
347
BB
  0
LAYER
  5
F8
330
2
100
AcDbSymbolTableRecord
100
AcDbLayerTableRecord
  2
OracDecor_skirtings
 70
     0
 62
   133
420
  5818337
  6
Continuous
370
    -3
390
F
347
BB
  0
ENDTAB
  0
TABLE
  2
STYLE
  5
3
330
0
100
AcDbSymbolTable
 70
     2
  0
STYLE
  5
11
330
3
100
AcDbSymbolTableRecord
100
AcDbTextStyleTableRecord
  2
Standard
 70
     0
 40
0.0
 41
1.0
 50
0.0
 71
     0
 42
0.2
  3
txt
  4

  0
STYLE
  5
2C
330
3
100
AcDbSymbolTableRecord
100
AcDbTextStyleTableRecord
  2
ASHADE
 70
     0
 40
0.2
 41
1.0
 50
0.0
 71
     0
 42
0.2
  3
simplex
  4

  0
ENDTAB
  0
TABLE
  2
VIEW
  5
6
330
0
100
AcDbSymbolTable
 70
     0
  0
ENDTAB
  0
TABLE
  2
UCS
  5
7
330
0
100
AcDbSymbolTable
 70
     0
  0
ENDTAB
  0
TABLE
  2
APPID
  5
9
330
0
100
AcDbSymbolTable
 70
     6
  0
APPID
  5
12
330
9
100
AcDbSymbolTableRecord
100
AcDbRegAppTableRecord
  2
ACAD
 70
     0
  0
APPID
  5
8F
330
9
100
AcDbSymbolTableRecord
100
AcDbRegAppTableRecord
  2
AVE_RENDER
 70
     0
  0
APPID
  5
90
330
9
100
AcDbSymbolTableRecord
100
AcDbRegAppTableRecord
  2
AVE_ENTITY_MATERIAL
 70
     0
  0
APPID
  5
9C
330
9
100
AcDbSymbolTableRecord
100
AcDbRegAppTableRecord
  2
AVE_FINISH
 70
     0
  0
APPID
  5
9D
330
9
100
AcDbSymbolTableRecord
100
AcDbRegAppTableRecord
  2
AVE_MATERIAL
 70
     0
  0
APPID
  5
9E
330
9
100
AcDbSymbolTableRecord
100
AcDbRegAppTableRecord
  2
AVE_GLOBAL
 70
     0
  0
ENDTAB
  0
TABLE
  2
DIMSTYLE
  5
A
330
0
100
AcDbSymbolTable
 70
     1
100
AcDbDimStyleTable
 71
     0
  0
DIMSTYLE
105
27
330
A
100
AcDbSymbolTableRecord
100
AcDbDimStyleTableRecord
  2
Standard
 70
     0
340
11
  0
ENDTAB
  0
TABLE
  2
BLOCK_RECORD
  5
1
330
0
100
AcDbSymbolTable
 70
     6
  0
BLOCK_RECORD
  5
1F
330
1
100
AcDbSymbolTableRecord
100
AcDbBlockTableRecord
  2
*Model_Space
340
22
 70
     0
280
     1
281
     0
  0
BLOCK_RECORD
  5
1B
330
1
100
AcDbSymbolTableRecord
100
AcDbBlockTableRecord
  2
*Paper_Space
340
1E
 70
     0
280
     1
281
     0
  0
BLOCK_RECORD
  5
23
330
1
100
AcDbSymbolTableRecord
100
AcDbBlockTableRecord
  2
*Paper_Space0
340
26
 70
     0
280
     1
281
     0
  0
BLOCK_RECORD
  5
2E
330
1
100
AcDbSymbolTableRecord
100
AcDbBlockTableRecord
  2
direct
340
0
 70
     0
280
     1
281
     0
  0
BLOCK_RECORD
  5
42
330
1
100
AcDbSymbolTableRecord
100
AcDbBlockTableRecord
  2
overhead
340
0
 70
     0
280
     1
281
     0
  0
BLOCK_RECORD
  5
5F
330
1
100
AcDbSymbolTableRecord
100
AcDbBlockTableRecord
  2
sh_spot
340
0
 70
     0
280
     1
281
     0
  0
BLOCK_RECORD
  5
91
330
1
100
AcDbSymbolTableRecord
100
AcDbBlockTableRecord
  2
AVE_RENDER
340
0
102
{BLKREFS
331
94
331
95
331
96
331
97
331
98
331
99
331
9A
331
9B
102
}
 70
     0
280
     1
281
     0
  0
BLOCK_RECORD
  5
9F
330
1
100
AcDbSymbolTableRecord
100
AcDbBlockTableRecord
  2
AVE_GLOBAL
340
0
102
{BLKREFS
331
A2
102
}
 70
     0
280
     1
281
     0
  0
ENDTAB
  0
ENDSEC
  0
SECTION
  2
BLOCKS
  0
BLOCK
  5
20
330
1F
100
AcDbEntity
  8
0
100
AcDbBlockBegin
  2
*Model_Space
 70
     0
 10
0.0
 20
0.0
 30
0.0
  3
*Model_Space
  1

  0
ENDBLK
  5
21
330
1F
100
AcDbEntity
  8
0
100
AcDbBlockEnd
  0
BLOCK
  5
1C
330
1B
100
AcDbEntity
 67
     1
  8
0
100
AcDbBlockBegin
  2
*Paper_Space
 70
     0
 10
0.0
 20
0.0
 30
0.0
  3
*Paper_Space
  1

  0
ENDBLK
  5
1D
330
1B
100
AcDbEntity
 67
     1
  8
0
100
AcDbBlockEnd
  0
BLOCK
  5
24
330
23
100
AcDbEntity
 67
     1
  8
0
100
AcDbBlockBegin
  2
*Paper_Space0
 70
     0
 10
0.0
 20
0.0
 30
0.0
  3
*Paper_Space0
  1

  0
ENDBLK
  5
25
330
23
100
AcDbEntity
 67
     1
  8
0
100
AcDbBlockEnd
  0
BLOCK
  5
40
330
2E
100
AcDbEntity
  8
0
100
AcDbBlockBegin
  2
direct
 70
     2
 10
0.0
 20
0.0
 30
0.0
  3
direct
  1

  0
ATTDEF
  5
2F
330
2E
100
AcDbEntity
  8
ASHADE
  6
Continuous
 62
     1
100
AcDbText
 10
0.0
 20
-0.1
 30
0.0
 40
0.2
  1

  7
ASHADE
 72
     1
 11
0.0
 21
-0.1
 31
0.0
100
AcDbAttributeDefinition
280
     0
  3
Light Name
  2
SNAME
 70
     0
280
     0
  0
ARC
  5
30
330
2E
100
AcDbEntity
  8
ASHADE
  6
Continuous
 62
     7
100
AcDbCircle
 10
0.0
 20
0.0
 30
0.0
 40
0.3
100
AcDbArc
 50
205.6792886194569
 51
334.3207113805431
  0
ARC
  5
31
330
2E
100
AcDbEntity
  8
ASHADE
  6
Continuous
 62
     7
100
AcDbCircle
 10
0.0
 20
0.0
 30
0.0
 40
0.3
100
AcDbArc
 50
25.67928861945685
 51
154.3207113805431
  0
LINE
  5
32
330
2E
100
AcDbEntity
  8
ASHADE
  6
Continuous
 62
     7
100
AcDbLine
 10
-0.21
 20
0.2142428528562855
 30
0.0
 11
-0.21
 21
0.5
 31
0.0
  0
LINE
  5
33
330
2E
100
AcDbEntity
  8
ASHADE
  6
Continuous
 62
     7
100
AcDbLine
 10
-0.11
 20
0.2791057147390572
 30
0.0
 11
-0.11
 21
0.5
 31
0.0
  0
LINE
  5
34
330
2E
100
AcDbEntity
  8
ASHADE
  6
Continuous
 62
     7
100
AcDbLine
 10
0.21
 20
0.2142428528562855
 30
0.0
 11
0.21
 21
0.5
 31
0.0
  0
ATTDEF
  5
35
330
2E
100
AcDbEntity
  8
ASHADE
  6
Continuous
 62
     7
100
AcDbText
 10
0.0
 20
0.25
 30
0.0
 40
0.01
  1

100
AcDbAttributeDefinition
280
     0
  3
Look-at Y
  2
LAY
 70
     1
280
     0
  0
ATTDEF
  5
36
330
2E
100
AcDbEntity
  8
ASHADE
  6
Continuous
 62
     7
100
AcDbText
 10
0.0
 20
0.22
 30
0.0
 40
0.01
  1
1
100
AcDbAttributeDefinition
280
     0
  3
Light Intensity
  2
INTENSITY
 70
     1
280
     0
  0
ATTDEF
  5
37
330
2E
100
AcDbEntity
  8
ASHADE
  6
Continuous
 62
     7
100
AcDbText
 10
0.0
 20
0.16
 30
0.0
 40
0.01
  1
-1
100
AcDbAttributeDefinition
280
     0
  3
*not used*
  2
BEAMD
 70
     1
280
     0
  0
ATTDEF
  5
38
330
2E
100
AcDbEntity
  8
ASHADE
  6
Continuous
 62
     7
100
AcDbText
 10
0.0
 20
0.175
 30
0.0
 40
0.01
  1
-1
100
AcDbAttributeDefinition
280
     0
  3
*not used*
  2
CONED
 70
     1
280
     0
  0
ATTDEF
  5
39
330
2E
100
AcDbEntity
  8
ASHADE
  6
Continuous
 62
     7
100
AcDbText
 10
0.0
 20
0.19
 30
0.0
 40
0.01
  1
0
100
AcDbAttributeDefinition
280
     0
  3
Depth Map Size
  2
CONEA
 70
     1
280
     0
  0
ATTDEF
  5
3A
330
2E
100
AcDbEntity
  8
ASHADE
  6
Continuous
 62
     7
100
AcDbText
 10
0.0
 20
0.2050000000000001
 30
0.0
 40
0.01
  1
1,1,1
100
AcDbAttributeDefinition
280
     0
  3
Light Color (RGB)
  2
COLOR
 70
     1
280
     0
  0
ATTDEF
  5
3B
330
2E
100
AcDbEntity
  8
ASHADE
  6
Continuous
 62
     7
100
AcDbText
 10
0.0
 20
0.235
 30
0.0
 40
0.01
  1

100
AcDbAttributeDefinition
280
     0
  3
Look-at Z
  2
LAZ
 70
     1
280
     0
  0
LINE
  5
3C
330
2E
100
AcDbEntity
  8
ASHADE
  6
Continuous
 62
     7
100
AcDbLine
 10
0.0
 20
0.3
 30
0.0
 11
0.0
 21
0.5
 31
0.0
  0
LINE
  5
3D
330
2E
100
AcDbEntity
  8
ASHADE
  6
Continuous
 62
     7
100
AcDbLine
 10
0.11
 20
0.2791057147390572
 30
0.0
 11
0.11
 21
0.5
 31
0.0
  0
ATTDEF
  5
3E
330
2E
100
AcDbEntity
  8
ASHADE
  6
Continuous
 62
     7
100
AcDbText
 10
0.0
 20
0.265
 30
0.0
 40
0.01
  1

100
AcDbAttributeDefinition
280
     0
  3
Look-at X
  2
LAX
 70
     1
280
     0
  0
ATTDEF
  5
3F
330
2E
100
AcDbEntity
  8
ASHADE
  6
Continuous
 62
     7
100
AcDbText
 10
0.0
 20
0.28
 30
0.0
 40
0.01
  1

100
AcDbAttributeDefinition
280
     0
  3

  2
GNAME
 70
     1
280
     0
  0
ENDBLK
  5
41
330
2E
100
AcDbEntity
  8
0
100
AcDbBlockEnd
  0
BLOCK
  5
5D
330
42
100
AcDbEntity
  8
0
100
AcDbBlockBegin
  2
overhead
 70
     2
 10
0.0
 20
0.0
 30
0.0
  3
overhead
  1

  0
ATTDEF
  5
43
330
42
100
AcDbEntity
  8
ASHADE
  6
Continuous
 62
     1
100
AcDbText
 10
0.0
 20
-0.1
 30
0.0
 40
0.2
  1

  7
ASHADE
 72
     1
 11
0.0
 21
-0.1
 31
0.0
100
AcDbAttributeDefinition
280
     0
  3
Light Name
  2
SNAME
 70
     0
280
     0
  0
ARC
  5
44
330
42
100
AcDbEntity
  8
ASHADE
  6
Continuous
 62
     7
100
AcDbCircle
 10
0.0
 20
0.0
 30
0.0
 40
0.3
100
AcDbArc
 50
205.6792886194569
 51
334.3207113805431
  0
LINE
  5
45
330
42
100
AcDbEntity
  8
ASHADE
  6
Continuous
 62
     7
100
AcDbLine
 10
-0.2041413561583015
 20
-0.2198324514393848
 30
0.0
 11
-0.2721884748777353
 21
-0.2931099352525131
 31
0.0
  0
LINE
  5
46
330
42
100
AcDbEntity
  8
ASHADE
  6
Continuous
 62
     7
100
AcDbLine
 10
-0.1096591641591904
 20
-0.2792398032442862
 30
0.0
 11
-0.1279356915190555
 21
-0.3257797704516673
 31
0.0
  0
LINE
  5
47
330
42
100
AcDbEntity
  8
ASHADE
  6
Continuous
 62
     7
100
AcDbLine
 10
0.0
 20
-0.2999999999999999
 30
0.0
 11
0.0
 21
-0.4
 31
0.0
  0
LINE
  5
48
330
42
100
AcDbEntity
  8
ASHADE
  6
Continuous
 62
     7
100
AcDbLine
 10
0.1096591641591904
 20
-0.2792398032442862
 30
0.0
 11
0.1279356915190555
 21
-0.3257797704516673
 31
0.0
  0
LINE
  5
49
330
42
100
AcDbEntity
  8
ASHADE
  6
Continuous
 62
     7
100
AcDbLine
 10
0.2041413561583015
 20
-0.2198324514393848
 30
0.0
 11
0.2721884748777353
 21
-0.2931099352525131
 31
0.0
  0
ARC
  5
4A
330
42
100
AcDbEntity
  8
ASHADE
  6
Continuous
 62
     7
100
AcDbCircle
 10
0.0
 20
0.0
 30
0.0
 40
0.3
100
AcDbArc
 50
25.67928861945685
 51
154.3207113805431
  0
LINE
  5
4B
330
42
100
AcDbEntity
  8
ASHADE
  6
Continuous
 62
     7
100
AcDbLine
 10
-0.2703701166919155
 20
0.13
 30
0.0
 11
-0.3154318028072347
 21
0.1516666666666666
 31
0.0
  0
LINE
  5
4C
330
42
100
AcDbEntity
  8
ASHADE
  6
Continuous
 62
     7
100
AcDbLine
 10
-0.2703701166919155
 20
-0.13
 30
0.0
 11
-0.3154318028072347
 21
-0.1516666666666666
 31
0.0
  0
LINE
  5
4D
330
42
100
AcDbEntity
  8
ASHADE
  6
Continuous
 62
     7
100
AcDbLine
 10
-0.2041413561583015
 20
0.2198324514393849
 30
0.0
 11
-0.2721884748777353
 21
0.2931099352525131
 31
0.0
  0
LINE
  5
4E
330
42
100
AcDbEntity
  8
ASHADE
  6
Continuous
 62
     7
100
AcDbLine
 10
-0.1096591641591904
 20
0.2792398032442862
 30
0.0
 11
-0.1279356915190555
 21
0.3257797704516674
 31
0.0
  0
LINE
  5
4F
330
42
100
AcDbEntity
  8
ASHADE
  6
Continuous
 62
     7
100
AcDbLine
 10
0.2703701166919155
 20
-0.13
 30
0.0
 11
0.3154318028072347
 21
-0.1516666666666666
 31
0.0
  0
LINE
  5
50
330
42
100
AcDbEntity
  8
ASHADE
  6
Continuous
 62
     7
100
AcDbLine
 10
0.2703701166919155
 20
0.13
 30
0.0
 11
0.3154318028072347
 21
0.1516666666666666
 31
0.0
  0
LINE
  5
51
330
42
100
AcDbEntity
  8
ASHADE
  6
Continuous
 62
     7
100
AcDbLine
 10
0.0
 20
0.3
 30
0.0
 11
0.0
 21
0.4
 31
0.0
  0
ATTDEF
  5
52
330
42
100
AcDbEntity
  8
ASHADE
  6
Continuous
 62
     7
100
AcDbText
 10
0.0
 20
0.22
 30
0.0
 40
0.01
  1
1
100
AcDbAttributeDefinition
280
     0
  3
Light Intensity
  2
INTENSITY
 70
     1
280
     0
  0
ATTDEF
  5
53
330
42
100
AcDbEntity
  8
ASHADE
  6
Continuous
 62
     7
100
AcDbText
 10
0.0
 20
0.16
 30
0.0
 40
0.01
  1
-1
100
AcDbAttributeDefinition
280
     0
  3
*not used*
  2
BEAMD
 70
     1
280
     0
  0
ATTDEF
  5
54
330
42
100
AcDbEntity
  8
ASHADE
  6
Continuous
 62
     7
100
AcDbText
 10
0.0
 20
0.175
 30
0.0
 40
0.01
  1
-1
100
AcDbAttributeDefinition
280
     0
  3
*not used*
  2
CONED
 70
     1
280
     0
  0
ATTDEF
  5
55
330
42
100
AcDbEntity
  8
ASHADE
  6
Continuous
 62
     7
100
AcDbText
 10
0.0
 20
0.19
 30
0.0
 40
0.01
  1
0
100
AcDbAttributeDefinition
280
     0
  3
Depth Map Size
  2
CONEA
 70
     1
280
     0
  0
ATTDEF
  5
56
330
42
100
AcDbEntity
  8
ASHADE
  6
Continuous
 62
     7
100
AcDbText
 10
0.0
 20
0.2050000000000001
 30
0.0
 40
0.01
  1
1,1,1
100
AcDbAttributeDefinition
280
     0
  3
Light Color (RGB)
  2
COLOR
 70
     1
280
     0
  0
ATTDEF
  5
57
330
42
100
AcDbEntity
  8
ASHADE
  6
Continuous
 62
     7
100
AcDbText
 10
0.0
 20
0.235
 30
0.0
 40
0.01
  1

100
AcDbAttributeDefinition
280
     0
  3
Look-at Z
  2
LAZ
 70
     1
280
     0
  0
ATTDEF
  5
58
330
42
100
AcDbEntity
  8
ASHADE
  6
Continuous
 62
     7
100
AcDbText
 10
0.0
 20
0.25
 30
0.0
 40
0.01
  1

100
AcDbAttributeDefinition
280
     0
  3
Look-at Y
  2
LAY
 70
     1
280
     0
  0
ATTDEF
  5
59
330
42
100
AcDbEntity
  8
ASHADE
  6
Continuous
 62
     7
100
AcDbText
 10
0.0
 20
0.265
 30
0.0
 40
0.01
  1

100
AcDbAttributeDefinition
280
     0
  3
Look-at X
  2
LAX
 70
     1
280
     0
  0
ATTDEF
  5
5A
330
42
100
AcDbEntity
  8
ASHADE
  6
Continuous
 62
     7
100
AcDbText
 10
0.0
 20
0.28
 30
0.0
 40
0.01
  1

100
AcDbAttributeDefinition
280
     0
  3

  2
GNAME
 70
     1
280
     0
  0
LINE
  5
5B
330
42
100
AcDbEntity
  8
ASHADE
  6
Continuous
 62
     7
100
AcDbLine
 10
0.1096591641591904
 20
0.2792398032442862
 30
0.0
 11
0.1279356915190555
 21
0.3257797704516674
 31
0.0
  0
LINE
  5
5C
330
42
100
AcDbEntity
  8
ASHADE
  6
Continuous
 62
     7
100
AcDbLine
 10
0.2041413561583015
 20
0.2198324514393849
 30
0.0
 11
0.2721884748777353
 21
0.2931099352525131
 31
0.0
  0
ENDBLK
  5
5E
330
42
100
AcDbEntity
  8
0
100
AcDbBlockEnd
  0
BLOCK
  5
85
330
5F
100
AcDbEntity
  8
0
100
AcDbBlockBegin
  2
sh_spot
 70
     2
 10
0.0
 20
0.0
 30
0.0
  3
sh_spot
  1

  0
LINE
  5
60
330
5F
100
AcDbEntity
  8
ASHADE
  6
Continuous
 62
     7
100
AcDbLine
 10
0.25
 20
0.26
 30
0.0
 11
-0.25
 21
0.26
 31
0.0
  0
LINE
  5
61
330
5F
100
AcDbEntity
  8
ASHADE
  6
Continuous
 62
     7
100
AcDbLine
 10
-0.25
 20
-0.3399999999999999
 30
0.0
 11
0.25
 21
-0.3399999999999999
 31
0.0
  0
ATTDEF
  5
62
330
5F
100
AcDbEntity
  8
ASHADE
  6
Continuous
 62
     1
100
AcDbText
 10
0.0
 20
-0.1
 30
0.0
 40
0.2
  1

  7
ASHADE
 72
     1
 11
0.0
 21
-0.1
 31
0.0
100
AcDbAttributeDefinition
280
     0
  3
Light Name
  2
SNAME
 70
     0
280
     0
  0
LINE
  5
63
330
5F
100
AcDbEntity
  8
ASHADE
  6
Continuous
 62
     7
100
AcDbLine
 10
-0.25
 20
-0.13
 30
0.0
 11
-0.25
 21
-0.3399999999999999
 31
0.0
  0
LINE
  5
64
330
5F
100
AcDbEntity
  8
ASHADE
  6
Continuous
 62
     7
100
AcDbLine
 10
-0.25
 20
-0.18
 30
0.0
 11
-0.29
 21
-0.18
 31
0.0
  0
LINE
  5
65
330
5F
100
AcDbEntity
  8
ASHADE
  6
Continuous
 62
     7
100
AcDbLine
 10
-0.29
 20
-0.22
 30
0.0
 11
-0.25
 21
-0.22
 31
0.0
  0
LINE
  5
66
330
5F
100
AcDbEntity
  8
ASHADE
  6
Continuous
 62
     7
100
AcDbLine
 10
-0.29
 20
-0.18
 30
0.0
 11
-0.29
 21
-0.22
 31
0.0
  0
LINE
  5
67
330
5F
100
AcDbEntity
  8
ASHADE
  6
Continuous
 62
     7
100
AcDbLine
 10
-0.1045454545454545
 20
0.26
 30
0.0
 11
-0.15
 21
0.46
 31
0.0
  0
LINE
  5
68
330
5F
100
AcDbEntity
  8
ASHADE
  6
Continuous
 62
     7
100
AcDbLine
 10
-0.21
 20
0.26
 30
0.0
 11
-0.301304347826087
 21
0.46
 31
0.0
  0
LINE
  5
69
330
5F
100
AcDbEntity
  8
ASHADE
  6
Continuous
 62
     7
100
AcDbLine
 10
-0.25
 20
0.26
 30
0.0
 11
-0.25
 21
0.13
 31
0.0
  0
LINE
  5
6A
330
5F
100
AcDbEntity
  8
ASHADE
  6
Continuous
 62
     7
100
AcDbLine
 10
-0.25
 20
0.22
 30
0.0
 11
-0.29
 21
0.22
 31
0.0
  0
LINE
  5
6B
330
5F
100
AcDbEntity
  8
ASHADE
  6
Continuous
 62
     7
100
AcDbLine
 10
-0.29
 20
0.1799999999999999
 30
0.0
 11
-0.25
 21
0.1799999999999999
 31
0.0
  0
LINE
  5
6C
330
5F
100
AcDbEntity
  8
ASHADE
  6
Continuous
 62
     7
100
AcDbLine
 10
-0.29
 20
0.22
 30
0.0
 11
-0.29
 21
0.1799999999999999
 31
0.0
  0
ATTDEF
  5
6D
330
5F
100
AcDbEntity
  8
ASHADE
  6
Continuous
 62
     7
100
AcDbText
 10
0.0
 20
-0.24
 30
0.0
 40
0.01
  1
0
100
AcDbAttributeDefinition
280
     0
  3
Depth Map Size
  2
ZSIZE
 70
     1
280
     0
  0
ATTDEF
  5
6E
330
5F
100
AcDbEntity
  8
ASHADE
  6
Continuous
 62
     7
100
AcDbText
 10
0.0
 20
-0.3300000000000001
 30
0.0
 40
0.01
  1
0,0,0
100
AcDbAttributeDefinition
280
     0
  3
Look-from XYZ
  2
LFXYZ
 70
     1
280
     0
  0
ATTDEF
  5
6F
330
5F
100
AcDbEntity
  8
ASHADE
  6
Continuous
 62
     7
100
AcDbText
 10
0.0
 20
-0.315
 30
0.0
 40
0.01
  1
0.0
100
AcDbAttributeDefinition
280
     0
  3
Beam Distribution
  2
BEAMDI
 70
     1
280
     0
  0
ATTDEF
  5
70
330
5F
100
AcDbEntity
  8
ASHADE
  6
Continuous
 62
     7
100
AcDbText
 10
0.0
 20
-0.3
 30
0.0
 40
0.01
  1
0.0
100
AcDbAttributeDefinition
280
     0
  3
Cone Delta
  2
CONEDE
 70
     1
280
     0
  0
ATTDEF
  5
71
330
5F
100
AcDbEntity
  8
ASHADE
  6
Continuous
 62
     7
100
AcDbText
 10
0.0
 20
-0.2850000000000001
 30
0.0
 40
0.01
  1
10.0
100
AcDbAttributeDefinition
280
     0
  3
Cone Angle
  2
CONEAN
 70
     1
280
     0
  0
ATTDEF
  5
72
330
5F
100
AcDbEntity
  8
ASHADE
  6
Continuous
 62
     7
100
AcDbText
 10
0.0
 20
-0.27
 30
0.0
 40
0.01
  1
-1
100
AcDbAttributeDefinition
280
     0
  3
*not used*
  2
BIASMAX
 70
     1
280
     0
  0
ATTDEF
  5
73
330
5F
100
AcDbEntity
  8
ASHADE
  6
Continuous
 62
     7
100
AcDbText
 10
0.0
 20
-0.255
 30
0.0
 40
0.01
  1
-1
100
AcDbAttributeDefinition
280
     0
  3
*not used*
  2
BIASMIN
 70
     1
280
     0
  0
ATTDEF
  5
74
330
5F
100
AcDbEntity
  8
ASHADE
  6
Continuous
 62
     7
100
AcDbText
 10
0.0
 20
-0.225
 30
0.0
 40
0.01
  1
1,1,1
100
AcDbAttributeDefinition
280
     0
  3
Light Color (RGB)
  2
COLOR
 70
     1
280
     0
  0
ATTDEF
  5
75
330
5F
100
AcDbEntity
  8
ASHADE
  6
Continuous
 62
     7
100
AcDbText
 10
0.0
 20
-0.21
 30
0.0
 40
0.01
  1
1
100
AcDbAttributeDefinition
280
     0
  3
Light Intensity
  2
INTENSITY
 70
     1
280
     0
  0
ATTDEF
  5
76
330
5F
100
AcDbEntity
  8
ASHADE
  6
Continuous
 62
     7
100
AcDbText
 10
0.0
 20
-0.15
 30
0.0
 40
0.01
  1

100
AcDbAttributeDefinition
280
     0
  3

  2
GNAME
 70
     1
280
     0
  0
ATTDEF
  5
77
330
5F
100
AcDbEntity
  8
ASHADE
  6
Continuous
 62
     7
100
AcDbText
 10
0.0
 20
-0.195
 30
0.0
 40
0.01
  1

100
AcDbAttributeDefinition
280
     0
  3
Look-at Z
  2
LAZ
 70
     1
280
     0
  0
ATTDEF
  5
78
330
5F
100
AcDbEntity
  8
ASHADE
  6
Continuous
 62
     7
100
AcDbText
 10
0.0
 20
-0.18
 30
0.0
 40
0.01
  1

100
AcDbAttributeDefinition
280
     0
  3
Look-at Y
  2
LAY
 70
     1
280
     0
  0
ATTDEF
  5
79
330
5F
100
AcDbEntity
  8
ASHADE
  6
Continuous
 62
     7
100
AcDbText
 10
0.0
 20
-0.165
 30
0.0
 40
0.01
  1

100
AcDbAttributeDefinition
280
     0
  3
Look-at X
  2
LAX
 70
     1
280
     0
  0
LINE
  5
7A
330
5F
100
AcDbEntity
  8
ASHADE
  6
Continuous
 62
     7
100
AcDbLine
 10
0.25
 20
-0.3399999999999999
 30
0.0
 11
0.25
 21
-0.13
 31
0.0
  0
LINE
  5
7B
330
5F
100
AcDbEntity
  8
ASHADE
  6
Continuous
 62
     7
100
AcDbLine
 10
0.25
 20
-0.18
 30
0.0
 11
0.29
 21
-0.18
 31
0.0
  0
LINE
  5
7C
330
5F
100
AcDbEntity
  8
ASHADE
  6
Continuous
 62
     7
100
AcDbLine
 10
0.29
 20
-0.22
 30
0.0
 11
0.25
 21
-0.22
 31
0.0
  0
LINE
  5
7D
330
5F
100
AcDbEntity
  8
ASHADE
  6
Continuous
 62
     7
100
AcDbLine
 10
0.29
 20
-0.18
 30
0.0
 11
0.29
 21
-0.22
 31
0.0
  0
LINE
  5
7E
330
5F
100
AcDbEntity
  8
ASHADE
  6
Continuous
 62
     7
100
AcDbLine
 10
0.21
 20
0.26
 30
0.0
 11
0.301304347826087
 21
0.46
 31
0.0
  0
LINE
  5
7F
330
5F
100
AcDbEntity
  8
ASHADE
  6
Continuous
 62
     7
100
AcDbLine
 10
0.1045454545454545
 20
0.26
 30
0.0
 11
0.15
 21
0.46
 31
0.0
  0
LINE
  5
80
330
5F
100
AcDbEntity
  8
ASHADE
  6
Continuous
 62
     7
100
AcDbLine
 10
0.0
 20
0.26
 30
0.0
 11
0.0
 21
0.46
 31
0.0
  0
LINE
  5
81
330
5F
100
AcDbEntity
  8
ASHADE
  6
Continuous
 62
     7
100
AcDbLine
 10
0.25
 20
0.13
 30
0.0
 11
0.25
 21
0.26
 31
0.0
  0
LINE
  5
82
330
5F
100
AcDbEntity
  8
ASHADE
  6
Continuous
 62
     7
100
AcDbLine
 10
0.25
 20
0.22
 30
0.0
 11
0.29
 21
0.22
 31
0.0
  0
LINE
  5
83
330
5F
100
AcDbEntity
  8
ASHADE
  6
Continuous
 62
     7
100
AcDbLine
 10
0.29
 20
0.1799999999999999
 30
0.0
 11
0.25
 21
0.1799999999999999
 31
0.0
  0
LINE
  5
84
330
5F
100
AcDbEntity
  8
ASHADE
  6
Continuous
 62
     7
100
AcDbLine
 10
0.29
 20
0.22
 30
0.0
 11
0.29
 21
0.1799999999999999
 31
0.0
  0
ENDBLK
  5
86
330
5F
100
AcDbEntity
  8
0
100
AcDbBlockEnd
  0
BLOCK
  5
92
330
91
100
AcDbEntity
  8
ASHADE
100
AcDbBlockBegin
  2
AVE_RENDER
 70
     0
 10
0.0
 20
0.0
 30
0.0
  3
AVE_RENDER
  1
AVE_RENDER
  0
ENDBLK
  5
93
330
91
100
AcDbEntity
  8
0
100
AcDbBlockEnd
  0
BLOCK
  5
A0
330
9F
100
AcDbEntity
  8
ASHADE
100
AcDbBlockBegin
  2
AVE_GLOBAL
 70
     0
 10
0.0
 20
0.0
 30
0.0
  3
AVE_GLOBAL
  1
AVE_GLOBAL
  0
ENDBLK
  5
A1
330
9F
100
AcDbEntity
  8
0
100
AcDbBlockEnd
  0
ENDSEC
  0
SECTION
  2
ENTITIES
  0
INSERT
  5
94
330
1F
100
AcDbEntity
  8
ASHADE
 62
     1
100
AcDbBlockReference
  2
AVE_RENDER
 10
0.0
 20
0.0
 30
0.0
1001
AVE_RENDER
1002
{
1070
     7
1000
Pref
1070
    30
1070
    20
1070
     1
1070
     0
1000

1070
    10
1070
     1
1070
    10
1040
1.0
1070
     1
1040
0.3
1040
0.7
1040
0.0
1040
10.0
1010
-1.0
1020
-1.0
1030
-1.0
1040
0.3
1070
    49
1070
     0
1070
     0
1010
1.0
1020
1.0
1030
1.0
1040
45.0
1070
     1
1070
     0
1000
WCS
1040
0.0
1070
     0
1040
10.0
1002
}
  0
INSERT
  5
95
330
1F
100
AcDbEntity
  8
ASHADE
 62
     3
100
AcDbBlockReference
  2
AVE_RENDER
 10
0.0
 20
0.0
 30
0.0
1001
AVE_RENDER
1002
{
1070
     0
1000
Full Opt
1070
     0
1070
     1
1070
     1
1070
     1
1070
     0
1070
     0
1070
     0
1070
     1
1070
     1
1040
0.0001
1040
0.0001
1002
}
  0
INSERT
  5
96
330
1F
100
AcDbEntity
  8
ASHADE
 62
     4
100
AcDbBlockReference
  2
AVE_RENDER
 10
0.0
 20
0.0
 30
0.0
1001
AVE_RENDER
1002
{
1070
     0
1000
Quick Opt
1070
     0
1070
     1
1070
     1
1070
     1
1070
     0
1070
     0
1070
     1
1002
}
  0
INSERT
  5
97
330
1F
100
AcDbEntity
  8
ASHADE
 62
     5
100
AcDbBlockReference
  2
AVE_RENDER
 10
0.0
 20
0.0
 30
0.0
1001
AVE_RENDER
1002
{
1070
     1
1000
Scanl Opt
1070
     2
1070
     0
1070
     2
1040
2.0
1040
4.0
1070
     0
1070
     1
1070
     0
1040
0.03
1002
}
  0
INSERT
  5
98
330
1F
100
AcDbEntity
  8
ASHADE
 62
     6
100
AcDbBlockReference
  2
AVE_RENDER
 10
0.0
 20
0.0
 30
0.0
1001
AVE_RENDER
1002
{
1070
     2
1000
Raytr Opt
1070
     2
1070
     0
1070
     2
1040
2.0
1040
4.0
1070
     0
1070
     1
1070
     1
1040
0.03
1070
     3
1040
0.03
1002
}
  0
INSERT
  5
99
330
1F
100
AcDbEntity
  8
ASHADE
 62
     7
100
AcDbBlockReference
  2
AVE_RENDER
 10
0.0
 20
0.0
 30
0.0
1001
AVE_RENDER
1002
{
1070
     0
1000
RFile Opt
1070
     1
1070
   640
1070
   480
1070
 10000
1070
     1
1070
     8
1070
     8
1070
     0
1070
     0
1070
     0
1070
     0
1070
     0
1070
     0
1070
     0
1002
}
  0
INSERT
  5
9A
330
1F
100
AcDbEntity
  8
ASHADE
 62
     8
100
AcDbBlockReference
  2
AVE_RENDER
 10
0.0
 20
0.0
 30
0.0
1001
AVE_RENDER
1002
{
1070
     0
1000
Fog Opt
1070
     0
1070
     0
1040
0.0
1040
1.0
1040
0.0
1040
1.0
1010
0.5
1020
0.5
1030
0.5
1002
}
  0
INSERT
  5
9B
330
1F
100
AcDbEntity
  8
ASHADE
 62
     9
100
AcDbBlockReference
  2
AVE_RENDER
 10
0.0
 20
0.0
 30
0.0
1001
AVE_RENDER
1002
{
1070
     0
1000
BG Opt
1070
     0
1070
     1
1010
0.0
1020
0.0
1030
0.0
1010
1.0
1020
0.0
1030
0.0
1010
0.0
1020
1.0
1030
0.0
1010
0.0
1020
0.0
1030
1.0
1040
0.5
1040
0.33
1040
0.0
1000

1070
     1
1000

1070
     1
1070
     1
1040
1.0
1040
1.0
1040
0.0
1040
0.0
1070
     0
1002
}
  0
INSERT
  5
A2
330
1F
100
AcDbEntity
  8
ASHADE
 62
     1
100
AcDbBlockReference
  2
AVE_GLOBAL
 10
0.0
 20
0.0
 30
0.0
1001
AVE_MATERIAL
1002
{
1000
*GLOBAL*
1000
2
1000
Global finish.
1002
{
1002
}
1002
{
1070
    63
1002
{
1002
{
1010
-1.0
1020
-1.0
1030
-1.0
1002
}
1040
0.1000000014901161
1000

1040
0.0
1002
{
1002
}
1040
0.0
1002
{
1002
}
1040
0.0
1002
}
1002
{
1002
{
1010
-1.0
1020
-1.0
1030
-1.0
1002
}
1040
0.6999999880790711
1000

1040
0.0
1002
{
1002
}
1040
0.0
1002
{
1002
}
1040
0.0
1002
}
1002
{
1002
{
1010
-1.0
1020
-1.0
1030
-1.0
1002
}
1040
0.2000000029802322
1000

1040
0.0
1002
{
1002
}
1040
0.0
1002
{
1002
}
1040
0.0
1002
}
1002
{
1070
     0
1002
{
1070
     1
1002
{
1040
1.0
1040
1.0
1000

1040
0.0
1002
{
1002
}
1040
0.0
1002
{
1002
}
1040
0.0
1002
}
1002
}
1040
1.0
1040
0.0
1040
0.0
1002
}
1002
{
1040
1.0
1040
1.0
1000

1040
0.0
1002
{
1002
}
1040
0.0
1002
{
1002
}
1040
0.0
1002
}
1002
{
1040
0.5
1040
1.0
1000

1040
0.0
1002
{
1002
}
1040
0.0
1002
{
1002
}
1040
0.0
1002
}
1002
{
1070
     0
1040
0.0
1002
{
1002
}
1040
1.0
1002
{
1002
}
1040
0.0
1002
}
1002
{
1040
0.0
1002
{
1002
{
1010
0.0
1020
0.0
1030
0.0
1002
}
1040
1.0
1000

1040
0.0
1002
{
1002
}
1040
0.0
1002
{
1002
}
1040
0.0
1002
}
1002
}
1002
{
1002
{
1070
     1
1002
{
1040
0.0
1040
1.0
1000

1040
0.0
1002
{
1002
}
1040
0.0
1002
{
1002
}
1040
0.0
1002
}
1002
}
1040
0.0
1002
{
1002
}
1010
1.0
1020
0.0
1030
0.0
1010
0.0
1020
1.0
1030
0.0
1010
0.0
1020
0.0
1030
1.0
1070
     0
1002
}
1002
{
1002
{
1040
1.0
1040
1.0
1002
{
1070
     1
1002
{
1040
1.0
1040
1.0
1000

1040
0.0
1002
{
1002
}
1040
0.0
1002
{
1002
}
1040
0.0
1002
}
1002
}
1002
}
1070
     0
1040
0.0
1002
{
1002
}
1002
}
1002
{
1002
}
1002
}
1002
{
1071
        3
1070
     3
1070
     0
1002
{
1070
     2
1070
     0
1070
     0
1040
0.0
1002
}
1070
     0
1070
     2
1002
{
1002
}
1002
}
1002
{
1040
8030.0
1040
190.3000030517578
1040
0.3050000071525574
1040
228.0
1040
545.0
1040
14.0
1040
17.39999961853027
1040
0.4560000002384186
1002
}
1002
}
  0
MESH
  5
F9
330
1F
100
AcDbEntity
  8
OracDecor_skirtings
 62
   133
420
  5818337
160
             36512
310
A08E0000F60300000C00000013000000020000003C0000000600000002000000000000E0FF3F8F40000000000000B0BE000000808E045840000000E0FF3F8F40000000C05F3514C000000080FFFF58400C000000130000000A0000003C0000000600000002000000000000E0FF3F8F40000000000000B0BE000000808E0458
310
40000000E0FF3F8F40000000000000B0BE00000080FFFF58400C00000013000000120000003C0000000600000002000000000000E0FF3F8F40000000C05F3514C000000080FFFF5840000000E0FF3F8F40000000000000B0BE00000080FFFF58400C000000130000001A0000003C0000000600000002000000000000E0FF3F
310
8F40000000C05F3514C000000080FFFF5840000000E0FF3F8F4000000040A5C414C00000000058FC58400C00000013000000220000003C0000000600000002000000000000E0FF3F8F4000000040A5C414C00000000058FC5840000000E0FF3F8F40000000006098B3BF000000008CF357400C000000130000002A0000003C
310
0000000600000002000000000000E0FF3F8F40000000000000B0BE000000808E045840000000E0FF3F8F40000000006098B3BF000000008CF357400C00000013000000320000003C0000000600000002000000000000E0FF3F8F4000000040A5C414C00000000058FC5840000000E0FF3F8F40000000C0200215C000000000
310
78F358400C000000130000003A0000003C0000000600000002000000000000E0FF3F8F40000000004816D2BF00000040BDE75740000000E0FF3F8F40000000C0200215C00000000078F358400C00000013000000420000003C0000000600000002000000000000E0FF3F8F40000000004816D2BF00000040BDE75740000000
310
E0FF3F8F40000000006098B3BF000000008CF357400C000000130000004A0000003C0000000600000002000000000000E0FF3F8F4000000020245116C0000000C04B745840000000E0FF3F8F40000000C0200215C00000000078F358400C00000013000000520000003C0000000600000002000000000000E0FF3F8F400000
310
0020245116C0000000C04B745840000000E0FF3F8F4000000000870EEDBF000000C0C3C757400C000000130000005A0000003C0000000600000002000000000000E0FF3F8F40000000004816D2BF00000040BDE75740000000E0FF3F8F4000000000870EEDBF000000C0C3C757400C00000013000000620000003C00000006
310
00000002000000000000E0FF3F8F4000000020245116C0000000C04B745840000000E0FF3F8F40000000809CBE17C000000000C82B58400C000000130000006A0000003C0000000600000002000000000000E0FF3F8F40000000803914F4BF000000409B995740000000E0FF3F8F40000000809CBE17C000000000C82B5840
310
0C00000013000000720000003C0000000600000002000000000000E0FF3F8F4000000000870EEDBF000000C0C3C75740000000E0FF3F8F40000000803914F4BF000000409B9957400C000000130000007A0000003C0000000600000002000000000000E0FF3F8F40000000808B301AC0000000C032DA5740000000E0FF3F8F
310
40000000809CBE17C000000000C82B58400C00000013000000820000003C0000000600000002000000000000E0FF3F8F40000000808B301AC0000000C032DA5740000000E0FF3F8F40000000803914F4BF000000409B9957400C000000130000008A0000003C0000000600000002000000000000E0FF3F8F40000000808B30
310
1AC0000000C032DA5740000000E0FF3F8F40000000A06AD41CC000000080FC9A57400C00000013000000920000003C0000000600000002000000000000E0FF3F8F40000000803914F4BF000000C063665740000000E0FF3F8F40000000A06AD41CC000000080FC9A57400C000000130000009A0000003C0000000600000002
310
000000000000E0FF3F8F40000000803914F4BF000000409B995740000000E0FF3F8F40000000803914F4BF000000C0636657400C00000013000000A20000003C0000000600000002000000000000E0FF3F8F40000000A07B4D20C000000040A1575740000000E0FF3F8F40000000A06AD41CC000000080FC9A57400C000000
310
13000000AA0000003C0000000600000002000000000000E0FF3F8F40000000A07B4D20C000000040A1575740000000E0FF3F8F40000000803914F4BF000000C0636657400C00000013000000B20000003C0000000600000002000000000000E0FF3F8F40000000A07B4D20C000000040A1575740000000E0FF3F8F40000000
310
408E1F22C000000080C82657400C00000013000000BA0000003C0000000600000002000000000000E0FF3F8F4000000000880EEDBF000000403B385740000000E0FF3F8F40000000408E1F22C000000080C82657400C00000013000000C20000003C0000000600000002000000000000E0FF3F8F40000000803914F4BF0000
310
00C063665740000000E0FF3F8F4000000000880EEDBF000000403B3857400C00000013000000CA0000003C0000000600000002000000000000E0FF3F8F400000000079DD24C0000000404AF05640000000E0FF3F8F40000000408E1F22C000000080C82657400C00000013000000D20000003C000000060000000200000000
310
0000E0FF3F8F400000000079DD24C0000000404AF05640000000E0FF3F8F4000000000880EEDBF000000403B3857400C00000013000000DA0000003C0000000600000002000000000000E0FF3F8F40000000E07E3206C0000000809DEC5540000000E0FF3F8F400000000079DD24C0000000404AF056400C00000013000000
310
E20000003C0000000600000002000000000000E0FF3F8F4000000080405904C000000080C1F15540000000E0FF3F8F40000000E07E3206C0000000809DEC55400C00000013000000EA0000003C0000000600000002000000000000E0FF3F8F4000000080405904C000000080C1F15540000000E0FF3F8F4000000000880EED
310
BF000000403B3857400C00000013000000F20000003C0000000600000002000000000000E0FF3F8F40000000000000B0BE00000000521D5640000000E0FF3F8F400000000070A8AEBF000000C0230E56400C00000013000000FA0000003C0000000600000002000000000000E0FF3F8F40000000000000B0BE0000008070FB
310
5640000000E0FF3F8F40000000000000B0BE00000000521D56400C00000013000000020100003C0000000600000002000000000000E0FF3F8F40000000000000B0BE0000008070FB5640000000E0FF3F8F40000000006098B3BF00000000730C57400C000000130000000A0100003C0000000600000002000000000000E0FF
310
3F8F40000000006098B3BF00000000730C5740000000E0FF3F8F400000000070A8AEBF000000C0230E56400C00000013000000120100003C0000000600000002000000000000E0FF3F8F40000000002CD8CCBF0000004095025640000000E0FF3F8F400000000070A8AEBF000000C0230E56400C000000130000001A010000
310
3C0000000600000002000000000000E0FF3F8F40000000006098B3BF00000000730C5740000000E0FF3F8F40000000004816D2BF00000080411857400C00000013000000220100003C0000000600000002000000000000E0FF3F8F40000000002CD8CCBF0000004095025640000000E0FF3F8F40000000004816D2BF000000
310
80411857400C000000130000002A0100003C0000000600000002000000000000E0FF3F8F40000000000836DDBF0000004071FD5540000000E0FF3F8F40000000002CD8CCBF00000040950256400C00000013000000320100003C0000000600000002000000000000E0FF3F8F40000000000836DDBF0000004071FD55400000
310
00E0FF3F8F40000000004816D2BF00000080411857400C000000130000003A0100003C0000000600000002000000000000E0FF3F8F40000000000836DDBF0000004071FD5540000000E0FF3F8F4000000080405904C000000080C1F155400C00000013000000420100003C0000000600000002000000000000E0FF3F8F4000
310
000000880EEDBF000000403B385740000000E0FF3F8F40000000004816D2BF00000080411857400C000000130000004A0100003C0000000600000002000000000000E0FF3F8F4000000040A98927C00000004090B95640000000E0FF3F8F40000000C0733726C000000040E3D456400C00000013000000520100003C000000
310
0600000002000000000000E0FF3F8F40000000E07E3206C0000000809DEC5540000000E0FF3F8F4000000040A98927C00000004090B956400C000000130000005A0100003C0000000600000002000000000000E0FF3F8F40000000E07E3206C0000000809DEC5540000000E0FF3F8F40000000C0733726C000000040E3D456
310
400C00000013000000620100003C0000000600000002000000000000E0FF3F8F4000000040A98927C00000004090B95640000000E0FF3F8F4000000000FCB528C000000040B79756400C000000130000006A0100003C0000000600000002000000000000E0FF3F8F40000000C05F8507C0000000000FE15540000000E0FF3F
310
8F4000000000FCB528C000000040B79756400C00000013000000720100003C0000000600000002000000000000E0FF3F8F40000000E07E3206C0000000809DEC5540000000E0FF3F8F40000000C05F8507C0000000000FE155400C000000130000007A0100003C0000000600000002000000000000E0FF3F8F400000000079
310
DD24C0000000404AF05640000000E0FF3F8F40000000C0733726C000000040E3D456400C00000013000000820100003C0000000600000002000000000000E0FF3F8F400000008038B229C0000000407F705640000000E0FF3F8F4000000000FCB528C000000040B79756400C000000130000008A0100003C00000006000000
310
02000000000000E0FF3F8F400000008038B229C0000000407F705640000000E0FF3F8F40000000C05F8507C0000000000FE155400C00000013000000920100003C0000000600000002000000000000E0FF3F8F400000008038B229C0000000407F705640000000E0FF3F8F40000000C0247A2AC0000000808F4456400C0000
310
00130000009A0100003C0000000600000002000000000000E0FF3F8F4000000020010008C0000000C0E0D15540000000E0FF3F8F40000000C0247A2AC0000000808F4456400C00000013000000A20100003C0000000600000002000000000000E0FF3F8F4000000020010008C0000000C0E0D15540000000E0FF3F8F400000
310
00C05F8507C0000000000FE155400C00000013000000AA0100003C0000000600000002000000000000E0FF3F8F4000000040FB062BC00000008062155640000000E0FF3F8F40000000C0247A2AC0000000808F4456400C00000013000000B20100003C0000000600000002000000000000E0FF3F8F4000000040FB062BC000
310
00008062155640000000E0FF3F8F4000000020010008C0000000C0E0D155400C00000013000000BA0100003C0000000600000002000000000000E0FF3F8F4000000040FB062BC00000008062155640000000E0FF3F8F400000000036562BC000000080D1E355400C00000013000000C20100003C0000000600000002000000
310
000000E0FF3F8F4000000020010008C0000000C0E0D15540000000E0FF3F8F400000000036562BC000000080D1E355400C00000013000000CA0100003C0000000600000002000000000000E0FF3F8F400000000033652BC0000000408AB15540000000E0FF3F8F400000000036562BC000000080D1E355400C000000130000
310
00D20100003C0000000600000002000000000000E0FF3F8F400000000033652BC0000000408AB15540000000E0FF3F8F4000000020010008C0000000C0E0D155400C00000013000000DA0100003C0000000600000002000000000000E0FF3F8F400000000033652BC0000000408AB15540000000E0FF3F8F40000000A0B333
310
2BC0000000805F7F55400C00000013000000E20100003C0000000600000002000000000000E0FF3F8F4000000020010008C0000000C0E0D15540000000E0FF3F8F40000000A0B3332BC0000000805F7F55400C00000013000000EA0100003C0000000600000002000000000000E0FF3F8F400000000058C32AC0000000C004
310
4F5540000000E0FF3F8F40000000A0B3332BC0000000805F7F55400C00000013000000F20100003C0000000600000002000000000000E0FF3F8F4000000020010008C0000000C0E0D15540000000E0FF3F8F400000000058C32AC0000000C0044F55400C00000013000000FA0100003C0000000600000002000000000000E0
310
FF3F8F400000000058C32AC0000000C0044F5540000000E0FF3F8F40000000A022162AC000000000582155400C00000013000000020200003C0000000600000002000000000000E0FF3F8F4000000020010008C0000000C0E0D15540000000E0FF3F8F40000000A022162AC000000000582155400C000000130000000A0200
310
003C0000000600000002000000000000E0FF3F8F40000000C0F23129C000000000E3F75440000000E0FF3F8F40000000A022162AC000000000582155400C00000013000000120200003C0000000600000002000000000000E0FF3F8F4000000020010008C0000000C0E0D15540000000E0FF3F8F40000000C0F23129C00000
310
0000E3F754400C000000130000001A0200003C0000000600000002000000000000E0FF3F8F40000000C0F23129C000000000E3F75440000000E0FF3F8F40000000C09C1A28C0000000C056D354400C00000013000000220200003C0000000600000002000000000000E0FF3F8F4000000020010008C0000000C0E0D1554000
310
0000E0FF3F8F40000000C09C1A28C0000000C056D354400C000000130000002A0200003C0000000600000002000000000000E0FF3F8F40000000005D3626C0000000007DA55440000000E0FF3F8F40000000C09C1A28C0000000C056D354400C00000013000000320200003C0000000600000002000000000000E0FF3F8F40
310
00000020010008C0000000C0E0D15540000000E0FF3F8F40000000005D3626C0000000007DA554400C000000130000003A0200003C0000000600000002000000000000E0FF3F8F40000000005D3626C0000000007DA55440000000E0FF3F8F4000000040A30E26C000000040C7A054400C00000013000000420200003C0000
310
000600000002000000000000E0FF3F8F4000000020010008C0000000C0E0D15540000000E0FF3F8F4000000040A30E26C000000040C7A054400C000000130000004A0200003C0000000600000002000000000000E0FF3F8F4000000040A30E26C000000040C7A05440000000E0FF3F8F4000000000000026C0000000002F9A
310
54400C00000013000000520200003C0000000600000002000000000000E0FF3F8F4000000020010008C0000000C0E0D15540000000E0FF3F8F4000000000000026C0000000002F9A54400C000000130000005A0200003C0000000600000002000000000000E0FF3F8F4000000000000026C0000000002F9A5440000000E0FF
310
3F8F4000000040000026C000000040C82E54400C00000013000000620200003C0000000600000002000000000000E0FF3F8F4000000020010008C0000000C0E0D15540000000E0FF3F8F4000000040000026C000000040C82E54400C000000130000006A0200003C0000000600000002000000000000E0FF3F8F4000000020
310
010008C000000080C38C5340000000E0FF3F8F4000000040000026C000000040C82E54400C00000013000000720200003C0000000600000002000000000000E0FF3F8F4000000020010008C000000080C38C5340000000E0FF3F8F4000000020010008C0000000C0E0D155400C000000130000007A0200003C000000060000
310
0002000000000000E0FF3F8F4000000040000026C000000040C82E5440000000E0FF3F8F4000000040AC2126C000000000312654400C00000013000000820200003C0000000600000002000000000000E0FF3F8F4000000020010008C000000080C38C5340000000E0FF3F8F4000000040AC2126C000000000312654400C00
310
0000130000008A0200003C0000000600000002000000000000E0FF3F8F40000000A01D0209C000000080B2555340000000E0FF3F8F4000000040AC2126C000000000312654400C00000013000000920200003C0000000600000002000000000000E0FF3F8F4000000020010008C000000080C38C5340000000E0FF3F8F4000
310
0000A01D0209C000000080B25553400C000000130000009A0200003C0000000600000002000000000000E0FF3F8F4000000080666626C000000080FB215440000000E0FF3F8F4000000040AC2126C000000000312654400C00000013000000A20200003C0000000600000002000000000000E0FF3F8F4000000080666626C0
310
00000080FB215440000000E0FF3F8F40000000A0C4F20BC000000000422353400C00000013000000AA0200003C0000000600000002000000000000E0FF3F8F40000000A0C4F20BC00000000042235340000000E0FF3F8F40000000A01D0209C000000080B25553400C00000013000000B20200003C00000006000000020000
310
00000000E0FF3F8F40000000C0999929C000000080FB215440000000E0FF3F8F4000000080666626C000000080FB2154400C00000013000000BA0200003C0000000600000002000000000000E0FF3F8F40000000C0999929C000000080FB215440000000E0FF3F8F40000000A0C4F20BC000000000422353400C0000001300
310
0000C20200003C0000000600000002000000000000E0FF3F8F40000000C0999929C000000080FB215440000000E0FF3F8F400000004054DE29C000000000C61D54400C00000013000000CA0200003C0000000600000002000000000000E0FF3F8F400000004054DE29C000000000C61D5440000000E0FF3F8F40000000005C
310
4910C0000000C0AEF952400C00000013000000D20200003C0000000600000002000000000000E0FF3F8F40000000005C4910C0000000C0AEF95240000000E0FF3F8F40000000A0C4F20BC000000000422353400C00000013000000DA0200003C0000000600000002000000000000E0FF3F8F400000004054DE29C000000000
310
C61D5440000000E0FF3F8F4000000040A5B61BC000000040456052400C00000013000000E20200003C0000000600000002000000000000E0FF3F8F4000000040A5B61BC00000004045605240000000E0FF3F8F40000000005C4910C0000000C0AEF952400C00000013000000EA0200003C0000000600000002000000000000
310
E0FF3F8F400000004054DE29C000000000C61D5440000000E0FF3F8F400000004000002AC0000000802E1554400C00000013000000F20200003C0000000600000002000000000000E0FF3F8F4000000040A5B61BC00000004045605240000000E0FF3F8F400000004000002AC0000000802E1554400C00000013000000FA02
310
00003C0000000600000002000000000000E0FF3F8F400000004000002AC0000000802E155440000000E0FF3F8F400000004000002AC0000000C061AE53400C00000013000000020300003C0000000600000002000000000000E0FF3F8F40000000C09E061EC000000000B2365240000000E0FF3F8F400000004000002AC000
310
0000C061AE53400C000000130000000A0300003C0000000600000002000000000000E0FF3F8F40000000C09E061EC000000000B2365240000000E0FF3F8F4000000040A5B61BC000000040456052400C00000013000000120300003C0000000600000002000000000000E0FF3F8F400000004000002AC0000000C061AE5340
310
000000E0FF3F8F40000000C0C31B2AC0000000409EA553400C000000130000001A0300003C0000000600000002000000000000E0FF3F8F40000000C09E061EC000000000B2365240000000E0FF3F8F40000000C0C31B2AC0000000409EA553400C00000013000000220300003C0000000600000002000000000000E0FF3F8F
310
40000000C0C31B2AC0000000409EA55340000000E0FF3F8F400000004000602AC0000000409BA153400C000000130000002A0300003C0000000600000002000000000000E0FF3F8F40000000C09E061EC000000000B2365240000000E0FF3F8F400000004000602AC0000000409BA153400C00000013000000320300003C00
310
00000600000002000000000000E0FF3F8F400000004000602AC0000000409BA15340000000E0FF3F8F4000000000CE072CC0000000C0049453400C000000130000003A0300003C0000000600000002000000000000E0FF3F8F40000000C09E061EC000000000B2365240000000E0FF3F8F4000000000CE072CC0000000C004
310
9453400C00000013000000420300003C0000000600000002000000000000E0FF3F8F4000000000CE072CC0000000C004945340000000E0FF3F8F40000000C08FFD2CC000000000928553400C000000130000004A0300003C0000000600000002000000000000E0FF3F8F4000000040F27E1FC00000008041045240000000E0
310
FF3F8F40000000C08FFD2CC000000000928553400C00000013000000520300003C0000000600000002000000000000E0FF3F8F4000000040F27E1FC00000008041045240000000E0FF3F8F40000000C09E061EC000000000B23652400C000000130000005A0300003C0000000600000002000000000000E0FF3F8F40000000
310
C0AEEF2DC0000000C0966F5340000000E0FF3F8F40000000C08FFD2CC000000000928553400C00000013000000620300003C0000000600000002000000000000E0FF3F8F4000000040F27E1FC00000008041045240000000E0FF3F8F40000000C0AEEF2DC0000000C0966F53400C000000130000006A0300003C0000000600
310
000002000000000000E0FF3F8F40000000C0AEEF2DC0000000C0966F5340000000E0FF3F8F40000000409FA92EC000000080D85653400C00000013000000720300003C0000000600000002000000000000E0FF3F8F4000000040F27E1FC00000008041045240000000E0FF3F8F40000000409FA92EC000000080D85653400C
310
000000130000007A0300003C0000000600000002000000000000E0FF3F8F40000000C0FE492FC00000004044375340000000E0FF3F8F40000000409FA92EC000000080D85653400C00000013000000820300003C0000000600000002000000000000E0FF3F8F4000000040F27E1FC00000008041045240000000E0FF3F8F40
310
000000C0FE492FC000000040443753400C000000130000008A0300003C0000000600000002000000000000E0FF3F8F40000000C0FE492FC00000004044375340000000E0FF3F8F40000000A0FEAD2FC000000000B41753400C00000013000000920300003C0000000600000002000000000000E0FF3F8F4000000020000020
310
C00000008030CD5140000000E0FF3F8F40000000A0FEAD2FC000000000B41753400C000000130000009A0300003C0000000600000002000000000000E0FF3F8F4000000020000020C00000008030CD5140000000E0FF3F8F4000000040F27E1FC000000080410452400C00000013000000A20300003C000000060000000200
310
0000000000E0FF3F8F400000008017E62FC0000000C0F4F25240000000E0FF3F8F40000000A0FEAD2FC000000000B41753400C00000013000000AA0300003C0000000600000002000000000000E0FF3F8F400000008017E62FC0000000C0F4F25240000000E0FF3F8F4000000020000020C00000008030CD51400C00000013
310
000000B20300003C0000000600000002000000000000E0FF3F8F400000008017E62FC0000000C0F4F25240000000E0FF3F8F4000000040000030C0000000C0B3D052400C00000013000000BA0300003C0000000600000002000000000000E0FF3F8F4000000020000020C00000008030CD5140000000E0FF3F8F4000000040
310
000030C0000000C0B3D052400C00000013000000C20300003C0000000600000002000000000000E0FF3F8F4000000040000020C0000000E0ACA14E40000000E0FF3F8F4000000040000030C0000000C0B3D052400C00000013000000CA0300003C0000000600000002000000000000E0FF3F8F4000000040000020C0000000
310
E0ACA14E40000000E0FF3F8F4000000020000020C00000008030CD51400C00000013000000D20300003C0000000600000002000000000000E0FF3F8F400000000070A8AEBF000000C0B9A94C40000000E0FF3F8F40000000000000B0BE0000004016C84C400C00000013000000DA0300003C00000006000000020000000000
310
00E0FF3F8F40000000000000B0BE0000004016C84C40000000E0FF3F8F40000000000000B0BE000000E0CBD24D400C00000013000000E20300003C0000000600000002000000000000E0FF3F8F40000000000000B0BE000000E0CBD24D40000000E0FF3F8F400000000070A8AEBF0000006028F14D400C00000013000000EA
310
0300003C0000000600000002000000000000E0FF3F8F400000000070A8AEBF000000C0B9A94C40000000E0FF3F8F400000000070A8AEBF0000006028F14D400C00000013000000F20300003C0000000600000002000000000000E0FF3F8F40000000002CD8CCBF000000A09C924C40000000E0FF3F8F400000000070A8AEBF
310
000000C0B9A94C400C00000013000000FA0300003C0000000600000002000000000000E0FF3F8F400000000070A8AEBF0000006028F14D40000000E0FF3F8F40000000002CD8CCBF0000008045084E400C00000013000000020400003C0000000600000002000000000000E0FF3F8F40000000002CD8CCBF000000A09C924C
310
40000000E0FF3F8F40000000002CD8CCBF0000008045084E400C000000130000000A0400003C0000000600000002000000000000E0FF3F8F40000000000836DDBF000000A054884C40000000E0FF3F8F40000000002CD8CCBF000000A09C924C400C00000013000000120400003C0000000600000002000000000000E0FF3F
310
8F40000000002CD8CCBF0000008045084E40000000E0FF3F8F40000000000836DDBF000000A08D124E400C000000130000001A0400003C0000000600000002000000000000E0FF3F8F40000000000836DDBF000000A054884C40000000E0FF3F8F40000000000836DDBF000000A08D124E400C00000013000000220400003C
310
0000000600000002000000000000E0FF3F8F4000000080A02C1EC000000000F7384C40000000E0FF3F8F40000000000836DDBF000000A054884C400C000000130000002A0400003C0000000600000002000000000000E0FF3F8F4000000040A02C1EC000000040EB614E40000000E0FF3F8F40000000000836DDBF000000A0
310
8D124E400C00000013000000320400003C0000000600000002000000000000E0FF3F8F4000000080A02C1EC000000000F7384C40000000E0FF3F8F4000000040A02C1EC000000040EB614E400C000000130000003A0400003C0000000600000002000000000000E0FF3F8F40000000C03F191FC0000000E0AE2E4C40000000
310
E0FF3F8F4000000080A02C1EC000000000F7384C400C00000013000000420400003C0000000600000002000000000000E0FF3F8F40000000403F191FC000000040336C4E40000000E0FF3F8F4000000040A02C1EC000000040EB614E400C000000130000004A0400003C0000000600000002000000000000E0FF3F8F400000
310
00C03F191FC0000000E0AE2E4C40000000E0FF3F8F40000000403F191FC000000040336C4E400C00000013000000520400003C0000000600000002000000000000E0FF3F8F4000000040B0C21FC0000000C091174C40000000E0FF3F8F40000000C03F191FC0000000E0AE2E4C400C000000130000005A0400003C00000006
310
00000002000000000000E0FF3F8F40000000403F191FC000000040336C4E40000000E0FF3F8F40000000C0AFC21FC00000006050834E400C00000013000000620400003C0000000600000002000000000000E0FF3F8F4000000040B0C21FC0000000C091174C40000000E0FF3F8F40000000C0AFC21FC00000006050834E40
310
0C000000130000006A0400003C0000000600000002000000000000E0FF3F8F4000000040000020C00000000038BC0640000000E0FF3F8F4000000040000030C0000000C0B3D052400C00000013000000720400003C0000000600000002000000000000E0FF3F8F4000000040000020C00000000038BC0640000000E0FF3F8F
310
4000000020000020C000000000762831400C000000130000007A0400003C0000000600000002000000000000E0FF3F8F4000000020000020C00000000076283140000000E0FF3F8F4000000040000030C0000000C0B3D052400C00000013000000820400003C0000000600000002000000000000E0FF3F8F40000000400000
310
20C00000004035F94B40000000E0FF3F8F4000000040000030C0000000C0B3D052400C000000130000008A0400003C0000000600000002000000000000E0FF3F8F4000000040000020C00000004035F94B40000000E0FF3F8F4000000040000020C0000000E0ACA14E400C00000013000000920400003C0000000600000002
310
000000000000E0FF3F8F4000000040000020C00000004035F94B40000000E0FF3F8F4000000040B0C21FC0000000C091174C400C000000130000009A0400003C0000000600000002000000000000E0FF3F8F40000000C0AFC21FC00000006050834E40000000E0FF3F8F4000000040000020C0000000E0ACA14E400C000000
310
13000000A20400003C0000000600000002000000000000E0FF3F8F4000000080A02C1EC00000000050B80A40000000E0FF3F8F40000000803914F4BF000000001F3323400C00000013000000AA0400003C0000000600000002000000000000E0FF3F8F40000000803914F4BF000000001F332340000000E0FF3F8F40000000
310
803914F4BF00000000DBCC24400C00000013000000B20400003C0000000600000002000000000000E0FF3F8F40000000803914F4BF00000000DBCC2440000000E0FF3F8F4000000040A02C1EC000000000F3A830400C00000013000000BA0400003C0000000600000002000000000000E0FF3F8F4000000080A02C1EC00000
310
000050B80A40000000E0FF3F8F4000000040A02C1EC000000000F3A830400C00000013000000C20400003C0000000600000002000000000000E0FF3F8F40000000C03F191FC000000000D0130A40000000E0FF3F8F4000000080A02C1EC00000000050B80A400C00000013000000CA0400003C000000060000000200000000
310
0000E0FF3F8F40000000403F191FC00000000083BD3040000000E0FF3F8F4000000040A02C1EC000000000F3A830400C00000013000000D20400003C0000000600000002000000000000E0FF3F8F40000000C03F191FC000000000D0130A40000000E0FF3F8F40000000403F191FC00000000083BD30400C00000013000000
310
DA0400003C0000000600000002000000000000E0FF3F8F4000000040B0C21FC00000000000A20840000000E0FF3F8F40000000C03F191FC000000000D0130A400C00000013000000E20400003C0000000600000002000000000000E0FF3F8F40000000C0AFC21FC000000000BDEB3040000000E0FF3F8F40000000403F191F
310
C00000000083BD30400C00000013000000EA0400003C0000000600000002000000000000E0FF3F8F4000000040B0C21FC00000000000A20840000000E0FF3F8F40000000C0AFC21FC000000000BDEB30400C00000013000000F20400003C0000000600000002000000000000E0FF3F8F4000000040000020C00000000038BC
310
0640000000E0FF3F8F4000000040B0C21FC00000000000A208400C00000013000000FA0400003C0000000600000002000000000000E0FF3F8F40000000C0AFC21FC000000000BDEB3040000000E0FF3F8F4000000020000020C000000000762831400C00000013000000020500003C0000000600000002000000000000E0FF
310
3F8F4000000040000020C000000000A0FFDF3F000000E0FF3F8F4000000040000030C0000000C0B3D052400C000000130000000A0500003C0000000600000002000000000000E0FF3F8F4000000040000020C000000000A0FFDF3F000000E0FF3F8F4000000040000020C00000000038BC06400C0000001300000012050000
310
3C0000000600000002000000000000E0FF3F8F4000000020000020C00000000076283140000000E0FF3F8F4000000040000020C00000004035F94B400C000000130000001A0500003C0000000600000002000000000000E0FF3F8F4000000000492220C000000000A001D03F000000E0FF3F8F4000000040000030C0000000
310
C0B3D052400C00000013000000220500003C0000000600000002000000000000E0FF3F8F4000000000492220C000000000A001D03F000000E0FF3F8F4000000040000020C000000000A0FFDF3F0C000000130000002A0500003C0000000600000002000000000000E0FF3F8F4000000040000021C0000000000000F8BE0000
310
00E0FF3F8F4000000040000030C0000000C0B3D052400C00000013000000320500003C0000000600000002000000000000E0FF3F8F4000000040000021C0000000000000F8BE000000E0FF3F8F4000000020108020C0000000000023B13F0C000000130000003A0500003C0000000600000002000000000000E0FF3F8F4000
310
000020108020C0000000000023B13F000000E0FF3F8F4000000040000030C0000000C0B3D052400C00000013000000420500003C0000000600000002000000000000E0FF3F8F4000000020108020C0000000000023B13F000000E0FF3F8F4000000000492220C000000000A001D03F0C000000130000004A0500003C000000
310
0600000002000000000000E0FF3F8F4000000000000030C0000000000000F8BE000000E0FF3F8F4000000040000030C0000000C0B3D052400C00000013000000520500003C0000000600000002000000000000E0FF3F8F4000000040000021C0000000000000F8BE000000E0FF3F8F4000000000000030C0000000000000F8
310
BE0C000000130000005A0500003C0000000600000002000000000000E0FF3F8F40000000006098B3BF00000000619C2740000000E0FF3F8F40000000000000B0BE00000000762428400C00000013000000620500003C0000000600000002000000000000E0FF3F8F40000000000000B0BE0000000076242840000000E0FF3F
310
8F40000000000000B0BE0000000068152F400C000000130000006A0500003C0000000600000002000000000000E0FF3F8F40000000000000B0BE0000000068152F40000000E0FF3F8F400000000070A8AEBF00000000DA8E2F400C00000013000000720500003C0000000600000002000000000000E0FF3F8F400000000060
310
98B3BF00000000619C2740000000E0FF3F8F400000000070A8AEBF00000000DA8E2F400C000000130000007A0500003C0000000600000002000000000000E0FF3F8F40000000004816D2BF00000000EC3D2740000000E0FF3F8F40000000006098B3BF00000000619C27400C00000013000000820500003C00000006000000
310
02000000000000E0FF3F8F400000000070A8AEBF00000000DA8E2F40000000E0FF3F8F40000000002CD8CCBF000000004FEB2F400C000000130000008A0500003C0000000600000002000000000000E0FF3F8F40000000004816D2BF00000000EC3D2740000000E0FF3F8F40000000002CD8CCBF000000004FEB2F400C0000
310
0013000000920500003C0000000600000002000000000000E0FF3F8F4000000000880EEDBF000000001F3E2640000000E0FF3F8F40000000004816D2BF00000000EC3D27400C000000130000009A0500003C0000000600000002000000000000E0FF3F8F40000000002CD8CCBF000000004FEB2F40000000E0FF3F8F400000
310
00000836DDBF00000080370A30400C00000013000000A20500003C0000000600000002000000000000E0FF3F8F4000000000880EEDBF000000001F3E2640000000E0FF3F8F40000000000836DDBF00000080370A30400C00000013000000AA0500003C0000000600000002000000000000E0FF3F8F400000000070A8AEBF00
310
00000040E21040000000E0FF3F8F40000000000000B0BE0000000024D511400C00000013000000B20500003C0000000600000002000000000000E0FF3F8F40000000000000B0BE0000000024D51140000000E0FF3F8F40000000000000B0BE0000000008B71F400C00000013000000BA0500003C0000000600000002000000
310
000000E0FF3F8F40000000000000B0BE0000000008B71F40000000E0FF3F8F40000000006098B3BF00000000996320400C00000013000000C20500003C0000000600000002000000000000E0FF3F8F400000000070A8AEBF0000000040E21040000000E0FF3F8F40000000006098B3BF00000000996320400C000000130000
310
00CA0500003C0000000600000002000000000000E0FF3F8F40000000002CD8CCBF0000000056291040000000E0FF3F8F400000000070A8AEBF0000000040E210400C00000013000000D20500003C0000000600000002000000000000E0FF3F8F40000000006098B3BF0000000099632040000000E0FF3F8F40000000004816
310
D2BF000000000EC220400C00000013000000DA0500003C0000000600000002000000000000E0FF3F8F40000000002CD8CCBF0000000056291040000000E0FF3F8F40000000004816D2BF000000000EC220400C00000013000000E20500003C0000000600000002000000000000E0FF3F8F40000000000836DDBF000000002C
310
AE0F40000000E0FF3F8F40000000002CD8CCBF00000000562910400C00000013000000EA0500003C0000000600000002000000000000E0FF3F8F4000000000880EEDBF00000000DBC12140000000E0FF3F8F40000000004816D2BF000000000EC220400C00000013000000F20500003C0000000600000002000000000000E0
310
FF3F8F40000000000836DDBF000000002CAE0F40000000E0FF3F8F4000000000880EEDBF00000000DBC121400C00000013000000FA0500003C0000000600000002000000000000E0FF3F8F4000000080A02C1EC00000000050B80A40000000E0FF3F8F40000000000836DDBF000000002CAE0F400C00000013000000020600
310
003C0000000600000002000000000000E0FF3F8F4000000000880EEDBF00000000DBC12140000000E0FF3F8F40000000803914F4BF000000001F3323400C000000130000000A0600003C0000000600000002000000000000E0FF3F8F40000000803914F4BF00000000DBCC2440000000E0FF3F8F4000000000880EEDBF0000
310
00001F3E26400C00000013000000120600003C0000000600000002000000000000E0FF3F8F4000000040A02C1EC000000000F3A83040000000E0FF3F8F40000000000836DDBF00000080370A30400C000000130000001A0600003C0000000600000002000000000000E0FF3F8F4000000000000030C0000000000000F8BE00
310
00002000408FC000000040000030C0000000000000E0BE0C00000013000000220600003C00000006000000020000000000002000408FC000000020000021C0000000000000E0BE0000002000408FC000000040000030C0000000000000E0BE0C000000130000002A0600003C0000000600000002000000000000E0FF3F8F40
310
00000040000021C0000000000000F8BE0000002000408FC000000020000021C0000000000000E0BE0C00000013000000320600003C0000000600000002000000000000E0FF3F8F4000000040000030C0000000C0B3D052400000002000408FC000000040000030C000000000B4D052400C000000130000003A0600003C0000
310
0006000000020000000000002000408FC000000040000030C0000000000000E0BE0000002000408FC000000040000030C000000000B4D052400C00000013000000420600003C0000000600000002000000000000E0FF3F8F400000008017E62FC0000000C0F4F252400000002000408FC00000008017E62FC000000000F5F2
310
52400C000000130000004A0600003C00000006000000020000000000002000408FC00000008017E62FC000000000F5F252400000002000408FC000000040000030C000000000B4D052400C00000013000000520600003C0000000600000002000000000000E0FF3F8F40000000A0FEAD2FC000000000B41753400000002000
310
408FC000000080FEAD2FC000000080B41753400C000000130000005A0600003C00000006000000020000000000002000408FC00000008017E62FC000000000F5F252400000002000408FC000000080FEAD2FC000000080B41753400C00000013000000620600003C0000000600000002000000000000E0FF3F8F40000000C0
310
FE492FC000000040443753400000002000408FC0000000C0FE492FC000000080443753400C000000130000006A0600003C00000006000000020000000000002000408FC0000000C0FE492FC000000080443753400000002000408FC000000080FEAD2FC000000080B41753400C00000013000000720600003C000000060000
310
0002000000000000E0FF3F8F40000000409FA92EC000000080D85653400000002000408FC0000000409FA92EC000000000D95653400C000000130000007A0600003C00000006000000020000000000002000408FC0000000C0FE492FC000000080443753400000002000408FC0000000409FA92EC000000000D95653400C00
310
000013000000820600003C0000000600000002000000000000E0FF3F8F40000000C0AEEF2DC0000000C0966F53400000002000408FC0000000C0AEEF2DC000000040976F53400C000000130000008A0600003C00000006000000020000000000002000408FC0000000C0AEEF2DC000000040976F53400000002000408FC000
310
0000409FA92EC000000000D95653400C00000013000000920600003C0000000600000002000000000000E0FF3F8F40000000C08FFD2CC000000000928553400000002000408FC0000000C08FFD2CC000000080928553400C000000130000009A0600003C00000006000000020000000000002000408FC0000000C08FFD2CC0
310
00000080928553400000002000408FC0000000C0AEEF2DC000000040976F53400C00000013000000A20600003C0000000600000002000000000000E0FF3F8F4000000000CE072CC0000000C0049453400000002000408FC000000000CE072CC000000000059453400C00000013000000AA0600003C00000006000000020000
310
000000002000408FC000000000CE072CC000000000059453400000002000408FC0000000C08FFD2CC000000080928553400C00000013000000B20600003C0000000600000002000000000000E0FF3F8F400000004000602AC0000000409BA153400000002000408FC00000004000602AC0000000C09BA153400C0000001300
310
0000BA0600003C00000006000000020000000000002000408FC000000000CE072CC000000000059453400000002000408FC00000004000602AC0000000C09BA153400C00000013000000C20600003C0000000600000002000000000000E0FF3F8F40000000C0C31B2AC0000000409EA553400000002000408FC0000000C0C3
310
1B2AC0000000809EA553400C00000013000000CA0600003C00000006000000020000000000002000408FC0000000C0C31B2AC0000000809EA553400000002000408FC00000004000602AC0000000C09BA153400C00000013000000D20600003C0000000600000002000000000000E0FF3F8F400000004000002AC0000000C0
310
61AE53400000002000408FC00000004000002AC00000000062AE53400C00000013000000DA0600003C00000006000000020000000000002000408FC00000004000002AC00000000062AE53400000002000408FC0000000C0C31B2AC0000000809EA553400C00000013000000E20600003C0000000600000002000000000000
310
E0FF3F8F400000004000002AC0000000802E1554400000002000408FC00000004000002AC0000000002F1554400C00000013000000EA0600003C00000006000000020000000000002000408FC00000004000002AC0000000002F1554400000002000408FC00000004000002AC00000000062AE53400C00000013000000F206
310
00003C0000000600000002000000000000E0FF3F8F400000004054DE29C000000000C61D54400000002000408FC00000004054DE29C000000040C61D54400C00000013000000FA0600003C00000006000000020000000000002000408FC00000004054DE29C000000040C61D54400000002000408FC00000004000002AC000
310
0000002F1554400C00000013000000020700003C0000000600000002000000000000E0FF3F8F40000000C0999929C000000080FB2154400000002000408FC0000000C0999929C0000000C0FB2154400C000000130000000A0700003C00000006000000020000000000002000408FC0000000C0999929C0000000C0FB215440
310
0000002000408FC00000004054DE29C000000040C61D54400C00000013000000120700003C0000000600000002000000000000E0FF3F8F4000000080666626C000000080FB2154400000002000408FC000000080666626C0000000C0FB2154400C000000130000001A0700003C00000006000000020000000000002000408F
310
C0000000C0999929C0000000C0FB2154400000002000408FC000000080666626C0000000C0FB2154400C00000013000000220700003C0000000600000002000000000000E0FF3F8F4000000040AC2126C000000000312654400000002000408FC000000040AC2126C000000040312654400C000000130000002A0700003C00
310
000006000000020000000000002000408FC000000040AC2126C000000040312654400000002000408FC000000080666626C0000000C0FB2154400C00000013000000320700003C0000000600000002000000000000E0FF3F8F4000000040000026C000000040C82E54400000002000408FC000000040000026C000000080C8
310
2E54400C000000130000003A0700003C00000006000000020000000000002000408FC000000040AC2126C000000040312654400000002000408FC000000040000026C000000080C82E54400C00000013000000420700003C0000000600000002000000000000E0FF3F8F4000000000000026C0000000002F9A544000000020
310
00408FC000000000000026C0000000802F9A54400C000000130000004A0700003C00000006000000020000000000002000408FC000000000000026C0000000802F9A54400000002000408FC000000040000026C000000080C82E54400C00000013000000520700003C0000000600000002000000000000E0FF3F8F40000000
310
40A30E26C000000040C7A054400000002000408FC000000040A30E26C0000000C0C7A054400C000000130000005A0700003C00000006000000020000000000002000408FC000000040A30E26C0000000C0C7A054400000002000408FC000000000000026C0000000802F9A54400C00000013000000620700003C0000000600
310
000002000000000000E0FF3F8F40000000005D3626C0000000007DA554400000002000408FC0000000005D3626C0000000407DA554400C000000130000006A0700003C00000006000000020000000000002000408FC000000040A30E26C0000000C0C7A054400000002000408FC0000000005D3626C0000000407DA554400C
310
00000013000000720700003C0000000600000002000000000000E0FF3F8F40000000C09C1A28C0000000C056D354400000002000408FC0000000C09C1A28C00000004057D354400C000000130000007A0700003C00000006000000020000000000002000408FC0000000C09C1A28C00000004057D354400000002000408FC0
310
000000005D3626C0000000407DA554400C00000013000000820700003C0000000600000002000000000000E0FF3F8F40000000C0F23129C000000000E3F754400000002000408FC0000000C0F23129C000000080E3F754400C000000130000008A0700003C00000006000000020000000000002000408FC0000000C0F23129
310
C000000080E3F754400000002000408FC0000000C09C1A28C00000004057D354400C00000013000000920700003C0000000600000002000000000000E0FF3F8F40000000A022162AC000000000582155400000002000408FC0000000A022162AC000000080582155400C000000130000009A0700003C000000060000000200
310
00000000002000408FC0000000C0F23129C000000080E3F754400000002000408FC0000000A022162AC000000080582155400C00000013000000A20700003C0000000600000002000000000000E0FF3F8F400000000058C32AC0000000C0044F55400000002000408FC00000000058C32AC000000000054F55400C00000013
310
000000AA0700003C00000006000000020000000000002000408FC00000000058C32AC000000000054F55400000002000408FC0000000A022162AC000000080582155400C00000013000000B20700003C0000000600000002000000000000E0FF3F8F40000000A0B3332BC0000000805F7F55400000002000408FC0000000A0
310
B3332BC000000000607F55400C00000013000000BA0700003C00000006000000020000000000002000408FC00000000058C32AC000000000054F55400000002000408FC0000000A0B3332BC000000000607F55400C00000013000000C20700003C0000000600000002000000000000E0FF3F8F400000000033652BC0000000
310
408AB155400000002000408FC00000000033652BC0000000808AB155400C00000013000000CA0700003C00000006000000020000000000002000408FC00000000033652BC0000000808AB155400000002000408FC0000000A0B3332BC000000000607F55400C00000013000000D20700003C00000006000000020000000000
310
00E0FF3F8F400000000036562BC000000080D1E355400000002000408FC00000000036562BC0000000C0D1E355400C00000013000000DA0700003C00000006000000020000000000002000408FC00000000036562BC0000000C0D1E355400000002000408FC00000000033652BC0000000808AB155400C00000013000000E2
310
0700003C0000000600000002000000000000E0FF3F8F4000000040FB062BC000000080621556400000002000408FC000000040FB062BC0000000C0621556400C00000013000000EA0700003C00000006000000020000000000002000408FC000000040FB062BC0000000C0621556400000002000408FC00000000036562BC0
310
000000C0D1E355400C00000013000000F20700003C0000000600000002000000000000E0FF3F8F40000000C0247A2AC0000000808F4456400000002000408FC0000000C0247A2AC000000000904456400C00000013000000FA0700003C00000006000000020000000000002000408FC0000000C0247A2AC000000000904456
310
400000002000408FC000000040FB062BC0000000C0621556400C00000013000000020800003C0000000600000002000000000000E0FF3F8F400000008038B229C0000000407F7056400000002000408FC00000008038B229C0000000807F7056400C000000130000000A0800003C0000000600000002000000000000200040
310
8FC0000000C0247A2AC000000000904456400000002000408FC00000008038B229C0000000807F7056400C00000013000000120800003C0000000600000002000000000000E0FF3F8F4000000000FCB528C000000040B79756400000002000408FC000000000FCB528C0000000C0B79756400C000000130000001A0800003C
310
00000006000000020000000000002000408FC000000000FCB528C0000000C0B79756400000002000408FC00000008038B229C0000000807F7056400C00000013000000220800003C0000000600000002000000000000E0FF3F8F4000000040A98927C00000004090B956400000002000408FC000000040A98927C0000000C0
310
90B956400C000000130000002A0800003C00000006000000020000000000002000408FC000000040A98927C0000000C090B956400000002000408FC000000000FCB528C0000000C0B79756400C00000013000000320800003C0000000600000002000000000000E0FF3F8F40000000C0733726C000000040E3D45640000000
310
2000408FC0000000C0733726C000000080E3D456400C000000130000003A0800003C00000006000000020000000000002000408FC000000040A98927C0000000C090B956400000002000408FC0000000C0733726C000000080E3D456400C00000013000000420800003C0000000600000002000000000000E0FF3F8F400000
310
000079DD24C0000000404AF056400000002000408FC00000000079DD24C0000000804AF056400C000000130000004A0800003C00000006000000020000000000002000408FC00000000079DD24C0000000804AF056400000002000408FC0000000C0733726C000000080E3D456400C00000013000000520800003C00000006
310
00000002000000000000E0FF3F8F40000000408E1F22C000000080C82657400000002000408FC0000000A08D1F22C0000000C0C82657400C000000130000005A0800003C00000006000000020000000000002000408FC0000000A08D1F22C0000000C0C82657400000002000408FC00000000079DD24C0000000804AF05640
310
0C00000013000000620800003C0000000600000002000000000000E0FF3F8F40000000A07B4D20C000000040A15757400000002000408FC0000000207B4D20C000000080A15757400C000000130000006A0800003C00000006000000020000000000002000408FC0000000207B4D20C000000080A15757400000002000408F
310
C0000000A08D1F22C0000000C0C82657400C00000013000000720800003C0000000600000002000000000000E0FF3F8F40000000A06AD41CC000000080FC9A57400000002000408FC0000000806AD41CC000000000FD9A57400C000000130000007A0800003C00000006000000020000000000002000408FC0000000207B4D
310
20C000000080A15757400000002000408FC0000000806AD41CC000000000FD9A57400C00000013000000820800003C0000000600000002000000000000E0FF3F8F40000000808B301AC0000000C032DA57400000002000408FC0000000608B301AC00000004033DA57400C000000130000008A0800003C0000000600000002
310
0000000000002000408FC0000000608B301AC00000004033DA57400000002000408FC0000000806AD41CC000000000FD9A57400C00000013000000920800003C0000000600000002000000000000E0FF3F8F40000000809CBE17C000000000C82B58400000002000408FC0000000E09BBE17C000000080C82B58400C000000
310
130000009A0800003C00000006000000020000000000002000408FC0000000E09BBE17C000000080C82B58400000002000408FC0000000608B301AC00000004033DA57400C00000013000000A20800003C0000000600000002000000000000E0FF3F8F4000000020245116C0000000C04B7458400000002000408FC0000000
310
80235116C0000000404C7458400C00000013000000AA0800003C00000006000000020000000000002000408FC0000000E09BBE17C000000080C82B58400000002000408FC000000080235116C0000000404C7458400C00000013000000B20800003C0000000600000002000000000000E0FF3F8F40000000C0200215C00000
310
000078F358400000002000408FC000000040200215C00000008078F358400C00000013000000BA0800003C00000006000000020000000000002000408FC000000040200215C00000008078F358400000002000408FC000000080235116C0000000404C7458400C00000013000000C20800003C000000060000000200000000
310
0000E0FF3F8F4000000040A5C414C00000000058FC58400000002000408FC0000000C0A4C414C00000008058FC58400C00000013000000CA0800003C00000006000000020000000000002000408FC000000040200215C00000008078F358400000002000408FC0000000C0A4C414C00000008058FC58400C00000013000000
310
D20800003C0000000600000002000000000000E0FF3F8F40000000C05F3514C000000080FFFF58400000002000408FC0000000405F3514C0000000C0FFFF58400C00000013000000DA0800003C00000006000000020000000000002000408FC0000000405F3514C0000000C0FFFF58400000002000408FC0000000C0A4C414
310
C00000008058FC58400C00000013000000E20800003C0000000600000002000000000000E0FF3F8F40000000000000B0BE00000080FFFF58400000002000408FC0000000000000CCBE000000C0FFFF58400C00000013000000EA0800003C00000006000000020000000000002000408FC0000000000000CCBE000000C0FFFF
310
58400000002000408FC0000000405F3514C0000000C0FFFF58400C00000013000000F20800003C0000000600000002000000000000E0FF3F8F40000000000000B0BE000000808E0458400000002000408FC0000000000000CCBE000000008F0458400C00000013000000FA0800003C00000006000000020000000000002000
310
408FC0000000000000CCBE000000008F0458400000002000408FC0000000000000CCBE000000C0FFFF58400C00000013000000020900003C0000000600000002000000000000E0FF3F8F40000000006098B3BF000000008CF357400000002000408FC0000000008898B3BF000000408CF357400C000000130000000A090000
310
3C00000006000000020000000000002000408FC0000000000000CCBE000000008F0458400000002000408FC0000000008898B3BF000000408CF357400C00000013000000120900003C0000000600000002000000000000E0FF3F8F40000000004816D2BF00000040BDE757400000002000408FC0000000005216D2BF000000
310
C0BDE757400C000000130000001A0900003C00000006000000020000000000002000408FC0000000005216D2BF000000C0BDE757400000002000408FC0000000008898B3BF000000408CF357400C00000013000000220900003C0000000600000002000000000000E0FF3F8F4000000000870EEDBF000000C0C3C757400000
310
002000408FC0000000008C0EEDBF00000000C4C757400C000000130000002A0900003C00000006000000020000000000002000408FC0000000005216D2BF000000C0BDE757400000002000408FC0000000008C0EEDBF00000000C4C757400C00000013000000320900003C0000000600000002000000000000E0FF3F8F4000
310
0000803914F4BF000000409B9957400000002000408FC0000000003C14F4BF000000809B9957400C000000130000003A0900003C00000006000000020000000000002000408FC0000000008C0EEDBF00000000C4C757400000002000408FC0000000003C14F4BF000000809B9957400C00000013000000420900003C000000
310
0600000002000000000000E0FF3F8F40000000803914F4BF000000C0636657400000002000408FC0000000003C14F4BF00000000646657400C000000130000004A0900003C00000006000000020000000000002000408FC0000000003C14F4BF000000809B9957400000002000408FC0000000003C14F4BF00000000646657
310
400C00000013000000520900003C0000000600000002000000000000E0FF3F8F4000000000880EEDBF000000403B3857400000002000408FC0000000008C0EEDBF000000803B3857400C000000130000005A0900003C00000006000000020000000000002000408FC0000000008C0EEDBF000000803B385740000000200040
310
8FC0000000003C14F4BF00000000646657400C00000013000000620900003C0000000600000002000000000000E0FF3F8F40000000004816D2BF00000080411857400000002000408FC0000000005016D2BF00000000421857400C000000130000006A0900003C00000006000000020000000000002000408FC0000000008C
310
0EEDBF000000803B3857400000002000408FC0000000005016D2BF00000000421857400C00000013000000720900003C0000000600000002000000000000E0FF3F8F40000000006098B3BF00000000730C57400000002000408FC0000000008098B3BF00000040730C57400C000000130000007A0900003C00000006000000
310
020000000000002000408FC0000000008098B3BF00000040730C57400000002000408FC0000000005016D2BF00000000421857400C00000013000000820900003C0000000600000002000000000000E0FF3F8F40000000000000B0BE0000008070FB56400000002000408FC0000000000000C8BE000000C070FB56400C0000
310
00130000008A0900003C00000006000000020000000000002000408FC0000000000000C8BE000000C070FB56400000002000408FC0000000008098B3BF00000040730C57400C00000013000000920900003C0000000600000002000000000000E0FF3F8F40000000000000B0BE00000000521D56400000002000408FC00000
310
00000000B8BE00000080521D56400C000000130000009A0900003C00000006000000020000000000002000408FC0000000000000B8BE00000080521D56400000002000408FC0000000000000C8BE000000C070FB56400C00000013000000A20900003C0000000600000002000000000000E0FF3F8F400000000070A8AEBF00
310
0000C0230E56400000002000408FC00000000080A8AEBF00000040240E56400C00000013000000AA0900003C00000006000000020000000000002000408FC00000000080A8AEBF00000040240E56400000002000408FC0000000000000B8BE00000080521D56400C00000013000000B20900003C0000000600000002000000
310
000000E0FF3F8F40000000002CD8CCBF00000040950256400000002000408FC00000000030D8CCBF000000C0950256400C00000013000000BA0900003C00000006000000020000000000002000408FC00000000080A8AEBF00000040240E56400000002000408FC00000000030D8CCBF000000C0950256400C000000130000
310
00C20900003C0000000600000002000000000000E0FF3F8F40000000000836DDBF0000004071FD55400000002000408FC0000000000A36DDBF000000C071FD55400C00000013000000CA0900003C00000006000000020000000000002000408FC00000000030D8CCBF000000C0950256400000002000408FC0000000000A36
310
DDBF000000C071FD55400C00000013000000D20900003C0000000600000002000000000000E0FF3F8F4000000080405904C000000080C1F155400000002000408FC000000060405904C000000000C2F155400C00000013000000DA0900003C00000006000000020000000000002000408FC000000060405904C000000000C2
310
F155400000002000408FC0000000000A36DDBF000000C071FD55400C00000013000000E20900003C0000000600000002000000000000E0FF3F8F40000000E07E3206C0000000809DEC55400000002000408FC0000000E07E3206C0000000C09DEC55400C00000013000000EA0900003C000000060000000200000000000020
310
00408FC000000060405904C000000000C2F155400000002000408FC0000000E07E3206C0000000C09DEC55400C00000013000000F20900003C0000000600000002000000000000E0FF3F8F40000000C05F8507C0000000000FE155400000002000408FC0000000C05F8507C0000000400FE155400C00000013000000FA0900
310
003C00000006000000020000000000002000408FC0000000E07E3206C0000000C09DEC55400000002000408FC0000000C05F8507C0000000400FE155400C00000013000000020A00003C0000000600000002000000000000E0FF3F8F4000000020010008C0000000C0E0D155400000002000408FC000000020010008C00000
310
0000E1D155400C000000130000000A0A00003C00000006000000020000000000002000408FC0000000C05F8507C0000000400FE155400000002000408FC000000020010008C000000000E1D155400C00000013000000120A00003C0000000600000002000000000000E0FF3F8F4000000020010008C000000080C38C534000
310
00002000408FC000000020010008C000000000C48C53400C000000130000001A0A00003C00000006000000020000000000002000408FC000000020010008C000000000C48C53400000002000408FC000000020010008C000000000E1D155400C00000013000000220A00003C0000000600000002000000000000E0FF3F8F40
310
000000A01D0209C000000080B25553400000002000408FC0000000A01D0209C000000000B35553400C000000130000002A0A00003C00000006000000020000000000002000408FC000000020010008C000000000C48C53400000002000408FC0000000A01D0209C000000000B35553400C00000013000000320A00003C0000
310
000600000002000000000000E0FF3F8F40000000A0C4F20BC000000000422353400000002000408FC0000000A0C4F20BC000000080422353400C000000130000003A0A00003C00000006000000020000000000002000408FC0000000A01D0209C000000000B35553400000002000408FC0000000A0C4F20BC0000000804223
310
53400C00000013000000420A00003C0000000600000002000000000000E0FF3F8F40000000005C4910C0000000C0AEF952400000002000408FC0000000605B4910C000000040AFF952400C000000130000004A0A00003C00000006000000020000000000002000408FC0000000A0C4F20BC000000080422353400000002000
310
408FC0000000605B4910C000000040AFF952400C00000013000000520A00003C0000000600000002000000000000E0FF3F8F4000000040A5B61BC000000040456052400000002000408FC000000000A5B61BC000000080456052400C000000130000005A0A00003C00000006000000020000000000002000408FC000000060
310
5B4910C000000040AFF952400000002000408FC000000000A5B61BC000000080456052400C00000013000000620A00003C0000000600000002000000000000E0FF3F8F40000000C09E061EC000000000B23652400000002000408FC0000000809E061EC000000080B23652400C000000130000006A0A00003C000000060000
310
00020000000000002000408FC000000000A5B61BC000000080456052400000002000408FC0000000809E061EC000000080B23652400C00000013000000720A00003C0000000600000002000000000000E0FF3F8F4000000040F27E1FC000000080410452400000002000408FC000000000F27E1FC0000000C0410452400C00
310
0000130000007A0A00003C00000006000000020000000000002000408FC000000000F27E1FC0000000C0410452400000002000408FC0000000809E061EC000000080B23652400C00000013000000820A00003C0000000600000002000000000000E0FF3F8F4000000020000020C00000008030CD51400000002000408FC000
310
000020000020C00000000031CD51400C000000130000008A0A00003C00000006000000020000000000002000408FC000000000F27E1FC0000000C0410452400000002000408FC000000020000020C00000000031CD51400C00000013000000920A00003C0000000600000002000000000000E0FF3F8F4000000040000020C0
310
000000E0ACA14E400000002000408FC000000000000020C0000000A0ADA14E400C000000130000009A0A00003C00000006000000020000000000002000408FC000000020000020C00000000031CD51400000002000408FC000000000000020C0000000A0ADA14E400C00000013000000A20A00003C00000006000000020000
310
00000000E0FF3F8F40000000C0AFC21FC00000006050834E400000002000408FC000000080AFC21FC00000002051834E400C00000013000000AA0A00003C00000006000000020000000000002000408FC000000080AFC21FC00000002051834E400000002000408FC000000000000020C0000000A0ADA14E400C0000001300
310
0000B20A00003C0000000600000002000000000000E0FF3F8F40000000403F191FC000000040336C4E400000002000408FC0000000003F191FC000000000346C4E400C00000013000000BA0A00003C00000006000000020000000000002000408FC000000080AFC21FC00000002051834E400000002000408FC0000000003F
310
191FC000000000346C4E400C00000013000000C20A00003C0000000600000002000000000000E0FF3F8F4000000040A02C1EC000000040EB614E400000002000408FC000000000A02C1EC000000000EC614E400C00000013000000CA0A00003C00000006000000020000000000002000408FC000000000A02C1EC000000000
310
EC614E400000002000408FC0000000003F191FC000000000346C4E400C00000013000000D20A00003C0000000600000002000000000000E0FF3F8F40000000000836DDBF000000A08D124E400000002000408FC0000000001036DDBF000000608E124E400C00000013000000DA0A00003C0000000600000002000000000000
310
2000408FC000000000A02C1EC000000000EC614E400000002000408FC0000000001036DDBF000000608E124E400C00000013000000E20A00003C0000000600000002000000000000E0FF3F8F40000000002CD8CCBF0000008045084E400000002000408FC0000000003CD8CCBF0000004046084E400C00000013000000EA0A
310
00003C00000006000000020000000000002000408FC0000000003CD8CCBF0000004046084E400000002000408FC0000000001036DDBF000000608E124E400C00000013000000F20A00003C0000000600000002000000000000E0FF3F8F400000000070A8AEBF0000006028F14D400000002000408FC000000000B0A8AEBF00
310
00002029F14D400C00000013000000FA0A00003C00000006000000020000000000002000408FC000000000B0A8AEBF0000002029F14D400000002000408FC0000000003CD8CCBF0000004046084E400C00000013000000020B00003C0000000600000002000000000000E0FF3F8F40000000000000B0BE000000E0CBD24D40
310
0000002000408FC0000000000000C8BE000000A0CCD24D400C000000130000000A0B00003C00000006000000020000000000002000408FC0000000000000C8BE000000A0CCD24D400000002000408FC000000000B0A8AEBF0000002029F14D400C00000013000000120B00003C0000000600000002000000000000E0FF3F8F
310
40000000000000B0BE0000004016C84C400000002000408FC0000000000000CCBE0000000017C84C400C000000130000001A0B00003C00000006000000020000000000002000408FC0000000000000CCBE0000000017C84C400000002000408FC0000000000000C8BE000000A0CCD24D400C00000013000000220B00003C00
310
00000600000002000000000000E0FF3F8F400000000070A8AEBF000000C0B9A94C400000002000408FC000000000C0A8AEBF00000080BAA94C400C000000130000002A0B00003C00000006000000020000000000002000408FC0000000000000CCBE0000000017C84C400000002000408FC000000000C0A8AEBF00000080BA
310
A94C400C00000013000000320B00003C0000000600000002000000000000E0FF3F8F40000000002CD8CCBF000000A09C924C400000002000408FC00000000040D8CCBF000000609D924C400C000000130000003A0B00003C00000006000000020000000000002000408FC000000000C0A8AEBF00000080BAA94C4000000020
310
00408FC00000000040D8CCBF000000609D924C400C00000013000000420B00003C0000000600000002000000000000E0FF3F8F40000000000836DDBF000000A054884C400000002000408FC0000000001236DDBF0000006055884C400C000000130000004A0B00003C00000006000000020000000000002000408FC0000000
310
001236DDBF0000006055884C400000002000408FC00000000040D8CCBF000000609D924C400C00000013000000520B00003C0000000600000002000000000000E0FF3F8F4000000080A02C1EC000000000F7384C400000002000408FC000000000A02C1EC0000000C0F7384C400C000000130000005A0B00003C0000000600
310
0000020000000000002000408FC0000000001236DDBF0000006055884C400000002000408FC000000000A02C1EC0000000C0F7384C400C00000013000000620B00003C0000000600000002000000000000E0FF3F8F40000000C03F191FC0000000E0AE2E4C400000002000408FC0000000003F191FC0000000A0AF2E4C400C
310
000000130000006A0B00003C00000006000000020000000000002000408FC000000000A02C1EC0000000C0F7384C400000002000408FC0000000003F191FC0000000A0AF2E4C400C00000013000000720B00003C0000000600000002000000000000E0FF3F8F4000000040B0C21FC0000000C091174C400000002000408FC0
310
00000080AFC21FC00000008092174C400C000000130000007A0B00003C00000006000000020000000000002000408FC0000000003F191FC0000000A0AF2E4C400000002000408FC000000080AFC21FC00000008092174C400C00000013000000820B00003C0000000600000002000000000000E0FF3F8F4000000040000020
310
C00000004035F94B400000002000408FC0000000E0FFFF1FC00000000036F94B400C000000130000008A0B00003C00000006000000020000000000002000408FC000000080AFC21FC00000008092174C400000002000408FC0000000E0FFFF1FC00000000036F94B400C00000013000000920B00003C000000060000000200
310
0000000000E0FF3F8F4000000020000020C000000000762831400000002000408FC000000000000020C000000000772831400C000000130000009A0B00003C00000006000000020000000000002000408FC000000000000020C000000000772831400000002000408FC0000000E0FFFF1FC00000000036F94B400C00000013
310
000000A20B00003C0000000600000002000000000000E0FF3F8F40000000C0AFC21FC000000000BDEB30400000002000408FC000000080AFC21FC000000000BEEB30400C00000013000000AA0B00003C00000006000000020000000000002000408FC000000080AFC21FC000000000BEEB30400000002000408FC000000000
310
000020C000000000772831400C00000013000000B20B00003C0000000600000002000000000000E0FF3F8F40000000403F191FC00000000083BD30400000002000408FC0000000003F191FC00000000084BD30400C00000013000000BA0B00003C00000006000000020000000000002000408FC000000080AFC21FC0000000
310
00BEEB30400000002000408FC0000000003F191FC00000000084BD30400C00000013000000C20B00003C0000000600000002000000000000E0FF3F8F4000000040A02C1EC000000000F3A830400000002000408FC0000000A09F2C1EC000000000F4A830400C00000013000000CA0B00003C00000006000000020000000000
310
002000408FC0000000A09F2C1EC000000000F4A830400000002000408FC0000000003F191FC00000000084BD30400C00000013000000D20B00003C0000000600000002000000000000E0FF3F8F40000000000836DDBF00000080370A30400000002000408FC0000000001036DDBF00000080380A30400C00000013000000DA
310
0B00003C00000006000000020000000000002000408FC0000000A09F2C1EC000000000F4A830400000002000408FC0000000001036DDBF00000080380A30400C00000013000000E20B00003C0000000600000002000000000000E0FF3F8F40000000002CD8CCBF000000004FEB2F400000002000408FC0000000003CD8CCBF
310
0000000051EB2F400C00000013000000EA0B00003C00000006000000020000000000002000408FC0000000001036DDBF00000080380A30400000002000408FC0000000003CD8CCBF0000000051EB2F400C00000013000000F20B00003C0000000600000002000000000000E0FF3F8F400000000070A8AEBF00000000DA8E2F
310
400000002000408FC000000000B0A8AEBF00000000DC8E2F400C00000013000000FA0B00003C00000006000000020000000000002000408FC000000000B0A8AEBF00000000DC8E2F400000002000408FC0000000003CD8CCBF0000000051EB2F400C00000013000000020C00003C0000000600000002000000000000E0FF3F
310
8F40000000000000B0BE0000000068152F400000002000408FC0000000000000C8BE000000006A152F400C000000130000000A0C00003C00000006000000020000000000002000408FC0000000000000C8BE000000006A152F400000002000408FC000000000B0A8AEBF00000000DC8E2F400C00000013000000120C00003C
310
0000000600000002000000000000E0FF3F8F40000000000000B0BE00000000762428400000002000408FC0000000000000B8BE00000000782428400C000000130000001A0C00003C00000006000000020000000000002000408FC0000000000000B8BE00000000782428400000002000408FC0000000000000C8BE00000000
310
6A152F400C00000013000000220C00003C0000000600000002000000000000E0FF3F8F40000000006098B3BF00000000619C27400000002000408FC0000000006898B3BF00000000639C27400C000000130000002A0C00003C00000006000000020000000000002000408FC0000000000000B8BE0000000078242840000000
310
2000408FC0000000006898B3BF00000000639C27400C00000013000000320C00003C0000000600000002000000000000E0FF3F8F40000000004816D2BF00000000EC3D27400000002000408FC0000000004A16D2BF00000000EE3D27400C000000130000003A0C00003C00000006000000020000000000002000408FC00000
310
00004A16D2BF00000000EE3D27400000002000408FC0000000006898B3BF00000000639C27400C00000013000000420C00003C0000000600000002000000000000E0FF3F8F4000000000880EEDBF000000001F3E26400000002000408FC000000000890EEDBF00000000213E26400C000000130000004A0C00003C00000006
310
000000020000000000002000408FC0000000004A16D2BF00000000EE3D27400000002000408FC000000000890EEDBF00000000213E26400C00000013000000520C00003C0000000600000002000000000000E0FF3F8F40000000803914F4BF00000000DBCC24400000002000408FC0000000803A14F4BF00000000DDCC2440
310
0C000000130000005A0C00003C00000006000000020000000000002000408FC000000000890EEDBF00000000213E26400000002000408FC0000000803A14F4BF00000000DDCC24400C00000013000000620C00003C0000000600000002000000000000E0FF3F8F40000000803914F4BF000000001F3323400000002000408F
310
C0000000803B14F4BF00000000213323400C000000130000006A0C00003C00000006000000020000000000002000408FC0000000803B14F4BF00000000213323400000002000408FC0000000803A14F4BF00000000DDCC24400C00000013000000720C00003C0000000600000002000000000000E0FF3F8F4000000000880E
310
EDBF00000000DBC121400000002000408FC0000000008B0EEDBF00000000DDC121400C000000130000007A0C00003C00000006000000020000000000002000408FC0000000803B14F4BF00000000213323400000002000408FC0000000008B0EEDBF00000000DDC121400C00000013000000820C00003C0000000600000002
310
000000000000E0FF3F8F40000000004816D2BF000000000EC220400000002000408FC0000000005216D2BF0000000010C220400C000000130000008A0C00003C00000006000000020000000000002000408FC0000000008B0EEDBF00000000DDC121400000002000408FC0000000005216D2BF0000000010C220400C000000
310
13000000920C00003C0000000600000002000000000000E0FF3F8F40000000006098B3BF00000000996320400000002000408FC0000000008898B3BF000000009B6320400C000000130000009A0C00003C00000006000000020000000000002000408FC0000000008898B3BF000000009B6320400000002000408FC0000000
310
005216D2BF0000000010C220400C00000013000000A20C00003C0000000600000002000000000000E0FF3F8F40000000000000B0BE0000000008B71F400000002000408FC0000000000000CCBE000000000CB71F400C00000013000000AA0C00003C00000006000000020000000000002000408FC0000000000000CCBE0000
310
00000CB71F400000002000408FC0000000008898B3BF000000009B6320400C00000013000000B20C00003C0000000600000002000000000000E0FF3F8F40000000000000B0BE0000000024D511400000002000408FC0000000000000C8BE0000000028D511400C00000013000000BA0C00003C000000060000000200000000
310
00002000408FC0000000000000C8BE0000000028D511400000002000408FC0000000000000CCBE000000000CB71F400C00000013000000C20C00003C0000000600000002000000000000E0FF3F8F400000000070A8AEBF0000000040E210400000002000408FC000000000B0A8AEBF0000000044E210400C00000013000000
310
CA0C00003C00000006000000020000000000002000408FC000000000B0A8AEBF0000000044E210400000002000408FC0000000000000C8BE0000000028D511400C00000013000000D20C00003C0000000600000002000000000000E0FF3F8F40000000002CD8CCBF00000000562910400000002000408FC0000000003CD8CC
310
BF000000005A2910400C00000013000000DA0C00003C00000006000000020000000000002000408FC000000000B0A8AEBF0000000044E210400000002000408FC0000000003CD8CCBF000000005A2910400C00000013000000E20C00003C0000000600000002000000000000E0FF3F8F40000000000836DDBF000000002CAE
310
0F400000002000408FC0000000001036DDBF0000000034AE0F400C00000013000000EA0C00003C00000006000000020000000000002000408FC0000000003CD8CCBF000000005A2910400000002000408FC0000000001036DDBF0000000034AE0F400C00000013000000F20C00003C0000000600000002000000000000E0FF
310
3F8F4000000080A02C1EC00000000050B80A400000002000408FC000000000A02C1EC00000000058B80A400C00000013000000FA0C00003C00000006000000020000000000002000408FC000000000A02C1EC00000000058B80A400000002000408FC0000000001036DDBF0000000034AE0F400C00000013000000020D0000
310
3C0000000600000002000000000000E0FF3F8F40000000C03F191FC000000000D0130A400000002000408FC0000000003F191FC000000000D8130A400C000000130000000A0D00003C00000006000000020000000000002000408FC000000000A02C1EC00000000058B80A400000002000408FC0000000003F191FC0000000
310
00D8130A400C00000013000000120D00003C0000000600000002000000000000E0FF3F8F4000000040B0C21FC00000000000A208400000002000408FC000000080AFC21FC00000000008A208400C000000130000001A0D00003C00000006000000020000000000002000408FC0000000003F191FC000000000D8130A400000
310
002000408FC000000080AFC21FC00000000008A208400C00000013000000220D00003C0000000600000002000000000000E0FF3F8F4000000040000020C00000000038BC06400000002000408FC000000020000020C00000000040BC06400C000000130000002A0D00003C00000006000000020000000000002000408FC000
310
000020000020C00000000040BC06400000002000408FC000000080AFC21FC00000000008A208400C00000013000000320D00003C0000000600000002000000000000E0FF3F8F4000000040000020C000000000A0FFDF3F0000002000408FC000000020000020C000000000E0FFDF3F0C000000130000003A0D00003C000000
310
06000000020000000000002000408FC000000020000020C00000000040BC06400000002000408FC000000020000020C000000000E0FFDF3F0C00000013000000420D00003C0000000600000002000000000000E0FF3F8F4000000000492220C000000000A001D03F0000002000408FC0000000E0482220C000000000E001D0
310
3F0C000000130000004A0D00003C00000006000000020000000000002000408FC000000020000020C000000000E0FFDF3F0000002000408FC0000000E0482220C000000000E001D03F0C00000013000000520D00003C0000000600000002000000000000E0FF3F8F4000000020108020C0000000000023B13F000000200040
310
8FC000000020108020C0000000000024B13F0C000000130000005A0D00003C00000006000000020000000000002000408FC000000020108020C0000000000024B13F0000002000408FC0000000E0482220C000000000E001D03F0C00000013000000620D00003C00000006000000020000000000002000408FC00000002000
310
0021C0000000000000E0BE0000002000408FC000000020108020C0000000000024B13F0C000000130000006A0D00003C00000006000000020000000000002000408FC0000000000000CCBE000000008F0458400000002000408FC0000000405F3514C0000000C0FFFF58400C00000013000000720D00003C00000006000000
310
020000000000002000408FC0000000C0A4C414C00000008058FC58400000002000408FC0000000008898B3BF000000408CF357400C000000130000007A0D00003C00000006000000020000000000002000408FC000000040200215C00000008078F358400000002000408FC0000000005216D2BF000000C0BDE757400C0000
310
0013000000820D00003C00000006000000020000000000002000408FC0000000008C0EEDBF00000000C4C757400000002000408FC000000080235116C0000000404C7458400C000000130000008A0D00003C00000006000000020000000000002000408FC0000000E09BBE17C000000080C82B58400000002000408FC00000
310
00003C14F4BF000000809B9957400C00000013000000920D00003C00000006000000020000000000002000408FC0000000003C14F4BF000000809B9957400000002000408FC0000000608B301AC00000004033DA57400C000000130000009A0D00003C00000006000000020000000000002000408FC0000000806AD41CC000
310
000000FD9A57400000002000408FC0000000003C14F4BF00000000646657400C00000013000000A20D00003C00000006000000020000000000002000408FC0000000207B4D20C000000080A15757400000002000408FC0000000003C14F4BF00000000646657400C00000013000000AA0D00003C0000000600000002000000
310
0000002000408FC0000000008C0EEDBF000000803B3857400000002000408FC0000000A08D1F22C0000000C0C82657400C00000013000000B20D00003C00000006000000020000000000002000408FC0000000008C0EEDBF000000803B3857400000002000408FC00000000079DD24C0000000804AF056400C000000130000
310
00BA0D00003C00000006000000020000000000002000408FC0000000008C0EEDBF000000803B3857400000002000408FC000000060405904C000000000C2F155400C00000013000000C20D00003C00000006000000020000000000002000408FC00000000079DD24C0000000804AF056400000002000408FC0000000E07E32
310
06C0000000C09DEC55400C00000013000000CA0D00003C00000006000000020000000000002000408FC00000000080A8AEBF00000040240E56400000002000408FC0000000008098B3BF00000040730C57400C00000013000000D20D00003C00000006000000020000000000002000408FC00000000030D8CCBF000000C095
310
0256400000002000408FC0000000005016D2BF00000000421857400C00000013000000DA0D00003C00000006000000020000000000002000408FC0000000005016D2BF00000000421857400000002000408FC0000000000A36DDBF000000C071FD55400C00000013000000E20D00003C000000060000000200000000000020
310
00408FC0000000E07E3206C0000000C09DEC55400000002000408FC0000000C0733726C000000080E3D456400C00000013000000EA0D00003C00000006000000020000000000002000408FC000000040A98927C0000000C090B956400000002000408FC0000000E07E3206C0000000C09DEC55400C00000013000000F20D00
310
003C00000006000000020000000000002000408FC000000000FCB528C0000000C0B79756400000002000408FC0000000C05F8507C0000000400FE155400C00000013000000FA0D00003C00000006000000020000000000002000408FC0000000C05F8507C0000000400FE155400000002000408FC00000008038B229C00000
310
00807F7056400C00000013000000020E00003C00000006000000020000000000002000408FC0000000C0247A2AC000000000904456400000002000408FC000000020010008C000000000E1D155400C000000130000000A0E00003C00000006000000020000000000002000408FC000000040FB062BC0000000C06215564000
310
00002000408FC000000020010008C000000000E1D155400C00000013000000120E00003C00000006000000020000000000002000408FC00000000036562BC0000000C0D1E355400000002000408FC000000020010008C000000000E1D155400C000000130000001A0E00003C00000006000000020000000000002000408FC0
310
0000000033652BC0000000808AB155400000002000408FC000000020010008C000000000E1D155400C00000013000000220E00003C00000006000000020000000000002000408FC000000020010008C000000000E1D155400000002000408FC0000000A0B3332BC000000000607F55400C000000130000002A0E00003C0000
310
0006000000020000000000002000408FC00000000058C32AC000000000054F55400000002000408FC000000020010008C000000000E1D155400C00000013000000320E00003C00000006000000020000000000002000408FC000000020010008C000000000E1D155400000002000408FC0000000A022162AC0000000805821
310
55400C000000130000003A0E00003C00000006000000020000000000002000408FC0000000C0F23129C000000080E3F754400000002000408FC000000020010008C000000000E1D155400C00000013000000420E00003C00000006000000020000000000002000408FC000000020010008C000000000E1D155400000002000
310
408FC0000000C09C1A28C00000004057D354400C000000130000004A0E00003C00000006000000020000000000002000408FC000000020010008C000000000E1D155400000002000408FC0000000005D3626C0000000407DA554400C00000013000000520E00003C00000006000000020000000000002000408FC000000040
310
A30E26C0000000C0C7A054400000002000408FC000000020010008C000000000E1D155400C000000130000005A0E00003C00000006000000020000000000002000408FC000000000000026C0000000802F9A54400000002000408FC000000020010008C000000000E1D155400C00000013000000620E00003C000000060000
310
00020000000000002000408FC000000020010008C000000000E1D155400000002000408FC000000040000026C000000080C82E54400C000000130000006A0E00003C00000006000000020000000000002000408FC000000020010008C000000000C48C53400000002000408FC000000040000026C000000080C82E54400C00
310
000013000000720E00003C00000006000000020000000000002000408FC000000020010008C000000000C48C53400000002000408FC000000040AC2126C000000040312654400C000000130000007A0E00003C00000006000000020000000000002000408FC000000040AC2126C000000040312654400000002000408FC000
310
0000A01D0209C000000000B35553400C00000013000000820E00003C00000006000000020000000000002000408FC000000080666626C0000000C0FB2154400000002000408FC0000000A0C4F20BC000000080422353400C000000130000008A0E00003C00000006000000020000000000002000408FC0000000C0999929C0
310
000000C0FB2154400000002000408FC0000000A0C4F20BC000000080422353400C00000013000000920E00003C00000006000000020000000000002000408FC00000004054DE29C000000040C61D54400000002000408FC0000000605B4910C000000040AFF952400C000000130000009A0E00003C00000006000000020000
310
000000002000408FC00000004054DE29C000000040C61D54400000002000408FC000000000A5B61BC000000080456052400C00000013000000A20E00003C00000006000000020000000000002000408FC00000004000002AC0000000002F1554400000002000408FC000000000A5B61BC000000080456052400C0000001300
310
0000AA0E00003C00000006000000020000000000002000408FC00000004000002AC00000000062AE53400000002000408FC0000000809E061EC000000080B23652400C00000013000000B20E00003C00000006000000020000000000002000408FC0000000809E061EC000000080B23652400000002000408FC0000000C0C3
310
1B2AC0000000809EA553400C00000013000000BA0E00003C00000006000000020000000000002000408FC0000000809E061EC000000080B23652400000002000408FC00000004000602AC0000000C09BA153400C00000013000000C20E00003C00000006000000020000000000002000408FC000000000CE072CC000000000
310
059453400000002000408FC0000000809E061EC000000080B23652400C00000013000000CA0E00003C00000006000000020000000000002000408FC0000000C08FFD2CC000000080928553400000002000408FC000000000F27E1FC0000000C0410452400C00000013000000D20E00003C0000000600000002000000000000
310
2000408FC000000000F27E1FC0000000C0410452400000002000408FC0000000C0AEEF2DC000000040976F53400C00000013000000DA0E00003C00000006000000020000000000002000408FC000000000F27E1FC0000000C0410452400000002000408FC0000000409FA92EC000000000D95653400C00000013000000E20E
310
00003C00000006000000020000000000002000408FC000000000F27E1FC0000000C0410452400000002000408FC0000000C0FE492FC000000080443753400C00000013000000EA0E00003C00000006000000020000000000002000408FC000000080FEAD2FC000000080B41753400000002000408FC000000020000020C000
310
00000031CD51400C00000013000000F20E00003C00000006000000020000000000002000408FC00000008017E62FC000000000F5F252400000002000408FC000000020000020C00000000031CD51400C00000013000000FA0E00003C00000006000000020000000000002000408FC000000020000020C00000000031CD5140
310
0000002000408FC000000040000030C000000000B4D052400C00000013000000020F00003C00000006000000020000000000002000408FC000000040000030C000000000B4D052400000002000408FC000000000000020C0000000A0ADA14E400C000000130000000A0F00003C00000006000000020000000000002000408F
310
C000000000B0A8AEBF0000002029F14D400000002000408FC000000000C0A8AEBF00000080BAA94C400C00000013000000120F00003C00000006000000020000000000002000408FC0000000003CD8CCBF0000004046084E400000002000408FC00000000040D8CCBF000000609D924C400C000000130000001A0F00003C00
310
000006000000020000000000002000408FC0000000001236DDBF0000006055884C400000002000408FC0000000001036DDBF000000608E124E400C00000013000000220F00003C00000006000000020000000000002000408FC000000000A02C1EC0000000C0F7384C400000002000408FC000000000A02C1EC000000000EC
310
614E400C000000130000002A0F00003C00000006000000020000000000002000408FC0000000003F191FC0000000A0AF2E4C400000002000408FC0000000003F191FC000000000346C4E400C00000013000000320F00003C00000006000000020000000000002000408FC000000080AFC21FC00000002051834E4000000020
310
00408FC000000080AFC21FC00000008092174C400C000000130000003A0F00003C00000006000000020000000000002000408FC000000040000030C000000000B4D052400000002000408FC000000000000020C000000000772831400C00000013000000420F00003C00000006000000020000000000002000408FC0000000
310
20000020C00000000040BC06400000002000408FC000000000000020C000000000772831400C000000130000004A0F00003C00000006000000020000000000002000408FC000000020000020C00000000040BC06400000002000408FC000000040000030C000000000B4D052400C00000013000000520F00003C0000000600
310
0000020000000000002000408FC000000000000020C0000000A0ADA14E400000002000408FC0000000E0FFFF1FC00000000036F94B400C000000130000005A0F00003C00000006000000020000000000002000408FC000000040000030C000000000B4D052400000002000408FC0000000E0FFFF1FC00000000036F94B400C
310
00000013000000620F00003C00000006000000020000000000002000408FC000000000A02C1EC00000000058B80A400000002000408FC0000000A09F2C1EC000000000F4A830400C000000130000006A0F00003C00000006000000020000000000002000408FC0000000A09F2C1EC000000000F4A830400000002000408FC0
310
000000803A14F4BF00000000DDCC24400C00000013000000720F00003C00000006000000020000000000002000408FC000000000A02C1EC00000000058B80A400000002000408FC0000000803B14F4BF00000000213323400C000000130000007A0F00003C00000006000000020000000000002000408FC0000000003F191F
310
C000000000D8130A400000002000408FC0000000003F191FC00000000084BD30400C00000013000000820F00003C00000006000000020000000000002000408FC000000080AFC21FC000000000BEEB30400000002000408FC000000080AFC21FC00000000008A208400C000000130000008A0F00003C000000060000000200
310
00000000002000408FC000000040000030C000000000B4D052400000002000408FC000000020000020C000000000E0FFDF3F0C00000013000000920F00003C00000006000000020000000000002000408FC000000040000030C000000000B4D052400000002000408FC0000000E0482220C000000000E001D03F0C00000013
310
0000009A0F00003C00000006000000020000000000002000408FC000000020108020C0000000000024B13F0000002000408FC000000040000030C000000000B4D052400C00000013000000A20F00003C00000006000000020000000000002000408FC000000020000021C0000000000000E0BE0000002000408FC000000040
310
000030C000000000B4D052400C00000013000000AA0F00003C00000006000000020000000000002000408FC0000000006898B3BF00000000639C27400000002000408FC000000000B0A8AEBF00000000DC8E2F400C00000013000000B20F00003C00000006000000020000000000002000408FC0000000004A16D2BF000000
310
00EE3D27400000002000408FC0000000003CD8CCBF0000000051EB2F400C00000013000000BA0F00003C00000006000000020000000000002000408FC000000000890EEDBF00000000213E26400000002000408FC0000000001036DDBF00000080380A30400C00000013000000C20F00003C00000006000000020000000000
310
002000408FC000000000B0A8AEBF0000000044E210400000002000408FC0000000008898B3BF000000009B6320400C00000013000000CA0F00003C00000006000000020000000000002000408FC0000000003CD8CCBF000000005A2910400000002000408FC0000000005216D2BF0000000010C220400C00000013000000D2
310
0F00003C00000006000000020000000000002000408FC0000000008B0EEDBF00000000DDC121400000002000408FC0000000001036DDBF0000000034AE0F40
100
AcDbSubDMesh
 71
     2
 72
     0
 91
        0
 92
      234
 10
999.9999389648436
 20
-0.0000009536743164
 30
96.07119750976563
 10
999.9999389648436
 20
-5.052123069763183
 30
99.99996948242188
 10
999.9999389648436
 20
-0.0000009536743164
 30
99.99996948242188
 10
999.9999389648436
 20
-5.192036628723144
 30
99.94287109375001
 10
999.9999389648436
 20
-3.000002145767211
 30
78.19943237304688
 10
999.9999389648436
 20
-12.80000114440918
 30
80.53097534179688
 10
999.9999389648436
 20
-11.20000076293945
 30
80.53097534179688
 10
999.9999389648436
 20
-12.93423652648925
 30
80.4652099609375
 10
999.9999389648436
 20
-13.51363563537598
 30
88.33413696289062
 10
999.9999389648436
 20
-0.4564228057861329
 30
87.96003723144531
 10
999.9999389648436
 20
-2.543580055236816
 30
87.77743530273438
 10
999.9999389648436
 20
-12.84808731079101
 30
89.75776672363281
 10
999.9999389648436
 20
-0.2253470420837402
 30
88.04035949707031
 10
999.9999389648436
 20
-2.774656057357788
 30
87.69711303710938
 10
999.9999389648436
 20
-10.43256378173828
 30
91.75453186035156
 10
999.9999389648436
 20
-0.0000009536743164
 30
91.92874145507813
 10
999.9999389648436
 20
-0.0000009536743164
 30
88.45812988281251
 10
999.9999389648436
 20
-8.151333808898925
 30
93.36921691894531
 10
999.9999389648436
 20
-0.0765438079833984
 30
92.19451904296875
 10
999.9999389648436
 20
-0.0598788261413574
 30
88.22093200683594
 10
999.9999389648436
 20
-11.76886940002441
 30
90.89942932128906
 10
999.9999389648436
 20
-5.57923936843872
 30
97.81712341308594
 10
999.9999389648436
 20
-0.2826099395751953
 30
95.62092590332031
 10
999.9999389648436
 20
-0.9080233573913574
 30
95.12132263183593
 10
999.9999389648436
 20
-0.0765438079833984
 30
95.805419921875
 10
999.9999389648436
 20
-6.547407150268554
 30
95.40934753417969
 10
999.9999389648436
 20
-1.254937648773193
 30
94.40010070800781
 10
999.9999389648436
 20
-1.254937648773193
 30
93.59983825683594
 10
999.9999389648436
 20
-0.9080238342285156
 30
92.87861633300781
 10
999.9999389648436
 20
-0.2826099395751953
 30
92.37899780273437
 10
999.9999389648436
 20
-5.252078056335449
 30
99.80419921875
 10
999.9999389648436
 20
-15.94939804077148
 30
75.79618835449219
 10
999.9999389648436
 20
-8.500001907348632
 30
-0.0000228881835938
 10
999.9999389648436
 20
-16.0
 30
-0.0000228881835938
 10
999.9999389648436
 20
-8.250123023986816
 30
0.0669403076171875
 10
999.9999389648436
 20
-8.066963195800781
 30
0.2500991821289062
 10
999.9999389648436
 20
-8.000001907348632
 30
0.4999771118164063
 10
999.9999389648436
 20
-8.000001907348632
 30
2.841903686523437
 10
999.9999389648436
 20
-7.940125465393066
 30
3.0791015625
 10
999.9999389648436
 20
-7.774657249450683
 30
3.259674072265625
 10
999.9999389648436
 20
-7.543581008911132
 30
3.339996337890625
 10
999.9999389648436
 20
-7.940123558044433
 30
16.92085266113281
 10
999.9999389648436
 20
-0.4564228057861329
 30
3.960044860839843
 10
999.9999389648436
 20
-8.000000953674316
 30
17.15805053710937
 10
999.9999389648436
 20
-0.2253470420837402
 30
4.040367126464843
 10
999.9999389648436
 20
-0.0598788261413574
 30
4.220947265625
 10
999.9999389648436
 20
-0.0000009536743164
 30
4.458145141601562
 10
999.9999389648436
 20
-0.9080238342285156
 30
8.878623962402343
 10
999.9999389648436
 20
-0.0000009536743164
 30
7.928741455078125
 10
999.9999389648436
 20
-0.0765438079833984
 30
8.194526672363281
 10
999.9999389648436
 20
-0.2826099395751953
 30
8.379013061523437
 10
999.9999389648436
 20
-1.254937648773193
 30
9.599845886230468
 10
999.9999389648436
 20
-7.77465534210205
 30
16.74028015136719
 10
999.9999389648436
 20
-1.254937648773193
 30
10.40010833740234
 10
999.9999389648436
 20
-0.9080238342285156
 30
11.12133026123047
 10
999.9999389648436
 20
-0.2826099395751953
 30
11.62094116210937
 10
999.9999389648436
 20
-0.0765438079833984
 30
11.80542755126953
 10
999.9999389648436
 20
-0.0000009536743164
 30
12.07121276855469
 10
999.9999389648436
 20
-7.543580055236816
 30
16.65995788574219
 10
999.9999389648436
 20
-0.0000009536743164
 30
15.54180908203125
 10
999.9999389648436
 20
-0.0598788261413574
 30
15.77900695800781
 10
999.9999389648436
 20
-0.2253470420837402
 30
15.95958709716797
 10
999.9999389648436
 20
-0.4564228057861329
 30
16.03990936279297
 10
999.9999389648436
 20
-8.000001907348632
 30
55.94693756103516
 10
999.9999389648436
 20
-7.940125465393066
 30
56.18413543701172
 10
999.9999389648436
 20
-7.774657249450683
 30
56.36471176147461
 10
999.9999389648436
 20
-7.543581008911132
 30
56.44503784179687
 10
999.9999389648436
 20
-7.77465534210205
 30
60.84531402587891
 10
999.9999389648436
 20
-0.4564228057861329
 30
57.06508255004883
 10
999.9999389648436
 20
-7.940123558044433
 30
61.0258903503418
 10
999.9999389648436
 20
-0.2253470420837402
 30
57.14540481567382
 10
999.9999389648436
 20
-0.0598788261413574
 30
57.32598114013672
 10
999.9999389648436
 20
-0.0000009536743164
 30
57.56317901611328
 10
999.9999389648436
 20
-7.543580055236816
 30
60.7649917602539
 10
999.9999389648436
 20
-0.0000009536743164
 30
59.64684677124023
 10
999.9999389648436
 20
-0.0598788261413574
 30
59.88404464721679
 10
999.9999389648436
 20
-0.2253470420837402
 30
60.06462097167968
 10
999.9999389648436
 20
-0.4564228057861329
 30
60.14494705200196
 10
999.9999389648436
 20
-8.000001907348632
 30
61.26308822631836
 10
999.9999389648436
 20
-8.000000953674316
 30
71.20608520507812
 10
999.9999389648436
 20
-7.873970985412597
 30
72.06649780273437
 10
999.9999389648436
 20
-7.506464958190917
 30
72.8546142578125
 10
999.9999389648436
 20
-6.928364753723144
 30
73.50422668457031
 10
999.9999389648436
 20
-4.071640014648437
 30
75.90129089355468
 10
999.9999389648436
 20
-15.64452171325683
 30
76.86354064941406
 10
999.9999389648436
 20
-3.493539094924926
 30
76.5509033203125
 10
999.9999389648436
 20
-3.126033067703247
 30
77.33901977539062
 10
999.9999389648436
 20
-14.96813011169433
 30
77.74357604980469
 10
999.9999389648436
 20
-13.69765472412109
 30
86.77406311035156
 10
999.9999389648436
 20
-3.000002145767211
 30
87.27934265136719
 10
999.9999389648436
 20
-13.38153076171875
 30
85.23466491699219
 10
999.9999389648436
 20
-12.59755516052246
 30
83.87322998046874
 10
999.9999389648436
 20
-11.1061782836914
 30
82.58575439453125
 10
999.9999389648436
 20
-11.02858924865723
 30
82.51216125488282
 10
999.9999389648436
 20
-11.0
 30
82.40911865234375
 10
999.9999389648436
 20
-11.00000190734863
 30
80.73097229003906
 10
999.9999389648436
 20
-11.06576728820801
 30
80.59674072265625
 10
999.9999389648436
 20
-13.00000190734863
 30
80.33096313476562
 10
999.9999389648436
 20
-13.00000190734863
 30
78.72471618652344
 10
999.9999389648436
 20
-13.05422782897949
 30
78.58778381347656
 10
999.9999389648436
 20
-13.18750190734863
 30
78.52510070800781
 10
999.9999389648436
 20
-14.01524353027344
 30
78.31278991699218
 10
999.9999389648436
 20
-2.940124034881591
 30
87.51654052734375
 10
999.9999389648436
 20
-13.66838073730469
 30
87.55966186523437
 10
999.9999389648436
 20
-13.23856163024902
 30
89.07125854492187
 10
999.9999389648436
 20
-11.10830497741699
 30
91.32637023925781
 10
999.9999389648436
 20
-12.35543823242187
 30
90.37055969238281
 10
999.9999389648436
 20
-13.60097980499267
 30
85.99020385742187
 10
999.9999389648436
 20
-13.04323291778564
 30
84.52099609375
 10
999.9999389648436
 20
-12.05197715759277
 30
83.30216979980468
 10
999.9999389648436
 20
-9.06163215637207
 30
92.60598754882812
 10
999.9999389648436
 20
-5.93614387512207
 30
96.68408203125
 10
999.9999389648436
 20
-7.207437992095947
 30
94.42166137695313
 10
999.9999389648436
 20
-16.00000381469726
 30
75.26097106933594
 10
999.9999389648436
 20
-15.83983325958252
 30
76.370361328125
 10
999.9999389648436
 20
-15.3312931060791
 30
77.35696411132813
 10
999.9999389648436
 20
-14.49523735046386
 30
78.0870361328125
 10
-1000.000061035156
 20
-0.0000033378601074
 30
96.07122802734375
 10
-1000.000061035156
 20
-0.0000033378601074
 30
99.99998474121094
 10
-1000.000061035156
 20
-5.252076148986816
 30
99.80422973632812
 10
-1000.000061035156
 20
-0.2826123237609863
 30
95.62095642089843
 10
-1000.000061035156
 20
-0.9080257415771484
 30
95.12133789062501
 10
-1000.000061035156
 20
-5.936141490936279
 30
96.68411254882812
 10
-1000.000061035156
 20
-1.254940032958984
 30
94.40011596679687
 10
-1000.000061035156
 20
-8.15132999420166
 30
93.36923217773437
 10
-1000.000061035156
 20
-0.9080257415771484
 30
92.87863159179687
 10
-1000.000061035156
 20
-2.543579816818237
 30
87.7774658203125
 10
-1000.000061035156
 20
-0.0598793029785156
 30
88.22096252441406
 10
-1000.000061035156
 20
-0.0000014305114746
 30
88.45816040039062
 10
-1000.000061035156
 20
-0.2253475189208984
 30
88.04039001464843
 10
-1000.000061035156
 20
-11.76886940002441
 30
90.89945983886719
 10
-1000.000061035156
 20
-13.23856163024902
 30
89.07128906249999
 10
-1000.000061035156
 20
-13.51363563537598
 30
88.33415222167969
 10
-1000.000061035156
 20
-13.66838073730469
 30
87.55967712402343
 10
-1000.000061035156
 20
-13.69765472412109
 30
86.77407836914062
 10
-1000.000061035156
 20
-13.38153076171875
 30
85.23468017578125
 10
-1000.000061035156
 20
-12.59755516052246
 30
83.87326049804688
 10
-1000.000061035156
 20
-11.02858924865723
 30
82.51219177246094
 10
-1000.000061035156
 20
-11.0
 30
82.40914916992187
 10
-1000.000061035156
 20
-3.000002145767211
 30
78.199462890625
 10
-1000.000061035156
 20
-11.06576728820801
 30
80.59675598144531
 10
-1000.000061035156
 20
-3.126033067703247
 30
77.33905029296875
 10
-1000.000061035156
 20
-12.80000114440918
 30
80.53099060058594
 10
-1000.000061035156
 20
-12.93423652648925
 30
80.46522521972656
 10
-1000.000061035156
 20
-13.00000190734863
 30
80.33099365234376
 10
-1000.000061035156
 20
-13.00000190734863
 30
78.7247314453125
 10
-1000.000061035156
 20
-14.01524353027344
 30
78.31280517578125
 10
-1000.000061035156
 20
-14.49523735046386
 30
78.08706665039062
 10
-1000.000061035156
 20
-7.873970031738281
 30
72.06651306152344
 10
-1000.000061035156
 20
-15.64452171325683
 30
76.86355590820312
 10
-1000.000061035156
 20
-15.94939804077148
 30
75.79620361328125
 10
-1000.000061035156
 20
-0.0000033378601074
 30
57.56320190429687
 10
-1000.000061035156
 20
-0.0000028610229492
 30
59.64686965942383
 10
-1000.000061035156
 20
-0.0598807334899902
 30
59.88406753540039
 10
-1000.000061035156
 20
-0.225348949432373
 30
60.06464385986328
 10
-1000.000061035156
 20
-0.4564251899719239
 30
57.06510543823242
 10
-1000.000061035156
 20
-7.5435791015625
 30
56.44506072998047
 10
-1000.000061035156
 20
-7.5435791015625
 30
60.7650146484375
 10
-1000.000061035156
 20
-7.940122604370117
 30
61.02591323852539
 10
-1000.000061035156
 20
-8.000000953674316
 30
2.8419189453125
 10
-1000.000061035156
 20
-7.5435791015625
 30
3.340011596679687
 10
-1000.000061035156
 20
-1.254939556121826
 30
9.599861145019531
 10
-1000.000061035156
 20
-7.543577671051025
 30
16.65997314453125
 10
-1000.000061035156
 20
-7.940122604370117
 30
16.92086791992187
 10
-1000.000061035156
 20
-8.500000953674316
 30
-0.0000076293945313
 10
-1000.000061035156
 20
-8.250123023986816
 30
0.06695556640625
 10
-1000.000061035156
 20
-16.00000381469726
 30
-0.0000076293945313
 10
-1000.000061035156
 20
-0.0000014305114746
 30
12.07122802734375
 10
-1000.000061035156
 20
-0.0000028610229492
 30
15.54182434082031
 10
-1000.000061035156
 20
-0.2826104164123535
 30
11.62095642089844
 10
-1000.000061035156
 20
-0.9080243110656738
 30
11.12134552001953
 10
-1000.000061035156
 20
-0.4564247131347657
 30
16.03992462158203
 10
-1000.000061035156
 20
-0.0598807334899902
 30
4.220962524414062
 10
-1000.000061035156
 20
-0.0000028610229492
 30
4.458160400390625
 10
-1000.000061035156
 20
-0.9080252647399902
 30
8.878639221191406
 10
-1000.000061035156
 20
-5.05212116241455
 30
99.99998474121094
 10
-1000.000061035156
 20
-5.192034721374511
 30
99.94290161132813
 10
-1000.000061035156
 20
-0.0765461921691895
 30
95.80543518066406
 10
-1000.000061035156
 20
-5.579236984252929
 30
97.81715393066406
 10
-1000.000061035156
 20
-6.547406673431396
 30
95.40937805175781
 10
-1000.000061035156
 20
-7.207437515258789
 30
94.42169189453125
 10
-1000.000061035156
 20
-1.254940032958984
 30
93.599853515625
 10
-1000.000061035156
 20
-9.061627388000488
 30
92.60600280761719
 10
-1000.000061035156
 20
-10.43256378173828
 30
91.75454711914062
 10
-1000.000061035156
 20
-2.774656057357788
 30
87.69712829589844
 10
-1000.000061035156
 20
-0.0000028610229492
 30
91.92875671386719
 10
-1000.000061035156
 20
-0.0765457153320313
 30
92.1945343017578
 10
-1000.000061035156
 20
-0.2826118469238281
 30
92.37902832031251
 10
-1000.000061035156
 20
-0.4564232826232911
 30
87.96006774902343
 10
-1000.000061035156
 20
-11.10830497741699
 30
91.32638549804687
 10
-1000.000061035156
 20
-12.35543823242187
 30
90.37059020996094
 10
-1000.000061035156
 20
-2.940124034881591
 30
87.51655578613281
 10
-1000.000061035156
 20
-12.84808731079101
 30
89.75778198242187
 10
-1000.000061035156
 20
-3.000002145767211
 30
87.27935791015625
 10
-1000.000061035156
 20
-13.60097980499267
 30
85.99023437499999
 10
-1000.000061035156
 20
-13.04323291778564
 30
84.52102661132812
 10
-1000.000061035156
 20
-12.05197715759277
 30
83.30220031738281
 10
-1000.000061035156
 20
-11.1061782836914
 30
82.5857696533203
 10
-1000.000061035156
 20
-11.00000190734863
 30
80.73098754882812
 10
-1000.000061035156
 20
-11.20000076293945
 30
80.53099060058594
 10
-1000.000061035156
 20
-3.493539094924926
 30
76.55093383789062
 10
-1000.000061035156
 20
-4.071637630462646
 30
75.90132141113281
 10
-1000.000061035156
 20
-6.928363800048828
 30
73.50424194335937
 10
-1000.000061035156
 20
-7.506464004516601
 30
72.85464477539062
 10
-1000.000061035156
 20
-13.05422782897949
 30
78.58779907226562
 10
-1000.000061035156
 20
-13.18750190734863
 30
78.52513122558594
 10
-1000.000061035156
 20
-14.96813011169433
 30
77.74360656738281
 10
-1000.000061035156
 20
-15.3312931060791
 30
77.35699462890625
 10
-1000.000061035156
 20
-15.8398323059082
 30
76.37039184570312
 10
-1000.000061035156
 20
-8.000000953674316
 30
71.20611572265625
 10
-1000.000061035156
 20
-16.00000381469726
 30
75.260986328125
 10
-1000.000061035156
 20
-8.0
 30
61.26311111450196
 10
-1000.000061035156
 20
-0.0598812103271484
 30
57.32600402832031
 10
-1000.000061035156
 20
-0.2253494262695312
 30
57.14542770385742
 10
-1000.000061035156
 20
-0.4564247131347657
 30
60.14496994018554
 10
-1000.000061035156
 20
-7.774654388427734
 30
56.36473464965821
 10
-1000.000061035156
 20
-7.774654388427734
 30
60.8453369140625
 10
-1000.000061035156
 20
-7.940122604370117
 30
56.18415832519531
 10
-1000.000061035156
 20
-8.0
 30
17.15806579589844
 10
-1000.000061035156
 20
-7.999999523162841
 30
55.94696044921875
 10
-1000.000061035156
 20
-1.254938602447509
 30
10.4001235961914
 10
-1000.000061035156
 20
-7.774654388427734
 30
3.259689331054687
 10
-1000.000061035156
 20
-7.774654388427734
 30
16.74029541015625
 10
-1000.000061035156
 20
-7.940122604370117
 30
3.079116821289062
 10
-1000.000061035156
 20
-8.000000953674316
 30
0.4999923706054688
 10
-1000.000061035156
 20
-8.066962242126464
 30
0.2501144409179687
 10
-1000.000061035156
 20
-0.0765442848205567
 30
11.80544281005859
 10
-1000.000061035156
 20
-0.0598807334899902
 30
15.77902221679687
 10
-1000.000061035156
 20
-0.225348949432373
 30
15.95960235595703
 10
-1000.000061035156
 20
-0.0000033378601074
 30
7.928756713867187
 10
-1000.000061035156
 20
-0.0765461921691895
 30
8.194541931152343
 10
-1000.000061035156
 20
-0.225348949432373
 30
4.040382385253906
 10
-1000.000061035156
 20
-0.2826123237609863
 30
8.3790283203125
 10
-1000.000061035156
 20
-0.4564247131347657
 30
3.960060119628906
 93
     1289
 90
        3
 90
        1
 90
        0
 90
        2
 90
        4
 90
        1
 90
        3
 90
       24
 90
        0
 90
        4
 90
        3
 90
       30
 90
       22
 90
       24
 90
        4
 90
       30
 90
       21
 90
       23
 90
       22
 90
        4
 90
       21
 90
      111
 90
       26
 90
       23
 90
        3
 90
      111
 90
       25
 90
       26
 90
        4
 90
       25
 90
      112
 90
       27
 90
       26
 90
        3
 90
      112
 90
       17
 90
       27
 90
        4
 90
       17
 90
      110
 90
       28
 90
       27
 90
        3
 90
      110
 90
       14
 90
       28
 90
        4
 90
       14
 90
       13
 90
       10
 90
       28
 90
        4
 90
       19
 90
       16
 90
       15
 90
       18
 90
        4
 90
       12
 90
       19
 90
       18
 90
       29
 90
        3
 90
        9
 90
       12
 90
       29
 90
        4
 90
       10
 90
        9
 90
       29
 90
       28
 90
        3
 90
      105
 90
       20
 90
       13
 90
        4
 90
       20
 90
      106
 90
      102
 90
       13
 90
        3
 90
       14
 90
      105
 90
       13
 90
        3
 90
      106
 90
       11
 90
      102
 90
        4
 90
       11
 90
      104
 90
       89
 90
      102
 90
        3
 90
      104
 90
        8
 90
       89
 90
        3
 90
        8
 90
      103
 90
       89
 90
        3
 90
      103
 90
       88
 90
       89
 90
        3
 90
       88
 90
      107
 90
       89
 90
        3
 90
      107
 90
       90
 90
       89
 90
        3
 90
       90
 90
      108
 90
       89
 90
        3
 90
      108
 90
       91
 90
       89
 90
        3
 90
       91
 90
      109
 90
       89
 90
        3
 90
      109
 90
       92
 90
       89
 90
        3
 90
       92
 90
       93
 90
       89
 90
        3
 90
       93
 90
       94
 90
       89
 90
        3
 90
       94
 90
       95
 90
       89
 90
        3
 90
       95
 90
        4
 90
       89
 90
        3
 90
       95
 90
       96
 90
        4
 90
        3
 90
       96
 90
       86
 90
        4
 90
        4
 90
       96
 90
        6
 90
       85
 90
       86
 90
        3
 90
        6
 90
        5
 90
       85
 90
        4
 90
        5
 90
        7
 90
       83
 90
       85
 90
        3
 90
        7
 90
       82
 90
       83
 90
        3
 90
        7
 90
       97
 90
       82
 90
        4
 90
       97
 90
       98
 90
       81
 90
       82
 90
        3
 90
       98
 90
       99
 90
       81
 90
        3
 90
       99
 90
      100
 90
       81
 90
        3
 90
      100
 90
      101
 90
       81
 90
        4
 90
      101
 90
      116
 90
       80
 90
       81
 90
        3
 90
      116
 90
       87
 90
       80
 90
        3
 90
       87
 90
      115
 90
       80
 90
        3
 90
      115
 90
       84
 90
       80
 90
        4
 90
       84
 90
      114
 90
       79
 90
       80
 90
        3
 90
      114
 90
       31
 90
       79
 90
        3
 90
       31
 90
      113
 90
       79
 90
        3
 90
      113
 90
       78
 90
       79
 90
        4
 90
       71
 90
       72
 90
       74
 90
       75
 90
        4
 90
       70
 90
       71
 90
       75
 90
       76
 90
        4
 90
       68
 90
       70
 90
       76
 90
       77
 90
        4
 90
       66
 90
       68
 90
       77
 90
       73
 90
        4
 90
       65
 90
       66
 90
       73
 90
       67
 90
        4
 90
       64
 90
       65
 90
       67
 90
       69
 90
        3
 90
      113
 90
       37
 90
       43
 90
        3
 90
      113
 90
       63
 90
       78
 90
        4
 90
       63
 90
       64
 90
       69
 90
       78
 90
        4
 90
       40
 90
       51
 90
       53
 90
       58
 90
        4
 90
       39
 90
       40
 90
       58
 90
       52
 90
        4
 90
       38
 90
       39
 90
       52
 90
       41
 90
        4
 90
       37
 90
       38
 90
       41
 90
       43
 90
        3
 90
      113
 90
       36
 90
       37
 90
        3
 90
       43
 90
       63
 90
      113
 90
        3
 90
      113
 90
       35
 90
       36
 90
        3
 90
      113
 90
       32
 90
       34
 90
        3
 90
      113
 90
       34
 90
       35
 90
        3
 90
      113
 90
       33
 90
       32
 90
        4
 90
       56
 90
       57
 90
       59
 90
       60
 90
        4
 90
       55
 90
       56
 90
       60
 90
       61
 90
        4
 90
       54
 90
       55
 90
       61
 90
       62
 90
        4
 90
       45
 90
       46
 90
       48
 90
       49
 90
        4
 90
       44
 90
       45
 90
       49
 90
       50
 90
        4
 90
       42
 90
       44
 90
       50
 90
       47
 90
        4
 90
       40
 90
       42
 90
       47
 90
       51
 90
        4
 90
       53
 90
       54
 90
       62
 90
       58
 90
        4
 90
       32
 90
       33
 90
      166
 90
      164
 90
        4
 90
       33
 90
      113
 90
      210
 90
      166
 90
        4
 90
      113
 90
       31
 90
      150
 90
      210
 90
        4
 90
       31
 90
      114
 90
      208
 90
      150
 90
        4
 90
      114
 90
       84
 90
      149
 90
      208
 90
        4
 90
       84
 90
      115
 90
      207
 90
      149
 90
        4
 90
      115
 90
       87
 90
      206
 90
      207
 90
        4
 90
       87
 90
      116
 90
      147
 90
      206
 90
        4
 90
      116
 90
      101
 90
      146
 90
      147
 90
        4
 90
      101
 90
      100
 90
      205
 90
      146
 90
        4
 90
      100
 90
       99
 90
      204
 90
      205
 90
        4
 90
       99
 90
       98
 90
      145
 90
      204
 90
        4
 90
       98
 90
       97
 90
      144
 90
      145
 90
        4
 90
       97
 90
        7
 90
      143
 90
      144
 90
        4
 90
        7
 90
        5
 90
      142
 90
      143
 90
        4
 90
        5
 90
        6
 90
      199
 90
      142
 90
        4
 90
        6
 90
       96
 90
      140
 90
      199
 90
        4
 90
       96
 90
       95
 90
      198
 90
      140
 90
        4
 90
       95
 90
       94
 90
      138
 90
      198
 90
        4
 90
       94
 90
       93
 90
      137
 90
      138
 90
        4
 90
       93
 90
       92
 90
      197
 90
      137
 90
        4
 90
       92
 90
      109
 90
      196
 90
      197
 90
        4
 90
      109
 90
       91
 90
      136
 90
      196
 90
        4
 90
       91
 90
      108
 90
      195
 90
      136
 90
        4
 90
      108
 90
       90
 90
      135
 90
      195
 90
        4
 90
       90
 90
      107
 90
      194
 90
      135
 90
        4
 90
      107
 90
       88
 90
      134
 90
      194
 90
        4
 90
       88
 90
      103
 90
      133
 90
      134
 90
        4
 90
      103
 90
        8
 90
      132
 90
      133
 90
        4
 90
        8
 90
      104
 90
      131
 90
      132
 90
        4
 90
      104
 90
       11
 90
      192
 90
      131
 90
        4
 90
       11
 90
      106
 90
      190
 90
      192
 90
        4
 90
      106
 90
       20
 90
      130
 90
      190
 90
        4
 90
       20
 90
      105
 90
      189
 90
      130
 90
        4
 90
      105
 90
       14
 90
      183
 90
      189
 90
        4
 90
       14
 90
      110
 90
      182
 90
      183
 90
        4
 90
      110
 90
       17
 90
      124
 90
      182
 90
        4
 90
       17
 90
      112
 90
      180
 90
      124
 90
        4
 90
      112
 90
       25
 90
      179
 90
      180
 90
        4
 90
       25
 90
      111
 90
      122
 90
      179
 90
        4
 90
      111
 90
       21
 90
      178
 90
      122
 90
        4
 90
       21
 90
       30
 90
      119
 90
      178
 90
        4
 90
       30
 90
        3
 90
      176
 90
      119
 90
        4
 90
        3
 90
        1
 90
      175
 90
      176
 90
        4
 90
        1
 90
        2
 90
      118
 90
      175
 90
        4
 90
        2
 90
        0
 90
      117
 90
      118
 90
        4
 90
        0
 90
       24
 90
      177
 90
      117
 90
        4
 90
       24
 90
       22
 90
      120
 90
      177
 90
        4
 90
       22
 90
       23
 90
      121
 90
      120
 90
        4
 90
       23
 90
       26
 90
      123
 90
      121
 90
        4
 90
       26
 90
       27
 90
      181
 90
      123
 90
        4
 90
       27
 90
       28
 90
      125
 90
      181
 90
        4
 90
       28
 90
       29
 90
      187
 90
      125
 90
        4
 90
       29
 90
       18
 90
      186
 90
      187
 90
        4
 90
       18
 90
       15
 90
      185
 90
      186
 90
        4
 90
       15
 90
       16
 90
      128
 90
      185
 90
        4
 90
       16
 90
       19
 90
      127
 90
      128
 90
        4
 90
       19
 90
       12
 90
      129
 90
      127
 90
        4
 90
       12
 90
        9
 90
      188
 90
      129
 90
        4
 90
        9
 90
       10
 90
      126
 90
      188
 90
        4
 90
       10
 90
       13
 90
      184
 90
      126
 90
        4
 90
       13
 90
      102
 90
      191
 90
      184
 90
        4
 90
      102
 90
       89
 90
      193
 90
      191
 90
        4
 90
       89
 90
        4
 90
      139
 90
      193
 90
        4
 90
        4
 90
       86
 90
      141
 90
      139
 90
        4
 90
       86
 90
       85
 90
      200
 90
      141
 90
        4
 90
       85
 90
       83
 90
      201
 90
      200
 90
        4
 90
       83
 90
       82
 90
      202
 90
      201
 90
        4
 90
       82
 90
       81
 90
      203
 90
      202
 90
        4
 90
       81
 90
       80
 90
      148
 90
      203
 90
        4
 90
       80
 90
       79
 90
      209
 90
      148
 90
        4
 90
       79
 90
       78
 90
      211
 90
      209
 90
        4
 90
       78
 90
       69
 90
      158
 90
      211
 90
        4
 90
       69
 90
       67
 90
      216
 90
      158
 90
        4
 90
       67
 90
       73
 90
      157
 90
      216
 90
        4
 90
       73
 90
       77
 90
      214
 90
      157
 90
        4
 90
       77
 90
       76
 90
      154
 90
      214
 90
        4
 90
       76
 90
       75
 90
      153
 90
      154
 90
        4
 90
       75
 90
       74
 90
      152
 90
      153
 90
        4
 90
       74
 90
       72
 90
      151
 90
      152
 90
        4
 90
       72
 90
       71
 90
      212
 90
      151
 90
        4
 90
       71
 90
       70
 90
      213
 90
      212
 90
        4
 90
       70
 90
       68
 90
      155
 90
      213
 90
        4
 90
       68
 90
       66
 90
      156
 90
      155
 90
        4
 90
       66
 90
       65
 90
      215
 90
      156
 90
        4
 90
       65
 90
       64
 90
      217
 90
      215
 90
        4
 90
       64
 90
       63
 90
      219
 90
      217
 90
        4
 90
       63
 90
       43
 90
      218
 90
      219
 90
        4
 90
       43
 90
       41
 90
      163
 90
      218
 90
        4
 90
       41
 90
       52
 90
      222
 90
      163
 90
        4
 90
       52
 90
       58
 90
      162
 90
      222
 90
        4
 90
       58
 90
       62
 90
      171
 90
      162
 90
        4
 90
       62
 90
       61
 90
      228
 90
      171
 90
        4
 90
       61
 90
       60
 90
      227
 90
      228
 90
        4
 90
       60
 90
       59
 90
      168
 90
      227
 90
        4
 90
       59
 90
       57
 90
      167
 90
      168
 90
        4
 90
       57
 90
       56
 90
      226
 90
      167
 90
        4
 90
       56
 90
       55
 90
      169
 90
      226
 90
        4
 90
       55
 90
       54
 90
      170
 90
      169
 90
        4
 90
       54
 90
       53
 90
      220
 90
      170
 90
        4
 90
       53
 90
       51
 90
      161
 90
      220
 90
        4
 90
       51
 90
       47
 90
      174
 90
      161
 90
        4
 90
       47
 90
       50
 90
      232
 90
      174
 90
        4
 90
       50
 90
       49
 90
      230
 90
      232
 90
        4
 90
       49
 90
       48
 90
      229
 90
      230
 90
        4
 90
       48
 90
       46
 90
      173
 90
      229
 90
        4
 90
       46
 90
       45
 90
      172
 90
      173
 90
        4
 90
       45
 90
       44
 90
      231
 90
      172
 90
        4
 90
       44
 90
       42
 90
      233
 90
      231
 90
        4
 90
       42
 90
       40
 90
      160
 90
      233
 90
        4
 90
       40
 90
       39
 90
      221
 90
      160
 90
        4
 90
       39
 90
       38
 90
      223
 90
      221
 90
        4
 90
       38
 90
       37
 90
      159
 90
      223
 90
        4
 90
       37
 90
       36
 90
      224
 90
      159
 90
        4
 90
       36
 90
       35
 90
      225
 90
      224
 90
        4
 90
       35
 90
       34
 90
      165
 90
      225
 90
        4
 90
       34
 90
       32
 90
      164
 90
      165
 90
        3
 90
      175
 90
      118
 90
      117
 90
        4
 90
      175
 90
      117
 90
      177
 90
      176
 90
        4
 90
      176
 90
      177
 90
      120
 90
      119
 90
        4
 90
      119
 90
      120
 90
      121
 90
      178
 90
        4
 90
      178
 90
      121
 90
      123
 90
      122
 90
        3
 90
      122
 90
      123
 90
      179
 90
        4
 90
      179
 90
      123
 90
      181
 90
      180
 90
        3
 90
      180
 90
      181
 90
      124
 90
        4
 90
      124
 90
      181
 90
      125
 90
      182
 90
        3
 90
      182
 90
      125
 90
      183
 90
        4
 90
      183
 90
      125
 90
      126
 90
      184
 90
        4
 90
      127
 90
      186
 90
      185
 90
      128
 90
        4
 90
      129
 90
      187
 90
      186
 90
      127
 90
        3
 90
      188
 90
      187
 90
      129
 90
        4
 90
      126
 90
      125
 90
      187
 90
      188
 90
        3
 90
      189
 90
      184
 90
      130
 90
        4
 90
      130
 90
      184
 90
      191
 90
      190
 90
        3
 90
      183
 90
      184
 90
      189
 90
        3
 90
      190
 90
      191
 90
      192
 90
        4
 90
      192
 90
      191
 90
      193
 90
      131
 90
        3
 90
      131
 90
      193
 90
      132
 90
        3
 90
      132
 90
      193
 90
      133
 90
        3
 90
      133
 90
      193
 90
      134
 90
        3
 90
      134
 90
      193
 90
      194
 90
        3
 90
      194
 90
      193
 90
      135
 90
        3
 90
      135
 90
      193
 90
      195
 90
        3
 90
      195
 90
      193
 90
      136
 90
        3
 90
      136
 90
      193
 90
      196
 90
        3
 90
      196
 90
      193
 90
      197
 90
        3
 90
      197
 90
      193
 90
      137
 90
        3
 90
      137
 90
      193
 90
      138
 90
        3
 90
      138
 90
      193
 90
      198
 90
        3
 90
      198
 90
      193
 90
      139
 90
        3
 90
      198
 90
      139
 90
      140
 90
        3
 90
      140
 90
      139
 90
      141
 90
        4
 90
      140
 90
      141
 90
      200
 90
      199
 90
        3
 90
      199
 90
      200
 90
      142
 90
        4
 90
      142
 90
      200
 90
      201
 90
      143
 90
        3
 90
      143
 90
      201
 90
      202
 90
        3
 90
      143
 90
      202
 90
      144
 90
        4
 90
      144
 90
      202
 90
      203
 90
      145
 90
        3
 90
      145
 90
      203
 90
      204
 90
        3
 90
      204
 90
      203
 90
      205
 90
        3
 90
      205
 90
      203
 90
      146
 90
        4
 90
      146
 90
      203
 90
      148
 90
      147
 90
        3
 90
      147
 90
      148
 90
      206
 90
        3
 90
      206
 90
      148
 90
      207
 90
        3
 90
      207
 90
      148
 90
      149
 90
        4
 90
      149
 90
      148
 90
      209
 90
      208
 90
        3
 90
      208
 90
      209
 90
      150
 90
        3
 90
      150
 90
      209
 90
      210
 90
        3
 90
      210
 90
      209
 90
      211
 90
        4
 90
      212
 90
      153
 90
      152
 90
      151
 90
        4
 90
      213
 90
      154
 90
      153
 90
      212
 90
        4
 90
      155
 90
      214
 90
      154
 90
      213
 90
        4
 90
      156
 90
      157
 90
      214
 90
      155
 90
        4
 90
      215
 90
      216
 90
      157
 90
      156
 90
        4
 90
      217
 90
      158
 90
      216
 90
      215
 90
        3
 90
      210
 90
      218
 90
      159
 90
        3
 90
      210
 90
      211
 90
      219
 90
        4
 90
      219
 90
      211
 90
      158
 90
      217
 90
        4
 90
      160
 90
      162
 90
      220
 90
      161
 90
        4
 90
      221
 90
      222
 90
      162
 90
      160
 90
        4
 90
      223
 90
      163
 90
      222
 90
      221
 90
        4
 90
      159
 90
      218
 90
      163
 90
      223
 90
        3
 90
      210
 90
      159
 90
      224
 90
        3
 90
      218
 90
      210
 90
      219
 90
        3
 90
      210
 90
      224
 90
      225
 90
        3
 90
      210
 90
      165
 90
      164
 90
        3
 90
      210
 90
      225
 90
      165
 90
        3
 90
      210
 90
      164
 90
      166
 90
        4
 90
      226
 90
      227
 90
      168
 90
      167
 90
        4
 90
      169
 90
      228
 90
      227
 90
      226
 90
        4
 90
      170
 90
      171
 90
      228
 90
      169
 90
        4
 90
      172
 90
      230
 90
      229
 90
      173
 90
        4
 90
      231
 90
      232
 90
      230
 90
      172
 90
        4
 90
      233
 90
      174
 90
      232
 90
      231
 90
        4
 90
      160
 90
      161
 90
      174
 90
      233
 90
        4
 90
      220
 90
      162
 90
      171
 90
      170
 94
      507
 90
        0
 90
        1
 90
        0
 90
        2
 90
        1
 90
        2
 90
        1
 90
        3
 90
        3
 90
       24
 90
        0
 90
       24
 90
        3
 90
       30
 90
       22
 90
       30
 90
       22
 90
       24
 90
       21
 90
       30
 90
       21
 90
       23
 90
       22
 90
       23
 90
       21
 90
      111
 90
       26
 90
      111
 90
       23
 90
       26
 90
       25
 90
      111
 90
       25
 90
       26
 90
       25
 90
      112
 90
       27
 90
      112
 90
       26
 90
       27
 90
       17
 90
      112
 90
       17
 90
       27
 90
       17
 90
      110
 90
       28
 90
      110
 90
       27
 90
       28
 90
       14
 90
      110
 90
       14
 90
       28
 90
       13
 90
       14
 90
       10
 90
       13
 90
       10
 90
       28
 90
       16
 90
       19
 90
       15
 90
       16
 90
       15
 90
       18
 90
       18
 90
       19
 90
       12
 90
       19
 90
       18
 90
       29
 90
       12
 90
       29
 90
        9
 90
       12
 90
        9
 90
       29
 90
        9
 90
       10
 90
       28
 90
       29
 90
       20
 90
      105
 90
       13
 90
       20
 90
       13
 90
      105
 90
       20
 90
      106
 90
      102
 90
      106
 90
       13
 90
      102
 90
       14
 90
      105
 90
       11
 90
      106
 90
       11
 90
      102
 90
       11
 90
      104
 90
       89
 90
      104
 90
       89
 90
      102
 90
        8
 90
      104
 90
        8
 90
       89
 90
        8
 90
      103
 90
       89
 90
      103
 90
       88
 90
      103
 90
       88
 90
       89
 90
       88
 90
      107
 90
       89
 90
      107
 90
       90
 90
      107
 90
       89
 90
       90
 90
       90
 90
      108
 90
       89
 90
      108
 90
       91
 90
      108
 90
       89
 90
       91
 90
       91
 90
      109
 90
       89
 90
      109
 90
       92
 90
      109
 90
       89
 90
       92
 90
       92
 90
       93
 90
       89
 90
       93
 90
       93
 90
       94
 90
       89
 90
       94
 90
       94
 90
       95
 90
       89
 90
       95
 90
        4
 90
       95
 90
        4
 90
       89
 90
       95
 90
       96
 90
        4
 90
       96
 90
       86
 90
       96
 90
        4
 90
       86
 90
        6
 90
       96
 90
        6
 90
       85
 90
       85
 90
       86
 90
        5
 90
        6
 90
        5
 90
       85
 90
        5
 90
        7
 90
        7
 90
       83
 90
       83
 90
       85
 90
        7
 90
       82
 90
       82
 90
       83
 90
        7
 90
       97
 90
       82
 90
       97
 90
       97
 90
       98
 90
       81
 90
       98
 90
       81
 90
       82
 90
       98
 90
       99
 90
       81
 90
       99
 90
       99
 90
      100
 90
       81
 90
      100
 90
      100
 90
      101
 90
       81
 90
      101
 90
      101
 90
      116
 90
       80
 90
      116
 90
       80
 90
       81
 90
       87
 90
      116
 90
       80
 90
       87
 90
       87
 90
      115
 90
       80
 90
      115
 90
       84
 90
      115
 90
       80
 90
       84
 90
       84
 90
      114
 90
       79
 90
      114
 90
       79
 90
       80
 90
       31
 90
      114
 90
       31
 90
       79
 90
       31
 90
      113
 90
       79
 90
      113
 90
       78
 90
      113
 90
       78
 90
       79
 90
       71
 90
       72
 90
       72
 90
       74
 90
       74
 90
       75
 90
       71
 90
       75
 90
       70
 90
       71
 90
       75
 90
       76
 90
       70
 90
       76
 90
       68
 90
       70
 90
       76
 90
       77
 90
       68
 90
       77
 90
       66
 90
       68
 90
       73
 90
       77
 90
       66
 90
       73
 90
       65
 90
       66
 90
       67
 90
       73
 90
       65
 90
       67
 90
       64
 90
       65
 90
       67
 90
       69
 90
       64
 90
       69
 90
       37
 90
      113
 90
       37
 90
       43
 90
       43
 90
      113
 90
       63
 90
      113
 90
       63
 90
       78
 90
       63
 90
       64
 90
       69
 90
       78
 90
       40
 90
       51
 90
       51
 90
       53
 90
       53
 90
       58
 90
       40
 90
       58
 90
       39
 90
       40
 90
       52
 90
       58
 90
       39
 90
       52
 90
       38
 90
       39
 90
       41
 90
       52
 90
       38
 90
       41
 90
       37
 90
       38
 90
       41
 90
       43
 90
       36
 90
      113
 90
       36
 90
       37
 90
       43
 90
       63
 90
       35
 90
      113
 90
       35
 90
       36
 90
       32
 90
      113
 90
       32
 90
       34
 90
       34
 90
      113
 90
       34
 90
       35
 90
       33
 90
      113
 90
       32
 90
       33
 90
       56
 90
       57
 90
       57
 90
       59
 90
       59
 90
       60
 90
       56
 90
       60
 90
       55
 90
       56
 90
       60
 90
       61
 90
       55
 90
       61
 90
       54
 90
       55
 90
       61
 90
       62
 90
       54
 90
       62
 90
       45
 90
       46
 90
       46
 90
       48
 90
       48
 90
       49
 90
       45
 90
       49
 90
       44
 90
       45
 90
       49
 90
       50
 90
       44
 90
       50
 90
       42
 90
       44
 90
       47
 90
       50
 90
       42
 90
       47
 90
       40
 90
       42
 90
       47
 90
       51
 90
       53
 90
       54
 90
       58
 90
       62
 90
       33
 90
      166
 90
      164
 90
      166
 90
       32
 90
      164
 90
      113
 90
      210
 90
      166
 90
      210
 90
       31
 90
      150
 90
      150
 90
      210
 90
      114
 90
      208
 90
      150
 90
      208
 90
       84
 90
      149
 90
      149
 90
      208
 90
      115
 90
      207
 90
      149
 90
      207
 90
       87
 90
      206
 90
      206
 90
      207
 90
      116
 90
      147
 90
      147
 90
      206
 90
      101
 90
      146
 90
      146
 90
      147
 90
      100
 90
      205
 90
      146
 90
      205
 90
       99
 90
      204
 90
      204
 90
      205
 90
       98
 90
      145
 90
      145
 90
      204
 90
       97
 90
      144
 90
      144
 90
      145
 90
        7
 90
      143
 90
      143
 90
      144
 90
        5
 90
      142
 90
      142
 90
      143
 90
        6
 90
      199
 90
      142
 90
      199
 90
       96
 90
      140
 90
      140
 90
      199
 90
       95
 90
      198
 90
      140
 90
      198
 90
       94
 90
      138
 90
      138
 90
      198
 90
       93
 90
      137
 90
      137
 90
      138
 90
       92
 90
      197
 90
      137
 90
      197
 90
      109
 90
      196
 90
      196
 90
      197
 90
       91
 90
      136
 90
      136
 90
      196
 90
      108
 90
      195
 90
      136
 90
      195
 90
       90
 90
      135
 90
      135
 90
      195
 90
      107
 90
      194
 90
      135
 90
      194
 90
       88
 90
      134
 90
      134
 90
      194
 90
      103
 90
      133
 90
      133
 90
      134
 90
        8
 90
      132
 90
      132
 90
      133
 90
      104
 90
      131
 90
      131
 90
      132
 90
       11
 90
      192
 90
      131
 90
      192
 90
      106
 90
      190
 90
      190
 90
      192
 90
       20
 90
      130
 90
      130
 90
      190
 90
      105
 90
      189
 90
      130
 90
      189
 90
       14
 90
      183
 90
      183
 90
      189
 90
      110
 90
      182
 90
      182
 90
      183
 90
       17
 90
      124
 90
      124
 90
      182
 90
      112
 90
      180
 90
      124
 90
      180
 90
       25
 90
      179
 90
      179
 90
      180
 90
      111
 90
      122
 90
      122
 90
      179
 90
       21
 90
      178
 90
      122
 90
      178
 90
       30
 90
      119
 90
      119
 90
      178
 90
        3
 90
      176
 90
      119
 90
      176
 90
        1
 90
      175
 90
      175
 90
      176
 90
        2
 90
      118
 90
      118
 90
      175
 90
        0
 90
      117
 90
      117
 90
      118
 90
       24
 90
      177
 90
      117
 90
      177
 90
       22
 90
      120
 90
      120
 90
      177
 90
       23
 90
      121
 90
      120
 90
      121
 90
       26
 90
      123
 90
      121
 90
      123
 90
       27
 90
      181
 90
      123
 90
      181
 90
       28
 90
      125
 90
      125
 90
      181
 90
       29
 90
      187
 90
      125
 90
      187
 90
       18
 90
      186
 90
      186
 90
      187
 90
       15
 90
      185
 90
      185
 90
      186
 90
       16
 90
      128
 90
      128
 90
      185
 90
       19
 90
      127
 90
      127
 90
      128
 90
       12
 90
      129
 90
      127
 90
      129
 90
        9
 90
      188
 90
      129
 90
      188
 90
       10
 90
      126
 90
      126
 90
      188
 90
       13
 90
      184
 90
      126
 90
      184
 90
      102
 90
      191
 90
      184
 90
      191
 90
       89
 90
      193
 90
      191
 90
      193
 90
        4
 90
      139
 90
      139
 90
      193
 90
       86
 90
      141
 90
      139
 90
      141
 90
       85
 90
      200
 90
      141
 90
      200
 90
       83
 90
      201
 90
      200
 90
      201
 90
       82
 90
      202
 90
      201
 90
      202
 90
       81
 90
      203
 90
      202
 90
      203
 90
       80
 90
      148
 90
      148
 90
      203
 90
       79
 90
      209
 90
      148
 90
      209
 90
       78
 90
      211
 90
      209
 90
      211
 90
       69
 90
      158
 90
      158
 90
      211
 90
       67
 90
      216
 90
      158
 90
      216
 90
       73
 90
      157
 90
      157
 90
      216
 90
       77
 90
      214
 90
      157
 90
      214
 90
       76
 90
      154
 90
      154
 90
      214
 90
       75
 90
      153
 90
      153
 90
      154
 90
       74
 90
      152
 90
      152
 90
      153
 90
       72
 90
      151
 90
      151
 90
      152
 90
       71
 90
      212
 90
      151
 90
      212
 90
       70
 90
      213
 90
      212
 90
      213
 90
       68
 90
      155
 90
      155
 90
      213
 90
       66
 90
      156
 90
      155
 90
      156
 90
       65
 90
      215
 90
      156
 90
      215
 90
       64
 90
      217
 90
      215
 90
      217
 90
       63
 90
      219
 90
      217
 90
      219
 90
       43
 90
      218
 90
      218
 90
      219
 90
       41
 90
      163
 90
      163
 90
      218
 90
       52
 90
      222
 90
      163
 90
      222
 90
       58
 90
      162
 90
      162
 90
      222
 90
       62
 90
      171
 90
      162
 90
      171
 90
       61
 90
      228
 90
      171
 90
      228
 90
       60
 90
      227
 90
      227
 90
      228
 90
       59
 90
      168
 90
      168
 90
      227
 90
       57
 90
      167
 90
      167
 90
      168
 90
       56
 90
      226
 90
      167
 90
      226
 90
       55
 90
      169
 90
      169
 90
      226
 90
       54
 90
      170
 90
      169
 90
      170
 90
       53
 90
      220
 90
      170
 90
      220
 90
       51
 90
      161
 90
      161
 90
      220
 90
       47
 90
      174
 90
      161
 90
      174
 90
       50
 90
      232
 90
      174
 90
      232
 90
       49
 90
      230
 90
      230
 90
      232
 90
       48
 90
      229
 90
      229
 90
      230
 90
       46
 90
      173
 90
      173
 90
      229
 90
       45
 90
      172
 90
      172
 90
      173
 90
       44
 90
      231
 90
      172
 90
      231
 90
       42
 90
      233
 90
      231
 90
      233
 90
       40
 90
      160
 90
      160
 90
      233
 90
       39
 90
      221
 90
      160
 90
      221
 90
       38
 90
      223
 90
      221
 90
      223
 90
       37
 90
      159
 90
      159
 90
      223
 90
       36
 90
      224
 90
      159
 90
      224
 90
       35
 90
      225
 90
      224
 90
      225
 90
       34
 90
      165
 90
      165
 90
      225
 90
      164
 90
      165
 90
      117
 90
      175
 90
      176
 90
      177
 90
      119
 90
      120
 90
      121
 90
      178
 90
      122
 90
      123
 90
      123
 90
      179
 90
      180
 90
      181
 90
      124
 90
      181
 90
      125
 90
      182
 90
      125
 90
      183
 90
      125
 90
      126
 90
      183
 90
      184
 90
      127
 90
      186
 90
      129
 90
      187
 90
      187
 90
      188
 90
      184
 90
      189
 90
      130
 90
      184
 90
      190
 90
      191
 90
      191
 90
      192
 90
      131
 90
      193
 90
      132
 90
      193
 90
      133
 90
      193
 90
      134
 90
      193
 90
      193
 90
      194
 90
      135
 90
      193
 90
      193
 90
      195
 90
      136
 90
      193
 90
      193
 90
      196
 90
      193
 90
      197
 90
      137
 90
      193
 90
      138
 90
      193
 90
      193
 90
      198
 90
      139
 90
      198
 90
      139
 90
      140
 90
      140
 90
      141
 90
      199
 90
      200
 90
      142
 90
      200
 90
      143
 90
      201
 90
      143
 90
      202
 90
      144
 90
      202
 90
      145
 90
      203
 90
      203
 90
      204
 90
      203
 90
      205
 90
      146
 90
      203
 90
      147
 90
      148
 90
      148
 90
      206
 90
      148
 90
      207
 90
      148
 90
      149
 90
      208
 90
      209
 90
      150
 90
      209
 90
      209
 90
      210
 90
      210
 90
      211
 90
      153
 90
      212
 90
      154
 90
      213
 90
      155
 90
      214
 90
      156
 90
      157
 90
      215
 90
      216
 90
      158
 90
      217
 90
      210
 90
      218
 90
      159
 90
      218
 90
      159
 90
      210
 90
      211
 90
      219
 90
      210
 90
      219
 90
      160
 90
      162
 90
      162
 90
      220
 90
      160
 90
      161
 90
      221
 90
      222
 90
      163
 90
      223
 90
      210
 90
      224
 90
      210
 90
      225
 90
      165
 90
      210
 90
      164
 90
      210
 90
      226
 90
      227
 90
      169
 90
      228
 90
      170
 90
      171
 90
      172
 90
      230
 90
      231
 90
      232
 90
      174
 90
      233
 95
      507
140
0.0
140
0.0
140
0.0
140
0.0
140
0.0
140
0.0
140
0.0
140
0.0
140
0.0
140
0.0
140
0.0
140
0.0
140
0.0
140
0.0
140
0.0
140
0.0
140
0.0
140
0.0
140
0.0
140
0.0
140
0.0
140
0.0
140
0.0
140
0.0
140
0.0
140
0.0
140
0.0
140
0.0
140
0.0
140
0.0
140
0.0
140
0.0
140
0.0
140
0.0
140
0.0
140
0.0
140
0.0
140
0.0
140
0.0
140
0.0
140
0.0
140
0.0
140
0.0
140
0.0
140
0.0
140
0.0
140
0.0
140
0.0
140
0.0
140
0.0
140
0.0
140
0.0
140
0.0
140
0.0
140
0.0
140
0.0
140
0.0
140
0.0
140
0.0
140
0.0
140
0.0
140
0.0
140
0.0
140
0.0
140
0.0
140
0.0
140
0.0
140
0.0
140
0.0
140
0.0
140
0.0
140
0.0
140
0.0
140
0.0
140
0.0
140
0.0
140
0.0
140
0.0
140
0.0
140
0.0
140
0.0
140
0.0
140
0.0
140
0.0
140
0.0
140
0.0
140
0.0
140
0.0
140
0.0
140
0.0
140
0.0
140
0.0
140
0.0
140
0.0
140
0.0
140
0.0
140
0.0
140
0.0
140
0.0
140
0.0
140
0.0
140
0.0
140
0.0
140
0.0
140
0.0
140
0.0
140
0.0
140
0.0
140
0.0
140
0.0
140
0.0
140
0.0
140
0.0
140
0.0
140
0.0
140
0.0
140
0.0
140
0.0
140
0.0
140
0.0
140
0.0
140
0.0
140
0.0
140
0.0
140
0.0
140
0.0
140
0.0
140
0.0
140
0.0
140
0.0
140
0.0
140
0.0
140
0.0
140
0.0
140
0.0
140
0.0
140
0.0
140
0.0
140
0.0
140
0.0
140
0.0
140
0.0
140
0.0
140
0.0
140
0.0
140
0.0
140
0.0
140
0.0
140
0.0
140
0.0
140
0.0
140
0.0
140
0.0
140
0.0
140
0.0
140
0.0
140
0.0
140
0.0
140
0.0
140
0.0
140
0.0
140
0.0
140
0.0
140
0.0
140
0.0
140
0.0
140
0.0
140
0.0
140
0.0
140
0.0
140
0.0
140
0.0
140
0.0
140
0.0
140
0.0
140
0.0
140
0.0
140
0.0
140
0.0
140
0.0
140
0.0
140
0.0
140
0.0
140
0.0
140
0.0
140
0.0
140
0.0
140
0.0
140
0.0
140
0.0
140
0.0
140
0.0
140
0.0
140
0.0
140
0.0
140
0.0
140
0.0
140
0.0
140
0.0
140
0.0
140
0.0
140
0.0
140
0.0
140
0.0
140
0.0
140
0.0
140
0.0
140
0.0
140
0.0
140
0.0
140
0.0
140
0.0
140
0.0
140
0.0
140
0.0
140
0.0
140
0.0
140
0.0
140
0.0
140
0.0
140
0.0
140
0.0
140
0.0
140
0.0
140
0.0
140
0.0
140
0.0
140
0.0
140
0.0
140
0.0
140
0.0
140
0.0
140
0.0
140
0.0
140
0.0
140
0.0
140
0.0
140
0.0
140
0.0
140
0.0
140
0.0
140
0.0
140
0.0
140
0.0
140
0.0
140
0.0
140
0.0
140
0.0
140
0.0
140
0.0
140
0.0
140
0.0
140
0.0
140
0.0
140
0.0
140
0.0
140
0.0
140
0.0
140
0.0
140
0.0
140
0.0
140
0.0
140
0.0
140
0.0
140
0.0
140
0.0
140
0.0
140
0.0
140
0.0
140
0.0
140
0.0
140
0.0
140
0.0
140
0.0
140
0.0
140
0.0
140
0.0
140
0.0
140
0.0
140
0.0
140
0.0
140
0.0
140
0.0
140
0.0
140
0.0
140
0.0
140
0.0
140
0.0
140
0.0
140
0.0
140
0.0
140
0.0
140
0.0
140
0.0
140
0.0
140
0.0
140
0.0
140
0.0
140
0.0
140
0.0
140
0.0
140
0.0
140
0.0
140
0.0
140
0.0
140
0.0
140
0.0
140
0.0
140
0.0
140
0.0
140
0.0
140
0.0
140
0.0
140
0.0
140
0.0
140
0.0
140
0.0
140
0.0
140
0.0
140
0.0
140
0.0
140
0.0
140
0.0
140
0.0
140
0.0
140
0.0
140
0.0
140
0.0
140
0.0
140
0.0
140
0.0
140
0.0
140
0.0
140
0.0
140
0.0
140
0.0
140
0.0
140
0.0
140
0.0
140
0.0
140
0.0
140
0.0
140
0.0
140
0.0
140
0.0
140
0.0
140
0.0
140
0.0
140
0.0
140
0.0
140
0.0
140
0.0
140
0.0
140
0.0
140
0.0
140
0.0
140
0.0
140
0.0
140
0.0
140
0.0
140
0.0
140
0.0
140
0.0
140
0.0
140
0.0
140
0.0
140
0.0
140
0.0
140
0.0
140
0.0
140
0.0
140
0.0
140
0.0
140
0.0
140
0.0
140
0.0
140
0.0
140
0.0
140
0.0
140
0.0
140
0.0
140
0.0
140
0.0
140
0.0
140
0.0
140
0.0
140
0.0
140
0.0
140
0.0
140
0.0
140
0.0
140
0.0
140
0.0
140
0.0
140
0.0
140
0.0
140
0.0
140
0.0
140
0.0
140
0.0
140
0.0
140
0.0
140
0.0
140
0.0
140
0.0
140
0.0
140
0.0
140
0.0
140
0.0
140
0.0
140
0.0
140
0.0
140
0.0
140
0.0
140
0.0
140
0.0
140
0.0
140
0.0
140
0.0
140
0.0
140
0.0
140
0.0
140
0.0
140
0.0
140
0.0
140
0.0
140
0.0
140
0.0
140
0.0
140
0.0
140
0.0
140
0.0
140
0.0
140
0.0
140
0.0
140
0.0
140
0.0
140
0.0
140
0.0
140
0.0
140
0.0
140
0.0
140
0.0
140
0.0
140
0.0
140
0.0
140
0.0
140
0.0
140
0.0
140
0.0
140
0.0
140
0.0
140
0.0
140
0.0
140
0.0
140
0.0
140
0.0
140
0.0
140
0.0
140
0.0
140
0.0
140
0.0
140
0.0
140
0.0
140
0.0
140
0.0
140
0.0
140
0.0
140
0.0
140
0.0
140
0.0
140
0.0
140
0.0
140
0.0
140
0.0
140
0.0
140
0.0
140
0.0
140
0.0
140
0.0
140
0.0
140
0.0
140
0.0
140
0.0
140
0.0
140
0.0
140
0.0
140
0.0
140
0.0
140
0.0
140
0.0
140
0.0
140
0.0
140
0.0
140
0.0
140
0.0
140
0.0
140
0.0
140
0.0
140
0.0
140
0.0
140
0.0
140
0.0
140
0.0
140
0.0
140
0.0
140
0.0
 90
        0
  0
POLYLINE
  5
FA
330
1F
100
AcDbEntity
  8
OracDecor_skirtings
 62
   221
420
 15050455
100
AcDb2dPolyline
 66
     1
 10
0.0
 20
0.0
 30
-0.0000099256976682
 70
     1
210
-0.9999999999999769
220
0.0000001788139343
230
-0.0000001192092896
  0
VERTEX
  5
FB
330
FA
100
AcDbEntity
  8
OracDecor_skirtings
 62
   221
420
 15050455
100
AcDbVertex
100
AcDb2dVertex
 10
-0.0000033378589706
 20
96.07122802734375
 30
-0.0000099256976682
  0
VERTEX
  5
FC
330
FA
100
AcDbEntity
  8
OracDecor_skirtings
 62
   221
420
 15050455
100
AcDbVertex
100
AcDb2dVertex
 10
-0.0000033378589706
 20
99.99998474121094
 30
-0.0000099256976682
  0
VERTEX
  5
FD
330
FA
100
AcDbEntity
  8
OracDecor_skirtings
 62
   221
420
 15050455
100
AcDbVertex
100
AcDb2dVertex
 10
-5.05212116241455
 20
99.99998474121094
 30
-0.0000099256976682
  0
VERTEX
  5
FE
330
FA
100
AcDbEntity
  8
OracDecor_skirtings
 62
   221
420
 15050455
100
AcDbVertex
100
AcDb2dVertex
 10
-5.192034721374511
 20
99.94290161132813
 30
-0.0000099256976682
  0
VERTEX
  5
FF
330
FA
100
AcDbEntity
  8
OracDecor_skirtings
 62
   221
420
 15050455
100
AcDbVertex
100
AcDb2dVertex
 10
-5.252076148986816
 20
99.80422973632812
 30
-0.0000099256976682
  0
VERTEX
  5
100
330
FA
100
AcDbEntity
  8
OracDecor_skirtings
 62
   221
420
 15050455
100
AcDbVertex
100
AcDb2dVertex
 10
-5.579236984252929
 20
97.81715393066406
 30
-0.0000099256976682
  0
VERTEX
  5
101
330
FA
100
AcDbEntity
  8
OracDecor_skirtings
 62
   221
420
 15050455
100
AcDbVertex
100
AcDb2dVertex
 10
-5.936141490936279
 20
96.68411254882812
 30
-0.0000099256976682
  0
VERTEX
  5
102
330
FA
100
AcDbEntity
  8
OracDecor_skirtings
 62
   221
420
 15050455
100
AcDbVertex
100
AcDb2dVertex
 10
-6.547406673431396
 20
95.40937805175781
 30
-0.0000099256976682
  0
VERTEX
  5
103
330
FA
100
AcDbEntity
  8
OracDecor_skirtings
 62
   221
420
 15050455
100
AcDbVertex
100
AcDb2dVertex
 10
-7.207437515258789
 20
94.42169189453125
 30
-0.0000099256976682
  0
VERTEX
  5
104
330
FA
100
AcDbEntity
  8
OracDecor_skirtings
 62
   221
420
 15050455
100
AcDbVertex
100
AcDb2dVertex
 10
-8.15132999420166
 20
93.36923217773437
 30
-0.0000099256976682
  0
VERTEX
  5
105
330
FA
100
AcDbEntity
  8
OracDecor_skirtings
 62
   221
420
 15050455
100
AcDbVertex
100
AcDb2dVertex
 10
-9.061627388000488
 20
92.60600280761719
 30
-0.0000099256976682
  0
VERTEX
  5
106
330
FA
100
AcDbEntity
  8
OracDecor_skirtings
 62
   221
420
 15050455
100
AcDbVertex
100
AcDb2dVertex
 10
-10.43256378173828
 20
91.75454711914062
 30
-0.0000099256976682
  0
VERTEX
  5
107
330
FA
100
AcDbEntity
  8
OracDecor_skirtings
 62
   221
420
 15050455
100
AcDbVertex
100
AcDb2dVertex
 10
-11.10830497741699
 20
91.32638549804687
 30
-0.0000099256976682
  0
VERTEX
  5
108
330
FA
100
AcDbEntity
  8
OracDecor_skirtings
 62
   221
420
 15050455
100
AcDbVertex
100
AcDb2dVertex
 10
-11.76886940002441
 20
90.89945983886719
 30
-0.0000099256976682
  0
VERTEX
  5
109
330
FA
100
AcDbEntity
  8
OracDecor_skirtings
 62
   221
420
 15050455
100
AcDbVertex
100
AcDb2dVertex
 10
-12.35543823242187
 20
90.37059020996094
 30
-0.0000099256976682
  0
VERTEX
  5
10A
330
FA
100
AcDbEntity
  8
OracDecor_skirtings
 62
   221
420
 15050455
100
AcDbVertex
100
AcDb2dVertex
 10
-12.84808731079101
 20
89.75778198242187
 30
-0.0000099256976682
  0
VERTEX
  5
10B
330
FA
100
AcDbEntity
  8
OracDecor_skirtings
 62
   221
420
 15050455
100
AcDbVertex
100
AcDb2dVertex
 10
-13.23856163024902
 20
89.07128906249999
 30
-0.0000099256976682
  0
VERTEX
  5
10C
330
FA
100
AcDbEntity
  8
OracDecor_skirtings
 62
   221
420
 15050455
100
AcDbVertex
100
AcDb2dVertex
 10
-13.51363563537598
 20
88.33415222167969
 30
-0.0000099256976682
  0
VERTEX
  5
10D
330
FA
100
AcDbEntity
  8
OracDecor_skirtings
 62
   221
420
 15050455
100
AcDbVertex
100
AcDb2dVertex
 10
-13.66838073730469
 20
87.55967712402343
 30
-0.0000099256976682
  0
VERTEX
  5
10E
330
FA
100
AcDbEntity
  8
OracDecor_skirtings
 62
   221
420
 15050455
100
AcDbVertex
100
AcDb2dVertex
 10
-13.69765472412109
 20
86.77407836914062
 30
-0.0000099256976682
  0
VERTEX
  5
10F
330
FA
100
AcDbEntity
  8
OracDecor_skirtings
 62
   221
420
 15050455
100
AcDbVertex
100
AcDb2dVertex
 10
-13.60097980499267
 20
85.99023437499999
 30
-0.0000099256976682
  0
VERTEX
  5
110
330
FA
100
AcDbEntity
  8
OracDecor_skirtings
 62
   221
420
 15050455
100
AcDbVertex
100
AcDb2dVertex
 10
-13.38153076171875
 20
85.23468017578125
 30
-0.0000099256976682
  0
VERTEX
  5
111
330
FA
100
AcDbEntity
  8
OracDecor_skirtings
 62
   221
420
 15050455
100
AcDbVertex
100
AcDb2dVertex
 10
-13.04323291778564
 20
84.52102661132812
 30
-0.0000099256976682
  0
VERTEX
  5
112
330
FA
100
AcDbEntity
  8
OracDecor_skirtings
 62
   221
420
 15050455
100
AcDbVertex
100
AcDb2dVertex
 10
-12.59755516052246
 20
83.87326049804688
 30
-0.0000099256976682
  0
VERTEX
  5
113
330
FA
100
AcDbEntity
  8
OracDecor_skirtings
 62
   221
420
 15050455
100
AcDbVertex
100
AcDb2dVertex
 10
-12.05197715759277
 20
83.30220031738281
 30
-0.0000099256976682
  0
VERTEX
  5
114
330
FA
100
AcDbEntity
  8
OracDecor_skirtings
 62
   221
420
 15050455
100
AcDbVertex
100
AcDb2dVertex
 10
-11.1061782836914
 20
82.5857696533203
 30
-0.0000099256976682
  0
VERTEX
  5
115
330
FA
100
AcDbEntity
  8
OracDecor_skirtings
 62
   221
420
 15050455
100
AcDbVertex
100
AcDb2dVertex
 10
-11.02858924865723
 20
82.51219177246094
 30
-0.0000099256976682
  0
VERTEX
  5
116
330
FA
100
AcDbEntity
  8
OracDecor_skirtings
 62
   221
420
 15050455
100
AcDbVertex
100
AcDb2dVertex
 10
-11.0
 20
82.40914916992187
 30
-0.0000099256976682
  0
VERTEX
  5
117
330
FA
100
AcDbEntity
  8
OracDecor_skirtings
 62
   221
420
 15050455
100
AcDbVertex
100
AcDb2dVertex
 10
-11.00000190734863
 20
80.73098754882812
 30
-0.0000099256976682
  0
VERTEX
  5
118
330
FA
100
AcDbEntity
  8
OracDecor_skirtings
 62
   221
420
 15050455
100
AcDbVertex
100
AcDb2dVertex
 10
-11.06576728820801
 20
80.59675598144531
 30
-0.0000099256976682
  0
VERTEX
  5
119
330
FA
100
AcDbEntity
  8
OracDecor_skirtings
 62
   221
420
 15050455
100
AcDbVertex
100
AcDb2dVertex
 10
-11.20000076293945
 20
80.53099060058594
 30
-0.0000099256976682
  0
VERTEX
  5
11A
330
FA
100
AcDbEntity
  8
OracDecor_skirtings
 62
   221
420
 15050455
100
AcDbVertex
100
AcDb2dVertex
 10
-12.80000114440918
 20
80.53099060058594
 30
-0.0000099256976682
  0
VERTEX
  5
11B
330
FA
100
AcDbEntity
  8
OracDecor_skirtings
 62
   221
420
 15050455
100
AcDbVertex
100
AcDb2dVertex
 10
-12.93423652648925
 20
80.46522521972656
 30
-0.0000099256976682
  0
VERTEX
  5
11C
330
FA
100
AcDbEntity
  8
OracDecor_skirtings
 62
   221
420
 15050455
100
AcDbVertex
100
AcDb2dVertex
 10
-13.00000190734863
 20
80.33099365234376
 30
-0.0000099256976682
  0
VERTEX
  5
11D
330
FA
100
AcDbEntity
  8
OracDecor_skirtings
 62
   221
420
 15050455
100
AcDbVertex
100
AcDb2dVertex
 10
-13.00000190734863
 20
78.7247314453125
 30
-0.0000099256976682
  0
VERTEX
  5
11E
330
FA
100
AcDbEntity
  8
OracDecor_skirtings
 62
   221
420
 15050455
100
AcDbVertex
100
AcDb2dVertex
 10
-13.05422782897949
 20
78.58779907226562
 30
-0.0000099256976682
  0
VERTEX
  5
11F
330
FA
100
AcDbEntity
  8
OracDecor_skirtings
 62
   221
420
 15050455
100
AcDbVertex
100
AcDb2dVertex
 10
-13.18750190734863
 20
78.52513122558594
 30
-0.0000099256976682
  0
VERTEX
  5
120
330
FA
100
AcDbEntity
  8
OracDecor_skirtings
 62
   221
420
 15050455
100
AcDbVertex
100
AcDb2dVertex
 10
-14.01524353027344
 20
78.31280517578125
 30
-0.0000099256976682
  0
VERTEX
  5
121
330
FA
100
AcDbEntity
  8
OracDecor_skirtings
 62
   221
420
 15050455
100
AcDbVertex
100
AcDb2dVertex
 10
-14.49523735046386
 20
78.08706665039062
 30
-0.0000099256976682
  0
VERTEX
  5
122
330
FA
100
AcDbEntity
  8
OracDecor_skirtings
 62
   221
420
 15050455
100
AcDbVertex
100
AcDb2dVertex
 10
-14.96813011169433
 20
77.74360656738281
 30
-0.0000099256976682
  0
VERTEX
  5
123
330
FA
100
AcDbEntity
  8
OracDecor_skirtings
 62
   221
420
 15050455
100
AcDbVertex
100
AcDb2dVertex
 10
-15.3312931060791
 20
77.35699462890625
 30
-0.0000099256976682
  0
VERTEX
  5
124
330
FA
100
AcDbEntity
  8
OracDecor_skirtings
 62
   221
420
 15050455
100
AcDbVertex
100
AcDb2dVertex
 10
-15.64452171325683
 20
76.86355590820312
 30
-0.0000099256976682
  0
VERTEX
  5
125
330
FA
100
AcDbEntity
  8
OracDecor_skirtings
 62
   221
420
 15050455
100
AcDbVertex
100
AcDb2dVertex
 10
-15.83983325958252
 20
76.37039184570312
 30
-0.0000099256976682
  0
VERTEX
  5
126
330
FA
100
AcDbEntity
  8
OracDecor_skirtings
 62
   221
420
 15050455
100
AcDbVertex
100
AcDb2dVertex
 10
-15.94939804077148
 20
75.79620361328125
 30
-0.0000099256976682
  0
VERTEX
  5
127
330
FA
100
AcDbEntity
  8
OracDecor_skirtings
 62
   221
420
 15050455
100
AcDbVertex
100
AcDb2dVertex
 10
-16.00000381469726
 20
75.260986328125
 30
-0.0000099256976682
  0
VERTEX
  5
128
330
FA
100
AcDbEntity
  8
OracDecor_skirtings
 62
   221
420
 15050455
100
AcDbVertex
100
AcDb2dVertex
 10
-16.00000381469726
 20
-0.0000085830688477
 30
-0.0000099256976682
  0
VERTEX
  5
129
330
FA
100
AcDbEntity
  8
OracDecor_skirtings
 62
   221
420
 15050455
100
AcDbVertex
100
AcDb2dVertex
 10
-8.500000953674316
 20
-0.0000081360340118
 30
-0.0000099256976682
  0
VERTEX
  5
12A
330
FA
100
AcDbEntity
  8
OracDecor_skirtings
 62
   221
420
 15050455
100
AcDbVertex
100
AcDb2dVertex
 10
-8.250123023986816
 20
0.0669550746679306
 30
-0.0000099256976682
  0
VERTEX
  5
12B
330
FA
100
AcDbEntity
  8
OracDecor_skirtings
 62
   221
420
 15050455
100
AcDbVertex
100
AcDb2dVertex
 10
-8.066962242126464
 20
0.2501139640808105
 30
-0.0000099256976682
  0
VERTEX
  5
12C
330
FA
100
AcDbEntity
  8
OracDecor_skirtings
 62
   221
420
 15050455
100
AcDbVertex
100
AcDb2dVertex
 10
-8.000000953674316
 20
0.4999918937683106
 30
-0.0000099256976682
  0
VERTEX
  5
12D
330
FA
100
AcDbEntity
  8
OracDecor_skirtings
 62
   221
420
 15050455
100
AcDbVertex
100
AcDb2dVertex
 10
-8.000000953674316
 20
2.841918468475341
 30
-0.0000099256976682
  0
VERTEX
  5
12E
330
FA
100
AcDbEntity
  8
OracDecor_skirtings
 62
   221
420
 15050455
100
AcDbVertex
100
AcDb2dVertex
 10
-7.940122604370117
 20
3.079116344451904
 30
-0.0000099256976682
  0
VERTEX
  5
12F
330
FA
100
AcDbEntity
  8
OracDecor_skirtings
 62
   221
420
 15050455
100
AcDbVertex
100
AcDb2dVertex
 10
-7.774654388427734
 20
3.259688854217529
 30
-0.0000099256976682
  0
VERTEX
  5
130
330
FA
100
AcDbEntity
  8
OracDecor_skirtings
 62
   221
420
 15050455
100
AcDbVertex
100
AcDb2dVertex
 10
-7.5435791015625
 20
3.340011119842529
 30
-0.0000099256976682
  0
VERTEX
  5
131
330
FA
100
AcDbEntity
  8
OracDecor_skirtings
 62
   221
420
 15050455
100
AcDbVertex
100
AcDb2dVertex
 10
-0.4564247131347657
 20
3.960060119628906
 30
-0.0000099256976682
  0
VERTEX
  5
132
330
FA
100
AcDbEntity
  8
OracDecor_skirtings
 62
   221
420
 15050455
100
AcDbVertex
100
AcDb2dVertex
 10
-0.225348949432373
 20
4.040382385253906
 30
-0.0000099256976682
  0
VERTEX
  5
133
330
FA
100
AcDbEntity
  8
OracDecor_skirtings
 62
   221
420
 15050455
100
AcDbVertex
100
AcDb2dVertex
 10
-0.0598807334899902
 20
4.220962524414062
 30
-0.0000099256976682
  0
VERTEX
  5
134
330
FA
100
AcDbEntity
  8
OracDecor_skirtings
 62
   221
420
 15050455
100
AcDbVertex
100
AcDb2dVertex
 10
-0.0000028610229492
 20
4.458160400390625
 30
-0.0000099256976682
  0
VERTEX
  5
135
330
FA
100
AcDbEntity
  8
OracDecor_skirtings
 62
   221
420
 15050455
100
AcDbVertex
100
AcDb2dVertex
 10
-0.0000033378601074
 20
7.928756713867187
 30
-0.0000099256976682
  0
VERTEX
  5
136
330
FA
100
AcDbEntity
  8
OracDecor_skirtings
 62
   221
420
 15050455
100
AcDbVertex
100
AcDb2dVertex
 10
-0.0765461921691895
 20
8.194541931152343
 30
-0.0000099256976682
  0
VERTEX
  5
137
330
FA
100
AcDbEntity
  8
OracDecor_skirtings
 62
   221
420
 15050455
100
AcDbVertex
100
AcDb2dVertex
 10
-0.2826123237609863
 20
8.3790283203125
 30
-0.0000099256976682
  0
VERTEX
  5
138
330
FA
100
AcDbEntity
  8
OracDecor_skirtings
 62
   221
420
 15050455
100
AcDbVertex
100
AcDb2dVertex
 10
-0.9080252647399902
 20
8.878639221191406
 30
-0.0000099256976682
  0
VERTEX
  5
139
330
FA
100
AcDbEntity
  8
OracDecor_skirtings
 62
   221
420
 15050455
100
AcDbVertex
100
AcDb2dVertex
 10
-1.254939556121826
 20
9.599861145019531
 30
-0.0000099256976682
  0
VERTEX
  5
13A
330
FA
100
AcDbEntity
  8
OracDecor_skirtings
 62
   221
420
 15050455
100
AcDbVertex
100
AcDb2dVertex
 10
-1.254938602447509
 20
10.4001235961914
 30
-0.0000099256976682
  0
VERTEX
  5
13B
330
FA
100
AcDbEntity
  8
OracDecor_skirtings
 62
   221
420
 15050455
100
AcDbVertex
100
AcDb2dVertex
 10
-0.9080243110656738
 20
11.12134552001953
 30
-0.0000099256976682
  0
VERTEX
  5
13C
330
FA
100
AcDbEntity
  8
OracDecor_skirtings
 62
   221
420
 15050455
100
AcDbVertex
100
AcDb2dVertex
 10
-0.2826104164123535
 20
11.62095642089844
 30
-0.0000099256976682
  0
VERTEX
  5
13D
330
FA
100
AcDbEntity
  8
OracDecor_skirtings
 62
   221
420
 15050455
100
AcDbVertex
100
AcDb2dVertex
 10
-0.0765442848205567
 20
11.80544281005859
 30
-0.0000099256976682
  0
VERTEX
  5
13E
330
FA
100
AcDbEntity
  8
OracDecor_skirtings
 62
   221
420
 15050455
100
AcDbVertex
100
AcDb2dVertex
 10
-0.0000014305113609
 20
12.07122802734375
 30
-0.0000099256976682
  0
VERTEX
  5
13F
330
FA
100
AcDbEntity
  8
OracDecor_skirtings
 62
   221
420
 15050455
100
AcDbVertex
100
AcDb2dVertex
 10
-0.0000028610227218
 20
15.54182434082031
 30
-0.0000099256976682
  0
VERTEX
  5
140
330
FA
100
AcDbEntity
  8
OracDecor_skirtings
 62
   221
420
 15050455
100
AcDbVertex
100
AcDb2dVertex
 10
-0.0598807334899902
 20
15.77902221679687
 30
-0.0000099256976682
  0
VERTEX
  5
141
330
FA
100
AcDbEntity
  8
OracDecor_skirtings
 62
   221
420
 15050455
100
AcDbVertex
100
AcDb2dVertex
 10
-0.225348949432373
 20
15.95960235595703
 30
-0.0000099256976682
  0
VERTEX
  5
142
330
FA
100
AcDbEntity
  8
OracDecor_skirtings
 62
   221
420
 15050455
100
AcDbVertex
100
AcDb2dVertex
 10
-0.4564247131347657
 20
16.03992462158203
 30
-0.0000099256976682
  0
VERTEX
  5
143
330
FA
100
AcDbEntity
  8
OracDecor_skirtings
 62
   221
420
 15050455
100
AcDbVertex
100
AcDb2dVertex
 10
-7.543577671051025
 20
16.65997314453125
 30
-0.0000099256976682
  0
VERTEX
  5
144
330
FA
100
AcDbEntity
  8
OracDecor_skirtings
 62
   221
420
 15050455
100
AcDbVertex
100
AcDb2dVertex
 10
-7.774654388427734
 20
16.74029541015625
 30
-0.0000099256976682
  0
VERTEX
  5
145
330
FA
100
AcDbEntity
  8
OracDecor_skirtings
 62
   221
420
 15050455
100
AcDbVertex
100
AcDb2dVertex
 10
-7.940122604370117
 20
16.92086791992187
 30
-0.0000099256976682
  0
VERTEX
  5
146
330
FA
100
AcDbEntity
  8
OracDecor_skirtings
 62
   221
420
 15050455
100
AcDbVertex
100
AcDb2dVertex
 10
-8.0
 20
17.15806579589844
 30
-0.0000099256976682
  0
VERTEX
  5
147
330
FA
100
AcDbEntity
  8
OracDecor_skirtings
 62
   221
420
 15050455
100
AcDbVertex
100
AcDb2dVertex
 10
-7.999999523162841
 20
55.94696044921875
 30
-0.0000099256976682
  0
VERTEX
  5
148
330
FA
100
AcDbEntity
  8
OracDecor_skirtings
 62
   221
420
 15050455
100
AcDbVertex
100
AcDb2dVertex
 10
-7.940122604370117
 20
56.18415832519531
 30
-0.0000099256976682
  0
VERTEX
  5
149
330
FA
100
AcDbEntity
  8
OracDecor_skirtings
 62
   221
420
 15050455
100
AcDbVertex
100
AcDb2dVertex
 10
-7.774654388427734
 20
56.36473464965821
 30
-0.0000099256976682
  0
VERTEX
  5
14A
330
FA
100
AcDbEntity
  8
OracDecor_skirtings
 62
   221
420
 15050455
100
AcDbVertex
100
AcDb2dVertex
 10
-7.5435791015625
 20
56.44506072998047
 30
-0.0000099256976682
  0
VERTEX
  5
14B
330
FA
100
AcDbEntity
  8
OracDecor_skirtings
 62
   221
420
 15050455
100
AcDbVertex
100
AcDb2dVertex
 10
-0.4564251899719239
 20
57.06510543823242
 30
-0.0000099256976682
  0
VERTEX
  5
14C
330
FA
100
AcDbEntity
  8
OracDecor_skirtings
 62
   221
420
 15050455
100
AcDbVertex
100
AcDb2dVertex
 10
-0.2253494262695312
 20
57.14542770385742
 30
-0.0000099256976682
  0
VERTEX
  5
14D
330
FA
100
AcDbEntity
  8
OracDecor_skirtings
 62
   221
420
 15050455
100
AcDbVertex
100
AcDb2dVertex
 10
-0.0598812103271484
 20
57.32600402832031
 30
-0.0000099256976682
  0
VERTEX
  5
14E
330
FA
100
AcDbEntity
  8
OracDecor_skirtings
 62
   221
420
 15050455
100
AcDbVertex
100
AcDb2dVertex
 10
-0.0000033378594253
 20
57.56320190429687
 30
-0.0000099256976682
  0
VERTEX
  5
14F
330
FA
100
AcDbEntity
  8
OracDecor_skirtings
 62
   221
420
 15050455
100
AcDbVertex
100
AcDb2dVertex
 10
-0.0000028610222671
 20
59.64686965942383
 30
-0.0000099256976682
  0
VERTEX
  5
150
330
FA
100
AcDbEntity
  8
OracDecor_skirtings
 62
   221
420
 15050455
100
AcDbVertex
100
AcDb2dVertex
 10
-0.0598807334899902
 20
59.88406753540039
 30
-0.0000099256976682
  0
VERTEX
  5
151
330
FA
100
AcDbEntity
  8
OracDecor_skirtings
 62
   221
420
 15050455
100
AcDbVertex
100
AcDb2dVertex
 10
-0.225348949432373
 20
60.06464385986328
 30
-0.0000099256976682
  0
VERTEX
  5
152
330
FA
100
AcDbEntity
  8
OracDecor_skirtings
 62
   221
420
 15050455
100
AcDbVertex
100
AcDb2dVertex
 10
-0.4564247131347657
 20
60.14496994018554
 30
-0.0000099256976682
  0
VERTEX
  5
153
330
FA
100
AcDbEntity
  8
OracDecor_skirtings
 62
   221
420
 15050455
100
AcDbVertex
100
AcDb2dVertex
 10
-7.5435791015625
 20
60.7650146484375
 30
-0.0000099256976682
  0
VERTEX
  5
154
330
FA
100
AcDbEntity
  8
OracDecor_skirtings
 62
   221
420
 15050455
100
AcDbVertex
100
AcDb2dVertex
 10
-7.774654388427734
 20
60.8453369140625
 30
-0.0000099256976682
  0
VERTEX
  5
155
330
FA
100
AcDbEntity
  8
OracDecor_skirtings
 62
   221
420
 15050455
100
AcDbVertex
100
AcDb2dVertex
 10
-7.940122604370117
 20
61.02591323852539
 30
-0.0000099256976682
  0
VERTEX
  5
156
330
FA
100
AcDbEntity
  8
OracDecor_skirtings
 62
   221
420
 15050455
100
AcDbVertex
100
AcDb2dVertex
 10
-8.0
 20
61.26311111450196
 30
-0.0000099256976682
  0
VERTEX
  5
157
330
FA
100
AcDbEntity
  8
OracDecor_skirtings
 62
   221
420
 15050455
100
AcDbVertex
100
AcDb2dVertex
 10
-8.000000953674316
 20
71.20611572265625
 30
-0.0000099256976682
  0
VERTEX
  5
158
330
FA
100
AcDbEntity
  8
OracDecor_skirtings
 62
   221
420
 15050455
100
AcDbVertex
100
AcDb2dVertex
 10
-7.873970031738281
 20
72.06651306152344
 30
-0.0000099256976682
  0
VERTEX
  5
159
330
FA
100
AcDbEntity
  8
OracDecor_skirtings
 62
   221
420
 15050455
100
AcDbVertex
100
AcDb2dVertex
 10
-7.506464004516601
 20
72.85464477539062
 30
-0.0000099256976682
  0
VERTEX
  5
15A
330
FA
100
AcDbEntity
  8
OracDecor_skirtings
 62
   221
420
 15050455
100
AcDbVertex
100
AcDb2dVertex
 10
-6.928363800048828
 20
73.50424194335937
 30
-0.0000099256976682
  0
VERTEX
  5
15B
330
FA
100
AcDbEntity
  8
OracDecor_skirtings
 62
   221
420
 15050455
100
AcDbVertex
100
AcDb2dVertex
 10
-4.071637630462646
 20
75.90132141113281
 30
-0.0000099256976682
  0
VERTEX
  5
15C
330
FA
100
AcDbEntity
  8
OracDecor_skirtings
 62
   221
420
 15050455
100
AcDbVertex
100
AcDb2dVertex
 10
-3.493539094924926
 20
76.55093383789062
 30
-0.0000099256976682
  0
VERTEX
  5
15D
330
FA
100
AcDbEntity
  8
OracDecor_skirtings
 62
   221
420
 15050455
100
AcDbVertex
100
AcDb2dVertex
 10
-3.126033067703247
 20
77.33905029296875
 30
-0.0000099256976682
  0
VERTEX
  5
15E
330
FA
100
AcDbEntity
  8
OracDecor_skirtings
 62
   221
420
 15050455
100
AcDbVertex
100
AcDb2dVertex
 10
-3.000002145767211
 20
78.199462890625
 30
-0.0000099256976682
  0
VERTEX
  5
15F
330
FA
100
AcDbEntity
  8
OracDecor_skirtings
 62
   221
420
 15050455
100
AcDbVertex
100
AcDb2dVertex
 10
-3.000002145767211
 20
87.27935791015625
 30
-0.0000099256976682
  0
VERTEX
  5
160
330
FA
100
AcDbEntity
  8
OracDecor_skirtings
 62
   221
420
 15050455
100
AcDbVertex
100
AcDb2dVertex
 10
-2.940124034881591
 20
87.51655578613281
 30
-0.0000099256976682
  0
VERTEX
  5
161
330
FA
100
AcDbEntity
  8
OracDecor_skirtings
 62
   221
420
 15050455
100
AcDbVertex
100
AcDb2dVertex
 10
-2.774656057357788
 20
87.69712829589844
 30
-0.0000099256976682
  0
VERTEX
  5
162
330
FA
100
AcDbEntity
  8
OracDecor_skirtings
 62
   221
420
 15050455
100
AcDbVertex
100
AcDb2dVertex
 10
-2.543579816818237
 20
87.7774658203125
 30
-0.0000099256976682
  0
VERTEX
  5
163
330
FA
100
AcDbEntity
  8
OracDecor_skirtings
 62
   221
420
 15050455
100
AcDbVertex
100
AcDb2dVertex
 10
-0.4564232826232911
 20
87.96006774902343
 30
-0.0000099256976682
  0
VERTEX
  5
164
330
FA
100
AcDbEntity
  8
OracDecor_skirtings
 62
   221
420
 15050455
100
AcDbVertex
100
AcDb2dVertex
 10
-0.2253475189208984
 20
88.04039001464843
 30
-0.0000099256976682
  0
VERTEX
  5
165
330
FA
100
AcDbEntity
  8
OracDecor_skirtings
 62
   221
420
 15050455
100
AcDbVertex
100
AcDb2dVertex
 10
-0.0598793029785156
 20
88.22096252441406
 30
-0.0000099256976682
  0
VERTEX
  5
166
330
FA
100
AcDbEntity
  8
OracDecor_skirtings
 62
   221
420
 15050455
100
AcDbVertex
100
AcDb2dVertex
 10
-0.0000014305105651
 20
88.45816040039062
 30
-0.0000099256976682
  0
VERTEX
  5
167
330
FA
100
AcDbEntity
  8
OracDecor_skirtings
 62
   221
420
 15050455
100
AcDbVertex
100
AcDb2dVertex
 10
-0.0000028610220397
 20
91.92875671386719
 30
-0.0000099256976682
  0
VERTEX
  5
168
330
FA
100
AcDbEntity
  8
OracDecor_skirtings
 62
   221
420
 15050455
100
AcDbVertex
100
AcDb2dVertex
 10
-0.0765457153320313
 20
92.1945343017578
 30
-0.0000099256976682
  0
VERTEX
  5
169
330
FA
100
AcDbEntity
  8
OracDecor_skirtings
 62
   221
420
 15050455
100
AcDbVertex
100
AcDb2dVertex
 10
-0.2826118469238281
 20
92.37902832031251
 30
-0.0000099256976682
  0
VERTEX
  5
16A
330
FA
100
AcDbEntity
  8
OracDecor_skirtings
 62
   221
420
 15050455
100
AcDbVertex
100
AcDb2dVertex
 10
-0.9080257415771484
 20
92.87863159179687
 30
-0.0000099256976682
  0
VERTEX
  5
16B
330
FA
100
AcDbEntity
  8
OracDecor_skirtings
 62
   221
420
 15050455
100
AcDbVertex
100
AcDb2dVertex
 10
-1.254940032958984
 20
93.599853515625
 30
-0.0000099256976682
  0
VERTEX
  5
16C
330
FA
100
AcDbEntity
  8
OracDecor_skirtings
 62
   221
420
 15050455
100
AcDbVertex
100
AcDb2dVertex
 10
-1.254940032958984
 20
94.40011596679687
 30
-0.0000099256976682
  0
VERTEX
  5
16D
330
FA
100
AcDbEntity
  8
OracDecor_skirtings
 62
   221
420
 15050455
100
AcDbVertex
100
AcDb2dVertex
 10
-0.9080257415771484
 20
95.12133789062501
 30
-0.0000099256976682
  0
VERTEX
  5
16E
330
FA
100
AcDbEntity
  8
OracDecor_skirtings
 62
   221
420
 15050455
100
AcDbVertex
100
AcDb2dVertex
 10
-0.2826123237609863
 20
95.62095642089843
 30
-0.0000099256976682
  0
VERTEX
  5
16F
330
FA
100
AcDbEntity
  8
OracDecor_skirtings
 62
   221
420
 15050455
100
AcDbVertex
100
AcDb2dVertex
 10
-0.0765461921691895
 20
95.80543518066406
 30
-0.0000099256976682
  0
SEQEND
  5
170
330
FA
100
AcDbEntity
  8
OracDecor_skirtings
 62
   221
420
 15050455
  0
ENDSEC
  0
SECTION
  2
OBJECTS
  0
DICTIONARY
  5
C
330
0
100
AcDbDictionary
281
     1
  3
ACAD_COLOR
350
DC
  3
ACAD_DETAILVIEWSTYLE
350
F5
  3
ACAD_GROUP
350
D
  3
ACAD_LAYOUT
350
1A
  3
ACAD_MATERIAL
350
AA
  3
ACAD_MLEADERSTYLE
350
F1
  3
ACAD_MLINESTYLE
350
17
  3
ACAD_PLOTSETTINGS
350
19
  3
ACAD_PLOTSTYLENAME
350
E
  3
ACAD_SCALELIST
350
DF
  3
ACAD_SECTIONVIEWSTYLE
350
F3
  3
ACAD_TABLESTYLE
350
DD
  3
ACAD_VISUALSTYLE
350
C3
  3
ACDB_RECOMPOSE_DATA
350
17D
  3
AcDbVariableDictionary
350
171
  0
DICTIONARY
  5
DC
102
{ACAD_REACTORS
330
C
102
}
330
C
100
AcDbDictionary
281
     1
  0
DICTIONARY
  5
F5
102
{ACAD_REACTORS
330
C
102
}
330
C
100
AcDbDictionary
281
     1
  3
Imperial24
350
F6
  0
DICTIONARY
  5
D
102
{ACAD_REACTORS
330
C
102
}
330
C
100
AcDbDictionary
281
     1
  0
DICTIONARY
  5
1A
102
{ACAD_REACTORS
330
C
102
}
330
C
100
AcDbDictionary
281
     1
  3
Layout1
350
1E
  3
Layout2
350
26
  3
Model
350
22
  0
DICTIONARY
  5
AA
102
{ACAD_REACTORS
330
C
102
}
330
C
100
AcDbDictionary
281
     1
  3
ByBlock
350
B3
  3
ByLayer
350
AB
  3
Global
350
BB
  0
DICTIONARY
  5
F1
102
{ACAD_REACTORS
330
C
102
}
330
C
100
AcDbDictionary
281
     1
  3
Standard
350
F2
  0
DICTIONARY
  5
17
102
{ACAD_REACTORS
330
C
102
}
330
C
100
AcDbDictionary
281
     1
  3
Standard
350
18
  0
DICTIONARY
  5
19
102
{ACAD_REACTORS
330
C
102
}
330
C
100
AcDbDictionary
281
     1
  0
ACDBDICTIONARYWDFLT
  5
E
102
{ACAD_REACTORS
330
C
102
}
330
C
100
AcDbDictionary
281
     1
  3
ByLayer
350
2D
  3
Normal
350
F
100
AcDbDictionaryWithDefault
340
F
  0
DICTIONARY
  5
DF
102
{ACAD_REACTORS
330
C
102
}
330
C
100
AcDbDictionary
281
     1
  3
A0
350
E0
  3
A1
350
E1
  3
A2
350
E2
  3
A3
350
E3
  3
A4
350
E4
  3
A5
350
E5
  3
A6
350
E6
  3
A7
350
E7
  3
A8
350
E8
  3
A9
350
E9
  3
B0
350
EA
  3
B1
350
EB
  3
B2
350
EC
  3
B3
350
ED
  3
B4
350
EE
  3
B5
350
EF
  3
B6
350
F0
  0
DICTIONARY
  5
F3
102
{ACAD_REACTORS
330
C
102
}
330
C
100
AcDbDictionary
281
     1
  3
Imperial24
350
F4
  0
DICTIONARY
  5
DD
102
{ACAD_REACTORS
330
C
102
}
330
C
100
AcDbDictionary
281
     1
  3
Standard
350
DE
  0
DICTIONARY
  5
C3
102
{ACAD_REACTORS
330
C
102
}
330
C
100
AcDbDictionary
281
     1
  3
2dWireframe
350
C9
  3
Basic
350
C8
  3
Brighten
350
CF
  3
ColorChange
350
D3
  3
Conceptual
350
CC
  3
Dim
350
CE
  3
EdgeColorOff
350
DB
  3
Facepattern
350
D2
  3
Flat
350
C4
  3
FlatWithEdges
350
C5
  3
Gouraud
350
C6
  3
GouraudWithEdges
350
C7
  3
Hidden
350
CB
  3
JitterOff
350
D9
  3
Linepattern
350
D1
  3
OverhangOff
350
DA
  3
Realistic
350
CD
  3
Shaded
350
D8
  3
Shaded with edges
350
D7
  3
Shades of Gray
350
D4
  3
Sketchy
350
D5
  3
Thicken
350
D0
  3
Wireframe
350
CA
  3
X-Ray
350
D6
  0
XRECORD
  5
17D
102
{ACAD_REACTORS
330
C
102
}
330
C
100
AcDbXrecord
280
     1
 90
        1
330
DE
  0
DICTIONARY
  5
171
102
{ACAD_REACTORS
330
C
102
}
330
C
100
AcDbDictionary
281
     1
  3
CANNOSCALE
350
177
  3
CMLEADERSTYLE
350
173
  3
CTABLESTYLE
350
172
  3
CVIEWDETAILSTYLE
350
174
  3
CVIEWSECTIONSTYLE
350
175
  3
LAYEREVAL
350
179
  3
LAYERNOTIFY
350
17A
  3
LIGHTINGUNITS
350
178
  3
MSLTSCALE
350
176
  0
ACDBDETAILVIEWSTYLE
  5
F6
102
{ACAD_XDICTIONARY
360
1B2
102
}
102
{ACAD_REACTORS
330
F5
102
}
330
F5
100
AcDbModelDocViewStyle
 70
     0
  3
Imperial24
290
     0
100
AcDbDetailViewStyle
 70
     0
 71
     0
 90
        3
 71
     1
340
11
 62
   256
 40
0.24
340
0
 62
   256
 40
0.24
300

 40
0.36
280
     3
 71
     2
340
16
 90
       25
 62
   256
 71
     3
340
11
 62
   256
 40
0.24
 90
        1
 40
0.75
 90
        1
300
%<\AcVar ViewType \f "%tc1">% %<\AcVar ViewDetailId>%\PSCALE %<\AcVar ViewScale \f "%sn">%
 71
     4
340
16
 90
       25
 62
   256
340
16
 90
       25
 62
   256
280
     0
  0
LAYOUT
  5
1E
102
{ACAD_REACTORS
330
1A
102
}
330
1A
100
AcDbPlotSettings
  1

  2
\\KTXNTBDC\CASF2PN1
  4

  6

 40
0.0
 41
0.0
 42
0.0
 43
0.0
 44
0.0
 45
0.0
 46
0.0
 47
0.0
 48
0.0
 49
0.0
140
0.0
141
0.0
142
1.0
143
1.0
 70
   688
 72
     0
 73
     0
 74
     5
  7

 75
    16
147
1.0
 76
     0
 77
     2
 78
   300
148
0.0
149
0.0
100
AcDbLayout
  1
Layout1
 70
     1
 71
     1
 10
0.0
 20
0.0
 11
12.0
 21
9.0
 12
0.0
 22
0.0
 32
0.0
 14
1.000000000000000E+20
 24
1.000000000000000E+20
 34
1.000000000000000E+20
 15
-1.000000000000000E+20
 25
-1.000000000000000E+20
 35
-1.000000000000000E+20
146
0.0
 13
0.0
 23
0.0
 33
0.0
 16
1.0
 26
0.0
 36
0.0
 17
0.0
 27
1.0
 37
0.0
 76
     0
330
1B
  0
LAYOUT
  5
26
102
{ACAD_REACTORS
330
1A
102
}
330
1A
100
AcDbPlotSettings
  1

  2
\\KTXNTBDC\CASF2PN1
  4

  6

 40
0.0
 41
0.0
 42
0.0
 43
0.0
 44
0.0
 45
0.0
 46
0.0
 47
0.0
 48
0.0
 49
0.0
140
0.0
141
0.0
142
1.0
143
1.0
 70
   688
 72
     0
 73
     0
 74
     5
  7

 75
    16
147
1.0
 76
     0
 77
     2
 78
   300
148
0.0
149
0.0
100
AcDbLayout
  1
Layout2
 70
     1
 71
     2
 10
0.0
 20
0.0
 11
12.0
 21
9.0
 12
0.0
 22
0.0
 32
0.0
 14
0.0
 24
0.0
 34
0.0
 15
0.0
 25
0.0
 35
0.0
146
0.0
 13
0.0
 23
0.0
 33
0.0
 16
1.0
 26
0.0
 36
0.0
 17
0.0
 27
1.0
 37
0.0
 76
     0
330
23
  0
LAYOUT
  5
22
102
{ACAD_REACTORS
330
1A
102
}
330
1A
100
AcDbPlotSettings
  1

  2
\\KTXNTBDC\CASF2PN1
  4

  6

 40
0.0
 41
0.0
 42
0.0
 43
0.0
 44
0.0
 45
0.0
 46
0.0
 47
0.0
 48
0.0
 49
0.0
140
0.0
141
0.0
142
1.0
143
1.0
 70
  1712
 72
     0
 73
     0
 74
     0
  7

 75
     0
147
1.0
 76
     0
 77
     2
 78
   300
148
0.0
149
0.0
100
AcDbLayout
  1
Model
 70
     1
 71
     0
 10
0.0
 20
0.0
 11
12.0
 21
9.0
 12
0.0
 22
0.0
 32
0.0
 14
0.0
 24
0.0
 34
0.0
 15
0.0
 25
0.0
 35
0.0
146
0.0
 13
0.0
 23
0.0
 33
0.0
 16
1.0
 26
0.0
 36
0.0
 17
0.0
 27
1.0
 37
0.0
 76
     0
330
1F
  0
MATERIAL
  5
B3
102
{ACAD_XDICTIONARY
360
B4
102
}
102
{ACAD_REACTORS
330
AA
102
}
330
AA
100
AcDbMaterial
  1
ByBlock
 72
     0
 43
0.0208333333333333
 43
0.0
 43
0.0
 43
0.0
 43
0.0
 43
0.0208333333333333
 43
0.0
 43
0.0
 43
0.0
 43
0.0
 43
1.0
 43
0.0
 43
0.0
 43
0.0
 43
0.0
 43
1.0
 77
     0
 47
0.0208333333333333
 47
0.0
 47
0.0
 47
0.0
 47
0.0
 47
0.0208333333333333
 47
0.0
 47
0.0
 47
0.0
 47
0.0
 47
1.0
 47
0.0
 47
0.0
 47
0.0
 47
0.0
 47
1.0
171
     0
 49
0.0208333333333333
 49
0.0
 49
0.0
 49
0.0
 49
0.0
 49
0.0208333333333333
 49
0.0
 49
0.0
 49
0.0
 49
0.0
 49
1.0
 49
0.0
 49
0.0
 49
0.0
 49
0.0
 49
1.0
175
     0
142
0.0208333333333333
142
0.0
142
0.0
142
0.0
142
0.0
142
0.0208333333333333
142
0.0
142
0.0
142
0.0
142
0.0
142
1.0
142
0.0
142
0.0
142
0.0
142
0.0
142
1.0
179
     0
144
0.0208333333333333
144
0.0
144
0.0
144
0.0
144
0.0
144
0.0208333333333333
144
0.0
144
0.0
144
0.0
144
0.0
144
1.0
144
0.0
144
0.0
144
0.0
144
0.0
144
1.0
147
0.0208333333333333
147
0.0
147
0.0
147
0.0
147
0.0
147
0.0208333333333333
147
0.0
147
0.0
147
0.0
147
0.0
147
1.0
147
0.0
147
0.0
147
0.0
147
0.0
147
1.0
  0
MATERIAL
  5
AB
102
{ACAD_XDICTIONARY
360
AC
102
}
102
{ACAD_REACTORS
330
AA
102
}
330
AA
100
AcDbMaterial
  1
ByLayer
 72
     0
 43
0.0208333333333333
 43
0.0
 43
0.0
 43
0.0
 43
0.0
 43
0.0208333333333333
 43
0.0
 43
0.0
 43
0.0
 43
0.0
 43
1.0
 43
0.0
 43
0.0
 43
0.0
 43
0.0
 43
1.0
 77
     0
 47
0.0208333333333333
 47
0.0
 47
0.0
 47
0.0
 47
0.0
 47
0.0208333333333333
 47
0.0
 47
0.0
 47
0.0
 47
0.0
 47
1.0
 47
0.0
 47
0.0
 47
0.0
 47
0.0
 47
1.0
171
     0
 49
0.0208333333333333
 49
0.0
 49
0.0
 49
0.0
 49
0.0
 49
0.0208333333333333
 49
0.0
 49
0.0
 49
0.0
 49
0.0
 49
1.0
 49
0.0
 49
0.0
 49
0.0
 49
0.0
 49
1.0
175
     0
142
0.0208333333333333
142
0.0
142
0.0
142
0.0
142
0.0
142
0.0208333333333333
142
0.0
142
0.0
142
0.0
142
0.0
142
1.0
142
0.0
142
0.0
142
0.0
142
0.0
142
1.0
179
     0
144
0.0208333333333333
144
0.0
144
0.0
144
0.0
144
0.0
144
0.0208333333333333
144
0.0
144
0.0
144
0.0
144
0.0
144
1.0
144
0.0
144
0.0
144
0.0
144
0.0
144
1.0
147
0.0208333333333333
147
0.0
147
0.0
147
0.0
147
0.0
147
0.0208333333333333
147
0.0
147
0.0
147
0.0
147
0.0
147
1.0
147
0.0
147
0.0
147
0.0
147
0.0
147
1.0
  0
MATERIAL
  5
BB
102
{ACAD_XDICTIONARY
360
BC
102
}
102
{ACAD_REACTORS
330
AA
102
}
330
AA
100
AcDbMaterial
  1
Global
 72
     0
 43
0.0208333333333333
 43
0.0
 43
0.0
 43
0.0
 43
0.0
 43
0.0208333333333333
 43
0.0
 43
0.0
 43
0.0
 43
0.0
 43
1.0
 43
0.0
 43
0.0
 43
0.0
 43
0.0
 43
1.0
 77
     0
 47
0.0208333333333333
 47
0.0
 47
0.0
 47
0.0
 47
0.0
 47
0.0208333333333333
 47
0.0
 47
0.0
 47
0.0
 47
0.0
 47
1.0
 47
0.0
 47
0.0
 47
0.0
 47
0.0
 47
1.0
171
     0
 49
0.0208333333333333
 49
0.0
 49
0.0
 49
0.0
 49
0.0
 49
0.0208333333333333
 49
0.0
 49
0.0
 49
0.0
 49
0.0
 49
1.0
 49
0.0
 49
0.0
 49
0.0
 49
0.0
 49
1.0
175
     0
142
0.0208333333333333
142
0.0
142
0.0
142
0.0
142
0.0
142
0.0208333333333333
142
0.0
142
0.0
142
0.0
142
0.0
142
1.0
142
0.0
142
0.0
142
0.0
142
0.0
142
1.0
179
     0
144
0.0208333333333333
144
0.0
144
0.0
144
0.0
144
0.0
144
0.0208333333333333
144
0.0
144
0.0
144
0.0
144
0.0
144
1.0
144
0.0
144
0.0
144
0.0
144
0.0
144
1.0
147
0.0208333333333333
147
0.0
147
0.0
147
0.0
147
0.0
147
0.0208333333333333
147
0.0
147
0.0
147
0.0
147
0.0
147
1.0
147
0.0
147
0.0
147
0.0
147
0.0
147
1.0
  0
MLEADERSTYLE
  5
F2
102
{ACAD_XDICTIONARY
360
1AE
102
}
102
{ACAD_REACTORS
330
F1
102
}
330
F1
100
AcDbMLeaderStyle
179
     2
170
     2
171
     1
172
     0
 90
        2
 40
0.0
 41
0.0
173
     1
 91
-1056964608
340
14
 92
       -2
290
     1
 42
0.09
291
     1
 43
0.36
  3
Standard
 44
0.18
300

342
11
174
     1
178
     6
175
     1
176
     0
 93
-1056964608
 45
0.18
292
     0
297
     0
 46
0.18
 94
-1056964608
 47
1.0
 49
1.0
140
1.0
293
     1
141
0.0
294
     1
177
     0
142
1.0
295
     0
296
     0
143
0.125
271
     0
272
     9
273
     9
  0
MLINESTYLE
  5
18
102
{ACAD_REACTORS
330
17
102
}
330
17
100
AcDbMlineStyle
  2
STANDARD
 70
     0
  3

 62
   256
 51
90.0
 52
90.0
 71
     2
 49
0.5
 62
   256
  6
BYLAYER
 49
-0.5
 62
   256
  6
BYLAYER
  0
ACDBPLACEHOLDER
  5
2D
102
{ACAD_REACTORS
330
E
102
}
330
E
  0
ACDBPLACEHOLDER
  5
F
102
{ACAD_REACTORS
330
E
102
}
330
E
  0
SCALE
  5
E0
102
{ACAD_REACTORS
330
DF
102
}
330
DF
100
AcDbScale
 70
     0
300
1:1
140
1.0
141
1.0
290
     1
  0
SCALE
  5
E1
102
{ACAD_REACTORS
330
DF
102
}
330
DF
100
AcDbScale
 70
     0
300
1/128" = 1'-0"
140
0.0078125
141
12.0
290
     0
  0
SCALE
  5
E2
102
{ACAD_REACTORS
330
DF
102
}
330
DF
100
AcDbScale
 70
     0
300
1/64" = 1'-0"
140
0.015625
141
12.0
290
     0
  0
SCALE
  5
E3
102
{ACAD_REACTORS
330
DF
102
}
330
DF
100
AcDbScale
 70
     0
300
1/32" = 1'-0"
140
0.03125
141
12.0
290
     0
  0
SCALE
  5
E4
102
{ACAD_REACTORS
330
DF
102
}
330
DF
100
AcDbScale
 70
     0
300
1/16" = 1'-0"
140
0.0625
141
12.0
290
     0
  0
SCALE
  5
E5
102
{ACAD_REACTORS
330
DF
102
}
330
DF
100
AcDbScale
 70
     0
300
3/32" = 1'-0"
140
0.09375
141
12.0
290
     0
  0
SCALE
  5
E6
102
{ACAD_REACTORS
330
DF
102
}
330
DF
100
AcDbScale
 70
     0
300
1/8" = 1'-0"
140
0.125
141
12.0
290
     0
  0
SCALE
  5
E7
102
{ACAD_REACTORS
330
DF
102
}
330
DF
100
AcDbScale
 70
     0
300
3/16" = 1'-0"
140
0.1875
141
12.0
290
     0
  0
SCALE
  5
E8
102
{ACAD_REACTORS
330
DF
102
}
330
DF
100
AcDbScale
 70
     0
300
1/4" = 1'-0"
140
0.25
141
12.0
290
     0
  0
SCALE
  5
E9
102
{ACAD_REACTORS
330
DF
102
}
330
DF
100
AcDbScale
 70
     0
300
3/8" = 1'-0"
140
0.375
141
12.0
290
     0
  0
SCALE
  5
EA
102
{ACAD_REACTORS
330
DF
102
}
330
DF
100
AcDbScale
 70
     0
300
1/2" = 1'-0"
140
0.5
141
12.0
290
     0
  0
SCALE
  5
EB
102
{ACAD_REACTORS
330
DF
102
}
330
DF
100
AcDbScale
 70
     0
300
3/4" = 1'-0"
140
0.75
141
12.0
290
     0
  0
SCALE
  5
EC
102
{ACAD_REACTORS
330
DF
102
}
330
DF
100
AcDbScale
 70
     0
300
1" = 1'-0"
140
1.0
141
12.0
290
     0
  0
SCALE
  5
ED
102
{ACAD_REACTORS
330
DF
102
}
330
DF
100
AcDbScale
 70
     0
300
1-1/2" = 1'-0"
140
1.5
141
12.0
290
     0
  0
SCALE
  5
EE
102
{ACAD_REACTORS
330
DF
102
}
330
DF
100
AcDbScale
 70
     0
300
3" = 1'-0"
140
3.0
141
12.0
290
     0
  0
SCALE
  5
EF
102
{ACAD_REACTORS
330
DF
102
}
330
DF
100
AcDbScale
 70
     0
300
6" = 1'-0"
140
6.0
141
12.0
290
     0
  0
SCALE
  5
F0
102
{ACAD_REACTORS
330
DF
102
}
330
DF
100
AcDbScale
 70
     0
300
1'-0" = 1'-0"
140
12.0
141
12.0
290
     0
  0
ACDBSECTIONVIEWSTYLE
  5
F4
102
{ACAD_XDICTIONARY
360
1B0
102
}
102
{ACAD_REACTORS
330
F3
102
}
330
F3
100
AcDbModelDocViewStyle
 70
     0
  3
Imperial24
290
     0
100
AcDbSectionViewStyle
 70
     0
 71
     0
 90
       78
 71
     1
340
11
 62
   256
 40
0.24
340
0
340
0
 62
   256
 40
0.24
300
I, O, Q, S, X, Z
 40
0.48
 90
        3
 40
0.18
 90
        1
 71
     2
340
16
 90
       25
 62
   256
340
16
 90
       50
 62
   256
 40
0.24
 40
0.0
 40
0.24
 71
     3
340
11
 62
   256
 40
0.24
 90
        1
 40
0.75
 90
        1
300
%<\AcVar ViewType \f "%tc1">% %<\AcVar ViewSectionStartId>%-%<\AcVar ViewSectionEndId>%\PSCALE %<\AcVar ViewScale \f "%sn">%
 71
     4
 62
   256
 62
   257
300
ANSI31
 40
1.0
 90
        0
290
     0
290
     0
 90
        6
 40
0.0
 40
1.570796326794896
 40
0.2617993877991494
 40
1.308996938995747
 40
-0.2617993877991494
 40
1.832595714594046
  0
TABLESTYLE
  5
DE
102
{ACAD_XDICTIONARY
360
17B
102
}
102
{ACAD_REACTORS
330
DD
102
}
330
DD
100
AcDbTableStyle
280
     0
  3
Standard
 70
     0
 71
     0
 40
0.06
 41
0.06
280
     0
281
     0
  7
Standard
140
0.18
170
     2
 62
     0
 63
     7
283
     0
 90
      512
 91
        0
  1

274
    -2
284
     1
 64
     0
275
    -2
285
     1
 65
     0
276
    -2
286
     1
 66
     0
277
    -2
287
     1
 67
     0
278
    -2
288
     1
 68
     0
279
    -2
289
     1
 69
     0
  7
Standard
140
0.25
170
     5
 62
     0
 63
     7
283
     0
 90
      512
 91
        0
  1

274
    -2
284
     1
 64
     0
275
    -2
285
     1
 65
     0
276
    -2
286
     1
 66
     0
277
    -2
287
     1
 67
     0
278
    -2
288
     1
 68
     0
279
    -2
289
     1
 69
     0
  7
Standard
140
0.18
170
     5
 62
     0
 63
     7
283
     0
 90
      512
 91
        0
  1

274
    -2
284
     1
 64
     0
275
    -2
285
     1
 65
     0
276
    -2
286
     1
 66
     0
277
    -2
287
     1
 67
     0
278
    -2
288
     1
 68
     0
279
    -2
289
     1
 69
     0
  0
VISUALSTYLE
  5
C9
102
{ACAD_XDICTIONARY
360
188
102
}
102
{ACAD_REACTORS
330
C3
102
}
330
C3
100
AcDbVisualStyle
  2
2dWireframe
 70
     4
177
     2
291
     0
 71
     0
176
     1
 72
     2
176
     1
 73
     0
176
     1
 90
        0
176
     1
 40
0.6
176
     1
 41
30.0
176
     1
 63
     7
421
 16777215
176
     1
 74
     1
176
     1
 91
        4
176
     1
 64
     7
176
     1
 65
   257
176
     1
 75
     1
176
     1
175
     1
176
     1
 42
1.0
176
     1
 92
        0
176
     1
 66
   257
176
     1
 43
1.0
176
     1
 76
     1
176
     1
 77
     6
176
     1
 78
     2
176
     1
 67
     7
176
     1
 79
     5
176
     1
170
     0
176
     1
171
     0
176
     1
290
     0
176
     1
 93
        1
176
     1
 44
0.0
176
     1
173
     0
176
     1
1001
ACAD
1000
AcDbSavedByObjectVersion
1070
     0
  0
VISUALSTYLE
  5
C8
102
{ACAD_XDICTIONARY
360
186
102
}
102
{ACAD_REACTORS
330
C3
102
}
330
C3
100
AcDbVisualStyle
  2
Basic
 70
     7
177
     2
291
     1
 71
     1
176
     1
 72
     0
176
     1
 73
     1
176
     1
 90
        0
176
     1
 40
0.6
176
     1
 41
30.0
176
     1
 63
     7
421
 16777215
176
     1
 74
     0
176
     1
 91
        4
176
     1
 64
     7
176
     1
 65
   257
176
     1
 75
     1
176
     1
175
     1
176
     1
 42
1.0
176
     1
 92
        8
176
     1
 66
     7
176
     1
 43
1.0
176
     1
 76
     1
176
     1
 77
     6
176
     1
 78
     2
176
     1
 67
     7
176
     1
 79
     5
176
     1
170
     0
176
     1
171
     0
176
     1
290
     0
176
     1
 93
        1
176
     1
 44
0.0
176
     1
173
     0
176
     1
1001
ACAD
1000
AcDbSavedByObjectVersion
1070
     0
  0
VISUALSTYLE
  5
CF
102
{ACAD_XDICTIONARY
360
194
102
}
102
{ACAD_REACTORS
330
C3
102
}
330
C3
100
AcDbVisualStyle
  2
Brighten
 70
    12
177
     2
291
     1
 71
     2
176
     1
 72
     2
176
     1
 73
     0
176
     1
 90
        0
176
     1
 40
0.6
176
     1
 41
30.0
176
     1
 63
     7
421
 16777215
176
     1
 74
     1
176
     1
 91
        4
176
     1
 64
     7
176
     1
 65
   257
176
     1
 75
     1
176
     1
175
     1
176
     1
 42
1.0
176
     1
 92
        8
176
     1
 66
     7
176
     1
 43
1.0
176
     1
 76
     1
176
     1
 77
     6
176
     1
 78
     2
176
     1
 67
     7
176
     1
 79
     5
176
     1
170
     0
176
     1
171
     0
176
     1
290
     0
176
     1
 93
        1
176
     1
 44
50.0
176
     1
173
     0
176
     1
1001
ACAD
1000
AcDbSavedByObjectVersion
1070
     0
  0
VISUALSTYLE
  5
D3
102
{ACAD_XDICTIONARY
360
19C
102
}
102
{ACAD_REACTORS
330
C3
102
}
330
C3
100
AcDbVisualStyle
  2
ColorChange
 70
    16
177
     2
291
     1
 71
     2
176
     1
 72
     2
176
     1
 73
     3
176
     1
 90
        0
176
     1
 40
0.6
176
     1
 41
30.0
176
     1
 63
     8
421
  8421504
176
     1
 74
     1
176
     1
 91
        4
176
     1
 64
     7
176
     1
 65
   257
176
     1
 75
     1
176
     1
175
     1
176
     1
 42
1.0
176
     1
 92
        8
176
     1
 66
     8
424
  8421504
176
     1
 43
1.0
176
     1
 76
     1
176
     1
 77
     6
176
     1
 78
     2
176
     1
 67
     7
176
     1
 79
     5
176
     1
170
     0
176
     1
171
     0
176
     1
290
     0
176
     1
 93
        1
176
     1
 44
0.0
176
     1
173
     0
176
     1
1001
ACAD
1000
AcDbSavedByObjectVersion
1070
     0
  0
VISUALSTYLE
  5
CC
102
{ACAD_XDICTIONARY
360
18E
102
}
102
{ACAD_REACTORS
330
C3
102
}
330
C3
100
AcDbVisualStyle
  2
Conceptual
 70
     9
177
     2
291
     0
 71
     3
176
     1
 72
     2
176
     1
 73
     0
176
     1
 90
        0
176
     1
 40
0.6
176
     1
 41
30.0
176
     1
 63
     7
421
 16777215
176
     1
 74
     2
176
     1
 91
        2
176
     1
 64
     7
176
     1
 65
   257
176
     1
 75
     1
176
     1
175
     1
176
     1
 42
179.0
176
     1
 92
        8
176
     1
 66
     7
176
     1
 43
1.0
176
     1
 76
     1
176
     1
 77
     6
176
     1
 78
     2
176
     1
 67
     7
176
     1
 79
     3
176
     1
170
     0
176
     1
171
     0
176
     1
290
     0
176
     1
 93
        1
176
     1
 44
0.0
176
     1
173
     0
176
     1
1001
ACAD
1000
AcDbSavedByObjectVersion
1070
     0
  0
VISUALSTYLE
  5
CE
102
{ACAD_XDICTIONARY
360
192
102
}
102
{ACAD_REACTORS
330
C3
102
}
330
C3
100
AcDbVisualStyle
  2
Dim
 70
    11
177
     2
291
     1
 71
     2
176
     1
 72
     2
176
     1
 73
     0
176
     1
 90
        0
176
     1
 40
0.6
176
     1
 41
30.0
176
     1
 63
     7
421
 16777215
176
     1
 74
     1
176
     1
 91
        4
176
     1
 64
     7
176
     1
 65
   257
176
     1
 75
     1
176
     1
175
     1
176
     1
 42
1.0
176
     1
 92
        8
176
     1
 66
     7
176
     1
 43
1.0
176
     1
 76
     1
176
     1
 77
     6
176
     1
 78
     2
176
     1
 67
     7
176
     1
 79
     5
176
     1
170
     0
176
     1
171
     0
176
     1
290
     0
176
     1
 93
        1
176
     1
 44
-50.0
176
     1
173
     0
176
     1
1001
ACAD
1000
AcDbSavedByObjectVersion
1070
     0
  0
VISUALSTYLE
  5
DB
102
{ACAD_XDICTIONARY
360
1AC
102
}
102
{ACAD_REACTORS
330
C3
102
}
330
C3
100
AcDbVisualStyle
  2
EdgeColorOff
 70
    22
177
     2
291
     1
 71
     2
176
     0
 72
     2
176
     0
 73
     0
176
     0
 90
        0
176
     0
 40
0.6
176
     0
 41
30.0
176
     0
 63
     7
421
 16777215
176
     0
 74
     1
176
     0
 91
        4
176
     0
 64
     7
176
     0
 65
   257
176
     0
 75
     1
176
     0
175
     1
176
     0
 42
1.0
176
     0
 92
        8
176
     2
 66
     7
176
     0
 43
1.0
176
     0
 76
     1
176
     0
 77
     6
176
     0
 78
     2
176
     0
 67
     7
176
     0
 79
     5
176
     0
170
     0
176
     0
171
     0
176
     0
290
     0
176
     0
 93
        1
176
     0
 44
0.0
176
     0
173
     0
176
     0
1001
ACAD
1000
AcDbSavedByObjectVersion
1070
     0
  0
VISUALSTYLE
  5
D2
102
{ACAD_XDICTIONARY
360
19A
102
}
102
{ACAD_REACTORS
330
C3
102
}
330
C3
100
AcDbVisualStyle
  2
Facepattern
 70
    15
177
     2
291
     1
 71
     2
176
     1
 72
     2
176
     1
 73
     0
176
     1
 90
        0
176
     1
 40
0.6
176
     1
 41
30.0
176
     1
 63
     7
421
 16777215
176
     1
 74
     1
176
     1
 91
        4
176
     1
 64
     7
176
     1
 65
   257
176
     1
 75
     1
176
     1
175
     1
176
     1
 42
1.0
176
     1
 92
        8
176
     1
 66
     7
176
     1
 43
1.0
176
     1
 76
     1
176
     1
 77
     6
176
     1
 78
     2
176
     1
 67
     7
176
     1
 79
     5
176
     1
170
     0
176
     1
171
     0
176
     1
290
     0
176
     1
 93
        1
176
     1
 44
0.0
176
     1
173
     0
176
     1
1001
ACAD
1000
AcDbSavedByObjectVersion
1070
     0
  0
VISUALSTYLE
  5
C4
102
{ACAD_XDICTIONARY
360
17E
102
}
102
{ACAD_REACTORS
330
C3
102
}
330
C3
100
AcDbVisualStyle
  2
Flat
 70
     0
177
     2
291
     1
 71
     2
176
     1
 72
     1
176
     1
 73
     1
176
     1
 90
        2
176
     1
 40
0.6
176
     1
 41
30.0
176
     1
 63
     7
421
 16777215
176
     1
 74
     0
176
     1
 91
        0
176
     1
 64
     7
176
     1
 65
   257
176
     1
 75
     1
176
     1
175
     1
176
     1
 42
1.0
176
     1
 92
        8
176
     1
 66
     7
176
     1
 43
1.0
176
     1
 76
     1
176
     1
 77
     6
176
     1
 78
     2
176
     1
 67
     7
176
     1
 79
     5
176
     1
170
     0
176
     1
171
     0
176
     1
290
     0
176
     1
 93
       13
176
     1
 44
0.0
176
     1
173
     0
176
     1
1001
ACAD
1000
AcDbSavedByObjectVersion
1070
     0
  0
VISUALSTYLE
  5
C5
102
{ACAD_XDICTIONARY
360
180
102
}
102
{ACAD_REACTORS
330
C3
102
}
330
C3
100
AcDbVisualStyle
  2
FlatWithEdges
 70
     1
177
     2
291
     1
 71
     2
176
     1
 72
     1
176
     1
 73
     1
176
     1
 90
        2
176
     1
 40
0.6
176
     1
 41
30.0
176
     1
 63
     7
421
 16777215
176
     1
 74
     1
176
     1
 91
        0
176
     1
 64
     7
176
     1
 65
   257
176
     1
 75
     1
176
     1
175
     1
176
     1
 42
1.0
176
     1
 92
        0
176
     1
 66
   257
176
     1
 43
1.0
176
     1
 76
     1
176
     1
 77
     6
176
     1
 78
     2
176
     1
 67
     7
176
     1
 79
     5
176
     1
170
     0
176
     1
171
     0
176
     1
290
     0
176
     1
 93
       13
176
     1
 44
0.0
176
     1
173
     0
176
     1
1001
ACAD
1000
AcDbSavedByObjectVersion
1070
     0
  0
VISUALSTYLE
  5
C6
102
{ACAD_XDICTIONARY
360
182
102
}
102
{ACAD_REACTORS
330
C3
102
}
330
C3
100
AcDbVisualStyle
  2
Gouraud
 70
     2
177
     2
291
     1
 71
     2
176
     1
 72
     2
176
     1
 73
     1
176
     1
 90
        2
176
     1
 40
0.6
176
     1
 41
30.0
176
     1
 63
     7
421
 16777215
176
     1
 74
     0
176
     1
 91
        0
176
     1
 64
     7
176
     1
 65
   257
176
     1
 75
     1
176
     1
175
     1
176
     1
 42
1.0
176
     1
 92
        0
176
     1
 66
     7
176
     1
 43
1.0
176
     1
 76
     1
176
     1
 77
     6
176
     1
 78
     2
176
     1
 67
     7
176
     1
 79
     5
176
     1
170
     0
176
     1
171
     0
176
     1
290
     0
176
     1
 93
       13
176
     1
 44
0.0
176
     1
173
     0
176
     1
1001
ACAD
1000
AcDbSavedByObjectVersion
1070
     0
  0
VISUALSTYLE
  5
C7
102
{ACAD_XDICTIONARY
360
184
102
}
102
{ACAD_REACTORS
330
C3
102
}
330
C3
100
AcDbVisualStyle
  2
GouraudWithEdges
 70
     3
177
     2
291
     1
 71
     2
176
     1
 72
     2
176
     1
 73
     1
176
     1
 90
        2
176
     1
 40
0.6
176
     1
 41
30.0
176
     1
 63
     7
421
 16777215
176
     1
 74
     1
176
     1
 91
        0
176
     1
 64
     7
176
     1
 65
   257
176
     1
 75
     1
176
     1
175
     1
176
     1
 42
1.0
176
     1
 92
        0
176
     1
 66
   257
176
     1
 43
1.0
176
     1
 76
     1
176
     1
 77
     6
176
     1
 78
     2
176
     1
 67
     7
176
     1
 79
     5
176
     1
170
     0
176
     1
171
     0
176
     1
290
     0
176
     1
 93
       13
176
     1
 44
0.0
176
     1
173
     0
176
     1
1001
ACAD
1000
AcDbSavedByObjectVersion
1070
     0
  0
VISUALSTYLE
  5
CB
102
{ACAD_XDICTIONARY
360
18C
102
}
102
{ACAD_REACTORS
330
C3
102
}
330
C3
100
AcDbVisualStyle
  2
Hidden
 70
     6
177
     2
291
     0
 71
     1
176
     1
 72
     2
176
     1
 73
     2
176
     1
 90
        0
176
     1
 40
0.6
176
     1
 41
30.0
176
     1
 63
     7
421
 16777215
176
     1
 74
     2
176
     1
 91
        2
176
     1
 64
     7
176
     1
 65
   257
176
     1
 75
     2
176
     1
175
     1
176
     1
 42
40.0
176
     1
 92
        0
176
     1
 66
   257
176
     1
 43
1.0
176
     1
 76
     1
176
     1
 77
     6
176
     1
 78
     2
176
     1
 67
     7
176
     1
 79
     3
176
     1
170
     0
176
     1
171
     0
176
     1
290
     0
176
     1
 93
        1
176
     1
 44
0.0
176
     1
173
     0
176
     1
1001
ACAD
1000
AcDbSavedByObjectVersion
1070
     0
  0
VISUALSTYLE
  5
D9
102
{ACAD_XDICTIONARY
360
1A8
102
}
102
{ACAD_REACTORS
330
C3
102
}
330
C3
100
AcDbVisualStyle
  2
JitterOff
 70
    20
177
     2
291
     1
 71
     2
176
     0
 72
     2
176
     0
 73
     0
176
     0
 90
        0
176
     0
 40
0.6
176
     0
 41
30.0
176
     0
 63
     7
421
 16777215
176
     0
 74
     1
176
     0
 91
        4
176
     0
 64
     7
176
     0
 65
   257
176
     0
 75
     1
176
     0
175
     1
176
     0
 42
1.0
176
     0
 92
       10
176
     2
 66
     7
176
     0
 43
1.0
176
     0
 76
     1
176
     0
 77
     6
176
     0
 78
     2
176
     0
 67
     7
176
     0
 79
     5
176
     0
170
     0
176
     0
171
     0
176
     0
290
     0
176
     0
 93
        1
176
     0
 44
0.0
176
     0
173
     0
176
     0
1001
ACAD
1000
AcDbSavedByObjectVersion
1070
     0
  0
VISUALSTYLE
  5
D1
102
{ACAD_XDICTIONARY
360
198
102
}
102
{ACAD_REACTORS
330
C3
102
}
330
C3
100
AcDbVisualStyle
  2
Linepattern
 70
    14
177
     2
291
     1
 71
     2
176
     1
 72
     2
176
     1
 73
     0
176
     1
 90
        0
176
     1
 40
0.6
176
     1
 41
30.0
176
     1
 63
     7
421
 16777215
176
     1
 74
     1
176
     1
 91
        4
176
     1
 64
     7
176
     1
 65
   257
176
     1
 75
     7
176
     1
175
     7
176
     1
 42
1.0
176
     1
 92
        8
176
     1
 66
     7
176
     1
 43
1.0
176
     1
 76
     1
176
     1
 77
     6
176
     1
 78
     2
176
     1
 67
     7
176
     1
 79
     5
176
     1
170
     0
176
     1
171
     0
176
     1
290
     0
176
     1
 93
        1
176
     1
 44
0.0
176
     1
173
     0
176
     1
1001
ACAD
1000
AcDbSavedByObjectVersion
1070
     0
  0
VISUALSTYLE
  5
DA
102
{ACAD_XDICTIONARY
360
1AA
102
}
102
{ACAD_REACTORS
330
C3
102
}
330
C3
100
AcDbVisualStyle
  2
OverhangOff
 70
    21
177
     2
291
     1
 71
     2
176
     0
 72
     2
176
     0
 73
     0
176
     0
 90
        0
176
     0
 40
0.6
176
     0
 41
30.0
176
     0
 63
     7
421
 16777215
176
     0
 74
     1
176
     0
 91
        4
176
     0
 64
     7
176
     0
 65
   257
176
     0
 75
     1
176
     0
175
     1
176
     0
 42
1.0
176
     0
 92
        9
176
     2
 66
     7
176
     0
 43
1.0
176
     0
 76
     1
176
     0
 77
     6
176
     0
 78
     2
176
     0
 67
     7
176
     0
 79
     5
176
     0
170
     0
176
     0
171
     0
176
     0
290
     0
176
     0
 93
        1
176
     0
 44
0.0
176
     0
173
     0
176
     0
1001
ACAD
1000
AcDbSavedByObjectVersion
1070
     0
  0
VISUALSTYLE
  5
CD
102
{ACAD_XDICTIONARY
360
190
102
}
102
{ACAD_REACTORS
330
C3
102
}
330
C3
100
AcDbVisualStyle
  2
Realistic
 70
     8
177
     2
291
     0
 71
     2
176
     1
 72
     3
176
     1
 73
     0
176
     1
 90
        2
176
     1
 40
0.6
176
     1
 41
30.0
176
     1
 63
     7
421
 16777215
176
     1
 74
     0
176
     1
 91
        0
176
     1
 64
     7
176
     1
 65
   257
176
     1
 75
     1
176
     1
175
     1
176
     1
 42
1.0
176
     1
 92
        8
176
     1
 66
   257
176
     1
 43
1.0
176
     1
 76
     1
176
     1
 77
     6
176
     1
 78
     2
176
     1
 67
     7
176
     1
 79
     3
176
     1
170
     0
176
     1
171
     0
176
     1
290
     0
176
     1
 93
       13
176
     1
 44
0.0
176
     1
173
     0
176
     1
1001
ACAD
1000
AcDbSavedByObjectVersion
1070
     0
  0
VISUALSTYLE
  5
D8
102
{ACAD_XDICTIONARY
360
1A6
102
}
102
{ACAD_REACTORS
330
C3
102
}
330
C3
100
AcDbVisualStyle
  2
Shaded
 70
    27
177
     2
291
     0
 71
     2
176
     1
 72
     2
176
     1
 73
     1
176
     1
 90
        2
176
     1
 40
0.6
176
     1
 41
30.0
176
     1
 63
     7
421
 16777215
176
     1
 74
     0
176
     1
 91
        4
176
     1
 64
     7
176
     1
 65
   257
176
     1
 75
     1
176
     1
175
     1
176
     1
 42
1.0
176
     1
 92
        8
176
     1
 66
   257
176
     1
 43
1.0
176
     1
 76
     1
176
     1
 77
     6
176
     1
 78
     2
176
     1
 67
     8
425
  7895160
176
     1
 79
     3
176
     1
170
     0
176
     1
171
     0
176
     1
290
     0
176
     1
 93
        5
176
     1
 44
0.0
176
     1
173
     0
176
     1
1001
ACAD
1000
AcDbSavedByObjectVersion
1070
     0
  0
VISUALSTYLE
  5
D7
102
{ACAD_XDICTIONARY
360
1A4
102
}
102
{ACAD_REACTORS
330
C3
102
}
330
C3
100
AcDbVisualStyle
  2
Shaded with edges
 70
    26
177
     2
291
     0
 71
     2
176
     1
 72
     2
176
     1
 73
     1
176
     1
 90
        2
176
     1
 40
0.6
176
     1
 41
30.0
176
     1
 63
     7
421
 16777215
176
     1
 74
     1
176
     1
 91
       10
176
     1
 64
     7
176
     1
 65
   257
176
     1
 75
     2
176
     1
175
     1
176
     1
 42
1.0
176
     1
 92
        8
176
     1
 66
   257
176
     1
 43
1.0
176
     1
 76
     1
176
     1
 77
     6
176
     1
 78
     2
176
     1
 67
     7
176
     1
 79
     3
176
     1
170
     0
176
     1
171
     0
176
     1
290
     0
176
     1
 93
        5
176
     1
 44
0.0
176
     1
173
     0
176
     1
1001
ACAD
1000
AcDbSavedByObjectVersion
1070
     0
  0
VISUALSTYLE
  5
D4
102
{ACAD_XDICTIONARY
360
19E
102
}
102
{ACAD_REACTORS
330
C3
102
}
330
C3
100
AcDbVisualStyle
  2
Shades of Gray
 70
    23
177
     2
291
     0
 71
     2
176
     1
 72
     2
176
     1
 73
     3
176
     1
 90
        0
176
     1
 40
0.6
176
     1
 41
30.0
176
     1
 63
     7
421
 16777215
176
     1
 74
     2
176
     1
 91
        2
176
     1
 64
     7
176
     1
 65
     7
176
     1
 75
     1
176
     1
175
     1
176
     1
 42
40.0
176
     1
 92
        8
176
     1
 66
     7
176
     1
 43
1.0
176
     1
 76
     1
176
     1
 77
     6
176
     1
 78
     2
176
     1
 67
     7
176
     1
 79
     3
176
     1
170
     0
176
     1
171
     0
176
     1
290
     0
176
     1
 93
        1
176
     1
 44
0.0
176
     1
173
     0
176
     1
1001
ACAD
1000
AcDbSavedByObjectVersion
1070
     0
  0
VISUALSTYLE
  5
D5
102
{ACAD_XDICTIONARY
360
1A0
102
}
102
{ACAD_REACTORS
330
C3
102
}
330
C3
100
AcDbVisualStyle
  2
Sketchy
 70
    24
177
     2
291
     0
 71
     1
176
     1
 72
     2
176
     1
 73
     2
176
     1
 90
        0
176
     1
 40
0.6
176
     1
 41
30.0
176
     1
 63
     7
421
 16777215
176
     1
 74
     2
176
     1
 91
        2
176
     1
 64
     7
176
     1
 65
     7
176
     1
 75
     1
176
     1
175
     1
176
     1
 42
40.0
176
     1
 92
       11
176
     1
 66
     7
176
     1
 43
1.0
176
     1
 76
     1
176
     1
 77
     6
176
     1
 78
     2
176
     1
 67
     7
176
     1
 79
     6
176
     1
170
     0
176
     1
171
     0
176
     1
290
     0
176
     1
 93
        1
176
     1
 44
0.0
176
     1
173
     0
176
     1
1001
ACAD
1000
AcDbSavedByObjectVersion
1070
     0
  0
VISUALSTYLE
  5
D0
102
{ACAD_XDICTIONARY
360
196
102
}
102
{ACAD_REACTORS
330
C3
102
}
330
C3
100
AcDbVisualStyle
  2
Thicken
 70
    13
177
     2
291
     1
 71
     2
176
     1
 72
     2
176
     1
 73
     0
176
     1
 90
        0
176
     1
 40
0.6
176
     1
 41
30.0
176
     1
 63
     7
421
 16777215
176
     1
 74
     1
176
     1
 91
        4
176
     1
 64
     7
176
     1
 65
   257
176
     1
 75
     1
176
     1
175
     1
176
     1
 42
1.0
176
     1
 92
       12
176
     1
 66
     7
176
     1
 43
1.0
176
     1
 76
     1
176
     1
 77
     6
176
     1
 78
     2
176
     1
 67
     7
176
     1
 79
     5
176
     1
170
     0
176
     1
171
     0
176
     1
290
     0
176
     1
 93
        1
176
     1
 44
0.0
176
     1
173
     0
176
     1
1001
ACAD
1000
AcDbSavedByObjectVersion
1070
     0
  0
VISUALSTYLE
  5
CA
102
{ACAD_XDICTIONARY
360
18A
102
}
102
{ACAD_REACTORS
330
C3
102
}
330
C3
100
AcDbVisualStyle
  2
Wireframe
 70
     5
177
     2
291
     0
 71
     0
176
     1
 72
     2
176
     1
 73
     0
176
     1
 90
        0
176
     1
 40
0.6
176
     1
 41
30.0
176
     1
 63
     7
421
 16777215
176
     1
 74
     1
176
     1
 91
        4
176
     1
 64
     7
176
     1
 65
   257
176
     1
 75
     1
176
     1
175
     1
176
     1
 42
1.0
176
     1
 92
        0
176
     1
 66
   257
176
     1
 43
1.0
176
     1
 76
     1
176
     1
 77
     6
176
     1
 78
     2
176
     1
 67
     7
176
     1
 79
     3
176
     1
170
     0
176
     1
171
     0
176
     1
290
     0
176
     1
 93
        1
176
     1
 44
0.0
176
     1
173
     0
176
     1
1001
ACAD
1000
AcDbSavedByObjectVersion
1070
     0
  0
VISUALSTYLE
  5
D6
102
{ACAD_XDICTIONARY
360
1A2
102
}
102
{ACAD_REACTORS
330
C3
102
}
330
C3
100
AcDbVisualStyle
  2
X-Ray
 70
    25
177
     2
291
     0
 71
     2
176
     1
 72
     2
176
     1
 73
     1
176
     1
 90
        1
176
     1
 40
0.5
176
     1
 41
30.0
176
     1
 63
     7
421
 16777215
176
     1
 74
     1
176
     1
 91
        0
176
     1
 64
     7
176
     1
 65
   257
176
     1
 75
     1
176
     1
175
     1
176
     1
 42
1.0
176
     1
 92
        8
176
     1
 66
     7
176
     1
 43
1.0
176
     1
 76
     1
176
     1
 77
     6
176
     1
 78
     2
176
     1
 67
     7
176
     1
 79
     3
176
     1
170
     0
176
     1
171
     0
176
     1
290
     0
176
     1
 93
       13
176
     1
 44
0.0
176
     1
173
     0
176
     1
1001
ACAD
1000
AcDbSavedByObjectVersion
1070
     0
  0
DICTIONARYVAR
  5
177
102
{ACAD_REACTORS
330
171
102
}
330
171
100
DictionaryVariables
280
     0
  1
1:1
  0
DICTIONARYVAR
  5
173
102
{ACAD_REACTORS
330
171
102
}
330
171
100
DictionaryVariables
280
     0
  1
STANDARD
  0
DICTIONARYVAR
  5
172
102
{ACAD_REACTORS
330
171
102
}
330
171
100
DictionaryVariables
280
     0
  1
STANDARD
  0
DICTIONARYVAR
  5
174
102
{ACAD_REACTORS
330
171
102
}
330
171
100
DictionaryVariables
280
     0
  1
Imperial24
  0
DICTIONARYVAR
  5
175
102
{ACAD_REACTORS
330
171
102
}
330
171
100
DictionaryVariables
280
     0
  1
Imperial24
  0
DICTIONARYVAR
  5
179
102
{ACAD_REACTORS
330
171
102
}
330
171
100
DictionaryVariables
280
     0
  1
1
  0
DICTIONARYVAR
  5
17A
102
{ACAD_REACTORS
330
171
102
}
330
171
100
DictionaryVariables
280
     0
  1
15
  0
DICTIONARYVAR
  5
178
102
{ACAD_REACTORS
330
171
102
}
330
171
100
DictionaryVariables
280
     0
  1
0
  0
DICTIONARYVAR
  5
176
102
{ACAD_REACTORS
330
171
102
}
330
171
100
DictionaryVariables
280
     0
  1
0
  0
DICTIONARY
  5
1B2
330
F6
100
AcDbDictionary
280
     1
281
     1
  3
ACAD_XREC_ROUNDTRIP
360
1B3
  0
DICTIONARY
  5
B4
330
B3
100
AcDbDictionary
280
     1
281
     1
  3
BUMPTILE
360
B6
  3
DIFFUSETILE
360
B5
  3
OPACITYTILE
360
B9
  3
REFLECTIONTILE
360
B8
  3
REFRACTIONTILE
360
BA
  3
SPECULARTILE
360
B7
  0
DICTIONARY
  5
AC
330
AB
100
AcDbDictionary
280
     1
281
     1
  3
BUMPTILE
360
AE
  3
DIFFUSETILE
360
AD
  3
OPACITYTILE
360
B1
  3
REFLECTIONTILE
360
B0
  3
REFRACTIONTILE
360
B2
  3
SPECULARTILE
360
AF
  0
DICTIONARY
  5
BC
330
BB
100
AcDbDictionary
280
     1
281
     1
  3
BUMPTILE
360
BE
  3
DIFFUSETILE
360
BD
  3
OPACITYTILE
360
C1
  3
REFLECTIONTILE
360
C0
  3
REFRACTIONTILE
360
C2
  3
SPECULARTILE
360
BF
  0
DICTIONARY
  5
1AE
330
F2
100
AcDbDictionary
280
     1
281
     1
  3
ACAD_XREC_ROUNDTRIP
360
1AF
  0
DICTIONARY
  5
1B0
330
F4
100
AcDbDictionary
280
     1
281
     1
  3
ACAD_XREC_ROUNDTRIP
360
1B1
  0
DICTIONARY
  5
17B
330
DE
100
AcDbDictionary
280
     1
281
     1
  3
ACAD_ROUNDTRIP_2008_TABLESTYLE_CELLSTYLEMAP
360
17C
  0
DICTIONARY
  5
188
330
C9
100
AcDbDictionary
280
     1
281
     1
  3
ACAD_XREC_ROUNDTRIP
360
189
  0
DICTIONARY
  5
186
330
C8
100
AcDbDictionary
280
     1
281
     1
  3
ACAD_XREC_ROUNDTRIP
360
187
  0
DICTIONARY
  5
194
330
CF
100
AcDbDictionary
280
     1
281
     1
  3
ACAD_XREC_ROUNDTRIP
360
195
  0
DICTIONARY
  5
19C
330
D3
100
AcDbDictionary
280
     1
281
     1
  3
ACAD_XREC_ROUNDTRIP
360
19D
  0
DICTIONARY
  5
18E
330
CC
100
AcDbDictionary
280
     1
281
     1
  3
ACAD_XREC_ROUNDTRIP
360
18F
  0
DICTIONARY
  5
192
330
CE
100
AcDbDictionary
280
     1
281
     1
  3
ACAD_XREC_ROUNDTRIP
360
193
  0
DICTIONARY
  5
1AC
330
DB
100
AcDbDictionary
280
     1
281
     1
  3
ACAD_XREC_ROUNDTRIP
360
1AD
  0
DICTIONARY
  5
19A
330
D2
100
AcDbDictionary
280
     1
281
     1
  3
ACAD_XREC_ROUNDTRIP
360
19B
  0
DICTIONARY
  5
17E
330
C4
100
AcDbDictionary
280
     1
281
     1
  3
ACAD_XREC_ROUNDTRIP
360
17F
  0
DICTIONARY
  5
180
330
C5
100
AcDbDictionary
280
     1
281
     1
  3
ACAD_XREC_ROUNDTRIP
360
181
  0
DICTIONARY
  5
182
330
C6
100
AcDbDictionary
280
     1
281
     1
  3
ACAD_XREC_ROUNDTRIP
360
183
  0
DICTIONARY
  5
184
330
C7
100
AcDbDictionary
280
     1
281
     1
  3
ACAD_XREC_ROUNDTRIP
360
185
  0
DICTIONARY
  5
18C
330
CB
100
AcDbDictionary
280
     1
281
     1
  3
ACAD_XREC_ROUNDTRIP
360
18D
  0
DICTIONARY
  5
1A8
330
D9
100
AcDbDictionary
280
     1
281
     1
  3
ACAD_XREC_ROUNDTRIP
360
1A9
  0
DICTIONARY
  5
198
330
D1
100
AcDbDictionary
280
     1
281
     1
  3
ACAD_XREC_ROUNDTRIP
360
199
  0
DICTIONARY
  5
1AA
330
DA
100
AcDbDictionary
280
     1
281
     1
  3
ACAD_XREC_ROUNDTRIP
360
1AB
  0
DICTIONARY
  5
190
330
CD
100
AcDbDictionary
280
     1
281
     1
  3
ACAD_XREC_ROUNDTRIP
360
191
  0
DICTIONARY
  5
1A6
330
D8
100
AcDbDictionary
280
     1
281
     1
  3
ACAD_XREC_ROUNDTRIP
360
1A7
  0
DICTIONARY
  5
1A4
330
D7
100
AcDbDictionary
280
     1
281
     1
  3
ACAD_XREC_ROUNDTRIP
360
1A5
  0
DICTIONARY
  5
19E
330
D4
100
AcDbDictionary
280
     1
281
     1
  3
ACAD_XREC_ROUNDTRIP
360
19F
  0
DICTIONARY
  5
1A0
330
D5
100
AcDbDictionary
280
     1
281
     1
  3
ACAD_XREC_ROUNDTRIP
360
1A1
  0
DICTIONARY
  5
196
330
D0
100
AcDbDictionary
280
     1
281
     1
  3
ACAD_XREC_ROUNDTRIP
360
197
  0
DICTIONARY
  5
18A
330
CA
100
AcDbDictionary
280
     1
281
     1
  3
ACAD_XREC_ROUNDTRIP
360
18B
  0
DICTIONARY
  5
1A2
330
D6
100
AcDbDictionary
280
     1
281
     1
  3
ACAD_XREC_ROUNDTRIP
360
1A3
  0
XRECORD
  5
1B3
102
{ACAD_REACTORS
330
1B2
102
}
330
1B2
100
AcDbXrecord
280
     1
102
DISPLAYNAME
  1
Imperial24
102
FLAGS
 90
        0
  0
XRECORD
  5
B6
102
{ACAD_REACTORS
330
B4
102
}
330
B4
100
AcDbXrecord
280
     1
270
     1
271
     1
  0
XRECORD
  5
B5
102
{ACAD_REACTORS
330
B4
102
}
330
B4
100
AcDbXrecord
280
     1
270
     1
271
     1
  0
XRECORD
  5
B9
102
{ACAD_REACTORS
330
B4
102
}
330
B4
100
AcDbXrecord
280
     1
270
     1
271
     1
  0
XRECORD
  5
B8
102
{ACAD_REACTORS
330
B4
102
}
330
B4
100
AcDbXrecord
280
     1
270
     1
271
     1
  0
XRECORD
  5
BA
102
{ACAD_REACTORS
330
B4
102
}
330
B4
100
AcDbXrecord
280
     1
270
     1
271
     1
  0
XRECORD
  5
B7
102
{ACAD_REACTORS
330
B4
102
}
330
B4
100
AcDbXrecord
280
     1
270
     1
271
     1
  0
XRECORD
  5
AE
102
{ACAD_REACTORS
330
AC
102
}
330
AC
100
AcDbXrecord
280
     1
270
     1
271
     1
  0
XRECORD
  5
AD
102
{ACAD_REACTORS
330
AC
102
}
330
AC
100
AcDbXrecord
280
     1
270
     1
271
     1
  0
XRECORD
  5
B1
102
{ACAD_REACTORS
330
AC
102
}
330
AC
100
AcDbXrecord
280
     1
270
     1
271
     1
  0
XRECORD
  5
B0
102
{ACAD_REACTORS
330
AC
102
}
330
AC
100
AcDbXrecord
280
     1
270
     1
271
     1
  0
XRECORD
  5
B2
102
{ACAD_REACTORS
330
AC
102
}
330
AC
100
AcDbXrecord
280
     1
270
     1
271
     1
  0
XRECORD
  5
AF
102
{ACAD_REACTORS
330
AC
102
}
330
AC
100
AcDbXrecord
280
     1
270
     1
271
     1
  0
XRECORD
  5
BE
102
{ACAD_REACTORS
330
BC
102
}
330
BC
100
AcDbXrecord
280
     1
270
     1
271
     1
  0
XRECORD
  5
BD
102
{ACAD_REACTORS
330
BC
102
}
330
BC
100
AcDbXrecord
280
     1
270
     1
271
     1
  0
XRECORD
  5
C1
102
{ACAD_REACTORS
330
BC
102
}
330
BC
100
AcDbXrecord
280
     1
270
     1
271
     1
  0
XRECORD
  5
C0
102
{ACAD_REACTORS
330
BC
102
}
330
BC
100
AcDbXrecord
280
     1
270
     1
271
     1
  0
XRECORD
  5
C2
102
{ACAD_REACTORS
330
BC
102
}
330
BC
100
AcDbXrecord
280
     1
270
     1
271
     1
  0
XRECORD
  5
BF
102
{ACAD_REACTORS
330
BC
102
}
330
BC
100
AcDbXrecord
280
     1
270
     1
271
     1
  0
XRECORD
  5
1AF
102
{ACAD_REACTORS
330
1AE
102
}
330
1AE
100
AcDbXrecord
280
     1
102
ACAD_ROUNDTRIP_2012_MLEADER_STYLE
298
     1
  0
XRECORD
  5
1B1
102
{ACAD_REACTORS
330
1B0
102
}
330
1B0
100
AcDbXrecord
280
     1
102
DISPLAYNAME
  1
Imperial24
102
FLAGS
 90
        0
  0
CELLSTYLEMAP
  5
17C
102
{ACAD_REACTORS
330
17B
102
}
330
17B
100
AcDbCellStyleMap
 90
        3
300
CELLSTYLE
  1
TABLEFORMAT_BEGIN
 90
        5
170
     1
 91
        0
 92
    32768
 62
   257
 93
        1
300
CONTENTFORMAT
  1
CONTENTFORMAT_BEGIN
 90
        0
 91
        0
 92
      512
 93
        0
300

 40
0.0
140
1.0
 94
        5
 62
     0
340
11
144
0.25
309
CONTENTFORMAT_END
171
     0
 94
        0
309
TABLEFORMAT_END
  1
CELLSTYLE_BEGIN
 90
        1
 91
        1
300
_TITLE
309
CELLSTYLE_END
300
CELLSTYLE
  1
TABLEFORMAT_BEGIN
 90
        5
170
     1
 91
        0
 92
        0
 62
   257
 93
        1
300
CONTENTFORMAT
  1
CONTENTFORMAT_BEGIN
 90
        0
 91
        0
 92
      512
 93
        0
300

 40
0.0
140
1.0
 94
        5
 62
     0
340
11
144
0.18
309
CONTENTFORMAT_END
171
     0
 94
        0
309
TABLEFORMAT_END
  1
CELLSTYLE_BEGIN
 90
        2
 91
        1
300
_HEADER
309
CELLSTYLE_END
300
CELLSTYLE
  1
TABLEFORMAT_BEGIN
 90
        5
170
     1
 91
        0
 92
        0
 62
   257
 93
        1
300
CONTENTFORMAT
  1
CONTENTFORMAT_BEGIN
 90
        0
 91
        0
 92
      512
 93
        0
300

 40
0.0
140
1.0
 94
        2
 62
     0
340
11
144
0.18
309
CONTENTFORMAT_END
171
     0
 94
        0
309
TABLEFORMAT_END
  1
CELLSTYLE_BEGIN
 90
        3
 91
        2
300
_DATA
309
CELLSTYLE_END
  0
XRECORD
  5
189
102
{ACAD_REACTORS
330
188
102
}
330
188
100
AcDbXrecord
280
     1
102
RTVSPost2010Prop28
280
     1
102
RTVSPost2010PropOp28
 70
     1
102
RTVSPost2010Prop29
280
     1
102
RTVSPost2010PropOp29
 70
     1
102
RTVSPost2010Prop30
280
     0
102
RTVSPost2010PropOp30
 70
     1
102
RTVSPost2010Prop31
280
     0
102
RTVSPost2010PropOp31
 70
     1
102
RTVSPost2010Prop32
280
     0
102
RTVSPost2010PropOp32
 70
     1
102
RTVSPost2010Prop33
280
     0
102
RTVSPost2010PropOp33
 70
     1
102
RTVSPost2010Prop34
280
     0
102
RTVSPost2010PropOp34
 70
     1
102
RTVSPost2010Prop35
280
     0
102
RTVSPost2010PropOp35
 70
     1
102
RTVSPost2010Prop36
280
     0
102
RTVSPost2010PropOp36
 70
     1
102
RTVSPost2010Prop37
 90
       50
102
RTVSPost2010PropOp37
 70
     1
102
RTVSPost2010Prop38
140
0.0
102
RTVSPost2010PropOp38
 70
     1
102
RTVSPost2010Prop39
140
1.0
102
RTVSPost2010PropOp39
 70
     1
102
RTVSPost2010Prop40
 90
        0
102
RTVSPost2010PropOp40
 70
     1
102
RTVSPost2010Prop41ColorIndex
 90
       18
102
RTVSPost2010Prop41ColorRGB
 90
        0
102
RTVSPost2010PropOp41
 70
     1
102
RTVSPost2010Prop42
 90
       50
102
RTVSPost2010PropOp42
 70
     1
102
RTVSPost2010Prop43
 90
        3
102
RTVSPost2010PropOp43
 70
     1
102
RTVSPost2010Prop44ColorIndex
 90
        5
102
RTVSPost2010Prop44ColorRGB
 90
      255
102
RTVSPost2010PropOp44
 70
     1
102
RTVSPost2010Prop45
280
     0
102
RTVSPost2010PropOp45
 70
     1
102
RTVSPost2010Prop46
 90
       50
102
RTVSPost2010PropOp46
 70
     1
102
RTVSPost2010Prop47
 90
       50
102
RTVSPost2010PropOp47
 70
     1
102
RTVSPost2010Prop48
 90
       50
102
RTVSPost2010PropOp48
 70
     1
102
RTVSPost2010Prop49
280
     0
102
RTVSPost2010PropOp49
 70
     1
102
RTVSPost2010Prop50
 90
       50
102
RTVSPost2010PropOp50
 70
     1
102
RTVSPost2010Prop51ColorIndex
 90
      256
102
RTVSPost2010Prop51ColorRGB
 90
-16777216
102
RTVSPost2010PropOp51
 70
     0
102
RTVSPost2010Prop52
140
1.0
102
RTVSPost2010PropOp52
 70
     0
102
RTVSPost2010Prop53
 90
        2
102
RTVSPost2010PropOp53
 70
     1
102
RTVSPost2010Prop54
  1
strokes_ogs.tif
102
RTVSPost2010PropOp54
 70
     1
102
RTVSPost2010Prop55
280
     0
102
RTVSPost2010PropOp55
 70
     1
102
RTVSPost2010Prop56
140
1.0
102
RTVSPost2010PropOp56
 70
     1
102
RTVSPost2010Prop57
140
1.0
102
RTVSPost2010PropOp57
 70
     1
  0
XRECORD
  5
187
102
{ACAD_REACTORS
330
186
102
}
330
186
100
AcDbXrecord
280
     1
102
RTVSPost2010Prop28
280
     0
102
RTVSPost2010PropOp28
 70
     1
102
RTVSPost2010Prop29
280
     1
102
RTVSPost2010PropOp29
 70
     1
102
RTVSPost2010Prop30
280
     1
102
RTVSPost2010PropOp30
 70
     1
102
RTVSPost2010Prop31
280
     0
102
RTVSPost2010PropOp31
 70
     1
102
RTVSPost2010Prop32
280
     0
102
RTVSPost2010PropOp32
 70
     1
102
RTVSPost2010Prop33
280
     0
102
RTVSPost2010PropOp33
 70
     1
102
RTVSPost2010Prop34
280
     0
102
RTVSPost2010PropOp34
 70
     1
102
RTVSPost2010Prop35
280
     0
102
RTVSPost2010PropOp35
 70
     1
102
RTVSPost2010Prop36
280
     0
102
RTVSPost2010PropOp36
 70
     1
102
RTVSPost2010Prop37
 90
       50
102
RTVSPost2010PropOp37
 70
     1
102
RTVSPost2010Prop38
140
0.0
102
RTVSPost2010PropOp38
 70
     1
102
RTVSPost2010Prop39
140
1.0
102
RTVSPost2010PropOp39
 70
     1
102
RTVSPost2010Prop40
 90
        0
102
RTVSPost2010PropOp40
 70
     1
102
RTVSPost2010Prop41ColorIndex
 90
       18
102
RTVSPost2010Prop41ColorRGB
 90
        0
102
RTVSPost2010PropOp41
 70
     1
102
RTVSPost2010Prop42
 90
       50
102
RTVSPost2010PropOp42
 70
     1
102
RTVSPost2010Prop43
 90
        3
102
RTVSPost2010PropOp43
 70
     1
102
RTVSPost2010Prop44ColorIndex
 90
        5
102
RTVSPost2010Prop44ColorRGB
 90
      255
102
RTVSPost2010PropOp44
 70
     1
102
RTVSPost2010Prop45
280
     0
102
RTVSPost2010PropOp45
 70
     1
102
RTVSPost2010Prop46
 90
       50
102
RTVSPost2010PropOp46
 70
     1
102
RTVSPost2010Prop47
 90
       50
102
RTVSPost2010PropOp47
 70
     1
102
RTVSPost2010Prop48
 90
       50
102
RTVSPost2010PropOp48
 70
     1
102
RTVSPost2010Prop49
280
     0
102
RTVSPost2010PropOp49
 70
     1
102
RTVSPost2010Prop50
 90
       50
102
RTVSPost2010PropOp50
 70
     1
102
RTVSPost2010Prop51ColorIndex
 90
      256
102
RTVSPost2010Prop51ColorRGB
 90
-16777216
102
RTVSPost2010PropOp51
 70
     0
102
RTVSPost2010Prop52
140
1.0
102
RTVSPost2010PropOp52
 70
     0
102
RTVSPost2010Prop53
 90
        2
102
RTVSPost2010PropOp53
 70
     1
102
RTVSPost2010Prop54
  1
strokes_ogs.tif
102
RTVSPost2010PropOp54
 70
     1
102
RTVSPost2010Prop55
280
     0
102
RTVSPost2010PropOp55
 70
     1
102
RTVSPost2010Prop56
140
1.0
102
RTVSPost2010PropOp56
 70
     1
102
RTVSPost2010Prop57
140
1.0
102
RTVSPost2010PropOp57
 70
     1
  0
XRECORD
  5
195
102
{ACAD_REACTORS
330
194
102
}
330
194
100
AcDbXrecord
280
     1
102
RTVSPost2010Prop28
280
     0
102
RTVSPost2010PropOp28
 70
     1
102
RTVSPost2010Prop29
280
     1
102
RTVSPost2010PropOp29
 70
     1
102
RTVSPost2010Prop30
280
     1
102
RTVSPost2010PropOp30
 70
     1
102
RTVSPost2010Prop31
280
     0
102
RTVSPost2010PropOp31
 70
     1
102
RTVSPost2010Prop32
280
     0
102
RTVSPost2010PropOp32
 70
     1
102
RTVSPost2010Prop33
280
     0
102
RTVSPost2010PropOp33
 70
     1
102
RTVSPost2010Prop34
280
     0
102
RTVSPost2010PropOp34
 70
     1
102
RTVSPost2010Prop35
280
     0
102
RTVSPost2010PropOp35
 70
     1
102
RTVSPost2010Prop36
280
     0
102
RTVSPost2010PropOp36
 70
     1
102
RTVSPost2010Prop37
 90
       50
102
RTVSPost2010PropOp37
 70
     1
102
RTVSPost2010Prop38
140
0.0
102
RTVSPost2010PropOp38
 70
     1
102
RTVSPost2010Prop39
140
1.0
102
RTVSPost2010PropOp39
 70
     1
102
RTVSPost2010Prop40
 90
        0
102
RTVSPost2010PropOp40
 70
     1
102
RTVSPost2010Prop41ColorIndex
 90
       18
102
RTVSPost2010Prop41ColorRGB
 90
        0
102
RTVSPost2010PropOp41
 70
     1
102
RTVSPost2010Prop42
 90
       50
102
RTVSPost2010PropOp42
 70
     1
102
RTVSPost2010Prop43
 90
        3
102
RTVSPost2010PropOp43
 70
     1
102
RTVSPost2010Prop44ColorIndex
 90
        5
102
RTVSPost2010Prop44ColorRGB
 90
      255
102
RTVSPost2010PropOp44
 70
     1
102
RTVSPost2010Prop45
280
     0
102
RTVSPost2010PropOp45
 70
     1
102
RTVSPost2010Prop46
 90
       50
102
RTVSPost2010PropOp46
 70
     1
102
RTVSPost2010Prop47
 90
       50
102
RTVSPost2010PropOp47
 70
     1
102
RTVSPost2010Prop48
 90
       50
102
RTVSPost2010PropOp48
 70
     1
102
RTVSPost2010Prop49
280
     0
102
RTVSPost2010PropOp49
 70
     1
102
RTVSPost2010Prop50
 90
       50
102
RTVSPost2010PropOp50
 70
     1
102
RTVSPost2010Prop51ColorIndex
 90
      256
102
RTVSPost2010Prop51ColorRGB
 90
-16777216
102
RTVSPost2010PropOp51
 70
     0
102
RTVSPost2010Prop52
140
1.0
102
RTVSPost2010PropOp52
 70
     0
102
RTVSPost2010Prop53
 90
        2
102
RTVSPost2010PropOp53
 70
     1
102
RTVSPost2010Prop54
  1
strokes_ogs.tif
102
RTVSPost2010PropOp54
 70
     1
102
RTVSPost2010Prop55
280
     0
102
RTVSPost2010PropOp55
 70
     1
102
RTVSPost2010Prop56
140
1.0
102
RTVSPost2010PropOp56
 70
     1
102
RTVSPost2010Prop57
140
1.0
102
RTVSPost2010PropOp57
 70
     1
  0
XRECORD
  5
19D
102
{ACAD_REACTORS
330
19C
102
}
330
19C
100
AcDbXrecord
280
     1
102
RTVSPost2010Prop28
280
     0
102
RTVSPost2010PropOp28
 70
     1
102
RTVSPost2010Prop29
280
     1
102
RTVSPost2010PropOp29
 70
     1
102
RTVSPost2010Prop30
280
     1
102
RTVSPost2010PropOp30
 70
     1
102
RTVSPost2010Prop31
280
     0
102
RTVSPost2010PropOp31
 70
     1
102
RTVSPost2010Prop32
280
     0
102
RTVSPost2010PropOp32
 70
     1
102
RTVSPost2010Prop33
280
     0
102
RTVSPost2010PropOp33
 70
     1
102
RTVSPost2010Prop34
280
     0
102
RTVSPost2010PropOp34
 70
     1
102
RTVSPost2010Prop35
280
     0
102
RTVSPost2010PropOp35
 70
     1
102
RTVSPost2010Prop36
280
     0
102
RTVSPost2010PropOp36
 70
     1
102
RTVSPost2010Prop37
 90
       50
102
RTVSPost2010PropOp37
 70
     1
102
RTVSPost2010Prop38
140
0.0
102
RTVSPost2010PropOp38
 70
     1
102
RTVSPost2010Prop39
140
1.0
102
RTVSPost2010PropOp39
 70
     1
102
RTVSPost2010Prop40
 90
        0
102
RTVSPost2010PropOp40
 70
     1
102
RTVSPost2010Prop41ColorIndex
 90
       18
102
RTVSPost2010Prop41ColorRGB
 90
        0
102
RTVSPost2010PropOp41
 70
     1
102
RTVSPost2010Prop42
 90
       50
102
RTVSPost2010PropOp42
 70
     1
102
RTVSPost2010Prop43
 90
        3
102
RTVSPost2010PropOp43
 70
     1
102
RTVSPost2010Prop44ColorIndex
 90
        5
102
RTVSPost2010Prop44ColorRGB
 90
      255
102
RTVSPost2010PropOp44
 70
     1
102
RTVSPost2010Prop45
280
     0
102
RTVSPost2010PropOp45
 70
     1
102
RTVSPost2010Prop46
 90
       50
102
RTVSPost2010PropOp46
 70
     1
102
RTVSPost2010Prop47
 90
       50
102
RTVSPost2010PropOp47
 70
     1
102
RTVSPost2010Prop48
 90
       50
102
RTVSPost2010PropOp48
 70
     1
102
RTVSPost2010Prop49
280
     0
102
RTVSPost2010PropOp49
 70
     1
102
RTVSPost2010Prop50
 90
       50
102
RTVSPost2010PropOp50
 70
     1
102
RTVSPost2010Prop51ColorIndex
 90
      256
102
RTVSPost2010Prop51ColorRGB
 90
-16777216
102
RTVSPost2010PropOp51
 70
     0
102
RTVSPost2010Prop52
140
1.0
102
RTVSPost2010PropOp52
 70
     0
102
RTVSPost2010Prop53
 90
        2
102
RTVSPost2010PropOp53
 70
     1
102
RTVSPost2010Prop54
  1
strokes_ogs.tif
102
RTVSPost2010PropOp54
 70
     1
102
RTVSPost2010Prop55
280
     0
102
RTVSPost2010PropOp55
 70
     1
102
RTVSPost2010Prop56
140
1.0
102
RTVSPost2010PropOp56
 70
     1
102
RTVSPost2010Prop57
140
1.0
102
RTVSPost2010PropOp57
 70
     1
  0
XRECORD
  5
18F
102
{ACAD_REACTORS
330
18E
102
}
330
18E
100
AcDbXrecord
280
     1
102
RTVSPost2010Prop28
280
     0
102
RTVSPost2010PropOp28
 70
     1
102
RTVSPost2010Prop29
280
     1
102
RTVSPost2010PropOp29
 70
     1
102
RTVSPost2010Prop30
280
     1
102
RTVSPost2010PropOp30
 70
     1
102
RTVSPost2010Prop31
280
     0
102
RTVSPost2010PropOp31
 70
     1
102
RTVSPost2010Prop32
280
     0
102
RTVSPost2010PropOp32
 70
     1
102
RTVSPost2010Prop33
280
     0
102
RTVSPost2010PropOp33
 70
     1
102
RTVSPost2010Prop34
280
     0
102
RTVSPost2010PropOp34
 70
     1
102
RTVSPost2010Prop35
280
     0
102
RTVSPost2010PropOp35
 70
     1
102
RTVSPost2010Prop36
280
     0
102
RTVSPost2010PropOp36
 70
     1
102
RTVSPost2010Prop37
 90
       50
102
RTVSPost2010PropOp37
 70
     1
102
RTVSPost2010Prop38
140
0.0
102
RTVSPost2010PropOp38
 70
     1
102
RTVSPost2010Prop39
140
1.0
102
RTVSPost2010PropOp39
 70
     1
102
RTVSPost2010Prop40
 90
        0
102
RTVSPost2010PropOp40
 70
     1
102
RTVSPost2010Prop41ColorIndex
 90
       18
102
RTVSPost2010Prop41ColorRGB
 90
        0
102
RTVSPost2010PropOp41
 70
     1
102
RTVSPost2010Prop42
 90
       50
102
RTVSPost2010PropOp42
 70
     1
102
RTVSPost2010Prop43
 90
        3
102
RTVSPost2010PropOp43
 70
     1
102
RTVSPost2010Prop44ColorIndex
 90
        5
102
RTVSPost2010Prop44ColorRGB
 90
      255
102
RTVSPost2010PropOp44
 70
     1
102
RTVSPost2010Prop45
280
     0
102
RTVSPost2010PropOp45
 70
     1
102
RTVSPost2010Prop46
 90
       50
102
RTVSPost2010PropOp46
 70
     1
102
RTVSPost2010Prop47
 90
       50
102
RTVSPost2010PropOp47
 70
     1
102
RTVSPost2010Prop48
 90
       50
102
RTVSPost2010PropOp48
 70
     1
102
RTVSPost2010Prop49
280
     0
102
RTVSPost2010PropOp49
 70
     1
102
RTVSPost2010Prop50
 90
       50
102
RTVSPost2010PropOp50
 70
     1
102
RTVSPost2010Prop51ColorIndex
 90
      256
102
RTVSPost2010Prop51ColorRGB
 90
-16777216
102
RTVSPost2010PropOp51
 70
     0
102
RTVSPost2010Prop52
140
1.0
102
RTVSPost2010PropOp52
 70
     0
102
RTVSPost2010Prop53
 90
        2
102
RTVSPost2010PropOp53
 70
     1
102
RTVSPost2010Prop54
  1
strokes_ogs.tif
102
RTVSPost2010PropOp54
 70
     1
102
RTVSPost2010Prop55
280
     0
102
RTVSPost2010PropOp55
 70
     1
102
RTVSPost2010Prop56
140
1.0
102
RTVSPost2010PropOp56
 70
     1
102
RTVSPost2010Prop57
140
1.0
102
RTVSPost2010PropOp57
 70
     1
  0
XRECORD
  5
193
102
{ACAD_REACTORS
330
192
102
}
330
192
100
AcDbXrecord
280
     1
102
RTVSPost2010Prop28
280
     0
102
RTVSPost2010PropOp28
 70
     1
102
RTVSPost2010Prop29
280
     1
102
RTVSPost2010PropOp29
 70
     1
102
RTVSPost2010Prop30
280
     1
102
RTVSPost2010PropOp30
 70
     1
102
RTVSPost2010Prop31
280
     0
102
RTVSPost2010PropOp31
 70
     1
102
RTVSPost2010Prop32
280
     0
102
RTVSPost2010PropOp32
 70
     1
102
RTVSPost2010Prop33
280
     0
102
RTVSPost2010PropOp33
 70
     1
102
RTVSPost2010Prop34
280
     0
102
RTVSPost2010PropOp34
 70
     1
102
RTVSPost2010Prop35
280
     0
102
RTVSPost2010PropOp35
 70
     1
102
RTVSPost2010Prop36
280
     0
102
RTVSPost2010PropOp36
 70
     1
102
RTVSPost2010Prop37
 90
       50
102
RTVSPost2010PropOp37
 70
     1
102
RTVSPost2010Prop38
140
0.0
102
RTVSPost2010PropOp38
 70
     1
102
RTVSPost2010Prop39
140
1.0
102
RTVSPost2010PropOp39
 70
     1
102
RTVSPost2010Prop40
 90
        0
102
RTVSPost2010PropOp40
 70
     1
102
RTVSPost2010Prop41ColorIndex
 90
       18
102
RTVSPost2010Prop41ColorRGB
 90
        0
102
RTVSPost2010PropOp41
 70
     1
102
RTVSPost2010Prop42
 90
       50
102
RTVSPost2010PropOp42
 70
     1
102
RTVSPost2010Prop43
 90
        3
102
RTVSPost2010PropOp43
 70
     1
102
RTVSPost2010Prop44ColorIndex
 90
        5
102
RTVSPost2010Prop44ColorRGB
 90
      255
102
RTVSPost2010PropOp44
 70
     1
102
RTVSPost2010Prop45
280
     0
102
RTVSPost2010PropOp45
 70
     1
102
RTVSPost2010Prop46
 90
       50
102
RTVSPost2010PropOp46
 70
     1
102
RTVSPost2010Prop47
 90
       50
102
RTVSPost2010PropOp47
 70
     1
102
RTVSPost2010Prop48
 90
       50
102
RTVSPost2010PropOp48
 70
     1
102
RTVSPost2010Prop49
280
     0
102
RTVSPost2010PropOp49
 70
     1
102
RTVSPost2010Prop50
 90
       50
102
RTVSPost2010PropOp50
 70
     1
102
RTVSPost2010Prop51ColorIndex
 90
      256
102
RTVSPost2010Prop51ColorRGB
 90
-16777216
102
RTVSPost2010PropOp51
 70
     0
102
RTVSPost2010Prop52
140
1.0
102
RTVSPost2010PropOp52
 70
     0
102
RTVSPost2010Prop53
 90
        2
102
RTVSPost2010PropOp53
 70
     1
102
RTVSPost2010Prop54
  1
strokes_ogs.tif
102
RTVSPost2010PropOp54
 70
     1
102
RTVSPost2010Prop55
280
     0
102
RTVSPost2010PropOp55
 70
     1
102
RTVSPost2010Prop56
140
1.0
102
RTVSPost2010PropOp56
 70
     1
102
RTVSPost2010Prop57
140
1.0
102
RTVSPost2010PropOp57
 70
     1
  0
XRECORD
  5
1AD
102
{ACAD_REACTORS
330
1AC
102
}
330
1AC
100
AcDbXrecord
280
     1
102
RTVSPost2010Prop28
280
     0
102
RTVSPost2010PropOp28
 70
     0
102
RTVSPost2010Prop29
280
     1
102
RTVSPost2010PropOp29
 70
     0
102
RTVSPost2010Prop30
280
     1
102
RTVSPost2010PropOp30
 70
     0
102
RTVSPost2010Prop31
280
     0
102
RTVSPost2010PropOp31
 70
     0
102
RTVSPost2010Prop32
280
     0
102
RTVSPost2010PropOp32
 70
     0
102
RTVSPost2010Prop33
280
     0
102
RTVSPost2010PropOp33
 70
     0
102
RTVSPost2010Prop34
280
     0
102
RTVSPost2010PropOp34
 70
     0
102
RTVSPost2010Prop35
280
     0
102
RTVSPost2010PropOp35
 70
     0
102
RTVSPost2010Prop36
280
     0
102
RTVSPost2010PropOp36
 70
     0
102
RTVSPost2010Prop37
 90
       50
102
RTVSPost2010PropOp37
 70
     0
102
RTVSPost2010Prop38
140
0.0
102
RTVSPost2010PropOp38
 70
     0
102
RTVSPost2010Prop39
140
1.0
102
RTVSPost2010PropOp39
 70
     0
102
RTVSPost2010Prop40
 90
        0
102
RTVSPost2010PropOp40
 70
     0
102
RTVSPost2010Prop41ColorIndex
 90
       18
102
RTVSPost2010Prop41ColorRGB
 90
        0
102
RTVSPost2010PropOp41
 70
     0
102
RTVSPost2010Prop42
 90
       50
102
RTVSPost2010PropOp42
 70
     0
102
RTVSPost2010Prop43
 90
        3
102
RTVSPost2010PropOp43
 70
     0
102
RTVSPost2010Prop44ColorIndex
 90
        5
102
RTVSPost2010Prop44ColorRGB
 90
      255
102
RTVSPost2010PropOp44
 70
     0
102
RTVSPost2010Prop45
280
     0
102
RTVSPost2010PropOp45
 70
     0
102
RTVSPost2010Prop46
 90
       50
102
RTVSPost2010PropOp46
 70
     0
102
RTVSPost2010Prop47
 90
       50
102
RTVSPost2010PropOp47
 70
     0
102
RTVSPost2010Prop48
 90
       50
102
RTVSPost2010PropOp48
 70
     0
102
RTVSPost2010Prop49
280
     0
102
RTVSPost2010PropOp49
 70
     0
102
RTVSPost2010Prop50
 90
       50
102
RTVSPost2010PropOp50
 70
     0
102
RTVSPost2010Prop51ColorIndex
 90
      256
102
RTVSPost2010Prop51ColorRGB
 90
-16777216
102
RTVSPost2010PropOp51
 70
     0
102
RTVSPost2010Prop52
140
1.0
102
RTVSPost2010PropOp52
 70
     0
102
RTVSPost2010Prop53
 90
        2
102
RTVSPost2010PropOp53
 70
     0
102
RTVSPost2010Prop54
  1
strokes_ogs.tif
102
RTVSPost2010PropOp54
 70
     0
102
RTVSPost2010Prop55
280
     0
102
RTVSPost2010PropOp55
 70
     0
102
RTVSPost2010Prop56
140
1.0
102
RTVSPost2010PropOp56
 70
     0
102
RTVSPost2010Prop57
140
1.0
102
RTVSPost2010PropOp57
 70
     0
  0
XRECORD
  5
19B
102
{ACAD_REACTORS
330
19A
102
}
330
19A
100
AcDbXrecord
280
     1
102
RTVSPost2010Prop28
280
     0
102
RTVSPost2010PropOp28
 70
     1
102
RTVSPost2010Prop29
280
     1
102
RTVSPost2010PropOp29
 70
     1
102
RTVSPost2010Prop30
280
     1
102
RTVSPost2010PropOp30
 70
     1
102
RTVSPost2010Prop31
280
     0
102
RTVSPost2010PropOp31
 70
     1
102
RTVSPost2010Prop32
280
     0
102
RTVSPost2010PropOp32
 70
     1
102
RTVSPost2010Prop33
280
     0
102
RTVSPost2010PropOp33
 70
     1
102
RTVSPost2010Prop34
280
     0
102
RTVSPost2010PropOp34
 70
     1
102
RTVSPost2010Prop35
280
     0
102
RTVSPost2010PropOp35
 70
     1
102
RTVSPost2010Prop36
280
     0
102
RTVSPost2010PropOp36
 70
     1
102
RTVSPost2010Prop37
 90
       50
102
RTVSPost2010PropOp37
 70
     1
102
RTVSPost2010Prop38
140
0.0
102
RTVSPost2010PropOp38
 70
     1
102
RTVSPost2010Prop39
140
1.0
102
RTVSPost2010PropOp39
 70
     1
102
RTVSPost2010Prop40
 90
        0
102
RTVSPost2010PropOp40
 70
     1
102
RTVSPost2010Prop41ColorIndex
 90
       18
102
RTVSPost2010Prop41ColorRGB
 90
        0
102
RTVSPost2010PropOp41
 70
     1
102
RTVSPost2010Prop42
 90
       50
102
RTVSPost2010PropOp42
 70
     1
102
RTVSPost2010Prop43
 90
        3
102
RTVSPost2010PropOp43
 70
     1
102
RTVSPost2010Prop44ColorIndex
 90
        5
102
RTVSPost2010Prop44ColorRGB
 90
      255
102
RTVSPost2010PropOp44
 70
     1
102
RTVSPost2010Prop45
280
     0
102
RTVSPost2010PropOp45
 70
     1
102
RTVSPost2010Prop46
 90
       50
102
RTVSPost2010PropOp46
 70
     1
102
RTVSPost2010Prop47
 90
       50
102
RTVSPost2010PropOp47
 70
     1
102
RTVSPost2010Prop48
 90
       50
102
RTVSPost2010PropOp48
 70
     1
102
RTVSPost2010Prop49
280
     0
102
RTVSPost2010PropOp49
 70
     1
102
RTVSPost2010Prop50
 90
       50
102
RTVSPost2010PropOp50
 70
     1
102
RTVSPost2010Prop51ColorIndex
 90
      256
102
RTVSPost2010Prop51ColorRGB
 90
-16777216
102
RTVSPost2010PropOp51
 70
     0
102
RTVSPost2010Prop52
140
1.0
102
RTVSPost2010PropOp52
 70
     0
102
RTVSPost2010Prop53
 90
        2
102
RTVSPost2010PropOp53
 70
     1
102
RTVSPost2010Prop54
  1
strokes_ogs.tif
102
RTVSPost2010PropOp54
 70
     1
102
RTVSPost2010Prop55
280
     0
102
RTVSPost2010PropOp55
 70
     1
102
RTVSPost2010Prop56
140
1.0
102
RTVSPost2010PropOp56
 70
     1
102
RTVSPost2010Prop57
140
1.0
102
RTVSPost2010PropOp57
 70
     1
  0
XRECORD
  5
17F
102
{ACAD_REACTORS
330
17E
102
}
330
17E
100
AcDbXrecord
280
     1
102
RTVSPost2010Prop28
280
     0
102
RTVSPost2010PropOp28
 70
     1
102
RTVSPost2010Prop29
280
     1
102
RTVSPost2010PropOp29
 70
     1
102
RTVSPost2010Prop30
280
     1
102
RTVSPost2010PropOp30
 70
     1
102
RTVSPost2010Prop31
280
     0
102
RTVSPost2010PropOp31
 70
     1
102
RTVSPost2010Prop32
280
     0
102
RTVSPost2010PropOp32
 70
     1
102
RTVSPost2010Prop33
280
     0
102
RTVSPost2010PropOp33
 70
     1
102
RTVSPost2010Prop34
280
     0
102
RTVSPost2010PropOp34
 70
     1
102
RTVSPost2010Prop35
280
     0
102
RTVSPost2010PropOp35
 70
     1
102
RTVSPost2010Prop36
280
     0
102
RTVSPost2010PropOp36
 70
     1
102
RTVSPost2010Prop37
 90
       50
102
RTVSPost2010PropOp37
 70
     1
102
RTVSPost2010Prop38
140
0.0
102
RTVSPost2010PropOp38
 70
     1
102
RTVSPost2010Prop39
140
1.0
102
RTVSPost2010PropOp39
 70
     1
102
RTVSPost2010Prop40
 90
        0
102
RTVSPost2010PropOp40
 70
     1
102
RTVSPost2010Prop41ColorIndex
 90
       18
102
RTVSPost2010Prop41ColorRGB
 90
        0
102
RTVSPost2010PropOp41
 70
     1
102
RTVSPost2010Prop42
 90
       50
102
RTVSPost2010PropOp42
 70
     1
102
RTVSPost2010Prop43
 90
        3
102
RTVSPost2010PropOp43
 70
     1
102
RTVSPost2010Prop44ColorIndex
 90
        5
102
RTVSPost2010Prop44ColorRGB
 90
      255
102
RTVSPost2010PropOp44
 70
     1
102
RTVSPost2010Prop45
280
     0
102
RTVSPost2010PropOp45
 70
     1
102
RTVSPost2010Prop46
 90
       50
102
RTVSPost2010PropOp46
 70
     1
102
RTVSPost2010Prop47
 90
       50
102
RTVSPost2010PropOp47
 70
     1
102
RTVSPost2010Prop48
 90
       50
102
RTVSPost2010PropOp48
 70
     1
102
RTVSPost2010Prop49
280
     0
102
RTVSPost2010PropOp49
 70
     1
102
RTVSPost2010Prop50
 90
       50
102
RTVSPost2010PropOp50
 70
     1
102
RTVSPost2010Prop51ColorIndex
 90
      256
102
RTVSPost2010Prop51ColorRGB
 90
-16777216
102
RTVSPost2010PropOp51
 70
     0
102
RTVSPost2010Prop52
140
1.0
102
RTVSPost2010PropOp52
 70
     0
102
RTVSPost2010Prop53
 90
        2
102
RTVSPost2010PropOp53
 70
     1
102
RTVSPost2010Prop54
  1
strokes_ogs.tif
102
RTVSPost2010PropOp54
 70
     1
102
RTVSPost2010Prop55
280
     0
102
RTVSPost2010PropOp55
 70
     1
102
RTVSPost2010Prop56
140
1.0
102
RTVSPost2010PropOp56
 70
     1
102
RTVSPost2010Prop57
140
1.0
102
RTVSPost2010PropOp57
 70
     1
  0
XRECORD
  5
181
102
{ACAD_REACTORS
330
180
102
}
330
180
100
AcDbXrecord
280
     1
102
RTVSPost2010Prop28
280
     0
102
RTVSPost2010PropOp28
 70
     1
102
RTVSPost2010Prop29
280
     1
102
RTVSPost2010PropOp29
 70
     1
102
RTVSPost2010Prop30
280
     1
102
RTVSPost2010PropOp30
 70
     1
102
RTVSPost2010Prop31
280
     0
102
RTVSPost2010PropOp31
 70
     1
102
RTVSPost2010Prop32
280
     0
102
RTVSPost2010PropOp32
 70
     1
102
RTVSPost2010Prop33
280
     0
102
RTVSPost2010PropOp33
 70
     1
102
RTVSPost2010Prop34
280
     0
102
RTVSPost2010PropOp34
 70
     1
102
RTVSPost2010Prop35
280
     0
102
RTVSPost2010PropOp35
 70
     1
102
RTVSPost2010Prop36
280
     0
102
RTVSPost2010PropOp36
 70
     1
102
RTVSPost2010Prop37
 90
       50
102
RTVSPost2010PropOp37
 70
     1
102
RTVSPost2010Prop38
140
0.0
102
RTVSPost2010PropOp38
 70
     1
102
RTVSPost2010Prop39
140
1.0
102
RTVSPost2010PropOp39
 70
     1
102
RTVSPost2010Prop40
 90
        0
102
RTVSPost2010PropOp40
 70
     1
102
RTVSPost2010Prop41ColorIndex
 90
       18
102
RTVSPost2010Prop41ColorRGB
 90
        0
102
RTVSPost2010PropOp41
 70
     1
102
RTVSPost2010Prop42
 90
       50
102
RTVSPost2010PropOp42
 70
     1
102
RTVSPost2010Prop43
 90
        3
102
RTVSPost2010PropOp43
 70
     1
102
RTVSPost2010Prop44ColorIndex
 90
        5
102
RTVSPost2010Prop44ColorRGB
 90
      255
102
RTVSPost2010PropOp44
 70
     1
102
RTVSPost2010Prop45
280
     0
102
RTVSPost2010PropOp45
 70
     1
102
RTVSPost2010Prop46
 90
       50
102
RTVSPost2010PropOp46
 70
     1
102
RTVSPost2010Prop47
 90
       50
102
RTVSPost2010PropOp47
 70
     1
102
RTVSPost2010Prop48
 90
       50
102
RTVSPost2010PropOp48
 70
     1
102
RTVSPost2010Prop49
280
     0
102
RTVSPost2010PropOp49
 70
     1
102
RTVSPost2010Prop50
 90
       50
102
RTVSPost2010PropOp50
 70
     1
102
RTVSPost2010Prop51ColorIndex
 90
      256
102
RTVSPost2010Prop51ColorRGB
 90
-16777216
102
RTVSPost2010PropOp51
 70
     0
102
RTVSPost2010Prop52
140
1.0
102
RTVSPost2010PropOp52
 70
     0
102
RTVSPost2010Prop53
 90
        2
102
RTVSPost2010PropOp53
 70
     1
102
RTVSPost2010Prop54
  1
strokes_ogs.tif
102
RTVSPost2010PropOp54
 70
     1
102
RTVSPost2010Prop55
280
     0
102
RTVSPost2010PropOp55
 70
     1
102
RTVSPost2010Prop56
140
1.0
102
RTVSPost2010PropOp56
 70
     1
102
RTVSPost2010Prop57
140
1.0
102
RTVSPost2010PropOp57
 70
     1
  0
XRECORD
  5
183
102
{ACAD_REACTORS
330
182
102
}
330
182
100
AcDbXrecord
280
     1
102
RTVSPost2010Prop28
280
     0
102
RTVSPost2010PropOp28
 70
     1
102
RTVSPost2010Prop29
280
     1
102
RTVSPost2010PropOp29
 70
     1
102
RTVSPost2010Prop30
280
     1
102
RTVSPost2010PropOp30
 70
     1
102
RTVSPost2010Prop31
280
     0
102
RTVSPost2010PropOp31
 70
     1
102
RTVSPost2010Prop32
280
     0
102
RTVSPost2010PropOp32
 70
     1
102
RTVSPost2010Prop33
280
     0
102
RTVSPost2010PropOp33
 70
     1
102
RTVSPost2010Prop34
280
     0
102
RTVSPost2010PropOp34
 70
     1
102
RTVSPost2010Prop35
280
     0
102
RTVSPost2010PropOp35
 70
     1
102
RTVSPost2010Prop36
280
     0
102
RTVSPost2010PropOp36
 70
     1
102
RTVSPost2010Prop37
 90
       50
102
RTVSPost2010PropOp37
 70
     1
102
RTVSPost2010Prop38
140
0.0
102
RTVSPost2010PropOp38
 70
     1
102
RTVSPost2010Prop39
140
1.0
102
RTVSPost2010PropOp39
 70
     1
102
RTVSPost2010Prop40
 90
        0
102
RTVSPost2010PropOp40
 70
     1
102
RTVSPost2010Prop41ColorIndex
 90
       18
102
RTVSPost2010Prop41ColorRGB
 90
        0
102
RTVSPost2010PropOp41
 70
     1
102
RTVSPost2010Prop42
 90
       50
102
RTVSPost2010PropOp42
 70
     1
102
RTVSPost2010Prop43
 90
        3
102
RTVSPost2010PropOp43
 70
     1
102
RTVSPost2010Prop44ColorIndex
 90
        5
102
RTVSPost2010Prop44ColorRGB
 90
      255
102
RTVSPost2010PropOp44
 70
     1
102
RTVSPost2010Prop45
280
     0
102
RTVSPost2010PropOp45
 70
     1
102
RTVSPost2010Prop46
 90
       50
102
RTVSPost2010PropOp46
 70
     1
102
RTVSPost2010Prop47
 90
       50
102
RTVSPost2010PropOp47
 70
     1
102
RTVSPost2010Prop48
 90
       50
102
RTVSPost2010PropOp48
 70
     1
102
RTVSPost2010Prop49
280
     0
102
RTVSPost2010PropOp49
 70
     1
102
RTVSPost2010Prop50
 90
       50
102
RTVSPost2010PropOp50
 70
     1
102
RTVSPost2010Prop51ColorIndex
 90
      256
102
RTVSPost2010Prop51ColorRGB
 90
-16777216
102
RTVSPost2010PropOp51
 70
     0
102
RTVSPost2010Prop52
140
1.0
102
RTVSPost2010PropOp52
 70
     0
102
RTVSPost2010Prop53
 90
        2
102
RTVSPost2010PropOp53
 70
     1
102
RTVSPost2010Prop54
  1
strokes_ogs.tif
102
RTVSPost2010PropOp54
 70
     1
102
RTVSPost2010Prop55
280
     0
102
RTVSPost2010PropOp55
 70
     1
102
RTVSPost2010Prop56
140
1.0
102
RTVSPost2010PropOp56
 70
     1
102
RTVSPost2010Prop57
140
1.0
102
RTVSPost2010PropOp57
 70
     1
  0
XRECORD
  5
185
102
{ACAD_REACTORS
330
184
102
}
330
184
100
AcDbXrecord
280
     1
102
RTVSPost2010Prop28
280
     0
102
RTVSPost2010PropOp28
 70
     1
102
RTVSPost2010Prop29
280
     1
102
RTVSPost2010PropOp29
 70
     1
102
RTVSPost2010Prop30
280
     1
102
RTVSPost2010PropOp30
 70
     1
102
RTVSPost2010Prop31
280
     0
102
RTVSPost2010PropOp31
 70
     1
102
RTVSPost2010Prop32
280
     0
102
RTVSPost2010PropOp32
 70
     1
102
RTVSPost2010Prop33
280
     0
102
RTVSPost2010PropOp33
 70
     1
102
RTVSPost2010Prop34
280
     0
102
RTVSPost2010PropOp34
 70
     1
102
RTVSPost2010Prop35
280
     0
102
RTVSPost2010PropOp35
 70
     1
102
RTVSPost2010Prop36
280
     0
102
RTVSPost2010PropOp36
 70
     1
102
RTVSPost2010Prop37
 90
       50
102
RTVSPost2010PropOp37
 70
     1
102
RTVSPost2010Prop38
140
0.0
102
RTVSPost2010PropOp38
 70
     1
102
RTVSPost2010Prop39
140
1.0
102
RTVSPost2010PropOp39
 70
     1
102
RTVSPost2010Prop40
 90
        0
102
RTVSPost2010PropOp40
 70
     1
102
RTVSPost2010Prop41ColorIndex
 90
       18
102
RTVSPost2010Prop41ColorRGB
 90
        0
102
RTVSPost2010PropOp41
 70
     1
102
RTVSPost2010Prop42
 90
       50
102
RTVSPost2010PropOp42
 70
     1
102
RTVSPost2010Prop43
 90
        3
102
RTVSPost2010PropOp43
 70
     1
102
RTVSPost2010Prop44ColorIndex
 90
        5
102
RTVSPost2010Prop44ColorRGB
 90
      255
102
RTVSPost2010PropOp44
 70
     1
102
RTVSPost2010Prop45
280
     0
102
RTVSPost2010PropOp45
 70
     1
102
RTVSPost2010Prop46
 90
       50
102
RTVSPost2010PropOp46
 70
     1
102
RTVSPost2010Prop47
 90
       50
102
RTVSPost2010PropOp47
 70
     1
102
RTVSPost2010Prop48
 90
       50
102
RTVSPost2010PropOp48
 70
     1
102
RTVSPost2010Prop49
280
     0
102
RTVSPost2010PropOp49
 70
     1
102
RTVSPost2010Prop50
 90
       50
102
RTVSPost2010PropOp50
 70
     1
102
RTVSPost2010Prop51ColorIndex
 90
      256
102
RTVSPost2010Prop51ColorRGB
 90
-16777216
102
RTVSPost2010PropOp51
 70
     0
102
RTVSPost2010Prop52
140
1.0
102
RTVSPost2010PropOp52
 70
     0
102
RTVSPost2010Prop53
 90
        2
102
RTVSPost2010PropOp53
 70
     1
102
RTVSPost2010Prop54
  1
strokes_ogs.tif
102
RTVSPost2010PropOp54
 70
     1
102
RTVSPost2010Prop55
280
     0
102
RTVSPost2010PropOp55
 70
     1
102
RTVSPost2010Prop56
140
1.0
102
RTVSPost2010PropOp56
 70
     1
102
RTVSPost2010Prop57
140
1.0
102
RTVSPost2010PropOp57
 70
     1
  0
XRECORD
  5
18D
102
{ACAD_REACTORS
330
18C
102
}
330
18C
100
AcDbXrecord
280
     1
102
RTVSPost2010Prop28
280
     0
102
RTVSPost2010PropOp28
 70
     1
102
RTVSPost2010Prop29
280
     1
102
RTVSPost2010PropOp29
 70
     1
102
RTVSPost2010Prop30
280
     1
102
RTVSPost2010PropOp30
 70
     1
102
RTVSPost2010Prop31
280
     0
102
RTVSPost2010PropOp31
 70
     1
102
RTVSPost2010Prop32
280
     0
102
RTVSPost2010PropOp32
 70
     1
102
RTVSPost2010Prop33
280
     0
102
RTVSPost2010PropOp33
 70
     1
102
RTVSPost2010Prop34
280
     0
102
RTVSPost2010PropOp34
 70
     1
102
RTVSPost2010Prop35
280
     0
102
RTVSPost2010PropOp35
 70
     1
102
RTVSPost2010Prop36
280
     0
102
RTVSPost2010PropOp36
 70
     1
102
RTVSPost2010Prop37
 90
       50
102
RTVSPost2010PropOp37
 70
     1
102
RTVSPost2010Prop38
140
0.0
102
RTVSPost2010PropOp38
 70
     1
102
RTVSPost2010Prop39
140
1.0
102
RTVSPost2010PropOp39
 70
     1
102
RTVSPost2010Prop40
 90
        0
102
RTVSPost2010PropOp40
 70
     1
102
RTVSPost2010Prop41ColorIndex
 90
       18
102
RTVSPost2010Prop41ColorRGB
 90
        0
102
RTVSPost2010PropOp41
 70
     1
102
RTVSPost2010Prop42
 90
       50
102
RTVSPost2010PropOp42
 70
     1
102
RTVSPost2010Prop43
 90
        3
102
RTVSPost2010PropOp43
 70
     1
102
RTVSPost2010Prop44ColorIndex
 90
        5
102
RTVSPost2010Prop44ColorRGB
 90
      255
102
RTVSPost2010PropOp44
 70
     1
102
RTVSPost2010Prop45
280
     0
102
RTVSPost2010PropOp45
 70
     1
102
RTVSPost2010Prop46
 90
       50
102
RTVSPost2010PropOp46
 70
     1
102
RTVSPost2010Prop47
 90
       50
102
RTVSPost2010PropOp47
 70
     1
102
RTVSPost2010Prop48
 90
       50
102
RTVSPost2010PropOp48
 70
     1
102
RTVSPost2010Prop49
280
     0
102
RTVSPost2010PropOp49
 70
     1
102
RTVSPost2010Prop50
 90
       50
102
RTVSPost2010PropOp50
 70
     1
102
RTVSPost2010Prop51ColorIndex
 90
      256
102
RTVSPost2010Prop51ColorRGB
 90
-16777216
102
RTVSPost2010PropOp51
 70
     0
102
RTVSPost2010Prop52
140
1.0
102
RTVSPost2010PropOp52
 70
     0
102
RTVSPost2010Prop53
 90
        2
102
RTVSPost2010PropOp53
 70
     1
102
RTVSPost2010Prop54
  1
strokes_ogs.tif
102
RTVSPost2010PropOp54
 70
     1
102
RTVSPost2010Prop55
280
     0
102
RTVSPost2010PropOp55
 70
     1
102
RTVSPost2010Prop56
140
1.0
102
RTVSPost2010PropOp56
 70
     1
102
RTVSPost2010Prop57
140
1.0
102
RTVSPost2010PropOp57
 70
     1
  0
XRECORD
  5
1A9
102
{ACAD_REACTORS
330
1A8
102
}
330
1A8
100
AcDbXrecord
280
     1
102
RTVSPost2010Prop28
280
     0
102
RTVSPost2010PropOp28
 70
     0
102
RTVSPost2010Prop29
280
     1
102
RTVSPost2010PropOp29
 70
     0
102
RTVSPost2010Prop30
280
     1
102
RTVSPost2010PropOp30
 70
     0
102
RTVSPost2010Prop31
280
     0
102
RTVSPost2010PropOp31
 70
     0
102
RTVSPost2010Prop32
280
     0
102
RTVSPost2010PropOp32
 70
     0
102
RTVSPost2010Prop33
280
     0
102
RTVSPost2010PropOp33
 70
     0
102
RTVSPost2010Prop34
280
     0
102
RTVSPost2010PropOp34
 70
     0
102
RTVSPost2010Prop35
280
     0
102
RTVSPost2010PropOp35
 70
     0
102
RTVSPost2010Prop36
280
     0
102
RTVSPost2010PropOp36
 70
     0
102
RTVSPost2010Prop37
 90
       50
102
RTVSPost2010PropOp37
 70
     0
102
RTVSPost2010Prop38
140
0.0
102
RTVSPost2010PropOp38
 70
     0
102
RTVSPost2010Prop39
140
1.0
102
RTVSPost2010PropOp39
 70
     0
102
RTVSPost2010Prop40
 90
        0
102
RTVSPost2010PropOp40
 70
     0
102
RTVSPost2010Prop41ColorIndex
 90
       18
102
RTVSPost2010Prop41ColorRGB
 90
        0
102
RTVSPost2010PropOp41
 70
     0
102
RTVSPost2010Prop42
 90
       50
102
RTVSPost2010PropOp42
 70
     0
102
RTVSPost2010Prop43
 90
        3
102
RTVSPost2010PropOp43
 70
     0
102
RTVSPost2010Prop44ColorIndex
 90
        5
102
RTVSPost2010Prop44ColorRGB
 90
      255
102
RTVSPost2010PropOp44
 70
     0
102
RTVSPost2010Prop45
280
     0
102
RTVSPost2010PropOp45
 70
     0
102
RTVSPost2010Prop46
 90
       50
102
RTVSPost2010PropOp46
 70
     0
102
RTVSPost2010Prop47
 90
       50
102
RTVSPost2010PropOp47
 70
     0
102
RTVSPost2010Prop48
 90
       50
102
RTVSPost2010PropOp48
 70
     0
102
RTVSPost2010Prop49
280
     0
102
RTVSPost2010PropOp49
 70
     0
102
RTVSPost2010Prop50
 90
       50
102
RTVSPost2010PropOp50
 70
     0
102
RTVSPost2010Prop51ColorIndex
 90
      256
102
RTVSPost2010Prop51ColorRGB
 90
-16777216
102
RTVSPost2010PropOp51
 70
     0
102
RTVSPost2010Prop52
140
1.0
102
RTVSPost2010PropOp52
 70
     0
102
RTVSPost2010Prop53
 90
        2
102
RTVSPost2010PropOp53
 70
     0
102
RTVSPost2010Prop54
  1
strokes_ogs.tif
102
RTVSPost2010PropOp54
 70
     0
102
RTVSPost2010Prop55
280
     0
102
RTVSPost2010PropOp55
 70
     0
102
RTVSPost2010Prop56
140
1.0
102
RTVSPost2010PropOp56
 70
     0
102
RTVSPost2010Prop57
140
1.0
102
RTVSPost2010PropOp57
 70
     0
  0
XRECORD
  5
199
102
{ACAD_REACTORS
330
198
102
}
330
198
100
AcDbXrecord
280
     1
102
RTVSPost2010Prop28
280
     0
102
RTVSPost2010PropOp28
 70
     1
102
RTVSPost2010Prop29
280
     1
102
RTVSPost2010PropOp29
 70
     1
102
RTVSPost2010Prop30
280
     1
102
RTVSPost2010PropOp30
 70
     1
102
RTVSPost2010Prop31
280
     0
102
RTVSPost2010PropOp31
 70
     1
102
RTVSPost2010Prop32
280
     0
102
RTVSPost2010PropOp32
 70
     1
102
RTVSPost2010Prop33
280
     0
102
RTVSPost2010PropOp33
 70
     1
102
RTVSPost2010Prop34
280
     0
102
RTVSPost2010PropOp34
 70
     1
102
RTVSPost2010Prop35
280
     0
102
RTVSPost2010PropOp35
 70
     1
102
RTVSPost2010Prop36
280
     0
102
RTVSPost2010PropOp36
 70
     1
102
RTVSPost2010Prop37
 90
       50
102
RTVSPost2010PropOp37
 70
     1
102
RTVSPost2010Prop38
140
0.0
102
RTVSPost2010PropOp38
 70
     1
102
RTVSPost2010Prop39
140
1.0
102
RTVSPost2010PropOp39
 70
     1
102
RTVSPost2010Prop40
 90
        0
102
RTVSPost2010PropOp40
 70
     1
102
RTVSPost2010Prop41ColorIndex
 90
       18
102
RTVSPost2010Prop41ColorRGB
 90
        0
102
RTVSPost2010PropOp41
 70
     1
102
RTVSPost2010Prop42
 90
       50
102
RTVSPost2010PropOp42
 70
     1
102
RTVSPost2010Prop43
 90
        3
102
RTVSPost2010PropOp43
 70
     1
102
RTVSPost2010Prop44ColorIndex
 90
        5
102
RTVSPost2010Prop44ColorRGB
 90
      255
102
RTVSPost2010PropOp44
 70
     1
102
RTVSPost2010Prop45
280
     0
102
RTVSPost2010PropOp45
 70
     1
102
RTVSPost2010Prop46
 90
       50
102
RTVSPost2010PropOp46
 70
     1
102
RTVSPost2010Prop47
 90
       50
102
RTVSPost2010PropOp47
 70
     1
102
RTVSPost2010Prop48
 90
       50
102
RTVSPost2010PropOp48
 70
     1
102
RTVSPost2010Prop49
280
     0
102
RTVSPost2010PropOp49
 70
     1
102
RTVSPost2010Prop50
 90
       50
102
RTVSPost2010PropOp50
 70
     1
102
RTVSPost2010Prop51ColorIndex
 90
      256
102
RTVSPost2010Prop51ColorRGB
 90
-16777216
102
RTVSPost2010PropOp51
 70
     0
102
RTVSPost2010Prop52
140
1.0
102
RTVSPost2010PropOp52
 70
     0
102
RTVSPost2010Prop53
 90
        2
102
RTVSPost2010PropOp53
 70
     1
102
RTVSPost2010Prop54
  1
strokes_ogs.tif
102
RTVSPost2010PropOp54
 70
     1
102
RTVSPost2010Prop55
280
     0
102
RTVSPost2010PropOp55
 70
     1
102
RTVSPost2010Prop56
140
1.0
102
RTVSPost2010PropOp56
 70
     1
102
RTVSPost2010Prop57
140
1.0
102
RTVSPost2010PropOp57
 70
     1
  0
XRECORD
  5
1AB
102
{ACAD_REACTORS
330
1AA
102
}
330
1AA
100
AcDbXrecord
280
     1
102
RTVSPost2010Prop28
280
     0
102
RTVSPost2010PropOp28
 70
     0
102
RTVSPost2010Prop29
280
     1
102
RTVSPost2010PropOp29
 70
     0
102
RTVSPost2010Prop30
280
     1
102
RTVSPost2010PropOp30
 70
     0
102
RTVSPost2010Prop31
280
     0
102
RTVSPost2010PropOp31
 70
     0
102
RTVSPost2010Prop32
280
     0
102
RTVSPost2010PropOp32
 70
     0
102
RTVSPost2010Prop33
280
     0
102
RTVSPost2010PropOp33
 70
     0
102
RTVSPost2010Prop34
280
     0
102
RTVSPost2010PropOp34
 70
     0
102
RTVSPost2010Prop35
280
     0
102
RTVSPost2010PropOp35
 70
     0
102
RTVSPost2010Prop36
280
     0
102
RTVSPost2010PropOp36
 70
     0
102
RTVSPost2010Prop37
 90
       50
102
RTVSPost2010PropOp37
 70
     0
102
RTVSPost2010Prop38
140
0.0
102
RTVSPost2010PropOp38
 70
     0
102
RTVSPost2010Prop39
140
1.0
102
RTVSPost2010PropOp39
 70
     0
102
RTVSPost2010Prop40
 90
        0
102
RTVSPost2010PropOp40
 70
     0
102
RTVSPost2010Prop41ColorIndex
 90
       18
102
RTVSPost2010Prop41ColorRGB
 90
        0
102
RTVSPost2010PropOp41
 70
     0
102
RTVSPost2010Prop42
 90
       50
102
RTVSPost2010PropOp42
 70
     0
102
RTVSPost2010Prop43
 90
        3
102
RTVSPost2010PropOp43
 70
     0
102
RTVSPost2010Prop44ColorIndex
 90
        5
102
RTVSPost2010Prop44ColorRGB
 90
      255
102
RTVSPost2010PropOp44
 70
     0
102
RTVSPost2010Prop45
280
     0
102
RTVSPost2010PropOp45
 70
     0
102
RTVSPost2010Prop46
 90
       50
102
RTVSPost2010PropOp46
 70
     0
102
RTVSPost2010Prop47
 90
       50
102
RTVSPost2010PropOp47
 70
     0
102
RTVSPost2010Prop48
 90
       50
102
RTVSPost2010PropOp48
 70
     0
102
RTVSPost2010Prop49
280
     0
102
RTVSPost2010PropOp49
 70
     0
102
RTVSPost2010Prop50
 90
       50
102
RTVSPost2010PropOp50
 70
     0
102
RTVSPost2010Prop51ColorIndex
 90
      256
102
RTVSPost2010Prop51ColorRGB
 90
-16777216
102
RTVSPost2010PropOp51
 70
     0
102
RTVSPost2010Prop52
140
1.0
102
RTVSPost2010PropOp52
 70
     0
102
RTVSPost2010Prop53
 90
        2
102
RTVSPost2010PropOp53
 70
     0
102
RTVSPost2010Prop54
  1
strokes_ogs.tif
102
RTVSPost2010PropOp54
 70
     0
102
RTVSPost2010Prop55
280
     0
102
RTVSPost2010PropOp55
 70
     0
102
RTVSPost2010Prop56
140
1.0
102
RTVSPost2010PropOp56
 70
     0
102
RTVSPost2010Prop57
140
1.0
102
RTVSPost2010PropOp57
 70
     0
  0
XRECORD
  5
191
102
{ACAD_REACTORS
330
190
102
}
330
190
100
AcDbXrecord
280
     1
102
RTVSPost2010Prop28
280
     0
102
RTVSPost2010PropOp28
 70
     1
102
RTVSPost2010Prop29
280
     1
102
RTVSPost2010PropOp29
 70
     1
102
RTVSPost2010Prop30
280
     1
102
RTVSPost2010PropOp30
 70
     1
102
RTVSPost2010Prop31
280
     0
102
RTVSPost2010PropOp31
 70
     1
102
RTVSPost2010Prop32
280
     0
102
RTVSPost2010PropOp32
 70
     1
102
RTVSPost2010Prop33
280
     0
102
RTVSPost2010PropOp33
 70
     1
102
RTVSPost2010Prop34
280
     0
102
RTVSPost2010PropOp34
 70
     1
102
RTVSPost2010Prop35
280
     0
102
RTVSPost2010PropOp35
 70
     1
102
RTVSPost2010Prop36
280
     0
102
RTVSPost2010PropOp36
 70
     1
102
RTVSPost2010Prop37
 90
       50
102
RTVSPost2010PropOp37
 70
     1
102
RTVSPost2010Prop38
140
0.0
102
RTVSPost2010PropOp38
 70
     1
102
RTVSPost2010Prop39
140
1.0
102
RTVSPost2010PropOp39
 70
     1
102
RTVSPost2010Prop40
 90
        0
102
RTVSPost2010PropOp40
 70
     1
102
RTVSPost2010Prop41ColorIndex
 90
       18
102
RTVSPost2010Prop41ColorRGB
 90
        0
102
RTVSPost2010PropOp41
 70
     1
102
RTVSPost2010Prop42
 90
       50
102
RTVSPost2010PropOp42
 70
     1
102
RTVSPost2010Prop43
 90
        3
102
RTVSPost2010PropOp43
 70
     1
102
RTVSPost2010Prop44ColorIndex
 90
        5
102
RTVSPost2010Prop44ColorRGB
 90
      255
102
RTVSPost2010PropOp44
 70
     1
102
RTVSPost2010Prop45
280
     0
102
RTVSPost2010PropOp45
 70
     1
102
RTVSPost2010Prop46
 90
       50
102
RTVSPost2010PropOp46
 70
     1
102
RTVSPost2010Prop47
 90
       50
102
RTVSPost2010PropOp47
 70
     1
102
RTVSPost2010Prop48
 90
       50
102
RTVSPost2010PropOp48
 70
     1
102
RTVSPost2010Prop49
280
     0
102
RTVSPost2010PropOp49
 70
     1
102
RTVSPost2010Prop50
 90
       50
102
RTVSPost2010PropOp50
 70
     1
102
RTVSPost2010Prop51ColorIndex
 90
      256
102
RTVSPost2010Prop51ColorRGB
 90
-16777216
102
RTVSPost2010PropOp51
 70
     0
102
RTVSPost2010Prop52
140
1.0
102
RTVSPost2010PropOp52
 70
     0
102
RTVSPost2010Prop53
 90
        2
102
RTVSPost2010PropOp53
 70
     1
102
RTVSPost2010Prop54
  1
strokes_ogs.tif
102
RTVSPost2010PropOp54
 70
     1
102
RTVSPost2010Prop55
280
     0
102
RTVSPost2010PropOp55
 70
     1
102
RTVSPost2010Prop56
140
1.0
102
RTVSPost2010PropOp56
 70
     1
102
RTVSPost2010Prop57
140
1.0
102
RTVSPost2010PropOp57
 70
     1
  0
XRECORD
  5
1A7
102
{ACAD_REACTORS
330
1A6
102
}
330
1A6
100
AcDbXrecord
280
     1
102
RTVSPost2010Prop28
280
     0
102
RTVSPost2010PropOp28
 70
     1
102
RTVSPost2010Prop29
280
     1
102
RTVSPost2010PropOp29
 70
     1
102
RTVSPost2010Prop30
280
     1
102
RTVSPost2010PropOp30
 70
     1
102
RTVSPost2010Prop31
280
     0
102
RTVSPost2010PropOp31
 70
     1
102
RTVSPost2010Prop32
280
     0
102
RTVSPost2010PropOp32
 70
     1
102
RTVSPost2010Prop33
280
     0
102
RTVSPost2010PropOp33
 70
     1
102
RTVSPost2010Prop34
280
     0
102
RTVSPost2010PropOp34
 70
     1
102
RTVSPost2010Prop35
280
     0
102
RTVSPost2010PropOp35
 70
     1
102
RTVSPost2010Prop36
280
     0
102
RTVSPost2010PropOp36
 70
     1
102
RTVSPost2010Prop37
 90
       50
102
RTVSPost2010PropOp37
 70
     1
102
RTVSPost2010Prop38
140
0.0
102
RTVSPost2010PropOp38
 70
     1
102
RTVSPost2010Prop39
140
1.0
102
RTVSPost2010PropOp39
 70
     1
102
RTVSPost2010Prop40
 90
        0
102
RTVSPost2010PropOp40
 70
     1
102
RTVSPost2010Prop41ColorIndex
 90
       18
102
RTVSPost2010Prop41ColorRGB
 90
        0
102
RTVSPost2010PropOp41
 70
     1
102
RTVSPost2010Prop42
 90
       50
102
RTVSPost2010PropOp42
 70
     1
102
RTVSPost2010Prop43
 90
        3
102
RTVSPost2010PropOp43
 70
     1
102
RTVSPost2010Prop44ColorIndex
 90
        5
102
RTVSPost2010Prop44ColorRGB
 90
      255
102
RTVSPost2010PropOp44
 70
     1
102
RTVSPost2010Prop45
280
     0
102
RTVSPost2010PropOp45
 70
     1
102
RTVSPost2010Prop46
 90
       50
102
RTVSPost2010PropOp46
 70
     1
102
RTVSPost2010Prop47
 90
       50
102
RTVSPost2010PropOp47
 70
     1
102
RTVSPost2010Prop48
 90
       50
102
RTVSPost2010PropOp48
 70
     1
102
RTVSPost2010Prop49
280
     0
102
RTVSPost2010PropOp49
 70
     1
102
RTVSPost2010Prop50
 90
       50
102
RTVSPost2010PropOp50
 70
     1
102
RTVSPost2010Prop51ColorIndex
 90
      256
102
RTVSPost2010Prop51ColorRGB
 90
-16777216
102
RTVSPost2010PropOp51
 70
     0
102
RTVSPost2010Prop52
140
1.0
102
RTVSPost2010PropOp52
 70
     0
102
RTVSPost2010Prop53
 90
        2
102
RTVSPost2010PropOp53
 70
     1
102
RTVSPost2010Prop54
  1
strokes_ogs.tif
102
RTVSPost2010PropOp54
 70
     1
102
RTVSPost2010Prop55
280
     0
102
RTVSPost2010PropOp55
 70
     1
102
RTVSPost2010Prop56
140
1.0
102
RTVSPost2010PropOp56
 70
     1
102
RTVSPost2010Prop57
140
1.0
102
RTVSPost2010PropOp57
 70
     1
  0
XRECORD
  5
1A5
102
{ACAD_REACTORS
330
1A4
102
}
330
1A4
100
AcDbXrecord
280
     1
102
RTVSPost2010Prop28
280
     0
102
RTVSPost2010PropOp28
 70
     1
102
RTVSPost2010Prop29
280
     1
102
RTVSPost2010PropOp29
 70
     1
102
RTVSPost2010Prop30
280
     1
102
RTVSPost2010PropOp30
 70
     1
102
RTVSPost2010Prop31
280
     0
102
RTVSPost2010PropOp31
 70
     1
102
RTVSPost2010Prop32
280
     0
102
RTVSPost2010PropOp32
 70
     1
102
RTVSPost2010Prop33
280
     0
102
RTVSPost2010PropOp33
 70
     1
102
RTVSPost2010Prop34
280
     0
102
RTVSPost2010PropOp34
 70
     1
102
RTVSPost2010Prop35
280
     0
102
RTVSPost2010PropOp35
 70
     1
102
RTVSPost2010Prop36
280
     0
102
RTVSPost2010PropOp36
 70
     1
102
RTVSPost2010Prop37
 90
       50
102
RTVSPost2010PropOp37
 70
     1
102
RTVSPost2010Prop38
140
0.0
102
RTVSPost2010PropOp38
 70
     1
102
RTVSPost2010Prop39
140
1.0
102
RTVSPost2010PropOp39
 70
     1
102
RTVSPost2010Prop40
 90
        0
102
RTVSPost2010PropOp40
 70
     1
102
RTVSPost2010Prop41ColorIndex
 90
       18
102
RTVSPost2010Prop41ColorRGB
 90
        0
102
RTVSPost2010PropOp41
 70
     1
102
RTVSPost2010Prop42
 90
       50
102
RTVSPost2010PropOp42
 70
     1
102
RTVSPost2010Prop43
 90
        3
102
RTVSPost2010PropOp43
 70
     1
102
RTVSPost2010Prop44ColorIndex
 90
        5
102
RTVSPost2010Prop44ColorRGB
 90
      255
102
RTVSPost2010PropOp44
 70
     1
102
RTVSPost2010Prop45
280
     0
102
RTVSPost2010PropOp45
 70
     1
102
RTVSPost2010Prop46
 90
       50
102
RTVSPost2010PropOp46
 70
     1
102
RTVSPost2010Prop47
 90
       50
102
RTVSPost2010PropOp47
 70
     1
102
RTVSPost2010Prop48
 90
       50
102
RTVSPost2010PropOp48
 70
     1
102
RTVSPost2010Prop49
280
     0
102
RTVSPost2010PropOp49
 70
     1
102
RTVSPost2010Prop50
 90
       50
102
RTVSPost2010PropOp50
 70
     1
102
RTVSPost2010Prop51ColorIndex
 90
      256
102
RTVSPost2010Prop51ColorRGB
 90
-16777216
102
RTVSPost2010PropOp51
 70
     0
102
RTVSPost2010Prop52
140
1.0
102
RTVSPost2010PropOp52
 70
     0
102
RTVSPost2010Prop53
 90
        2
102
RTVSPost2010PropOp53
 70
     1
102
RTVSPost2010Prop54
  1
strokes_ogs.tif
102
RTVSPost2010PropOp54
 70
     1
102
RTVSPost2010Prop55
280
     0
102
RTVSPost2010PropOp55
 70
     1
102
RTVSPost2010Prop56
140
1.0
102
RTVSPost2010PropOp56
 70
     1
102
RTVSPost2010Prop57
140
1.0
102
RTVSPost2010PropOp57
 70
     1
  0
XRECORD
  5
19F
102
{ACAD_REACTORS
330
19E
102
}
330
19E
100
AcDbXrecord
280
     1
102
RTVSPost2010Prop28
280
     0
102
RTVSPost2010PropOp28
 70
     1
102
RTVSPost2010Prop29
280
     1
102
RTVSPost2010PropOp29
 70
     1
102
RTVSPost2010Prop30
280
     1
102
RTVSPost2010PropOp30
 70
     1
102
RTVSPost2010Prop31
280
     0
102
RTVSPost2010PropOp31
 70
     1
102
RTVSPost2010Prop32
280
     0
102
RTVSPost2010PropOp32
 70
     1
102
RTVSPost2010Prop33
280
     0
102
RTVSPost2010PropOp33
 70
     1
102
RTVSPost2010Prop34
280
     0
102
RTVSPost2010PropOp34
 70
     1
102
RTVSPost2010Prop35
280
     0
102
RTVSPost2010PropOp35
 70
     1
102
RTVSPost2010Prop36
280
     0
102
RTVSPost2010PropOp36
 70
     1
102
RTVSPost2010Prop37
 90
       50
102
RTVSPost2010PropOp37
 70
     1
102
RTVSPost2010Prop38
140
0.0
102
RTVSPost2010PropOp38
 70
     1
102
RTVSPost2010Prop39
140
1.0
102
RTVSPost2010PropOp39
 70
     1
102
RTVSPost2010Prop40
 90
        0
102
RTVSPost2010PropOp40
 70
     1
102
RTVSPost2010Prop41ColorIndex
 90
       18
102
RTVSPost2010Prop41ColorRGB
 90
        0
102
RTVSPost2010PropOp41
 70
     1
102
RTVSPost2010Prop42
 90
       50
102
RTVSPost2010PropOp42
 70
     1
102
RTVSPost2010Prop43
 90
        3
102
RTVSPost2010PropOp43
 70
     1
102
RTVSPost2010Prop44ColorIndex
 90
        5
102
RTVSPost2010Prop44ColorRGB
 90
      255
102
RTVSPost2010PropOp44
 70
     1
102
RTVSPost2010Prop45
280
     0
102
RTVSPost2010PropOp45
 70
     1
102
RTVSPost2010Prop46
 90
       50
102
RTVSPost2010PropOp46
 70
     1
102
RTVSPost2010Prop47
 90
       50
102
RTVSPost2010PropOp47
 70
     1
102
RTVSPost2010Prop48
 90
       50
102
RTVSPost2010PropOp48
 70
     1
102
RTVSPost2010Prop49
280
     0
102
RTVSPost2010PropOp49
 70
     1
102
RTVSPost2010Prop50
 90
       50
102
RTVSPost2010PropOp50
 70
     1
102
RTVSPost2010Prop51ColorIndex
 90
      256
102
RTVSPost2010Prop51ColorRGB
 90
-16777216
102
RTVSPost2010PropOp51
 70
     0
102
RTVSPost2010Prop52
140
1.0
102
RTVSPost2010PropOp52
 70
     0
102
RTVSPost2010Prop53
 90
        2
102
RTVSPost2010PropOp53
 70
     1
102
RTVSPost2010Prop54
  1
strokes_ogs.tif
102
RTVSPost2010PropOp54
 70
     1
102
RTVSPost2010Prop55
280
     0
102
RTVSPost2010PropOp55
 70
     1
102
RTVSPost2010Prop56
140
1.0
102
RTVSPost2010PropOp56
 70
     1
102
RTVSPost2010Prop57
140
1.0
102
RTVSPost2010PropOp57
 70
     1
  0
XRECORD
  5
1A1
102
{ACAD_REACTORS
330
1A0
102
}
330
1A0
100
AcDbXrecord
280
     1
102
RTVSPost2010Prop28
280
     0
102
RTVSPost2010PropOp28
 70
     1
102
RTVSPost2010Prop29
280
     1
102
RTVSPost2010PropOp29
 70
     1
102
RTVSPost2010Prop30
280
     1
102
RTVSPost2010PropOp30
 70
     1
102
RTVSPost2010Prop31
280
     0
102
RTVSPost2010PropOp31
 70
     1
102
RTVSPost2010Prop32
280
     0
102
RTVSPost2010PropOp32
 70
     1
102
RTVSPost2010Prop33
280
     0
102
RTVSPost2010PropOp33
 70
     1
102
RTVSPost2010Prop34
280
     0
102
RTVSPost2010PropOp34
 70
     1
102
RTVSPost2010Prop35
280
     0
102
RTVSPost2010PropOp35
 70
     1
102
RTVSPost2010Prop36
280
     0
102
RTVSPost2010PropOp36
 70
     1
102
RTVSPost2010Prop37
 90
       50
102
RTVSPost2010PropOp37
 70
     1
102
RTVSPost2010Prop38
140
0.0
102
RTVSPost2010PropOp38
 70
     1
102
RTVSPost2010Prop39
140
1.0
102
RTVSPost2010PropOp39
 70
     1
102
RTVSPost2010Prop40
 90
        0
102
RTVSPost2010PropOp40
 70
     1
102
RTVSPost2010Prop41ColorIndex
 90
       18
102
RTVSPost2010Prop41ColorRGB
 90
        0
102
RTVSPost2010PropOp41
 70
     1
102
RTVSPost2010Prop42
 90
       50
102
RTVSPost2010PropOp42
 70
     1
102
RTVSPost2010Prop43
 90
        3
102
RTVSPost2010PropOp43
 70
     1
102
RTVSPost2010Prop44ColorIndex
 90
        5
102
RTVSPost2010Prop44ColorRGB
 90
      255
102
RTVSPost2010PropOp44
 70
     1
102
RTVSPost2010Prop45
280
     0
102
RTVSPost2010PropOp45
 70
     1
102
RTVSPost2010Prop46
 90
       50
102
RTVSPost2010PropOp46
 70
     1
102
RTVSPost2010Prop47
 90
       50
102
RTVSPost2010PropOp47
 70
     1
102
RTVSPost2010Prop48
 90
       50
102
RTVSPost2010PropOp48
 70
     1
102
RTVSPost2010Prop49
280
     0
102
RTVSPost2010PropOp49
 70
     1
102
RTVSPost2010Prop50
 90
       50
102
RTVSPost2010PropOp50
 70
     1
102
RTVSPost2010Prop51ColorIndex
 90
      256
102
RTVSPost2010Prop51ColorRGB
 90
-16777216
102
RTVSPost2010PropOp51
 70
     0
102
RTVSPost2010Prop52
140
1.0
102
RTVSPost2010PropOp52
 70
     0
102
RTVSPost2010Prop53
 90
        2
102
RTVSPost2010PropOp53
 70
     1
102
RTVSPost2010Prop54
  1
strokes_ogs.tif
102
RTVSPost2010PropOp54
 70
     1
102
RTVSPost2010Prop55
280
     0
102
RTVSPost2010PropOp55
 70
     1
102
RTVSPost2010Prop56
140
1.0
102
RTVSPost2010PropOp56
 70
     1
102
RTVSPost2010Prop57
140
1.0
102
RTVSPost2010PropOp57
 70
     1
  0
XRECORD
  5
197
102
{ACAD_REACTORS
330
196
102
}
330
196
100
AcDbXrecord
280
     1
102
RTVSPost2010Prop28
280
     0
102
RTVSPost2010PropOp28
 70
     1
102
RTVSPost2010Prop29
280
     1
102
RTVSPost2010PropOp29
 70
     1
102
RTVSPost2010Prop30
280
     1
102
RTVSPost2010PropOp30
 70
     1
102
RTVSPost2010Prop31
280
     0
102
RTVSPost2010PropOp31
 70
     1
102
RTVSPost2010Prop32
280
     0
102
RTVSPost2010PropOp32
 70
     1
102
RTVSPost2010Prop33
280
     0
102
RTVSPost2010PropOp33
 70
     1
102
RTVSPost2010Prop34
280
     0
102
RTVSPost2010PropOp34
 70
     1
102
RTVSPost2010Prop35
280
     0
102
RTVSPost2010PropOp35
 70
     1
102
RTVSPost2010Prop36
280
     0
102
RTVSPost2010PropOp36
 70
     1
102
RTVSPost2010Prop37
 90
       50
102
RTVSPost2010PropOp37
 70
     1
102
RTVSPost2010Prop38
140
0.0
102
RTVSPost2010PropOp38
 70
     1
102
RTVSPost2010Prop39
140
1.0
102
RTVSPost2010PropOp39
 70
     1
102
RTVSPost2010Prop40
 90
        0
102
RTVSPost2010PropOp40
 70
     1
102
RTVSPost2010Prop41ColorIndex
 90
       18
102
RTVSPost2010Prop41ColorRGB
 90
        0
102
RTVSPost2010PropOp41
 70
     1
102
RTVSPost2010Prop42
 90
       50
102
RTVSPost2010PropOp42
 70
     1
102
RTVSPost2010Prop43
 90
        3
102
RTVSPost2010PropOp43
 70
     1
102
RTVSPost2010Prop44ColorIndex
 90
        5
102
RTVSPost2010Prop44ColorRGB
 90
      255
102
RTVSPost2010PropOp44
 70
     1
102
RTVSPost2010Prop45
280
     0
102
RTVSPost2010PropOp45
 70
     1
102
RTVSPost2010Prop46
 90
       50
102
RTVSPost2010PropOp46
 70
     1
102
RTVSPost2010Prop47
 90
       50
102
RTVSPost2010PropOp47
 70
     1
102
RTVSPost2010Prop48
 90
       50
102
RTVSPost2010PropOp48
 70
     1
102
RTVSPost2010Prop49
280
     0
102
RTVSPost2010PropOp49
 70
     1
102
RTVSPost2010Prop50
 90
       50
102
RTVSPost2010PropOp50
 70
     1
102
RTVSPost2010Prop51ColorIndex
 90
      256
102
RTVSPost2010Prop51ColorRGB
 90
-16777216
102
RTVSPost2010PropOp51
 70
     0
102
RTVSPost2010Prop52
140
1.0
102
RTVSPost2010PropOp52
 70
     0
102
RTVSPost2010Prop53
 90
        2
102
RTVSPost2010PropOp53
 70
     1
102
RTVSPost2010Prop54
  1
strokes_ogs.tif
102
RTVSPost2010PropOp54
 70
     1
102
RTVSPost2010Prop55
280
     0
102
RTVSPost2010PropOp55
 70
     1
102
RTVSPost2010Prop56
140
1.0
102
RTVSPost2010PropOp56
 70
     1
102
RTVSPost2010Prop57
140
1.0
102
RTVSPost2010PropOp57
 70
     1
  0
XRECORD
  5
18B
102
{ACAD_REACTORS
330
18A
102
}
330
18A
100
AcDbXrecord
280
     1
102
RTVSPost2010Prop28
280
     0
102
RTVSPost2010PropOp28
 70
     1
102
RTVSPost2010Prop29
280
     1
102
RTVSPost2010PropOp29
 70
     1
102
RTVSPost2010Prop30
280
     1
102
RTVSPost2010PropOp30
 70
     1
102
RTVSPost2010Prop31
280
     0
102
RTVSPost2010PropOp31
 70
     1
102
RTVSPost2010Prop32
280
     0
102
RTVSPost2010PropOp32
 70
     1
102
RTVSPost2010Prop33
280
     0
102
RTVSPost2010PropOp33
 70
     1
102
RTVSPost2010Prop34
280
     0
102
RTVSPost2010PropOp34
 70
     1
102
RTVSPost2010Prop35
280
     0
102
RTVSPost2010PropOp35
 70
     1
102
RTVSPost2010Prop36
280
     0
102
RTVSPost2010PropOp36
 70
     1
102
RTVSPost2010Prop37
 90
       50
102
RTVSPost2010PropOp37
 70
     1
102
RTVSPost2010Prop38
140
0.0
102
RTVSPost2010PropOp38
 70
     1
102
RTVSPost2010Prop39
140
1.0
102
RTVSPost2010PropOp39
 70
     1
102
RTVSPost2010Prop40
 90
        0
102
RTVSPost2010PropOp40
 70
     1
102
RTVSPost2010Prop41ColorIndex
 90
       18
102
RTVSPost2010Prop41ColorRGB
 90
        0
102
RTVSPost2010PropOp41
 70
     1
102
RTVSPost2010Prop42
 90
       50
102
RTVSPost2010PropOp42
 70
     1
102
RTVSPost2010Prop43
 90
        3
102
RTVSPost2010PropOp43
 70
     1
102
RTVSPost2010Prop44ColorIndex
 90
        5
102
RTVSPost2010Prop44ColorRGB
 90
      255
102
RTVSPost2010PropOp44
 70
     1
102
RTVSPost2010Prop45
280
     0
102
RTVSPost2010PropOp45
 70
     1
102
RTVSPost2010Prop46
 90
       50
102
RTVSPost2010PropOp46
 70
     1
102
RTVSPost2010Prop47
 90
       50
102
RTVSPost2010PropOp47
 70
     1
102
RTVSPost2010Prop48
 90
       50
102
RTVSPost2010PropOp48
 70
     1
102
RTVSPost2010Prop49
280
     0
102
RTVSPost2010PropOp49
 70
     1
102
RTVSPost2010Prop50
 90
       50
102
RTVSPost2010PropOp50
 70
     1
102
RTVSPost2010Prop51ColorIndex
 90
      256
102
RTVSPost2010Prop51ColorRGB
 90
-16777216
102
RTVSPost2010PropOp51
 70
     0
102
RTVSPost2010Prop52
140
1.0
102
RTVSPost2010PropOp52
 70
     0
102
RTVSPost2010Prop53
 90
        2
102
RTVSPost2010PropOp53
 70
     1
102
RTVSPost2010Prop54
  1
strokes_ogs.tif
102
RTVSPost2010PropOp54
 70
     1
102
RTVSPost2010Prop55
280
     0
102
RTVSPost2010PropOp55
 70
     1
102
RTVSPost2010Prop56
140
1.0
102
RTVSPost2010PropOp56
 70
     1
102
RTVSPost2010Prop57
140
1.0
102
RTVSPost2010PropOp57
 70
     1
  0
XRECORD
  5
1A3
102
{ACAD_REACTORS
330
1A2
102
}
330
1A2
100
AcDbXrecord
280
     1
102
RTVSPost2010Prop28
280
     0
102
RTVSPost2010PropOp28
 70
     1
102
RTVSPost2010Prop29
280
     1
102
RTVSPost2010PropOp29
 70
     1
102
RTVSPost2010Prop30
280
     1
102
RTVSPost2010PropOp30
 70
     1
102
RTVSPost2010Prop31
280
     0
102
RTVSPost2010PropOp31
 70
     1
102
RTVSPost2010Prop32
280
     0
102
RTVSPost2010PropOp32
 70
     1
102
RTVSPost2010Prop33
280
     0
102
RTVSPost2010PropOp33
 70
     1
102
RTVSPost2010Prop34
280
     0
102
RTVSPost2010PropOp34
 70
     1
102
RTVSPost2010Prop35
280
     0
102
RTVSPost2010PropOp35
 70
     1
102
RTVSPost2010Prop36
280
     0
102
RTVSPost2010PropOp36
 70
     1
102
RTVSPost2010Prop37
 90
       50
102
RTVSPost2010PropOp37
 70
     1
102
RTVSPost2010Prop38
140
0.0
102
RTVSPost2010PropOp38
 70
     1
102
RTVSPost2010Prop39
140
1.0
102
RTVSPost2010PropOp39
 70
     1
102
RTVSPost2010Prop40
 90
        0
102
RTVSPost2010PropOp40
 70
     1
102
RTVSPost2010Prop41ColorIndex
 90
       18
102
RTVSPost2010Prop41ColorRGB
 90
        0
102
RTVSPost2010PropOp41
 70
     1
102
RTVSPost2010Prop42
 90
       50
102
RTVSPost2010PropOp42
 70
     1
102
RTVSPost2010Prop43
 90
        3
102
RTVSPost2010PropOp43
 70
     1
102
RTVSPost2010Prop44ColorIndex
 90
        5
102
RTVSPost2010Prop44ColorRGB
 90
      255
102
RTVSPost2010PropOp44
 70
     1
102
RTVSPost2010Prop45
280
     0
102
RTVSPost2010PropOp45
 70
     1
102
RTVSPost2010Prop46
 90
       50
102
RTVSPost2010PropOp46
 70
     1
102
RTVSPost2010Prop47
 90
       50
102
RTVSPost2010PropOp47
 70
     1
102
RTVSPost2010Prop48
 90
       50
102
RTVSPost2010PropOp48
 70
     1
102
RTVSPost2010Prop49
280
     0
102
RTVSPost2010PropOp49
 70
     1
102
RTVSPost2010Prop50
 90
       50
102
RTVSPost2010PropOp50
 70
     1
102
RTVSPost2010Prop51ColorIndex
 90
      256
102
RTVSPost2010Prop51ColorRGB
 90
-16777216
102
RTVSPost2010PropOp51
 70
     0
102
RTVSPost2010Prop52
140
1.0
102
RTVSPost2010PropOp52
 70
     0
102
RTVSPost2010Prop53
 90
        2
102
RTVSPost2010PropOp53
 70
     1
102
RTVSPost2010Prop54
  1
strokes_ogs.tif
102
RTVSPost2010PropOp54
 70
     1
102
RTVSPost2010Prop55
280
     0
102
RTVSPost2010PropOp55
 70
     1
102
RTVSPost2010Prop56
140
1.0
102
RTVSPost2010PropOp56
 70
     1
102
RTVSPost2010Prop57
140
1.0
102
RTVSPost2010PropOp57
 70
     1
  0
ENDSEC
  0
EOF
