  0
SECTION
  2
HEADER
  9
$ACADVER
  1
AC1024
  9
$ACADMAINTVER
 70
   205
  9
$DWGCODEPAGE
  3
ANSI_1251
  9
$INSBASE
 10
0.0
 20
0.0
 30
0.0
  9
$EXTMIN
 10
1.000000000000000E+20
 20
1.000000000000000E+20
 30
1.000000000000000E+20
  9
$EXTMAX
 10
-1.000000000000000E+20
 20
-1.000000000000000E+20
 30
-1.000000000000000E+20
  9
$LIMMIN
 10
0.0
 20
0.0
  9
$LIMMAX
 10
12.0
 20
9.0
  9
$ORTHOMODE
 70
     0
  9
$REGENMODE
 70
     1
  9
$FILLMODE
 70
     1
  9
$QTEXTMODE
 70
     0
  9
$MIRRTEXT
 70
     1
  9
$LTSCALE
 40
1.0
  9
$ATTMODE
 70
     1
  9
$TEXTSIZE
 40
0.2
  9
$TRACEWID
 40
0.05
  9
$TEXTSTYLE
  7
Standard
  9
$CLAYER
  8
OracDecor_cornice_mouldings
  9
$CELTYPE
  6
ByLayer
  9
$CECOLOR
 62
   256
  9
$CELTSCALE
 40
1.0
  9
$DISPSILH
 70
     0
  9
$DIMSCALE
 40
1.0
  9
$DIMASZ
 40
0.18
  9
$DIMEXO
 40
0.0625
  9
$DIMDLI
 40
0.38
  9
$DIMRND
 40
0.0
  9
$DIMDLE
 40
0.0
  9
$DIMEXE
 40
0.18
  9
$DIMTP
 40
0.0
  9
$DIMTM
 40
0.0
  9
$DIMTXT
 40
0.18
  9
$DIMCEN
 40
0.09
  9
$DIMTSZ
 40
0.0
  9
$DIMTOL
 70
     0
  9
$DIMLIM
 70
     0
  9
$DIMTIH
 70
     1
  9
$DIMTOH
 70
     1
  9
$DIMSE1
 70
     0
  9
$DIMSE2
 70
     0
  9
$DIMTAD
 70
     0
  9
$DIMZIN
 70
     0
  9
$DIMBLK
  1

  9
$DIMASO
 70
     1
  9
$DIMSHO
 70
     1
  9
$DIMPOST
  1

  9
$DIMAPOST
  1

  9
$DIMALT
 70
     0
  9
$DIMALTD
 70
     2
  9
$DIMALTF
 40
25.4
  9
$DIMLFAC
 40
1.0
  9
$DIMTOFL
 70
     0
  9
$DIMTVP
 40
0.0
  9
$DIMTIX
 70
     0
  9
$DIMSOXD
 70
     0
  9
$DIMSAH
 70
     0
  9
$DIMBLK1
  1

  9
$DIMBLK2
  1

  9
$DIMSTYLE
  2
Standard
  9
$DIMCLRD
 70
     0
  9
$DIMCLRE
 70
     0
  9
$DIMCLRT
 70
     0
  9
$DIMTFAC
 40
1.0
  9
$DIMGAP
 40
0.09
  9
$DIMJUST
 70
     0
  9
$DIMSD1
 70
     0
  9
$DIMSD2
 70
     0
  9
$DIMTOLJ
 70
     1
  9
$DIMTZIN
 70
     0
  9
$DIMALTZ
 70
     0
  9
$DIMALTTZ
 70
     0
  9
$DIMUPT
 70
     0
  9
$DIMDEC
 70
     4
  9
$DIMTDEC
 70
     4
  9
$DIMALTU
 70
     2
  9
$DIMALTTD
 70
     2
  9
$DIMTXSTY
  7
Standard
  9
$DIMAUNIT
 70
     0
  9
$DIMADEC
 70
     0
  9
$DIMALTRND
 40
0.0
  9
$DIMAZIN
 70
     0
  9
$DIMDSEP
 70
    46
  9
$DIMATFIT
 70
     3
  9
$DIMFRAC
 70
     0
  9
$DIMLDRBLK
  1

  9
$DIMLUNIT
 70
     2
  9
$DIMLWD
 70
    -2
  9
$DIMLWE
 70
    -2
  9
$DIMTMOVE
 70
     0
  9
$DIMFXL
 40
1.0
  9
$DIMFXLON
 70
     0
  9
$DIMJOGANG
 40
0.7853981633974483
  9
$DIMTFILL
 70
     0
  9
$DIMTFILLCLR
 70
     0
  9
$DIMARCSYM
 70
     0
  9
$DIMLTYPE
  6

  9
$DIMLTEX1
  6

  9
$DIMLTEX2
  6

  9
$DIMTXTDIRECTION
 70
     0
  9
$LUNITS
 70
     2
  9
$LUPREC
 70
     4
  9
$SKETCHINC
 40
0.1
  9
$FILLETRAD
 40
0.5
  9
$AUNITS
 70
     0
  9
$AUPREC
 70
     0
  9
$MENU
  1
.
  9
$ELEVATION
 40
0.0
  9
$PELEVATION
 40
0.0
  9
$THICKNESS
 40
0.0
  9
$LIMCHECK
 70
     0
  9
$CHAMFERA
 40
0.5
  9
$CHAMFERB
 40
0.5
  9
$CHAMFERC
 40
1.0
  9
$CHAMFERD
 40
0.0
  9
$SKPOLY
 70
     0
  9
$TDCREATE
 40
2451380.930432396
  9
$TDUCREATE
 40
2451380.805432396
  9
$TDUPDATE
 40
2451380.966180555
  9
$TDUUPDATE
 40
2451380.841180556
  9
$TDINDWG
 40
0.0075636458
  9
$TDUSRTIMER
 40
0.0075546065
  9
$USRTIMER
 70
     1
  9
$ANGBASE
 50
0.0
  9
$ANGDIR
 70
     0
  9
$PDMODE
 70
     0
  9
$PDSIZE
 40
0.0
  9
$PLINEWID
 40
0.0
  9
$SPLFRAME
 70
     0
  9
$SPLINETYPE
 70
     6
  9
$SPLINESEGS
 70
     8
  9
$HANDSEED
  5
1B5
  9
$SURFTAB1
 70
     6
  9
$SURFTAB2
 70
     6
  9
$SURFTYPE
 70
     6
  9
$SURFU
 70
     6
  9
$SURFV
 70
     6
  9
$UCSBASE
  2

  9
$UCSNAME
  2

  9
$UCSORG
 10
0.0
 20
0.0
 30
0.0
  9
$UCSXDIR
 10
1.0
 20
0.0
 30
0.0
  9
$UCSYDIR
 10
0.0
 20
1.0
 30
0.0
  9
$UCSORTHOREF
  2

  9
$UCSORTHOVIEW
 70
     0
  9
$UCSORGTOP
 10
0.0
 20
0.0
 30
0.0
  9
$UCSORGBOTTOM
 10
0.0
 20
0.0
 30
0.0
  9
$UCSORGLEFT
 10
0.0
 20
0.0
 30
0.0
  9
$UCSORGRIGHT
 10
0.0
 20
0.0
 30
0.0
  9
$UCSORGFRONT
 10
0.0
 20
0.0
 30
0.0
  9
$UCSORGBACK
 10
0.0
 20
0.0
 30
0.0
  9
$PUCSBASE
  2

  9
$PUCSNAME
  2

  9
$PUCSORG
 10
0.0
 20
0.0
 30
0.0
  9
$PUCSXDIR
 10
1.0
 20
0.0
 30
0.0
  9
$PUCSYDIR
 10
0.0
 20
1.0
 30
0.0
  9
$PUCSORTHOREF
  2

  9
$PUCSORTHOVIEW
 70
     0
  9
$PUCSORGTOP
 10
0.0
 20
0.0
 30
0.0
  9
$PUCSORGBOTTOM
 10
0.0
 20
0.0
 30
0.0
  9
$PUCSORGLEFT
 10
0.0
 20
0.0
 30
0.0
  9
$PUCSORGRIGHT
 10
0.0
 20
0.0
 30
0.0
  9
$PUCSORGFRONT
 10
0.0
 20
0.0
 30
0.0
  9
$PUCSORGBACK
 10
0.0
 20
0.0
 30
0.0
  9
$USERI1
 70
     0
  9
$USERI2
 70
     0
  9
$USERI3
 70
     0
  9
$USERI4
 70
     0
  9
$USERI5
 70
     0
  9
$USERR1
 40
0.0
  9
$USERR2
 40
0.0
  9
$USERR3
 40
0.0
  9
$USERR4
 40
0.0
  9
$USERR5
 40
0.0
  9
$WORLDVIEW
 70
     1
  9
$SHADEDGE
 70
     3
  9
$SHADEDIF
 70
    70
  9
$TILEMODE
 70
     1
  9
$MAXACTVP
 70
    64
  9
$PINSBASE
 10
0.0
 20
0.0
 30
0.0
  9
$PLIMCHECK
 70
     0
  9
$PEXTMIN
 10
1.000000000000000E+20
 20
1.000000000000000E+20
 30
1.000000000000000E+20
  9
$PEXTMAX
 10
-1.000000000000000E+20
 20
-1.000000000000000E+20
 30
-1.000000000000000E+20
  9
$PLIMMIN
 10
0.0
 20
0.0
  9
$PLIMMAX
 10
12.0
 20
9.0
  9
$UNITMODE
 70
     0
  9
$VISRETAIN
 70
     1
  9
$PLINEGEN
 70
     0
  9
$PSLTSCALE
 70
     1
  9
$TREEDEPTH
 70
  3020
  9
$CMLSTYLE
  2
Standard
  9
$CMLJUST
 70
     0
  9
$CMLSCALE
 40
1.0
  9
$PROXYGRAPHICS
 70
     1
  9
$MEASUREMENT
 70
     1
  9
$CELWEIGHT
370
    -1
  9
$ENDCAPS
280
     0
  9
$JOINSTYLE
280
     0
  9
$LWDISPLAY
290
     0
  9
$INSUNITS
 70
     4
  9
$HYPERLINKBASE
  1

  9
$STYLESHEET
  1

  9
$XEDIT
290
     1
  9
$CEPSNTYPE
380
     0
  9
$PSTYLEMODE
290
     1
  9
$FINGERPRINTGUID
  2
{12F50282-3ED8-11D3-A8B7-0060B0F84BC6}
  9
$VERSIONGUID
  2
{12F50293-3ED8-11D3-A8B7-0060B0F84BC6}
  9
$EXTNAMES
290
     1
  9
$PSVPSCALE
 40
0.0
  9
$OLESTARTUP
290
     0
  9
$SORTENTS
280
   127
  9
$INDEXCTL
280
     0
  9
$HIDETEXT
280
     0
  9
$XCLIPFRAME
280
     2
  9
$HALOGAP
280
     0
  9
$OBSCOLOR
 70
   257
  9
$OBSLTYPE
280
     0
  9
$INTERSECTIONDISPLAY
280
     0
  9
$INTERSECTIONCOLOR
 70
   257
  9
$DIMASSOC
280
     1
  9
$PROJECTNAME
  1

  9
$CAMERADISPLAY
290
     0
  9
$LENSLENGTH
 40
50.0
  9
$CAMERAHEIGHT
 40
0.0
  9
$STEPSPERSEC
 40
2.0
  9
$STEPSIZE
 40
6.0
  9
$3DDWFPREC
 40
2.0
  9
$PSOLWIDTH
 40
0.25
  9
$PSOLHEIGHT
 40
4.0
  9
$LOFTANG1
 40
1.570796326794896
  9
$LOFTANG2
 40
1.570796326794896
  9
$LOFTMAG1
 40
0.0
  9
$LOFTMAG2
 40
0.0
  9
$LOFTPARAM
 70
     7
  9
$LOFTNORMALS
280
     1
  9
$LATITUDE
 40
37.795
  9
$LONGITUDE
 40
-122.394
  9
$NORTHDIRECTION
 40
0.0
  9
$TIMEZONE
 70
 -8000
  9
$LIGHTGLYPHDISPLAY
280
     1
  9
$TILEMODELIGHTSYNCH
280
     1
  9
$CMATERIAL
347
AB
  9
$SOLIDHIST
280
     0
  9
$SHOWHIST
280
     1
  9
$DWFFRAME
280
     2
  9
$DGNFRAME
280
     0
  9
$REALWORLDSCALE
290
     1
  9
$INTERFERECOLOR
 62
     1
  9
$INTERFEREOBJVS
345
CD
  9
$INTERFEREVPVS
346
CA
  9
$CSHADOW
280
     0
  9
$SHADOWPLANELOCATION
 40
0.0
  0
ENDSEC
  0
SECTION
  2
CLASSES
  0
CLASS
  1
ACDBDICTIONARYWDFLT
  2
AcDbDictionaryWithDefault
  3
ObjectDBX Classes
 90
        0
 91
        1
280
     0
281
     0
  0
CLASS
  1
ACDBPLACEHOLDER
  2
AcDbPlaceHolder
  3
ObjectDBX Classes
 90
        0
 91
        2
280
     0
281
     0
  0
CLASS
  1
LAYOUT
  2
AcDbLayout
  3
ObjectDBX Classes
 90
        0
 91
        3
280
     0
281
     0
  0
CLASS
  1
MATERIAL
  2
AcDbMaterial
  3
ObjectDBX Classes
 90
     1153
 91
        3
280
     0
281
     0
  0
CLASS
  1
VISUALSTYLE
  2
AcDbVisualStyle
  3
ObjectDBX Classes
 90
     4095
 91
       24
280
     0
281
     0
  0
CLASS
  1
TABLESTYLE
  2
AcDbTableStyle
  3
ObjectDBX Classes
 90
     4095
 91
        1
280
     0
281
     0
  0
CLASS
  1
SCALE
  2
AcDbScale
  3
ObjectDBX Classes
 90
     1153
 91
       17
280
     0
281
     0
  0
CLASS
  1
MLEADERSTYLE
  2
AcDbMLeaderStyle
  3
ACDB_MLEADERSTYLE_CLASS
 90
     4095
 91
        1
280
     0
281
     0
  0
CLASS
  1
ACDBSECTIONVIEWSTYLE
  2
AcDbSectionViewStyle
  3
ObjectDBX Classes
 90
     1025
 91
        1
280
     0
281
     0
  0
CLASS
  1
ACDBDETAILVIEWSTYLE
  2
AcDbDetailViewStyle
  3
ObjectDBX Classes
 90
     1025
 91
        1
280
     0
281
     0
  0
CLASS
  1
MESH
  2
AcDbSubDMesh
  3
ObjectDBX Classes
 90
        0
 91
        1
280
     0
281
     1
  0
CLASS
  1
DICTIONARYVAR
  2
AcDbDictionaryVar
  3
ObjectDBX Classes
 90
        0
 91
        9
280
     0
281
     0
  0
CLASS
  1
CELLSTYLEMAP
  2
AcDbCellStyleMap
  3
ObjectDBX Classes
 90
     1152
 91
        1
280
     0
281
     0
  0
ENDSEC
  0
SECTION
  2
TABLES
  0
TABLE
  2
VPORT
  5
8
330
0
100
AcDbSymbolTable
 70
     1
  0
VPORT
  5
A8
330
8
100
AcDbSymbolTableRecord
100
AcDbViewportTableRecord
  2
*Active
 70
     0
 10
0.0
 20
0.0
 11
1.0
 21
1.0
 12
-0.0000242765854637
 22
-5.30728530883789
 13
0.0
 23
0.0
 14
0.5
 24
0.5
 15
0.5
 25
0.5
 16
-1.0
 26
-1.0
 36
1.0
 17
0.0
 27
0.0
 37
0.0
 40
1115.000105735726
 41
1.71185636052849
 42
50.0
 43
0.0
 44
0.0
 50
0.0
 51
0.0
 71
     0
 72
   100
 73
     1
 74
     3
 75
     0
 76
     0
 77
     0
 78
     0
281
     0
 65
     1
110
0.0
120
0.0
130
0.0
111
1.0
121
0.0
131
0.0
112
0.0
122
1.0
132
0.0
 79
     0
146
0.0
348
C9
 60
     3
 61
     5
292
     1
282
     1
141
0.0
142
0.0
 63
   250
421
  3355443
  0
ENDTAB
  0
TABLE
  2
LTYPE
  5
5
330
0
100
AcDbSymbolTable
 70
     1
  0
LTYPE
  5
14
330
5
100
AcDbSymbolTableRecord
100
AcDbLinetypeTableRecord
  2
ByBlock
 70
     0
  3

 72
    65
 73
     0
 40
0.0
  0
LTYPE
  5
15
330
5
100
AcDbSymbolTableRecord
100
AcDbLinetypeTableRecord
  2
ByLayer
 70
     0
  3

 72
    65
 73
     0
 40
0.0
  0
LTYPE
  5
16
330
5
100
AcDbSymbolTableRecord
100
AcDbLinetypeTableRecord
  2
Continuous
 70
     0
  3
Solid line
 72
    65
 73
     0
 40
0.0
  0
ENDTAB
  0
TABLE
  2
LAYER
  5
2
330
0
100
AcDbSymbolTable
 70
     3
  0
LAYER
  5
10
330
2
100
AcDbSymbolTableRecord
100
AcDbLayerTableRecord
  2
0
 70
     0
 62
     7
  6
Continuous
370
    -3
390
F
347
BB
  0
LAYER
  5
2B
330
2
100
AcDbSymbolTableRecord
100
AcDbLayerTableRecord
  2
ASHADE
 70
     4
 62
     7
  6
Continuous
370
    -3
390
2D
347
BB
  0
LAYER
  5
F8
330
2
100
AcDbSymbolTableRecord
100
AcDbLayerTableRecord
  2
OracDecor_cornice_mouldings
 70
     0
 62
   214
420
 11607189
  6
Continuous
370
    -3
390
F
347
BB
  0
ENDTAB
  0
TABLE
  2
STYLE
  5
3
330
0
100
AcDbSymbolTable
 70
     2
  0
STYLE
  5
11
330
3
100
AcDbSymbolTableRecord
100
AcDbTextStyleTableRecord
  2
Standard
 70
     0
 40
0.0
 41
1.0
 50
0.0
 71
     0
 42
0.2
  3
txt
  4

  0
STYLE
  5
2C
330
3
100
AcDbSymbolTableRecord
100
AcDbTextStyleTableRecord
  2
ASHADE
 70
     0
 40
0.2
 41
1.0
 50
0.0
 71
     0
 42
0.2
  3
simplex
  4

  0
ENDTAB
  0
TABLE
  2
VIEW
  5
6
330
0
100
AcDbSymbolTable
 70
     0
  0
ENDTAB
  0
TABLE
  2
UCS
  5
7
330
0
100
AcDbSymbolTable
 70
     0
  0
ENDTAB
  0
TABLE
  2
APPID
  5
9
330
0
100
AcDbSymbolTable
 70
     6
  0
APPID
  5
12
330
9
100
AcDbSymbolTableRecord
100
AcDbRegAppTableRecord
  2
ACAD
 70
     0
  0
APPID
  5
8F
330
9
100
AcDbSymbolTableRecord
100
AcDbRegAppTableRecord
  2
AVE_RENDER
 70
     0
  0
APPID
  5
90
330
9
100
AcDbSymbolTableRecord
100
AcDbRegAppTableRecord
  2
AVE_ENTITY_MATERIAL
 70
     0
  0
APPID
  5
9C
330
9
100
AcDbSymbolTableRecord
100
AcDbRegAppTableRecord
  2
AVE_FINISH
 70
     0
  0
APPID
  5
9D
330
9
100
AcDbSymbolTableRecord
100
AcDbRegAppTableRecord
  2
AVE_MATERIAL
 70
     0
  0
APPID
  5
9E
330
9
100
AcDbSymbolTableRecord
100
AcDbRegAppTableRecord
  2
AVE_GLOBAL
 70
     0
  0
ENDTAB
  0
TABLE
  2
DIMSTYLE
  5
A
330
0
100
AcDbSymbolTable
 70
     1
100
AcDbDimStyleTable
 71
     0
  0
DIMSTYLE
105
27
330
A
100
AcDbSymbolTableRecord
100
AcDbDimStyleTableRecord
  2
Standard
 70
     0
340
11
  0
ENDTAB
  0
TABLE
  2
BLOCK_RECORD
  5
1
330
0
100
AcDbSymbolTable
 70
     6
  0
BLOCK_RECORD
  5
1F
330
1
100
AcDbSymbolTableRecord
100
AcDbBlockTableRecord
  2
*Model_Space
340
22
 70
     0
280
     1
281
     0
  0
BLOCK_RECORD
  5
1B
330
1
100
AcDbSymbolTableRecord
100
AcDbBlockTableRecord
  2
*Paper_Space
340
1E
 70
     0
280
     1
281
     0
  0
BLOCK_RECORD
  5
23
330
1
100
AcDbSymbolTableRecord
100
AcDbBlockTableRecord
  2
*Paper_Space0
340
26
 70
     0
280
     1
281
     0
  0
BLOCK_RECORD
  5
2E
330
1
100
AcDbSymbolTableRecord
100
AcDbBlockTableRecord
  2
direct
340
0
 70
     0
280
     1
281
     0
  0
BLOCK_RECORD
  5
42
330
1
100
AcDbSymbolTableRecord
100
AcDbBlockTableRecord
  2
overhead
340
0
 70
     0
280
     1
281
     0
  0
BLOCK_RECORD
  5
5F
330
1
100
AcDbSymbolTableRecord
100
AcDbBlockTableRecord
  2
sh_spot
340
0
 70
     0
280
     1
281
     0
  0
BLOCK_RECORD
  5
91
330
1
100
AcDbSymbolTableRecord
100
AcDbBlockTableRecord
  2
AVE_RENDER
340
0
102
{BLKREFS
331
94
331
95
331
96
331
97
331
98
331
99
331
9A
331
9B
102
}
 70
     0
280
     1
281
     0
  0
BLOCK_RECORD
  5
9F
330
1
100
AcDbSymbolTableRecord
100
AcDbBlockTableRecord
  2
AVE_GLOBAL
340
0
102
{BLKREFS
331
A2
102
}
 70
     0
280
     1
281
     0
  0
ENDTAB
  0
ENDSEC
  0
SECTION
  2
BLOCKS
  0
BLOCK
  5
20
330
1F
100
AcDbEntity
  8
0
100
AcDbBlockBegin
  2
*Model_Space
 70
     0
 10
0.0
 20
0.0
 30
0.0
  3
*Model_Space
  1

  0
ENDBLK
  5
21
330
1F
100
AcDbEntity
  8
0
100
AcDbBlockEnd
  0
BLOCK
  5
1C
330
1B
100
AcDbEntity
 67
     1
  8
0
100
AcDbBlockBegin
  2
*Paper_Space
 70
     0
 10
0.0
 20
0.0
 30
0.0
  3
*Paper_Space
  1

  0
ENDBLK
  5
1D
330
1B
100
AcDbEntity
 67
     1
  8
0
100
AcDbBlockEnd
  0
BLOCK
  5
24
330
23
100
AcDbEntity
 67
     1
  8
0
100
AcDbBlockBegin
  2
*Paper_Space0
 70
     0
 10
0.0
 20
0.0
 30
0.0
  3
*Paper_Space0
  1

  0
ENDBLK
  5
25
330
23
100
AcDbEntity
 67
     1
  8
0
100
AcDbBlockEnd
  0
BLOCK
  5
40
330
2E
100
AcDbEntity
  8
0
100
AcDbBlockBegin
  2
direct
 70
     2
 10
0.0
 20
0.0
 30
0.0
  3
direct
  1

  0
ATTDEF
  5
2F
330
2E
100
AcDbEntity
  8
ASHADE
  6
Continuous
 62
     1
100
AcDbText
 10
0.0
 20
-0.1
 30
0.0
 40
0.2
  1

  7
ASHADE
 72
     1
 11
0.0
 21
-0.1
 31
0.0
100
AcDbAttributeDefinition
280
     0
  3
Light Name
  2
SNAME
 70
     0
280
     0
  0
ARC
  5
30
330
2E
100
AcDbEntity
  8
ASHADE
  6
Continuous
 62
     7
100
AcDbCircle
 10
0.0
 20
0.0
 30
0.0
 40
0.3
100
AcDbArc
 50
205.6792886194569
 51
334.3207113805431
  0
ARC
  5
31
330
2E
100
AcDbEntity
  8
ASHADE
  6
Continuous
 62
     7
100
AcDbCircle
 10
0.0
 20
0.0
 30
0.0
 40
0.3
100
AcDbArc
 50
25.67928861945685
 51
154.3207113805431
  0
LINE
  5
32
330
2E
100
AcDbEntity
  8
ASHADE
  6
Continuous
 62
     7
100
AcDbLine
 10
-0.21
 20
0.2142428528562855
 30
0.0
 11
-0.21
 21
0.5
 31
0.0
  0
LINE
  5
33
330
2E
100
AcDbEntity
  8
ASHADE
  6
Continuous
 62
     7
100
AcDbLine
 10
-0.11
 20
0.2791057147390572
 30
0.0
 11
-0.11
 21
0.5
 31
0.0
  0
LINE
  5
34
330
2E
100
AcDbEntity
  8
ASHADE
  6
Continuous
 62
     7
100
AcDbLine
 10
0.21
 20
0.2142428528562855
 30
0.0
 11
0.21
 21
0.5
 31
0.0
  0
ATTDEF
  5
35
330
2E
100
AcDbEntity
  8
ASHADE
  6
Continuous
 62
     7
100
AcDbText
 10
0.0
 20
0.25
 30
0.0
 40
0.01
  1

100
AcDbAttributeDefinition
280
     0
  3
Look-at Y
  2
LAY
 70
     1
280
     0
  0
ATTDEF
  5
36
330
2E
100
AcDbEntity
  8
ASHADE
  6
Continuous
 62
     7
100
AcDbText
 10
0.0
 20
0.22
 30
0.0
 40
0.01
  1
1
100
AcDbAttributeDefinition
280
     0
  3
Light Intensity
  2
INTENSITY
 70
     1
280
     0
  0
ATTDEF
  5
37
330
2E
100
AcDbEntity
  8
ASHADE
  6
Continuous
 62
     7
100
AcDbText
 10
0.0
 20
0.16
 30
0.0
 40
0.01
  1
-1
100
AcDbAttributeDefinition
280
     0
  3
*not used*
  2
BEAMD
 70
     1
280
     0
  0
ATTDEF
  5
38
330
2E
100
AcDbEntity
  8
ASHADE
  6
Continuous
 62
     7
100
AcDbText
 10
0.0
 20
0.175
 30
0.0
 40
0.01
  1
-1
100
AcDbAttributeDefinition
280
     0
  3
*not used*
  2
CONED
 70
     1
280
     0
  0
ATTDEF
  5
39
330
2E
100
AcDbEntity
  8
ASHADE
  6
Continuous
 62
     7
100
AcDbText
 10
0.0
 20
0.19
 30
0.0
 40
0.01
  1
0
100
AcDbAttributeDefinition
280
     0
  3
Depth Map Size
  2
CONEA
 70
     1
280
     0
  0
ATTDEF
  5
3A
330
2E
100
AcDbEntity
  8
ASHADE
  6
Continuous
 62
     7
100
AcDbText
 10
0.0
 20
0.2050000000000001
 30
0.0
 40
0.01
  1
1,1,1
100
AcDbAttributeDefinition
280
     0
  3
Light Color (RGB)
  2
COLOR
 70
     1
280
     0
  0
ATTDEF
  5
3B
330
2E
100
AcDbEntity
  8
ASHADE
  6
Continuous
 62
     7
100
AcDbText
 10
0.0
 20
0.235
 30
0.0
 40
0.01
  1

100
AcDbAttributeDefinition
280
     0
  3
Look-at Z
  2
LAZ
 70
     1
280
     0
  0
LINE
  5
3C
330
2E
100
AcDbEntity
  8
ASHADE
  6
Continuous
 62
     7
100
AcDbLine
 10
0.0
 20
0.3
 30
0.0
 11
0.0
 21
0.5
 31
0.0
  0
LINE
  5
3D
330
2E
100
AcDbEntity
  8
ASHADE
  6
Continuous
 62
     7
100
AcDbLine
 10
0.11
 20
0.2791057147390572
 30
0.0
 11
0.11
 21
0.5
 31
0.0
  0
ATTDEF
  5
3E
330
2E
100
AcDbEntity
  8
ASHADE
  6
Continuous
 62
     7
100
AcDbText
 10
0.0
 20
0.265
 30
0.0
 40
0.01
  1

100
AcDbAttributeDefinition
280
     0
  3
Look-at X
  2
LAX
 70
     1
280
     0
  0
ATTDEF
  5
3F
330
2E
100
AcDbEntity
  8
ASHADE
  6
Continuous
 62
     7
100
AcDbText
 10
0.0
 20
0.28
 30
0.0
 40
0.01
  1

100
AcDbAttributeDefinition
280
     0
  3

  2
GNAME
 70
     1
280
     0
  0
ENDBLK
  5
41
330
2E
100
AcDbEntity
  8
0
100
AcDbBlockEnd
  0
BLOCK
  5
5D
330
42
100
AcDbEntity
  8
0
100
AcDbBlockBegin
  2
overhead
 70
     2
 10
0.0
 20
0.0
 30
0.0
  3
overhead
  1

  0
ATTDEF
  5
43
330
42
100
AcDbEntity
  8
ASHADE
  6
Continuous
 62
     1
100
AcDbText
 10
0.0
 20
-0.1
 30
0.0
 40
0.2
  1

  7
ASHADE
 72
     1
 11
0.0
 21
-0.1
 31
0.0
100
AcDbAttributeDefinition
280
     0
  3
Light Name
  2
SNAME
 70
     0
280
     0
  0
ARC
  5
44
330
42
100
AcDbEntity
  8
ASHADE
  6
Continuous
 62
     7
100
AcDbCircle
 10
0.0
 20
0.0
 30
0.0
 40
0.3
100
AcDbArc
 50
205.6792886194569
 51
334.3207113805431
  0
LINE
  5
45
330
42
100
AcDbEntity
  8
ASHADE
  6
Continuous
 62
     7
100
AcDbLine
 10
-0.2041413561583015
 20
-0.2198324514393848
 30
0.0
 11
-0.2721884748777353
 21
-0.2931099352525131
 31
0.0
  0
LINE
  5
46
330
42
100
AcDbEntity
  8
ASHADE
  6
Continuous
 62
     7
100
AcDbLine
 10
-0.1096591641591904
 20
-0.2792398032442862
 30
0.0
 11
-0.1279356915190555
 21
-0.3257797704516673
 31
0.0
  0
LINE
  5
47
330
42
100
AcDbEntity
  8
ASHADE
  6
Continuous
 62
     7
100
AcDbLine
 10
0.0
 20
-0.2999999999999999
 30
0.0
 11
0.0
 21
-0.4
 31
0.0
  0
LINE
  5
48
330
42
100
AcDbEntity
  8
ASHADE
  6
Continuous
 62
     7
100
AcDbLine
 10
0.1096591641591904
 20
-0.2792398032442862
 30
0.0
 11
0.1279356915190555
 21
-0.3257797704516673
 31
0.0
  0
LINE
  5
49
330
42
100
AcDbEntity
  8
ASHADE
  6
Continuous
 62
     7
100
AcDbLine
 10
0.2041413561583015
 20
-0.2198324514393848
 30
0.0
 11
0.2721884748777353
 21
-0.2931099352525131
 31
0.0
  0
ARC
  5
4A
330
42
100
AcDbEntity
  8
ASHADE
  6
Continuous
 62
     7
100
AcDbCircle
 10
0.0
 20
0.0
 30
0.0
 40
0.3
100
AcDbArc
 50
25.67928861945685
 51
154.3207113805431
  0
LINE
  5
4B
330
42
100
AcDbEntity
  8
ASHADE
  6
Continuous
 62
     7
100
AcDbLine
 10
-0.2703701166919155
 20
0.13
 30
0.0
 11
-0.3154318028072347
 21
0.1516666666666666
 31
0.0
  0
LINE
  5
4C
330
42
100
AcDbEntity
  8
ASHADE
  6
Continuous
 62
     7
100
AcDbLine
 10
-0.2703701166919155
 20
-0.13
 30
0.0
 11
-0.3154318028072347
 21
-0.1516666666666666
 31
0.0
  0
LINE
  5
4D
330
42
100
AcDbEntity
  8
ASHADE
  6
Continuous
 62
     7
100
AcDbLine
 10
-0.2041413561583015
 20
0.2198324514393849
 30
0.0
 11
-0.2721884748777353
 21
0.2931099352525131
 31
0.0
  0
LINE
  5
4E
330
42
100
AcDbEntity
  8
ASHADE
  6
Continuous
 62
     7
100
AcDbLine
 10
-0.1096591641591904
 20
0.2792398032442862
 30
0.0
 11
-0.1279356915190555
 21
0.3257797704516674
 31
0.0
  0
LINE
  5
4F
330
42
100
AcDbEntity
  8
ASHADE
  6
Continuous
 62
     7
100
AcDbLine
 10
0.2703701166919155
 20
-0.13
 30
0.0
 11
0.3154318028072347
 21
-0.1516666666666666
 31
0.0
  0
LINE
  5
50
330
42
100
AcDbEntity
  8
ASHADE
  6
Continuous
 62
     7
100
AcDbLine
 10
0.2703701166919155
 20
0.13
 30
0.0
 11
0.3154318028072347
 21
0.1516666666666666
 31
0.0
  0
LINE
  5
51
330
42
100
AcDbEntity
  8
ASHADE
  6
Continuous
 62
     7
100
AcDbLine
 10
0.0
 20
0.3
 30
0.0
 11
0.0
 21
0.4
 31
0.0
  0
ATTDEF
  5
52
330
42
100
AcDbEntity
  8
ASHADE
  6
Continuous
 62
     7
100
AcDbText
 10
0.0
 20
0.22
 30
0.0
 40
0.01
  1
1
100
AcDbAttributeDefinition
280
     0
  3
Light Intensity
  2
INTENSITY
 70
     1
280
     0
  0
ATTDEF
  5
53
330
42
100
AcDbEntity
  8
ASHADE
  6
Continuous
 62
     7
100
AcDbText
 10
0.0
 20
0.16
 30
0.0
 40
0.01
  1
-1
100
AcDbAttributeDefinition
280
     0
  3
*not used*
  2
BEAMD
 70
     1
280
     0
  0
ATTDEF
  5
54
330
42
100
AcDbEntity
  8
ASHADE
  6
Continuous
 62
     7
100
AcDbText
 10
0.0
 20
0.175
 30
0.0
 40
0.01
  1
-1
100
AcDbAttributeDefinition
280
     0
  3
*not used*
  2
CONED
 70
     1
280
     0
  0
ATTDEF
  5
55
330
42
100
AcDbEntity
  8
ASHADE
  6
Continuous
 62
     7
100
AcDbText
 10
0.0
 20
0.19
 30
0.0
 40
0.01
  1
0
100
AcDbAttributeDefinition
280
     0
  3
Depth Map Size
  2
CONEA
 70
     1
280
     0
  0
ATTDEF
  5
56
330
42
100
AcDbEntity
  8
ASHADE
  6
Continuous
 62
     7
100
AcDbText
 10
0.0
 20
0.2050000000000001
 30
0.0
 40
0.01
  1
1,1,1
100
AcDbAttributeDefinition
280
     0
  3
Light Color (RGB)
  2
COLOR
 70
     1
280
     0
  0
ATTDEF
  5
57
330
42
100
AcDbEntity
  8
ASHADE
  6
Continuous
 62
     7
100
AcDbText
 10
0.0
 20
0.235
 30
0.0
 40
0.01
  1

100
AcDbAttributeDefinition
280
     0
  3
Look-at Z
  2
LAZ
 70
     1
280
     0
  0
ATTDEF
  5
58
330
42
100
AcDbEntity
  8
ASHADE
  6
Continuous
 62
     7
100
AcDbText
 10
0.0
 20
0.25
 30
0.0
 40
0.01
  1

100
AcDbAttributeDefinition
280
     0
  3
Look-at Y
  2
LAY
 70
     1
280
     0
  0
ATTDEF
  5
59
330
42
100
AcDbEntity
  8
ASHADE
  6
Continuous
 62
     7
100
AcDbText
 10
0.0
 20
0.265
 30
0.0
 40
0.01
  1

100
AcDbAttributeDefinition
280
     0
  3
Look-at X
  2
LAX
 70
     1
280
     0
  0
ATTDEF
  5
5A
330
42
100
AcDbEntity
  8
ASHADE
  6
Continuous
 62
     7
100
AcDbText
 10
0.0
 20
0.28
 30
0.0
 40
0.01
  1

100
AcDbAttributeDefinition
280
     0
  3

  2
GNAME
 70
     1
280
     0
  0
LINE
  5
5B
330
42
100
AcDbEntity
  8
ASHADE
  6
Continuous
 62
     7
100
AcDbLine
 10
0.1096591641591904
 20
0.2792398032442862
 30
0.0
 11
0.1279356915190555
 21
0.3257797704516674
 31
0.0
  0
LINE
  5
5C
330
42
100
AcDbEntity
  8
ASHADE
  6
Continuous
 62
     7
100
AcDbLine
 10
0.2041413561583015
 20
0.2198324514393849
 30
0.0
 11
0.2721884748777353
 21
0.2931099352525131
 31
0.0
  0
ENDBLK
  5
5E
330
42
100
AcDbEntity
  8
0
100
AcDbBlockEnd
  0
BLOCK
  5
85
330
5F
100
AcDbEntity
  8
0
100
AcDbBlockBegin
  2
sh_spot
 70
     2
 10
0.0
 20
0.0
 30
0.0
  3
sh_spot
  1

  0
LINE
  5
60
330
5F
100
AcDbEntity
  8
ASHADE
  6
Continuous
 62
     7
100
AcDbLine
 10
0.25
 20
0.26
 30
0.0
 11
-0.25
 21
0.26
 31
0.0
  0
LINE
  5
61
330
5F
100
AcDbEntity
  8
ASHADE
  6
Continuous
 62
     7
100
AcDbLine
 10
-0.25
 20
-0.3399999999999999
 30
0.0
 11
0.25
 21
-0.3399999999999999
 31
0.0
  0
ATTDEF
  5
62
330
5F
100
AcDbEntity
  8
ASHADE
  6
Continuous
 62
     1
100
AcDbText
 10
0.0
 20
-0.1
 30
0.0
 40
0.2
  1

  7
ASHADE
 72
     1
 11
0.0
 21
-0.1
 31
0.0
100
AcDbAttributeDefinition
280
     0
  3
Light Name
  2
SNAME
 70
     0
280
     0
  0
LINE
  5
63
330
5F
100
AcDbEntity
  8
ASHADE
  6
Continuous
 62
     7
100
AcDbLine
 10
-0.25
 20
-0.13
 30
0.0
 11
-0.25
 21
-0.3399999999999999
 31
0.0
  0
LINE
  5
64
330
5F
100
AcDbEntity
  8
ASHADE
  6
Continuous
 62
     7
100
AcDbLine
 10
-0.25
 20
-0.18
 30
0.0
 11
-0.29
 21
-0.18
 31
0.0
  0
LINE
  5
65
330
5F
100
AcDbEntity
  8
ASHADE
  6
Continuous
 62
     7
100
AcDbLine
 10
-0.29
 20
-0.22
 30
0.0
 11
-0.25
 21
-0.22
 31
0.0
  0
LINE
  5
66
330
5F
100
AcDbEntity
  8
ASHADE
  6
Continuous
 62
     7
100
AcDbLine
 10
-0.29
 20
-0.18
 30
0.0
 11
-0.29
 21
-0.22
 31
0.0
  0
LINE
  5
67
330
5F
100
AcDbEntity
  8
ASHADE
  6
Continuous
 62
     7
100
AcDbLine
 10
-0.1045454545454545
 20
0.26
 30
0.0
 11
-0.15
 21
0.46
 31
0.0
  0
LINE
  5
68
330
5F
100
AcDbEntity
  8
ASHADE
  6
Continuous
 62
     7
100
AcDbLine
 10
-0.21
 20
0.26
 30
0.0
 11
-0.301304347826087
 21
0.46
 31
0.0
  0
LINE
  5
69
330
5F
100
AcDbEntity
  8
ASHADE
  6
Continuous
 62
     7
100
AcDbLine
 10
-0.25
 20
0.26
 30
0.0
 11
-0.25
 21
0.13
 31
0.0
  0
LINE
  5
6A
330
5F
100
AcDbEntity
  8
ASHADE
  6
Continuous
 62
     7
100
AcDbLine
 10
-0.25
 20
0.22
 30
0.0
 11
-0.29
 21
0.22
 31
0.0
  0
LINE
  5
6B
330
5F
100
AcDbEntity
  8
ASHADE
  6
Continuous
 62
     7
100
AcDbLine
 10
-0.29
 20
0.1799999999999999
 30
0.0
 11
-0.25
 21
0.1799999999999999
 31
0.0
  0
LINE
  5
6C
330
5F
100
AcDbEntity
  8
ASHADE
  6
Continuous
 62
     7
100
AcDbLine
 10
-0.29
 20
0.22
 30
0.0
 11
-0.29
 21
0.1799999999999999
 31
0.0
  0
ATTDEF
  5
6D
330
5F
100
AcDbEntity
  8
ASHADE
  6
Continuous
 62
     7
100
AcDbText
 10
0.0
 20
-0.24
 30
0.0
 40
0.01
  1
0
100
AcDbAttributeDefinition
280
     0
  3
Depth Map Size
  2
ZSIZE
 70
     1
280
     0
  0
ATTDEF
  5
6E
330
5F
100
AcDbEntity
  8
ASHADE
  6
Continuous
 62
     7
100
AcDbText
 10
0.0
 20
-0.3300000000000001
 30
0.0
 40
0.01
  1
0,0,0
100
AcDbAttributeDefinition
280
     0
  3
Look-from XYZ
  2
LFXYZ
 70
     1
280
     0
  0
ATTDEF
  5
6F
330
5F
100
AcDbEntity
  8
ASHADE
  6
Continuous
 62
     7
100
AcDbText
 10
0.0
 20
-0.315
 30
0.0
 40
0.01
  1
0.0
100
AcDbAttributeDefinition
280
     0
  3
Beam Distribution
  2
BEAMDI
 70
     1
280
     0
  0
ATTDEF
  5
70
330
5F
100
AcDbEntity
  8
ASHADE
  6
Continuous
 62
     7
100
AcDbText
 10
0.0
 20
-0.3
 30
0.0
 40
0.01
  1
0.0
100
AcDbAttributeDefinition
280
     0
  3
Cone Delta
  2
CONEDE
 70
     1
280
     0
  0
ATTDEF
  5
71
330
5F
100
AcDbEntity
  8
ASHADE
  6
Continuous
 62
     7
100
AcDbText
 10
0.0
 20
-0.2850000000000001
 30
0.0
 40
0.01
  1
10.0
100
AcDbAttributeDefinition
280
     0
  3
Cone Angle
  2
CONEAN
 70
     1
280
     0
  0
ATTDEF
  5
72
330
5F
100
AcDbEntity
  8
ASHADE
  6
Continuous
 62
     7
100
AcDbText
 10
0.0
 20
-0.27
 30
0.0
 40
0.01
  1
-1
100
AcDbAttributeDefinition
280
     0
  3
*not used*
  2
BIASMAX
 70
     1
280
     0
  0
ATTDEF
  5
73
330
5F
100
AcDbEntity
  8
ASHADE
  6
Continuous
 62
     7
100
AcDbText
 10
0.0
 20
-0.255
 30
0.0
 40
0.01
  1
-1
100
AcDbAttributeDefinition
280
     0
  3
*not used*
  2
BIASMIN
 70
     1
280
     0
  0
ATTDEF
  5
74
330
5F
100
AcDbEntity
  8
ASHADE
  6
Continuous
 62
     7
100
AcDbText
 10
0.0
 20
-0.225
 30
0.0
 40
0.01
  1
1,1,1
100
AcDbAttributeDefinition
280
     0
  3
Light Color (RGB)
  2
COLOR
 70
     1
280
     0
  0
ATTDEF
  5
75
330
5F
100
AcDbEntity
  8
ASHADE
  6
Continuous
 62
     7
100
AcDbText
 10
0.0
 20
-0.21
 30
0.0
 40
0.01
  1
1
100
AcDbAttributeDefinition
280
     0
  3
Light Intensity
  2
INTENSITY
 70
     1
280
     0
  0
ATTDEF
  5
76
330
5F
100
AcDbEntity
  8
ASHADE
  6
Continuous
 62
     7
100
AcDbText
 10
0.0
 20
-0.15
 30
0.0
 40
0.01
  1

100
AcDbAttributeDefinition
280
     0
  3

  2
GNAME
 70
     1
280
     0
  0
ATTDEF
  5
77
330
5F
100
AcDbEntity
  8
ASHADE
  6
Continuous
 62
     7
100
AcDbText
 10
0.0
 20
-0.195
 30
0.0
 40
0.01
  1

100
AcDbAttributeDefinition
280
     0
  3
Look-at Z
  2
LAZ
 70
     1
280
     0
  0
ATTDEF
  5
78
330
5F
100
AcDbEntity
  8
ASHADE
  6
Continuous
 62
     7
100
AcDbText
 10
0.0
 20
-0.18
 30
0.0
 40
0.01
  1

100
AcDbAttributeDefinition
280
     0
  3
Look-at Y
  2
LAY
 70
     1
280
     0
  0
ATTDEF
  5
79
330
5F
100
AcDbEntity
  8
ASHADE
  6
Continuous
 62
     7
100
AcDbText
 10
0.0
 20
-0.165
 30
0.0
 40
0.01
  1

100
AcDbAttributeDefinition
280
     0
  3
Look-at X
  2
LAX
 70
     1
280
     0
  0
LINE
  5
7A
330
5F
100
AcDbEntity
  8
ASHADE
  6
Continuous
 62
     7
100
AcDbLine
 10
0.25
 20
-0.3399999999999999
 30
0.0
 11
0.25
 21
-0.13
 31
0.0
  0
LINE
  5
7B
330
5F
100
AcDbEntity
  8
ASHADE
  6
Continuous
 62
     7
100
AcDbLine
 10
0.25
 20
-0.18
 30
0.0
 11
0.29
 21
-0.18
 31
0.0
  0
LINE
  5
7C
330
5F
100
AcDbEntity
  8
ASHADE
  6
Continuous
 62
     7
100
AcDbLine
 10
0.29
 20
-0.22
 30
0.0
 11
0.25
 21
-0.22
 31
0.0
  0
LINE
  5
7D
330
5F
100
AcDbEntity
  8
ASHADE
  6
Continuous
 62
     7
100
AcDbLine
 10
0.29
 20
-0.18
 30
0.0
 11
0.29
 21
-0.22
 31
0.0
  0
LINE
  5
7E
330
5F
100
AcDbEntity
  8
ASHADE
  6
Continuous
 62
     7
100
AcDbLine
 10
0.21
 20
0.26
 30
0.0
 11
0.301304347826087
 21
0.46
 31
0.0
  0
LINE
  5
7F
330
5F
100
AcDbEntity
  8
ASHADE
  6
Continuous
 62
     7
100
AcDbLine
 10
0.1045454545454545
 20
0.26
 30
0.0
 11
0.15
 21
0.46
 31
0.0
  0
LINE
  5
80
330
5F
100
AcDbEntity
  8
ASHADE
  6
Continuous
 62
     7
100
AcDbLine
 10
0.0
 20
0.26
 30
0.0
 11
0.0
 21
0.46
 31
0.0
  0
LINE
  5
81
330
5F
100
AcDbEntity
  8
ASHADE
  6
Continuous
 62
     7
100
AcDbLine
 10
0.25
 20
0.13
 30
0.0
 11
0.25
 21
0.26
 31
0.0
  0
LINE
  5
82
330
5F
100
AcDbEntity
  8
ASHADE
  6
Continuous
 62
     7
100
AcDbLine
 10
0.25
 20
0.22
 30
0.0
 11
0.29
 21
0.22
 31
0.0
  0
LINE
  5
83
330
5F
100
AcDbEntity
  8
ASHADE
  6
Continuous
 62
     7
100
AcDbLine
 10
0.29
 20
0.1799999999999999
 30
0.0
 11
0.25
 21
0.1799999999999999
 31
0.0
  0
LINE
  5
84
330
5F
100
AcDbEntity
  8
ASHADE
  6
Continuous
 62
     7
100
AcDbLine
 10
0.29
 20
0.22
 30
0.0
 11
0.29
 21
0.1799999999999999
 31
0.0
  0
ENDBLK
  5
86
330
5F
100
AcDbEntity
  8
0
100
AcDbBlockEnd
  0
BLOCK
  5
92
330
91
100
AcDbEntity
  8
ASHADE
100
AcDbBlockBegin
  2
AVE_RENDER
 70
     0
 10
0.0
 20
0.0
 30
0.0
  3
AVE_RENDER
  1
AVE_RENDER
  0
ENDBLK
  5
93
330
91
100
AcDbEntity
  8
0
100
AcDbBlockEnd
  0
BLOCK
  5
A0
330
9F
100
AcDbEntity
  8
ASHADE
100
AcDbBlockBegin
  2
AVE_GLOBAL
 70
     0
 10
0.0
 20
0.0
 30
0.0
  3
AVE_GLOBAL
  1
AVE_GLOBAL
  0
ENDBLK
  5
A1
330
9F
100
AcDbEntity
  8
0
100
AcDbBlockEnd
  0
ENDSEC
  0
SECTION
  2
ENTITIES
  0
INSERT
  5
94
330
1F
100
AcDbEntity
  8
ASHADE
 62
     1
100
AcDbBlockReference
  2
AVE_RENDER
 10
0.0
 20
0.0
 30
0.0
1001
AVE_RENDER
1002
{
1070
     7
1000
Pref
1070
    30
1070
    20
1070
     1
1070
     0
1000

1070
    10
1070
     1
1070
    10
1040
1.0
1070
     1
1040
0.3
1040
0.7
1040
0.0
1040
10.0
1010
-1.0
1020
-1.0
1030
-1.0
1040
0.3
1070
    49
1070
     0
1070
     0
1010
1.0
1020
1.0
1030
1.0
1040
45.0
1070
     1
1070
     0
1000
WCS
1040
0.0
1070
     0
1040
10.0
1002
}
  0
INSERT
  5
95
330
1F
100
AcDbEntity
  8
ASHADE
 62
     3
100
AcDbBlockReference
  2
AVE_RENDER
 10
0.0
 20
0.0
 30
0.0
1001
AVE_RENDER
1002
{
1070
     0
1000
Full Opt
1070
     0
1070
     1
1070
     1
1070
     1
1070
     0
1070
     0
1070
     0
1070
     1
1070
     1
1040
0.0001
1040
0.0001
1002
}
  0
INSERT
  5
96
330
1F
100
AcDbEntity
  8
ASHADE
 62
     4
100
AcDbBlockReference
  2
AVE_RENDER
 10
0.0
 20
0.0
 30
0.0
1001
AVE_RENDER
1002
{
1070
     0
1000
Quick Opt
1070
     0
1070
     1
1070
     1
1070
     1
1070
     0
1070
     0
1070
     1
1002
}
  0
INSERT
  5
97
330
1F
100
AcDbEntity
  8
ASHADE
 62
     5
100
AcDbBlockReference
  2
AVE_RENDER
 10
0.0
 20
0.0
 30
0.0
1001
AVE_RENDER
1002
{
1070
     1
1000
Scanl Opt
1070
     2
1070
     0
1070
     2
1040
2.0
1040
4.0
1070
     0
1070
     1
1070
     0
1040
0.03
1002
}
  0
INSERT
  5
98
330
1F
100
AcDbEntity
  8
ASHADE
 62
     6
100
AcDbBlockReference
  2
AVE_RENDER
 10
0.0
 20
0.0
 30
0.0
1001
AVE_RENDER
1002
{
1070
     2
1000
Raytr Opt
1070
     2
1070
     0
1070
     2
1040
2.0
1040
4.0
1070
     0
1070
     1
1070
     1
1040
0.03
1070
     3
1040
0.03
1002
}
  0
INSERT
  5
99
330
1F
100
AcDbEntity
  8
ASHADE
 62
     7
100
AcDbBlockReference
  2
AVE_RENDER
 10
0.0
 20
0.0
 30
0.0
1001
AVE_RENDER
1002
{
1070
     0
1000
RFile Opt
1070
     1
1070
   640
1070
   480
1070
 10000
1070
     1
1070
     8
1070
     8
1070
     0
1070
     0
1070
     0
1070
     0
1070
     0
1070
     0
1070
     0
1002
}
  0
INSERT
  5
9A
330
1F
100
AcDbEntity
  8
ASHADE
 62
     8
100
AcDbBlockReference
  2
AVE_RENDER
 10
0.0
 20
0.0
 30
0.0
1001
AVE_RENDER
1002
{
1070
     0
1000
Fog Opt
1070
     0
1070
     0
1040
0.0
1040
1.0
1040
0.0
1040
1.0
1010
0.5
1020
0.5
1030
0.5
1002
}
  0
INSERT
  5
9B
330
1F
100
AcDbEntity
  8
ASHADE
 62
     9
100
AcDbBlockReference
  2
AVE_RENDER
 10
0.0
 20
0.0
 30
0.0
1001
AVE_RENDER
1002
{
1070
     0
1000
BG Opt
1070
     0
1070
     1
1010
0.0
1020
0.0
1030
0.0
1010
1.0
1020
0.0
1030
0.0
1010
0.0
1020
1.0
1030
0.0
1010
0.0
1020
0.0
1030
1.0
1040
0.5
1040
0.33
1040
0.0
1000

1070
     1
1000

1070
     1
1070
     1
1040
1.0
1040
1.0
1040
0.0
1040
0.0
1070
     0
1002
}
  0
INSERT
  5
A2
330
1F
100
AcDbEntity
  8
ASHADE
 62
     1
100
AcDbBlockReference
  2
AVE_GLOBAL
 10
0.0
 20
0.0
 30
0.0
1001
AVE_MATERIAL
1002
{
1000
*GLOBAL*
1000
2
1000
Global finish.
1002
{
1002
}
1002
{
1070
    63
1002
{
1002
{
1010
-1.0
1020
-1.0
1030
-1.0
1002
}
1040
0.1000000014901161
1000

1040
0.0
1002
{
1002
}
1040
0.0
1002
{
1002
}
1040
0.0
1002
}
1002
{
1002
{
1010
-1.0
1020
-1.0
1030
-1.0
1002
}
1040
0.6999999880790711
1000

1040
0.0
1002
{
1002
}
1040
0.0
1002
{
1002
}
1040
0.0
1002
}
1002
{
1002
{
1010
-1.0
1020
-1.0
1030
-1.0
1002
}
1040
0.2000000029802322
1000

1040
0.0
1002
{
1002
}
1040
0.0
1002
{
1002
}
1040
0.0
1002
}
1002
{
1070
     0
1002
{
1070
     1
1002
{
1040
1.0
1040
1.0
1000

1040
0.0
1002
{
1002
}
1040
0.0
1002
{
1002
}
1040
0.0
1002
}
1002
}
1040
1.0
1040
0.0
1040
0.0
1002
}
1002
{
1040
1.0
1040
1.0
1000

1040
0.0
1002
{
1002
}
1040
0.0
1002
{
1002
}
1040
0.0
1002
}
1002
{
1040
0.5
1040
1.0
1000

1040
0.0
1002
{
1002
}
1040
0.0
1002
{
1002
}
1040
0.0
1002
}
1002
{
1070
     0
1040
0.0
1002
{
1002
}
1040
1.0
1002
{
1002
}
1040
0.0
1002
}
1002
{
1040
0.0
1002
{
1002
{
1010
0.0
1020
0.0
1030
0.0
1002
}
1040
1.0
1000

1040
0.0
1002
{
1002
}
1040
0.0
1002
{
1002
}
1040
0.0
1002
}
1002
}
1002
{
1002
{
1070
     1
1002
{
1040
0.0
1040
1.0
1000

1040
0.0
1002
{
1002
}
1040
0.0
1002
{
1002
}
1040
0.0
1002
}
1002
}
1040
0.0
1002
{
1002
}
1010
1.0
1020
0.0
1030
0.0
1010
0.0
1020
1.0
1030
0.0
1010
0.0
1020
0.0
1030
1.0
1070
     0
1002
}
1002
{
1002
{
1040
1.0
1040
1.0
1002
{
1070
     1
1002
{
1040
1.0
1040
1.0
1000

1040
0.0
1002
{
1002
}
1040
0.0
1002
{
1002
}
1040
0.0
1002
}
1002
}
1002
}
1070
     0
1040
0.0
1002
{
1002
}
1002
}
1002
{
1002
}
1002
}
1002
{
1071
        3
1070
     3
1070
     0
1002
{
1070
     2
1070
     0
1070
     0
1040
0.0
1002
}
1070
     0
1070
     2
1002
{
1002
}
1002
}
1002
{
1040
8030.0
1040
190.3000030517578
1040
0.3050000071525574
1040
228.0
1040
545.0
1040
14.0
1040
17.39999961853027
1040
0.4560000002384186
1002
}
1002
}
  0
MESH
  5
F9
330
1F
100
AcDbEntity
  8
OracDecor_cornice_mouldings
 62
    53
420
 14796375
160
             35720
310
888B0000E00300000C00000013000000020000003C0000000600000002000000000000E0FF3F8F400000000000000CBF0000000000000000000000E0FF3F8F40000000003E8309C0000000000000CCBE0C000000130000000A0000003C0000000600000002000000000000E0FF3F8F400000000000000EBF000000A0000029
310
C0000000E0FF3F8F40000000003E8309C0000000000000CCBE0C00000013000000120000003C0000000600000002000000000000E0FF3F8F400000000000000EBF000000A0000029C0000000E0FF3F8F400000000000000CBF00000000000000000C000000130000001A0000003C0000000600000002000000000000E0FF3F
310
8F400000000054CD0AC0000000004809BBBF000000E0FF3F8F40000000003E8309C0000000000000CCBE0C00000013000000220000003C0000000600000002000000000000E0FF3F8F400000000000000EBF000000A0000029C0000000E0FF3F8F400000000054CD0AC0000000004809BBBF0C000000130000002A0000003C
310
0000000600000002000000000000E0FF3F8F400000000054CD0AC0000000004809BBBF000000E0FF3F8F4000000000622E0CC000000000F096DABF0C00000013000000320000003C0000000600000002000000000000E0FF3F8F400000000000000EBF000000A0000029C0000000E0FF3F8F4000000000622E0CC000000000
310
F096DABF0C000000130000003A0000003C0000000600000002000000000000E0FF3F8F4000000000622E0CC000000000F096DABF000000E0FF3F8F400000000042F00DC000000000F0A2E6BF0C00000013000000420000003C0000000600000002000000000000E0FF3F8F400000000000000EBF000000A0000029C0000000
310
E0FF3F8F400000000042F00DC000000000F0A2E6BF0C000000130000004A0000003C0000000600000002000000000000E0FF3F8F400000000042F00DC000000000F0A2E6BF000000E0FF3F8F4000000000B61110C0000000006067EEBF0C00000013000000520000003C0000000600000002000000000000E0FF3F8F400000
310
000000000EBF000000A0000029C0000000E0FF3F8F4000000000B61110C0000000006067EEBF0C000000130000005A0000003C0000000600000002000000000000E0FF3F8F4000000000B61110C0000000006067EEBF000000E0FF3F8F40000000007A5811C000000000DC23F2BF0C00000013000000620000003C00000006
310
00000002000000000000E0FF3F8F400000000000000EBF000000A0000029C0000000E0FF3F8F40000000007A5811C000000000DC23F2BF0C000000130000006A0000003C0000000600000002000000000000E0FF3F8F40000000007A5811C000000000DC23F2BF000000E0FF3F8F40000000001CBF12C0000000006003F4BF
310
0C00000013000000720000003C0000000600000002000000000000E0FF3F8F40000000001CBF12C0000000006003F4BF000000E0FF3F8F4000000000002399BF00000020214F29C00C000000130000007A0000003C0000000600000002000000000000E0FF3F8F400000000000000EBF000000A0000029C0000000E0FF3F8F
310
4000000000002399BF00000020214F29C00C00000013000000820000003C0000000600000002000000000000E0FF3F8F400000000000371BC0000000000C81C6BF000000E0FF3F8F4000000000440B1CC0000000000000D03E0C000000130000008A0000003C0000000600000002000000000000E0FF3F8F4000000000440B
310
1CC0000000000000D03E000000E0FF3F8F400000000035B022C0000000000000E03E0C00000013000000920000003C0000000600000002000000000000E0FF3F8F40000000009E6123C0000000008010B1BF000000E0FF3F8F400000000035B022C0000000000000E03E0C000000130000009A0000003C0000000600000002
310
000000000000E0FF3F8F400000000000371BC0000000000C81C6BF000000E0FF3F8F40000000009E6123C0000000008010B1BF0C00000013000000A20000003C0000000600000002000000000000E0FF3F8F400000000050831AC0000000001784DFBF000000E0FF3F8F400000000000371BC0000000000C81C6BF0C000000
310
13000000AA0000003C0000000600000002000000000000E0FF3F8F40000000009E6123C0000000008010B1BF000000E0FF3F8F4000000000E5FF23C00000000020F2CDBF0C00000013000000B20000003C0000000600000002000000000000E0FF3F8F400000000050831AC0000000001784DFBF000000E0FF3F8F40000000
310
00E5FF23C00000000020F2CDBF0C00000013000000BA0000003C0000000600000002000000000000E0FF3F8F4000000000E5FF23C00000000020F2CDBF000000E0FF3F8F40000000006C7124C000000000A81BE0BF0C00000013000000C20000003C0000000600000002000000000000E0FF3F8F400000000050831AC00000
310
00001784DFBF000000E0FF3F8F40000000006C7124C000000000A81BE0BF0C00000013000000CA0000003C0000000600000002000000000000E0FF3F8F4000000000429319C0000000804BBDE8BF000000E0FF3F8F400000000050831AC0000000001784DFBF0C00000013000000D20000003C000000060000000200000000
310
0000E0FF3F8F4000000000429319C0000000804BBDE8BF000000E0FF3F8F40000000006C7124C000000000A81BE0BF0C00000013000000DA0000003C0000000600000002000000000000E0FF3F8F400000000083B224C0000000007371EABF000000E0FF3F8F40000000006C7124C000000000A81BE0BF0C00000013000000
310
E20000003C0000000600000002000000000000E0FF3F8F4000000000429319C0000000804BBDE8BF000000E0FF3F8F400000000083B224C0000000007371EABF0C00000013000000EA0000003C0000000600000002000000000000E0FF3F8F40000000002A1D17C0000000C045B6F2BF000000E0FF3F8F4000000000366D18
310
C0000000C0CD07F0BF0C00000013000000F20000003C0000000600000002000000000000E0FF3F8F4000000000366D18C0000000C0CD07F0BF000000E0FF3F8F4000000000C91C26C000000000B80A13C00C00000013000000FA0000003C0000000600000002000000000000E0FF3F8F40000000002A1D17C0000000C045B6
310
F2BF000000E0FF3F8F4000000000C91C26C000000000B80A13C00C00000013000000020100003C0000000600000002000000000000E0FF3F8F4000000000366D18C0000000C0CD07F0BF000000E0FF3F8F4000000000429319C0000000804BBDE8BF0C000000130000000A0100003C0000000600000002000000000000E0FF
310
3F8F400000000083B224C0000000007371EABF000000E0FF3F8F4000000000C91C26C000000000B80A13C00C00000013000000120100003C0000000600000002000000000000E0FF3F8F4000000000FE3614C000000080A9BEF4BF000000E0FF3F8F4000000000D0B015C0000000C0194EF4BF0C000000130000001A010000
310
3C0000000600000002000000000000E0FF3F8F4000000000D0B015C0000000C0194EF4BF000000E0FF3F8F4000000000094726C000000000293114C00C00000013000000220100003C0000000600000002000000000000E0FF3F8F4000000000FE3614C000000080A9BEF4BF000000E0FF3F8F4000000000094726C0000000
310
00293114C00C000000130000002A0100003C0000000600000002000000000000E0FF3F8F4000000000D0B015C0000000C0194EF4BF000000E0FF3F8F40000000002A1D17C0000000C045B6F2BF0C00000013000000320100003C0000000600000002000000000000E0FF3F8F4000000000C91C26C000000000B80A13C00000
310
00E0FF3F8F4000000000094726C000000000293114C00C000000130000003A0100003C0000000600000002000000000000E0FF3F8F40000000001CBF12C0000000006003F4BF000000E0FF3F8F4000000000FE3614C000000080A9BEF4BF0C00000013000000420100003C0000000600000002000000000000E0FF3F8F4000
310
000000094726C000000000293114C0000000E0FF3F8F4000000000348E26C000000000584115C00C000000130000004A0100003C0000000600000002000000000000E0FF3F8F4000000000348E26C000000000584115C0000000E0FF3F8F40000000004077B8BF000000207B9629C00C00000013000000520100003C000000
310
0600000002000000000000E0FF3F8F4000000000002399BF00000020214F29C0000000E0FF3F8F40000000004077B8BF000000207B9629C00C000000130000005A0100003C0000000600000002000000000000E0FF3F8F4000000000348E26C000000000584115C0000000E0FF3F8F400000000076EF26C0000000007C3016
310
C00C00000013000000620100003C0000000600000002000000000000E0FF3F8F400000000076EF26C0000000007C3016C0000000E0FF3F8F40000000006063CABF0000002019CF29C00C000000130000006A0100003C0000000600000002000000000000E0FF3F8F40000000004077B8BF000000207B9629C0000000E0FF3F
310
8F40000000006063CABF0000002019CF29C00C00000013000000720100003C0000000600000002000000000000E0FF3F8F400000000076EF26C0000000007C3016C0000000E0FF3F8F4000000000F76627C00000000019F516C00C000000130000007A0100003C0000000600000002000000000000E0FF3F8F4000000000F7
310
6627C00000000019F516C0000000E0FF3F8F4000000000D01CD6BF0000002077F329C00C00000013000000820100003C0000000600000002000000000000E0FF3F8F40000000006063CABF0000002019CF29C0000000E0FF3F8F4000000000D01CD6BF0000002077F329C00C000000130000008A0100003C00000006000000
310
02000000000000E0FF3F8F4000000000F76627C00000000019F516C0000000E0FF3F8F4000000000F6EF27C000000000628717C00C00000013000000920100003C0000000600000002000000000000E0FF3F8F40000000007800E0BF0000002001002AC0000000E0FF3F8F4000000000F6EF27C000000000628717C00C0000
310
00130000009A0100003C0000000600000002000000000000E0FF3F8F40000000007800E0BF0000002001002AC0000000E0FF3F8F4000000000D01CD6BF0000002077F329C00C00000013000000A20100003C0000000600000002000000000000E0FF3F8F40000000003F2029C000000040FFFF17C0000000E0FF3F8F400000
310
0000068528C0000000408AE117C00C00000013000000AA0100003C0000000600000002000000000000E0FF3F8F40000000007800E0BF0000002001002AC0000000E0FF3F8F40000000003F2029C000000040FFFF17C00C00000013000000B20100003C0000000600000002000000000000E0FF3F8F40000000007800E0BF00
310
00002001002AC0000000E0FF3F8F4000000000068528C0000000408AE117C00C00000013000000BA0100003C0000000600000002000000000000E0FF3F8F4000000000F6EF27C000000000628717C0000000E0FF3F8F4000000000068528C0000000408AE117C00C00000013000000C20100003C0000000600000002000000
310
000000E0FF3F8F40000000003F2029C000000040FFFF17C0000000E0FF3F8F40000000001EA542C0000000E0FEFF17C00C00000013000000CA0100003C0000000600000002000000000000E0FF3F8F40000000007800E0BF0000002001002AC0000000E0FF3F8F40000000001EA542C0000000E0FEFF17C00C000000130000
310
00D20100003C0000000600000002000000000000E0FF3F8F4000000000135C43C000000000F735DDBF000000E0FF3F8F40000000008F6243C000000000B6D8D1BF0C00000013000000DA0100003C0000000600000002000000000000E0FF3F8F40000000C0B2E744C000000000B0D8D1BF000000E0FF3F8F40000000008F62
310
43C000000000B6D8D1BF0C00000013000000E20100003C0000000600000002000000000000E0FF3F8F40000000802EEE44C000000000F035DDBF000000E0FF3F8F40000000C0B2E744C000000000B0D8D1BF0C00000013000000EA0100003C0000000600000002000000000000E0FF3F8F40000000802EEE44C000000000F0
310
35DDBF000000E0FF3F8F4000000000135C43C000000000F735DDBF0C00000013000000F20100003C0000000600000002000000000000E0FF3F8F40000000008F6243C000000000B6D8D1BF000000E0FF3F8F4000000000017143C0000000004CD0C0BF0C00000013000000FA0100003C0000000600000002000000000000E0
310
FF3F8F40000000C040D944C00000000040D0C0BF000000E0FF3F8F4000000000017143C0000000004CD0C0BF0C00000013000000020200003C0000000600000002000000000000E0FF3F8F40000000C040D944C00000000040D0C0BF000000E0FF3F8F40000000C0B2E744C000000000B0D8D1BF0C000000130000000A0200
310
003C0000000600000002000000000000E0FF3F8F4000000000017143C0000000004CD0C0BF000000E0FF3F8F4000000040728543C0000000000067A1BF0C00000013000000120200003C0000000600000002000000000000E0FF3F8F4000000040CFC444C0000000000067A1BF000000E0FF3F8F4000000040728543C00000
310
00000067A1BF0C000000130000001A0200003C0000000600000002000000000000E0FF3F8F4000000040CFC444C0000000000067A1BF000000E0FF3F8F40000000C040D944C00000000040D0C0BF0C00000013000000220200003C0000000600000002000000000000E0FF3F8F40000000401B9D43C0000000000000E03E00
310
0000E0FF3F8F4000000040728543C0000000000067A1BF0C000000130000002A0200003C0000000600000002000000000000E0FF3F8F40000000401B9D43C0000000000000E03E000000E0FF3F8F400000008026AD44C0000000000000E03E0C00000013000000320200003C0000000600000002000000000000E0FF3F8F40
310
0000008026AD44C0000000000000E03E000000E0FF3F8F4000000040CFC444C0000000000067A1BF0C000000130000003A0200003C0000000600000002000000000000E0FF3F8F40000000002E2743C0000000003E5914C0000000E0FF3F8F4000000000135C43C000000000F735DDBF0C00000013000000420200003C0000
310
000600000002000000000000E0FF3F8F40000000802EEE44C000000000F035DDBF000000E0FF3F8F4000000080132345C0000000003E5914C00C000000130000004A0200003C0000000600000002000000000000E0FF3F8F4000000080132345C0000000003E5914C0000000E0FF3F8F40000000002E2743C0000000003E59
310
14C00C00000013000000520200003C0000000600000002000000000000E0FF3F8F40000000002E2743C0000000003E5914C0000000E0FF3F8F4000000080702043C000000000305015C00C000000130000005A0200003C0000000600000002000000000000E0FF3F8F4000000080132345C0000000003E5914C0000000E0FF
310
3F8F4000000000D12945C000000000305015C00C00000013000000620200003C0000000600000002000000000000E0FF3F8F4000000080702043C000000000305015C0000000E0FF3F8F4000000000D12945C000000000305015C00C000000130000006A0200003C0000000600000002000000000000E0FF3F8F40000000C0
310
321243C0000000C0B03216C0000000E0FF3F8F4000000080702043C000000000305015C00C00000013000000720200003C0000000600000002000000000000E0FF3F8F4000000000D12945C000000000305015C0000000E0FF3F8F40000000C00E3845C000000000B13216C00C000000130000007A0200003C000000060000
310
0002000000000000E0FF3F8F40000000C0321243C0000000C0B03216C0000000E0FF3F8F40000000C00E3845C000000000B13216C00C00000013000000820200003C0000000600000002000000000000E0FF3F8F400000004052FD42C0000000C0F7F216C0000000E0FF3F8F40000000C0321243C0000000C0B03216C00C00
310
0000130000008A0200003C0000000600000002000000000000E0FF3F8F40000000C00E3845C000000000B13216C0000000E0FF3F8F4000000040EF4C45C000000000F7F216C00C00000013000000920200003C0000000600000002000000000000E0FF3F8F400000004052FD42C0000000C0F7F216C0000000E0FF3F8F4000
310
000040EF4C45C000000000F7F216C00C000000130000009A0200003C0000000600000002000000000000E0FF3F8F400000008014E342C0000000E0528517C0000000E0FF3F8F400000004052FD42C0000000C0F7F216C00C00000013000000A20200003C0000000600000002000000000000E0FF3F8F4000000040EF4C45C0
310
00000000F7F216C0000000E0FF3F8F40000000002D6745C000000000528517C00C00000013000000AA0200003C0000000600000002000000000000E0FF3F8F400000008014E342C0000000E0528517C0000000E0FF3F8F40000000002D6745C000000000528517C00C00000013000000B20200003C00000006000000020000
310
00000000E0FF3F8F400000000012C542C0000000E0DAE017C0000000E0FF3F8F400000008014E342C0000000E0528517C00C00000013000000BA0200003C0000000600000002000000000000E0FF3F8F40000000002D6745C000000000528517C0000000E0FF3F8F40000000C02F8545C000000000DAE017C00C0000001300
310
0000C20200003C0000000600000002000000000000E0FF3F8F400000000012C542C0000000E0DAE017C0000000E0FF3F8F40000000C02F8545C000000000DAE017C00C00000013000000CA0200003C0000000600000002000000000000E0FF3F8F40000000001EA542C0000000E0FEFF17C0000000E0FF3F8F400000000012
310
C542C0000000E0DAE017C00C00000013000000D20200003C0000000600000002000000000000E0FF3F8F40000000C023A545C000000000FEFF17C0000000E0FF3F8F40000000C02F8545C000000000DAE017C00C00000013000000DA0200003C0000000600000002000000000000E0FF3F8F40000000001EA542C0000000E0
310
FEFF17C0000000E0FF3F8F40000000C023A545C000000000FEFF17C00C00000013000000E20200003C0000000600000002000000000000E0FF3F8F40000000C0D5114EC0000000000736DDBF000000E0FF3F8F400000008051184EC000000000C8D8D1BF0C00000013000000EA0200003C0000000600000002000000000000
310
E0FF3F8F400000008051184EC000000000C8D8D1BF000000E0FF3F8F4000000040759D4FC000000000C0D8D1BF0C00000013000000F20200003C0000000600000002000000000000E0FF3F8F4000000000F1A34FC0000000000036DDBF000000E0FF3F8F4000000040759D4FC000000000C0D8D1BF0C00000013000000FA02
310
00003C0000000600000002000000000000E0FF3F8F4000000000F1A34FC0000000000036DDBF000000E0FF3F8F40000000C0D5114EC0000000000736DDBF0C00000013000000020300003C0000000600000002000000000000E0FF3F8F400000008051184EC000000000C8D8D1BF000000E0FF3F8F4000000080C3264EC000
310
0000006CD0C0BF0C000000130000000A0300003C0000000600000002000000000000E0FF3F8F4000000080C3264EC0000000006CD0C0BF000000E0FF3F8F4000000040038F4FC00000000060D0C0BF0C00000013000000120300003C0000000600000002000000000000E0FF3F8F4000000040038F4FC00000000060D0C0BF
310
000000E0FF3F8F4000000040759D4FC000000000C0D8D1BF0C000000130000001A0300003C0000000600000002000000000000E0FF3F8F4000000080C3264EC0000000006CD0C0BF000000E0FF3F8F40000000C0343B4EC0000000008067A1BF0C00000013000000220300003C0000000600000002000000000000E0FF3F8F
310
40000000C0343B4EC0000000008067A1BF000000E0FF3F8F40000000C0917A4FC0000000008067A1BF0C000000130000002A0300003C0000000600000002000000000000E0FF3F8F40000000C0917A4FC0000000008067A1BF000000E0FF3F8F4000000040038F4FC00000000060D0C0BF0C00000013000000320300003C00
310
00000600000002000000000000E0FF3F8F40000000C0DD524EC0000000000000D03E000000E0FF3F8F40000000C0343B4EC0000000008067A1BF0C000000130000003A0300003C0000000600000002000000000000E0FF3F8F40000000C0DD524EC0000000000000D03E000000E0FF3F8F4000000000E9624FC00000000000
310
00D03E0C00000013000000420300003C0000000600000002000000000000E0FF3F8F4000000000E9624FC0000000000000D03E000000E0FF3F8F40000000C0917A4FC0000000008067A1BF0C000000130000004A0300003C0000000600000002000000000000E0FF3F8F4000000080F0DC4DC0000000C03F5914C0000000E0
310
FF3F8F40000000C0D5114EC0000000000736DDBF0C00000013000000520300003C0000000600000002000000000000E0FF3F8F4000000000F1A34FC0000000000036DDBF000000E0FF3F8F40000000C0D5D84FC0000000003E5914C00C000000130000005A0300003C0000000600000002000000000000E0FF3F8F40000000
310
C0D5D84FC0000000003E5914C0000000E0FF3F8F4000000080F0DC4DC0000000C03F5914C00C00000013000000620300003C0000000600000002000000000000E0FF3F8F4000000080F0DC4DC0000000C03F5914C0000000E0FF3F8F400000000033D64DC0000000C0315015C00C000000130000006A0300003C0000000600
310
000002000000000000E0FF3F8F40000000C0D5D84FC0000000003E5914C0000000E0FF3F8F400000004093DF4FC000000000315015C00C00000013000000720300003C0000000600000002000000000000E0FF3F8F400000000033D64DC0000000C0315015C0000000E0FF3F8F400000004093DF4FC000000000315015C00C
310
000000130000007A0300003C0000000600000002000000000000E0FF3F8F4000000040F5C74DC0000000E0B13216C0000000E0FF3F8F400000000033D64DC0000000C0315015C00C00000013000000820300003C0000000600000002000000000000E0FF3F8F400000004093DF4FC000000000315015C0000000E0FF3F8F40
310
00000040D1ED4FC000000000B13216C00C000000130000008A0300003C0000000600000002000000000000E0FF3F8F4000000040F5C74DC0000000E0B13216C0000000E0FF3F8F4000000040D1ED4FC000000000B13216C00C00000013000000920300003C0000000600000002000000000000E0FF3F8F400000000015B34D
310
C0000000E0F8F216C0000000E0FF3F8F4000000040F5C74DC0000000E0B13216C00C000000130000009A0300003C0000000600000002000000000000E0FF3F8F4000000040D1ED4FC000000000B13216C0000000E0FF3F8F40000000A0580150C000000000F8F216C00C00000013000000A20300003C000000060000000200
310
0000000000E0FF3F8F400000000015B34DC0000000E0F8F216C0000000E0FF3F8F40000000A0580150C000000000F8F216C00C00000013000000AA0300003C0000000600000002000000000000E0FF3F8F4000000000D7984DC0000000E0538517C0000000E0FF3F8F400000000015B34DC0000000E0F8F216C00C00000013
310
000000B20300003C0000000600000002000000000000E0FF3F8F40000000A0580150C000000000F8F216C0000000E0FF3F8F4000000060770E50C000000000538517C00C00000013000000BA0300003C0000000600000002000000000000E0FF3F8F4000000000D7984DC0000000E0538517C0000000E0FF3F8F4000000060
310
770E50C000000000538517C00C00000013000000C20300003C0000000600000002000000000000E0FF3F8F4000000080D47A4DC0000000E0DBE017C0000000E0FF3F8F4000000000D7984DC0000000E0538517C00C00000013000000CA0300003C0000000600000002000000000000E0FF3F8F4000000060770E50C0000000
310
00538517C0000000E0FF3F8F40000000A0781D50C000000000DBE017C00C00000013000000D20300003C0000000600000002000000000000E0FF3F8F4000000080D47A4DC0000000E0DBE017C0000000E0FF3F8F40000000A0781D50C000000000DBE017C00C00000013000000DA0300003C00000006000000020000000000
310
00E0FF3F8F4000000080E05A4DC0000000E0FFFF17C0000000E0FF3F8F4000000080D47A4DC0000000E0DBE017C00C00000013000000E20300003C0000000600000002000000000000E0FF3F8F40000000C0722D50C000000000FFFF17C0000000E0FF3F8F40000000A0781D50C000000000DBE017C00C00000013000000EA
310
0300003C0000000600000002000000000000E0FF3F8F4000000080E05A4DC0000000E0FFFF17C0000000E0FF3F8F40000000C0722D50C000000000FFFF17C00C00000013000000F20300003C0000000600000002000000000000E0FF3F8F40000000007800E0BF0000002001002AC0000000E0FF3F8F40000000C023A545C0
310
00000000FEFF17C00C00000013000000FA0300003C0000000600000002000000000000E0FF3F8F40000000C023A545C000000000FEFF17C0000000E0FF3F8F4000000080E05A4DC0000000E0FFFF17C00C00000013000000020400003C0000000600000002000000000000E0FF3F8F40000000C0006059C0000000E0FFFF29
310
C0000000E0FF3F8F4000000080E05A4DC0000000E0FFFF17C00C000000130000000A0400003C0000000600000002000000000000E0FF3F8F40000000C0006059C0000000E0FFFF29C0000000E0FF3F8F40000000007800E0BF0000002001002AC00C00000013000000120400003C0000000600000002000000000000E0FF3F
310
8F40000000C0006059C0000000E0FFFF29C0000000E0FF3F8F40000000C0722D50C000000000FFFF17C00C000000130000001A0400003C0000000600000002000000000000E0FF3F8F40000000C0722D50C000000000FFFF17C0000000E0FF3F8F4000000040F95B56C000000040FFFF17C00C00000013000000220400003C
310
0000000600000002000000000000E0FF3F8F40000000C0006059C0000000E0FFFF29C0000000E0FF3F8F4000000040F95B56C000000040FFFF17C00C000000130000002A0400003C0000000600000002000000000000E0FF3F8F4000000080FA2957C0000000000000D43E000000E0FF3F8F4000000080CD1357C000000000
310
7010B1BF0C00000013000000320400003C0000000600000002000000000000E0FF3F8F4000000080FA2957C0000000000000D43E000000E0FF3F8F40000000C04CBF57C0000000000000E03E0C000000130000003A0400003C0000000600000002000000000000E0FF3F8F40000000C04CBF57C0000000000000E03E000000
310
E0FF3F8F40000000C09DC957C000000000D808BBBF0C00000013000000420400003C0000000600000002000000000000E0FF3F8F40000000C09DC957C000000000D808BBBF000000E0FF3F8F4000000080CD1357C0000000007010B1BF0C000000130000004A0400003C0000000600000002000000000000E0FF3F8F400000
310
0080040057C00000000000F2CDBF000000E0FF3F8F4000000080CD1357C0000000007010B1BF0C00000013000000520400003C0000000600000002000000000000E0FF3F8F40000000C09DC957C000000000D808BBBF000000E0FF3F8F4000000000A6D457C000000000E096DABF0C000000130000005A0400003C00000006
310
00000002000000000000E0FF3F8F4000000000A6D457C000000000E096DABF000000E0FF3F8F4000000080040057C00000000000F2CDBF0C00000013000000620400003C0000000600000002000000000000E0FF3F8F4000000080D3F156C000000000A01BE0BF000000E0FF3F8F4000000080040057C00000000000F2CDBF
310
0C000000130000006A0400003C0000000600000002000000000000E0FF3F8F4000000000A6D457C000000000E096DABF000000E0FF3F8F4000000080D3F156C000000000A01BE0BF0C00000013000000720400003C0000000600000002000000000000E0FF3F8F4000000000A6D457C000000000E096DABF000000E0FF3F8F
310
4000000000B5E257C000000000E0A2E6BF0C000000130000007A0400003C0000000600000002000000000000E0FF3F8F4000000000B5E257C000000000E0A2E6BF000000E0FF3F8F4000000080D3F156C000000000A01BE0BF0C00000013000000820400003C0000000600000002000000000000E0FF3F8F40000000C0B0E9
310
56C0000000006871EABF000000E0FF3F8F4000000080D3F156C000000000A01BE0BF0C000000130000008A0400003C0000000600000002000000000000E0FF3F8F4000000000B5E257C000000000E0A2E6BF000000E0FF3F8F40000000804EF457C0000000005067EEBF0C00000013000000920400003C0000000600000002
310
000000000000E0FF3F8F40000000804EF457C0000000005067EEBF000000E0FF3F8F40000000C0B0E956C0000000006871EABF0C000000130000009A0400003C0000000600000002000000000000E0FF3F8F400000000068BC56C0000000E0B70A13C0000000E0FF3F8F40000000C0B0E956C0000000006871EABF0C000000
310
13000000A20400003C0000000600000002000000000000E0FF3F8F40000000804EF457C0000000005067EEBF000000E0FF3F8F40000000C0BA0858C000000000D823F2BF0C00000013000000AA0400003C0000000600000002000000000000E0FF3F8F40000000C0BA0858C000000000D823F2BF000000E0FF3F8F40000000
310
0068BC56C0000000E0B70A13C00C00000013000000B20400003C0000000600000002000000000000E0FF3F8F40000000C0BA0858C000000000D823F2BF000000E0FF3F8F4000000000251F58C0000000005C03F4BF0C00000013000000BA0400003C0000000600000002000000000000E0FF3F8F4000000000251F58C00000
310
00005C03F4BF000000E0FF3F8F400000000068BC56C0000000E0B70A13C00C00000013000000C20400003C0000000600000002000000000000E0FF3F8F4000000080008059C0000000000000D23E000000E0FF3F8F4000000080E7B358C0000000000000E03E0C00000013000000CA0400003C000000060000000200000000
310
0000E0FF3F8F4000000080008059C0000000000000D23E000000E0FF3F8F40000000C0008059C0000000E0FEFF28C00C00000013000000D20400003C0000000600000002000000000000E0FF3F8F40000000C0008059C0000000E0FEFF28C0000000E0FF3F8F4000000080E7B358C0000000000000E03E0C00000013000000
310
DA0400003C0000000600000002000000000000E0FF3F8F4000000040A3A658C000000000EC80C6BF000000E0FF3F8F4000000080E7B358C0000000000000E03E0C00000013000000E20400003C0000000600000002000000000000E0FF3F8F40000000C0008059C0000000E0FEFF28C0000000E0FF3F8F4000000040A3A658
310
C000000000EC80C6BF0C00000013000000EA0400003C0000000600000002000000000000E0FF3F8F4000000040678C58C00000008043BDE8BF000000E0FF3F8F4000000040689B58C0000000000784DFBF0C00000013000000F20400003C0000000600000002000000000000E0FF3F8F4000000040689B58C0000000000784
310
DFBF000000E0FF3F8F40000000806F7E59C0000000E01F4F29C00C00000013000000FA0400003C0000000600000002000000000000E0FF3F8F4000000040678C58C00000008043BDE8BF000000E0FF3F8F40000000806F7E59C0000000E01F4F29C00C00000013000000020500003C0000000600000002000000000000E0FF
310
3F8F4000000040689B58C0000000000784DFBF000000E0FF3F8F4000000040A3A658C000000000EC80C6BF0C000000130000000A0500003C0000000600000002000000000000E0FF3F8F40000000C0008059C0000000E0FEFF28C0000000E0FF3F8F40000000806F7E59C0000000E01F4F29C00C0000001300000012050000
310
3C0000000600000002000000000000E0FF3F8F4000000000066558C00000004041B6F2BF000000E0FF3F8F40000000C0067A58C000000080C907F0BF0C000000130000001A0500003C0000000600000002000000000000E0FF3F8F40000000C0067A58C000000080C907F0BF000000E0FF3F8F40000000C0E37959C0000000
310
E0799629C00C00000013000000220500003C0000000600000002000000000000E0FF3F8F4000000000066558C00000004041B6F2BF000000E0FF3F8F40000000C0E37959C0000000E0799629C00C000000130000002A0500003C0000000600000002000000000000E0FF3F8F40000000C0067A58C000000080C907F0BF0000
310
00E0FF3F8F4000000040678C58C00000008043BDE8BF0C00000013000000320500003C0000000600000002000000000000E0FF3F8F40000000C0E37959C0000000E0799629C0000000E0FF3F8F40000000806F7E59C0000000E01F4F29C00C000000130000003A0500003C0000000600000002000000000000E0FF3F8F4000
310
000000A33658C000000000A4BEF4BF000000E0FF3F8F4000000040404E58C000000000144EF4BF0C00000013000000420500003C0000000600000002000000000000E0FF3F8F4000000040404E58C000000000144EF4BF000000E0FF3F8F4000000000D07259C0000000E017CF29C00C000000130000004A0500003C000000
310
0600000002000000000000E0FF3F8F4000000000A33658C000000000A4BEF4BF000000E0FF3F8F4000000000D07259C0000000E017CF29C00C00000013000000520500003C0000000600000002000000000000E0FF3F8F4000000040404E58C000000000144EF4BF000000E0FF3F8F4000000000066558C00000004041B6F2
310
BF0C000000130000005A0500003C0000000600000002000000000000E0FF3F8F4000000000D07259C0000000E017CF29C0000000E0FF3F8F40000000C0E37959C0000000E0799629C00C00000013000000620500003C0000000600000002000000000000E0FF3F8F4000000000251F58C0000000005C03F4BF000000E0FF3F
310
8F4000000000A33658C000000000A4BEF4BF0C000000130000006A0500003C0000000600000002000000000000E0FF3F8F400000000068BC56C0000000E0B70A13C0000000E0FF3F8F4000000000D07259C0000000E017CF29C00C00000013000000720500003C0000000600000002000000000000E0FF3F8F400000000068
310
BC56C0000000E0B70A13C0000000E0FF3F8F400000000020B756C0000000E0293114C00C000000130000007A0500003C0000000600000002000000000000E0FF3F8F400000000020B756C0000000E0293114C0000000E0FF3F8F4000000000D07259C0000000E017CF29C00C00000013000000820500003C00000006000000
310
02000000000000E0FF3F8F40000000C03AAE56C000000040584115C0000000E0FF3F8F400000000020B756C0000000E0293114C00C000000130000008A0500003C0000000600000002000000000000E0FF3F8F40000000C03AAE56C000000040584115C0000000E0FF3F8F4000000000D07259C0000000E017CF29C00C0000
310
0013000000920500003C0000000600000002000000000000E0FF3F8F4000000040229356C00000004019F516C0000000E0FF3F8F400000004012A256C0000000407C3016C00C000000130000009A0500003C0000000600000002000000000000E0FF3F8F400000004012A256C0000000407C3016C0000000E0FF3F8F400000
310
00C0E46959C0000000E075F329C00C00000013000000A20500003C0000000600000002000000000000E0FF3F8F4000000040229356C00000004019F516C0000000E0FF3F8F40000000C0E46959C0000000E075F329C00C00000013000000AA0500003C0000000600000002000000000000E0FF3F8F400000004012A256C000
310
0000407C3016C0000000E0FF3F8F40000000C03AAE56C000000040584115C00C00000013000000B20500003C0000000600000002000000000000E0FF3F8F40000000C0E46959C0000000E075F329C0000000E0FF3F8F4000000000D07259C0000000E017CF29C00C00000013000000BA0500003C0000000600000002000000
310
000000E0FF3F8F4000000040028256C000000040628717C0000000E0FF3F8F4000000040229356C00000004019F516C00C00000013000000C20500003C0000000600000002000000000000E0FF3F8F4000000040028256C000000040628717C0000000E0FF3F8F40000000C0E46959C0000000E075F329C00C000000130000
310
00CA0500003C0000000600000002000000000000E0FF3F8F4000000080606F56C0000000408AE117C0000000E0FF3F8F4000000040028256C000000040628717C00C00000013000000D20500003C0000000600000002000000000000E0FF3F8F4000000080606F56C0000000408AE117C0000000E0FF3F8F40000000C0E469
310
59C0000000E075F329C00C00000013000000DA0500003C0000000600000002000000000000E0FF3F8F4000000040F95B56C000000040FFFF17C0000000E0FF3F8F4000000080606F56C0000000408AE117C00C00000013000000E20500003C0000000600000002000000000000E0FF3F8F40000000C0006059C0000000E0FF
310
FF29C0000000E0FF3F8F40000000C0E46959C0000000E075F329C00C00000013000000EA0500003C0000000600000002000000000000E0FF3F8F40000000C0008059C0000000E0FEFF28C00000002000408FC0000000C0FF7F59C0000000E0070029C00C00000013000000F20500003C000000060000000200000000000020
310
00408FC0000000C0FF7F59C0000000E0070029C00000002000408FC0000000806E7E59C0000000E0274F29C00C00000013000000FA0500003C0000000600000002000000000000E0FF3F8F40000000806F7E59C0000000E01F4F29C00000002000408FC0000000806E7E59C0000000E0274F29C00C00000013000000020600
310
003C0000000600000002000000000000E0FF3F8F4000000080008059C0000000000000D23E0000002000408FC0000000C0FF7F59C00000000000E010BF0C000000130000000A0600003C00000006000000020000000000002000408FC0000000C0FF7F59C00000000000E010BF0000002000408FC0000000C0FF7F59C00000
310
00E0070029C00C00000013000000120600003C0000000600000002000000000000E0FF3F8F4000000080E7B358C0000000000000E03E0000002000408FC000000080E6B358C00000000000000EBF0C000000130000001A0600003C00000006000000020000000000002000408FC000000080E6B358C00000000000000EBF00
310
00002000408FC0000000C0FF7F59C00000000000E010BF0C00000013000000220600003C0000000600000002000000000000E0FF3F8F4000000040A3A658C000000000EC80C6BF0000002000408FC000000080A2A658C0000000002C83C6BF0C000000130000002A0600003C00000006000000020000000000002000408FC0
310
00000080E6B358C00000000000000EBF0000002000408FC000000080A2A658C0000000002C83C6BF0C00000013000000320600003C0000000600000002000000000000E0FF3F8F4000000040689B58C0000000000784DFBF0000002000408FC000000080679B58C0000000001785DFBF0C000000130000003A0600003C0000
310
0006000000020000000000002000408FC000000080A2A658C0000000002C83C6BF0000002000408FC000000080679B58C0000000001785DFBF0C00000013000000420600003C0000000600000002000000000000E0FF3F8F4000000040678C58C00000008043BDE8BF0000002000408FC000000080668C58C000000080D3BD
310
E8BF0C000000130000004A0600003C00000006000000020000000000002000408FC000000080668C58C000000080D3BDE8BF0000002000408FC000000080679B58C0000000001785DFBF0C00000013000000520600003C0000000600000002000000000000E0FF3F8F40000000C0067A58C000000080C907F0BF0000002000
310
408FC0000000C0057A58C0000000800D08F0BF0C000000130000005A0600003C00000006000000020000000000002000408FC0000000C0057A58C0000000800D08F0BF0000002000408FC000000080668C58C000000080D3BDE8BF0C00000013000000620600003C0000000600000002000000000000E0FF3F8F4000000000
310
066558C00000004041B6F2BF0000002000408FC000000000056558C00000004089B6F2BF0C000000130000006A0600003C00000006000000020000000000002000408FC000000000056558C00000004089B6F2BF0000002000408FC0000000C0057A58C0000000800D08F0BF0C00000013000000720600003C000000060000
310
0002000000000000E0FF3F8F4000000040404E58C000000000144EF4BF0000002000408FC0000000803F4E58C0000000005C4EF4BF0C000000130000007A0600003C00000006000000020000000000002000408FC000000000056558C00000004089B6F2BF0000002000408FC0000000803F4E58C0000000005C4EF4BF0C00
310
000013000000820600003C0000000600000002000000000000E0FF3F8F4000000000A33658C000000000A4BEF4BF0000002000408FC000000040A23658C000000000ECBEF4BF0C000000130000008A0600003C00000006000000020000000000002000408FC000000040A23658C000000000ECBEF4BF0000002000408FC000
310
0000803F4E58C0000000005C4EF4BF0C00000013000000920600003C0000000600000002000000000000E0FF3F8F4000000000251F58C0000000005C03F4BF0000002000408FC000000000241F58C000000000A403F4BF0C000000130000009A0600003C00000006000000020000000000002000408FC000000000241F58C0
310
00000000A403F4BF0000002000408FC000000040A23658C000000000ECBEF4BF0C00000013000000A20600003C0000000600000002000000000000E0FF3F8F40000000C0BA0858C000000000D823F2BF0000002000408FC000000000BA0858C0000000002024F2BF0C00000013000000AA0600003C00000006000000020000
310
000000002000408FC000000000BA0858C0000000002024F2BF0000002000408FC000000000241F58C000000000A403F4BF0C00000013000000B20600003C0000000600000002000000000000E0FF3F8F40000000804EF457C0000000005067EEBF0000002000408FC0000000804DF457C000000000E067EEBF0C0000001300
310
0000BA0600003C00000006000000020000000000002000408FC0000000804DF457C000000000E067EEBF0000002000408FC000000000BA0858C0000000002024F2BF0C00000013000000C20600003C0000000600000002000000000000E0FF3F8F4000000000B5E257C000000000E0A2E6BF0000002000408FC000000000B4
310
E257C00000000070A3E6BF0C00000013000000CA0600003C00000006000000020000000000002000408FC000000000B4E257C00000000070A3E6BF0000002000408FC0000000804DF457C000000000E067EEBF0C00000013000000D20600003C0000000600000002000000000000E0FF3F8F4000000000A6D457C000000000
310
E096DABF0000002000408FC000000040A5D457C000000000F097DABF0C00000013000000DA0600003C00000006000000020000000000002000408FC000000040A5D457C000000000F097DABF0000002000408FC000000000B4E257C00000000070A3E6BF0C00000013000000E20600003C0000000600000002000000000000
310
E0FF3F8F40000000C09DC957C000000000D808BBBF0000002000408FC0000000C09CC957C000000000580DBBBF0C00000013000000EA0600003C00000006000000020000000000002000408FC000000040A5D457C000000000F097DABF0000002000408FC0000000C09CC957C000000000580DBBBF0C00000013000000F206
310
00003C0000000600000002000000000000E0FF3F8F40000000C04CBF57C0000000000000E03E0000002000408FC0000000004CBF57C00000000000000EBF0C00000013000000FA0600003C00000006000000020000000000002000408FC0000000004CBF57C00000000000000EBF0000002000408FC0000000C09CC957C000
310
000000580DBBBF0C00000013000000020700003C0000000600000002000000000000E0FF3F8F4000000080FA2957C0000000000000D43E0000002000408FC0000000C0F92957C00000000000C010BF0C000000130000000A0700003C00000006000000020000000000002000408FC0000000C0F92957C00000000000C010BF
310
0000002000408FC0000000004CBF57C00000000000000EBF0C00000013000000120700003C0000000600000002000000000000E0FF3F8F4000000080CD1357C0000000007010B1BF0000002000408FC000000080CC1357C000000000B014B1BF0C000000130000001A0700003C00000006000000020000000000002000408F
310
C000000080CC1357C000000000B014B1BF0000002000408FC0000000C0F92957C00000000000C010BF0C00000013000000220700003C0000000600000002000000000000E0FF3F8F4000000080040057C00000000000F2CDBF0000002000408FC000000080030057C00000000040F4CDBF0C000000130000002A0700003C00
310
000006000000020000000000002000408FC000000080CC1357C000000000B014B1BF0000002000408FC000000080030057C00000000040F4CDBF0C00000013000000320700003C0000000600000002000000000000E0FF3F8F4000000080D3F156C000000000A01BE0BF0000002000408FC0000000C0D2F156C00000000030
310
1CE0BF0C000000130000003A0700003C00000006000000020000000000002000408FC000000080030057C00000000040F4CDBF0000002000408FC0000000C0D2F156C000000000301CE0BF0C00000013000000420700003C0000000600000002000000000000E0FF3F8F40000000C0B0E956C0000000006871EABF00000020
310
00408FC0000000C0AFE956C000000000F871EABF0C000000130000004A0700003C00000006000000020000000000002000408FC0000000C0D2F156C000000000301CE0BF0000002000408FC0000000C0AFE956C000000000F871EABF0C00000013000000520700003C0000000600000002000000000000E0FF3F8F40000000
310
0068BC56C0000000E0B70A13C00000002000408FC00000000067BC56C0000000E0C90A13C00C000000130000005A0700003C00000006000000020000000000002000408FC00000000067BC56C0000000E0C90A13C00000002000408FC0000000C0AFE956C000000000F871EABF0C00000013000000620700003C0000000600
310
000002000000000000E0FF3F8F400000000020B756C0000000E0293114C00000002000408FC0000000001FB756C0000000E03A3114C00C000000130000006A0700003C00000006000000020000000000002000408FC00000000067BC56C0000000E0C90A13C00000002000408FC0000000001FB756C0000000E03A3114C00C
310
00000013000000720700003C0000000600000002000000000000E0FF3F8F40000000C03AAE56C000000040584115C00000002000408FC0000000C039AE56C0000000406A4115C00C000000130000007A0700003C00000006000000020000000000002000408FC0000000001FB756C0000000E03A3114C00000002000408FC0
310
000000C039AE56C0000000406A4115C00C00000013000000820700003C0000000600000002000000000000E0FF3F8F400000004012A256C0000000407C3016C00000002000408FC00000008011A256C0000000408E3016C00C000000130000008A0700003C00000006000000020000000000002000408FC00000008011A256
310
C0000000408E3016C00000002000408FC0000000C039AE56C0000000406A4115C00C00000013000000920700003C0000000600000002000000000000E0FF3F8F4000000040229356C00000004019F516C00000002000408FC000000080219356C0000000402BF516C00C000000130000009A0700003C000000060000000200
310
00000000002000408FC000000080219356C0000000402BF516C00000002000408FC00000008011A256C0000000408E3016C00C00000013000000A20700003C0000000600000002000000000000E0FF3F8F4000000040028256C000000040628717C00000002000408FC000000080018256C000000040748717C00C00000013
310
000000AA0700003C00000006000000020000000000002000408FC000000080219356C0000000402BF516C00000002000408FC000000080018256C000000040748717C00C00000013000000B20700003C0000000600000002000000000000E0FF3F8F4000000080606F56C0000000408AE117C00000002000408FC000000080
310
5F6F56C0000000409CE117C00C00000013000000BA0700003C00000006000000020000000000002000408FC000000080018256C000000040748717C00000002000408FC0000000805F6F56C0000000409CE117C00C00000013000000C20700003C0000000600000002000000000000E0FF3F8F4000000040F95B56C0000000
310
40FFFF17C00000002000408FC000000080F85B56C000000040100018C00C00000013000000CA0700003C00000006000000020000000000002000408FC000000080F85B56C000000040100018C00000002000408FC0000000805F6F56C0000000409CE117C00C00000013000000D20700003C00000006000000020000000000
310
00E0FF3F8F40000000C0722D50C000000000FFFF17C00000002000408FC0000000C0712D50C000000000110018C00C00000013000000DA0700003C00000006000000020000000000002000408FC0000000C0712D50C000000000110018C00000002000408FC000000080F85B56C000000040100018C00C00000013000000E2
310
0700003C0000000600000002000000000000E0FF3F8F40000000A0781D50C000000000DBE017C00000002000408FC0000000A0771D50C000000000EDE017C00C00000013000000EA0700003C00000006000000020000000000002000408FC0000000A0771D50C000000000EDE017C00000002000408FC0000000C0712D50C0
310
00000000110018C00C00000013000000F20700003C0000000600000002000000000000E0FF3F8F4000000060770E50C000000000538517C00000002000408FC000000060760E50C000000000648517C00C00000013000000FA0700003C00000006000000020000000000002000408FC000000060760E50C000000000648517
310
C00000002000408FC0000000A0771D50C000000000EDE017C00C00000013000000020800003C0000000600000002000000000000E0FF3F8F40000000A0580150C000000000F8F216C00000002000408FC000000060570150C0000000000AF316C00C000000130000000A0800003C0000000600000002000000000000200040
310
8FC000000060570150C0000000000AF316C00000002000408FC000000060760E50C000000000648517C00C00000013000000120800003C0000000600000002000000000000E0FF3F8F4000000040D1ED4FC000000000B13216C00000002000408FC000000040CEED4FC000000000C33216C00C000000130000001A0800003C
310
00000006000000020000000000002000408FC000000040CEED4FC000000000C33216C00000002000408FC000000060570150C0000000000AF316C00C00000013000000220800003C0000000600000002000000000000E0FF3F8F400000004093DF4FC000000000315015C00000002000408FC00000004090DF4FC000000000
310
425015C00C000000130000002A0800003C00000006000000020000000000002000408FC00000004090DF4FC000000000425015C00000002000408FC000000040CEED4FC000000000C33216C00C00000013000000320800003C0000000600000002000000000000E0FF3F8F40000000C0D5D84FC0000000003E5914C0000000
310
2000408FC0000000C0D2D84FC000000000505914C00C000000130000003A0800003C00000006000000020000000000002000408FC00000004090DF4FC000000000425015C00000002000408FC0000000C0D2D84FC000000000505914C00C00000013000000420800003C0000000600000002000000000000E0FF3F8F400000
310
0000F1A34FC0000000000036DDBF0000002000408FC000000080EDA34FC0000000001037DDBF0C000000130000004A0800003C00000006000000020000000000002000408FC000000080EDA34FC0000000001037DDBF0000002000408FC0000000C0D2D84FC000000000505914C00C00000013000000520800003C00000006
310
00000002000000000000E0FF3F8F4000000040759D4FC000000000C0D8D1BF0000002000408FC0000000C0719D4FC000000000E0D9D1BF0C000000130000005A0800003C00000006000000020000000000002000408FC0000000C0719D4FC000000000E0D9D1BF0000002000408FC000000080EDA34FC0000000001037DDBF
310
0C00000013000000620800003C0000000600000002000000000000E0FF3F8F4000000040038F4FC00000000060D0C0BF0000002000408FC0000000C0FF8E4FC000000000A0D2C0BF0C000000130000006A0800003C00000006000000020000000000002000408FC0000000C0719D4FC000000000E0D9D1BF0000002000408F
310
C0000000C0FF8E4FC000000000A0D2C0BF0C00000013000000720800003C0000000600000002000000000000E0FF3F8F40000000C0917A4FC0000000008067A1BF0000002000408FC0000000408E7A4FC0000000008070A1BF0C000000130000007A0800003C00000006000000020000000000002000408FC0000000C0FF8E
310
4FC000000000A0D2C0BF0000002000408FC0000000408E7A4FC0000000008070A1BF0C00000013000000820800003C0000000600000002000000000000E0FF3F8F4000000000E9624FC0000000000000D03E0000002000408FC000000080E5624FC000000000000011BF0C000000130000008A0800003C0000000600000002
310
0000000000002000408FC0000000408E7A4FC0000000008070A1BF0000002000408FC000000080E5624FC000000000000011BF0C00000013000000920800003C0000000600000002000000000000E0FF3F8F40000000C0DD524EC0000000000000D03E0000002000408FC000000040DA524EC000000000000011BF0C000000
310
130000009A0800003C00000006000000020000000000002000408FC000000040DA524EC000000000000011BF0000002000408FC000000080E5624FC000000000000011BF0C00000013000000A20800003C0000000600000002000000000000E0FF3F8F40000000C0343B4EC0000000008067A1BF0000002000408FC0000000
310
40313B4EC0000000008070A1BF0C00000013000000AA0800003C00000006000000020000000000002000408FC000000040DA524EC000000000000011BF0000002000408FC000000040313B4EC0000000008070A1BF0C00000013000000B20800003C0000000600000002000000000000E0FF3F8F4000000080C3264EC00000
310
00006CD0C0BF0000002000408FC000000000C0264EC000000000ACD2C0BF0C00000013000000BA0800003C00000006000000020000000000002000408FC000000000C0264EC000000000ACD2C0BF0000002000408FC000000040313B4EC0000000008070A1BF0C00000013000000C20800003C000000060000000200000000
310
0000E0FF3F8F400000008051184EC000000000C8D8D1BF0000002000408FC0000000004E184EC000000000E8D9D1BF0C00000013000000CA0800003C00000006000000020000000000002000408FC0000000004E184EC000000000E8D9D1BF0000002000408FC000000000C0264EC000000000ACD2C0BF0C00000013000000
310
D20800003C0000000600000002000000000000E0FF3F8F40000000C0D5114EC0000000000736DDBF0000002000408FC000000040D2114EC0000000001737DDBF0C00000013000000DA0800003C00000006000000020000000000002000408FC000000040D2114EC0000000001737DDBF0000002000408FC0000000004E184E
310
C000000000E8D9D1BF0C00000013000000E20800003C0000000600000002000000000000E0FF3F8F4000000080F0DC4DC0000000C03F5914C00000002000408FC000000000EDDC4DC0000000C0505914C00C00000013000000EA0800003C00000006000000020000000000002000408FC000000040D2114EC0000000001737
310
DDBF0000002000408FC000000000EDDC4DC0000000C0505914C00C00000013000000F20800003C0000000600000002000000000000E0FF3F8F400000000033D64DC0000000C0315015C00000002000408FC0000000802FD64DC0000000C0435015C00C00000013000000FA0800003C00000006000000020000000000002000
310
408FC000000000EDDC4DC0000000C0505914C00000002000408FC0000000802FD64DC0000000C0435015C00C00000013000000020900003C0000000600000002000000000000E0FF3F8F4000000040F5C74DC0000000E0B13216C00000002000408FC0000000C0F1C74DC0000000E0C33216C00C000000130000000A090000
310
3C00000006000000020000000000002000408FC0000000802FD64DC0000000C0435015C00000002000408FC0000000C0F1C74DC0000000E0C33216C00C00000013000000120900003C0000000600000002000000000000E0FF3F8F400000000015B34DC0000000E0F8F216C00000002000408FC00000008011B34DC0000000
310
E00AF316C00C000000130000001A0900003C00000006000000020000000000002000408FC0000000C0F1C74DC0000000E0C33216C00000002000408FC00000008011B34DC0000000E00AF316C00C00000013000000220900003C0000000600000002000000000000E0FF3F8F4000000000D7984DC0000000E0538517C00000
310
002000408FC000000080D3984DC0000000E0658517C00C000000130000002A0900003C00000006000000020000000000002000408FC00000008011B34DC0000000E00AF316C00000002000408FC000000080D3984DC0000000E0658517C00C00000013000000320900003C0000000600000002000000000000E0FF3F8F4000
310
000080D47A4DC0000000E0DBE017C00000002000408FC000000000D17A4DC0000000E0EDE017C00C000000130000003A0900003C00000006000000020000000000002000408FC000000080D3984DC0000000E0658517C00000002000408FC000000000D17A4DC0000000E0EDE017C00C00000013000000420900003C000000
310
0600000002000000000000E0FF3F8F4000000080E05A4DC0000000E0FFFF17C00000002000408FC000000000DD5A4DC0000000E0110018C00C000000130000004A0900003C00000006000000020000000000002000408FC000000000DD5A4DC0000000E0110018C00000002000408FC000000000D17A4DC0000000E0EDE017
310
C00C00000013000000520900003C0000000600000002000000000000E0FF3F8F40000000C023A545C000000000FEFF17C00000002000408FC00000004020A545C000000000100018C00C000000130000005A0900003C00000006000000020000000000002000408FC00000004020A545C000000000100018C0000000200040
310
8FC000000000DD5A4DC0000000E0110018C00C00000013000000620900003C0000000600000002000000000000E0FF3F8F40000000C02F8545C000000000DAE017C00000002000408FC0000000402C8545C000000000ECE017C00C000000130000006A0900003C00000006000000020000000000002000408FC00000004020
310
A545C000000000100018C00000002000408FC0000000402C8545C000000000ECE017C00C00000013000000720900003C0000000600000002000000000000E0FF3F8F40000000002D6745C000000000528517C00000002000408FC000000080296745C000000000638517C00C000000130000007A0900003C00000006000000
310
020000000000002000408FC000000080296745C000000000638517C00000002000408FC0000000402C8545C000000000ECE017C00C00000013000000820900003C0000000600000002000000000000E0FF3F8F4000000040EF4C45C000000000F7F216C00000002000408FC0000000C0EB4C45C00000000009F316C00C0000
310
00130000008A0900003C00000006000000020000000000002000408FC0000000C0EB4C45C00000000009F316C00000002000408FC000000080296745C000000000638517C00C00000013000000920900003C0000000600000002000000000000E0FF3F8F40000000C00E3845C000000000B13216C00000002000408FC00000
310
00400B3845C000000000C23216C00C000000130000009A0900003C00000006000000020000000000002000408FC0000000C0EB4C45C00000000009F316C00000002000408FC0000000400B3845C000000000C23216C00C00000013000000A20900003C0000000600000002000000000000E0FF3F8F4000000000D12945C000
310
000000305015C00000002000408FC000000080CD2945C000000000425015C00C00000013000000AA0900003C00000006000000020000000000002000408FC000000080CD2945C000000000425015C00000002000408FC0000000400B3845C000000000C23216C00C00000013000000B20900003C0000000600000002000000
310
000000E0FF3F8F4000000080132345C0000000003E5914C00000002000408FC000000000102345C0000000004F5914C00C00000013000000BA0900003C00000006000000020000000000002000408FC000000000102345C0000000004F5914C00000002000408FC000000080CD2945C000000000425015C00C000000130000
310
00C20900003C0000000600000002000000000000E0FF3F8F40000000802EEE44C000000000F035DDBF0000002000408FC0000000002BEE44C0000000000037DDBF0C00000013000000CA0900003C00000006000000020000000000002000408FC0000000002BEE44C0000000000037DDBF0000002000408FC0000000001023
310
45C0000000004F5914C00C00000013000000D20900003C0000000600000002000000000000E0FF3F8F40000000C0B2E744C000000000B0D8D1BF0000002000408FC000000040AFE744C000000000D0D9D1BF0C00000013000000DA0900003C00000006000000020000000000002000408FC000000040AFE744C000000000D0
310
D9D1BF0000002000408FC0000000002BEE44C0000000000037DDBF0C00000013000000E20900003C0000000600000002000000000000E0FF3F8F40000000C040D944C00000000040D0C0BF0000002000408FC0000000403DD944C00000000080D2C0BF0C00000013000000EA0900003C000000060000000200000000000020
310
00408FC0000000403DD944C00000000080D2C0BF0000002000408FC000000040AFE744C000000000D0D9D1BF0C00000013000000F20900003C0000000600000002000000000000E0FF3F8F4000000040CFC444C0000000000067A1BF0000002000408FC0000000C0CBC444C0000000000070A1BF0C00000013000000FA0900
310
003C00000006000000020000000000002000408FC0000000403DD944C00000000080D2C0BF0000002000408FC0000000C0CBC444C0000000000070A1BF0C00000013000000020A00003C0000000600000002000000000000E0FF3F8F400000008026AD44C0000000000000E03E0000002000408FC00000000023AD44C00000
310
0000000010BF0C000000130000000A0A00003C00000006000000020000000000002000408FC0000000C0CBC444C0000000000070A1BF0000002000408FC00000000023AD44C000000000000010BF0C00000013000000120A00003C0000000600000002000000000000E0FF3F8F40000000401B9D43C0000000000000E03E00
310
00002000408FC0000000C0179D43C000000000000010BF0C000000130000001A0A00003C00000006000000020000000000002000408FC0000000C0179D43C000000000000010BF0000002000408FC00000000023AD44C000000000000010BF0C00000013000000220A00003C0000000600000002000000000000E0FF3F8F40
310
00000040728543C0000000000067A1BF0000002000408FC0000000C06E8543C0000000000070A1BF0C000000130000002A0A00003C00000006000000020000000000002000408FC0000000C0179D43C000000000000010BF0000002000408FC0000000C06E8543C0000000000070A1BF0C00000013000000320A00003C0000
310
000600000002000000000000E0FF3F8F4000000000017143C0000000004CD0C0BF0000002000408FC000000080FD7043C0000000008CD2C0BF0C000000130000003A0A00003C00000006000000020000000000002000408FC000000080FD7043C0000000008CD2C0BF0000002000408FC0000000C06E8543C0000000000070
310
A1BF0C00000013000000420A00003C0000000600000002000000000000E0FF3F8F40000000008F6243C000000000B6D8D1BF0000002000408FC0000000808B6243C000000000D6D9D1BF0C000000130000004A0A00003C00000006000000020000000000002000408FC000000080FD7043C0000000008CD2C0BF0000002000
310
408FC0000000808B6243C000000000D6D9D1BF0C00000013000000520A00003C0000000600000002000000000000E0FF3F8F4000000000135C43C000000000F735DDBF0000002000408FC0000000800F5C43C0000000000737DDBF0C000000130000005A0A00003C00000006000000020000000000002000408FC000000080
310
0F5C43C0000000000737DDBF0000002000408FC0000000808B6243C000000000D6D9D1BF0C00000013000000620A00003C0000000600000002000000000000E0FF3F8F40000000002E2743C0000000003E5914C00000002000408FC0000000802A2743C0000000004F5914C00C000000130000006A0A00003C000000060000
310
00020000000000002000408FC0000000800F5C43C0000000000737DDBF0000002000408FC0000000802A2743C0000000004F5914C00C00000013000000720A00003C0000000600000002000000000000E0FF3F8F4000000080702043C000000000305015C00000002000408FC0000000006D2043C000000000415015C00C00
310
0000130000007A0A00003C00000006000000020000000000002000408FC0000000802A2743C0000000004F5914C00000002000408FC0000000006D2043C000000000415015C00C00000013000000820A00003C0000000600000002000000000000E0FF3F8F40000000C0321243C0000000C0B03216C00000002000408FC000
310
0000402F1243C0000000C0C23216C00C000000130000008A0A00003C00000006000000020000000000002000408FC0000000006D2043C000000000415015C00000002000408FC0000000402F1243C0000000C0C23216C00C00000013000000920A00003C0000000600000002000000000000E0FF3F8F400000004052FD42C0
310
000000C0F7F216C00000002000408FC0000000C04EFD42C0000000C009F316C00C000000130000009A0A00003C00000006000000020000000000002000408FC0000000402F1243C0000000C0C23216C00000002000408FC0000000C04EFD42C0000000C009F316C00C00000013000000A20A00003C00000006000000020000
310
00000000E0FF3F8F400000008014E342C0000000E0528517C00000002000408FC00000000011E342C0000000E0648517C00C00000013000000AA0A00003C00000006000000020000000000002000408FC00000000011E342C0000000E0648517C00000002000408FC0000000C04EFD42C0000000C009F316C00C0000001300
310
0000B20A00003C0000000600000002000000000000E0FF3F8F400000000012C542C0000000E0DAE017C00000002000408FC0000000800EC542C0000000E0ECE017C00C00000013000000BA0A00003C00000006000000020000000000002000408FC00000000011E342C0000000E0648517C00000002000408FC0000000800E
310
C542C0000000E0ECE017C00C00000013000000C20A00003C0000000600000002000000000000E0FF3F8F40000000001EA542C0000000E0FEFF17C00000002000408FC0000000801AA542C0000000E0100018C00C00000013000000CA0A00003C00000006000000020000000000002000408FC0000000800EC542C0000000E0
310
ECE017C00000002000408FC0000000801AA542C0000000E0100018C00C00000013000000D20A00003C0000000600000002000000000000E0FF3F8F40000000003F2029C000000040FFFF17C00000002000408FC000000000392029C000000040100018C00C00000013000000DA0A00003C0000000600000002000000000000
310
2000408FC000000000392029C000000040100018C00000002000408FC0000000801AA542C0000000E0100018C00C00000013000000E20A00003C0000000600000002000000000000E0FF3F8F4000000000068528C0000000408AE117C00000002000408FC000000000008528C0000000409CE117C00C00000013000000EA0A
310
00003C00000006000000020000000000002000408FC000000000392029C000000040100018C00000002000408FC000000000008528C0000000409CE117C00C00000013000000F20A00003C0000000600000002000000000000E0FF3F8F4000000000F6EF27C000000000628717C00000002000408FC000000000F0EF27C000
310
000000748717C00C00000013000000FA0A00003C00000006000000020000000000002000408FC000000000F0EF27C000000000748717C00000002000408FC000000000008528C0000000409CE117C00C00000013000000020B00003C0000000600000002000000000000E0FF3F8F4000000000F76627C00000000019F516C0
310
0000002000408FC000000000F16627C0000000002BF516C00C000000130000000A0B00003C00000006000000020000000000002000408FC000000000F16627C0000000002BF516C00000002000408FC000000000F0EF27C000000000748717C00C00000013000000120B00003C0000000600000002000000000000E0FF3F8F
310
400000000076EF26C0000000007C3016C00000002000408FC00000000070EF26C0000000008E3016C00C000000130000001A0B00003C00000006000000020000000000002000408FC00000000070EF26C0000000008E3016C00000002000408FC000000000F16627C0000000002BF516C00C00000013000000220B00003C00
310
00000600000002000000000000E0FF3F8F4000000000348E26C000000000584115C00000002000408FC0000000002D8E26C0000000006A4115C00C000000130000002A0B00003C00000006000000020000000000002000408FC00000000070EF26C0000000008E3016C00000002000408FC0000000002D8E26C0000000006A
310
4115C00C00000013000000320B00003C0000000600000002000000000000E0FF3F8F4000000000094726C000000000293114C00000002000408FC000000000034726C0000000003B3114C00C000000130000003A0B00003C00000006000000020000000000002000408FC000000000034726C0000000003B3114C000000020
310
00408FC0000000002D8E26C0000000006A4115C00C00000013000000420B00003C0000000600000002000000000000E0FF3F8F4000000000C91C26C000000000B80A13C00000002000408FC000000000C31C26C000000000CA0A13C00C000000130000004A0B00003C00000006000000020000000000002000408FC0000000
310
00C31C26C000000000CA0A13C00000002000408FC000000000034726C0000000003B3114C00C00000013000000520B00003C0000000600000002000000000000E0FF3F8F400000000083B224C0000000007371EABF0000002000408FC0000000007DB224C0000000000372EABF0C000000130000005A0B00003C0000000600
310
0000020000000000002000408FC0000000007DB224C0000000000372EABF0000002000408FC000000000C31C26C000000000CA0A13C00C00000013000000620B00003C0000000600000002000000000000E0FF3F8F40000000006C7124C000000000A81BE0BF0000002000408FC000000000657124C000000000381CE0BF0C
310
000000130000006A0B00003C00000006000000020000000000002000408FC0000000007DB224C0000000000372EABF0000002000408FC000000000657124C000000000381CE0BF0C00000013000000720B00003C0000000600000002000000000000E0FF3F8F4000000000E5FF23C00000000020F2CDBF0000002000408FC0
310
00000000DFFF23C00000000040F4CDBF0C000000130000007A0B00003C00000006000000020000000000002000408FC000000000DFFF23C00000000040F4CDBF0000002000408FC000000000657124C000000000381CE0BF0C00000013000000820B00003C0000000600000002000000000000E0FF3F8F40000000009E6123
310
C0000000008010B1BF0000002000408FC000000000976123C000000000C014B1BF0C000000130000008A0B00003C00000006000000020000000000002000408FC000000000DFFF23C00000000040F4CDBF0000002000408FC000000000976123C000000000C014B1BF0C00000013000000920B00003C000000060000000200
310
0000000000E0FF3F8F400000000035B022C0000000000000E03E0000002000408FC0000000002FB022C000000000000010BF0C000000130000009A0B00003C00000006000000020000000000002000408FC0000000002FB022C000000000000010BF0000002000408FC000000000976123C000000000C014B1BF0C00000013
310
000000A20B00003C0000000600000002000000000000E0FF3F8F4000000000440B1CC0000000000000D03E0000002000408FC000000000380B1CC000000000000010BF0C00000013000000AA0B00003C00000006000000020000000000002000408FC000000000380B1CC000000000000010BF0000002000408FC000000000
310
2FB022C000000000000010BF0C00000013000000B20B00003C0000000600000002000000000000E0FF3F8F400000000000371BC0000000000C81C6BF0000002000408FC000000000F4361BC0000000004C83C6BF0C00000013000000BA0B00003C00000006000000020000000000002000408FC000000000F4361BC0000000
310
004C83C6BF0000002000408FC000000000380B1CC000000000000010BF0C00000013000000C20B00003C0000000600000002000000000000E0FF3F8F400000000050831AC0000000001784DFBF0000002000408FC00000000044831AC0000000002785DFBF0C00000013000000CA0B00003C00000006000000020000000000
310
002000408FC000000000F4361BC0000000004C83C6BF0000002000408FC00000000044831AC0000000002785DFBF0C00000013000000D20B00003C0000000600000002000000000000E0FF3F8F4000000000429319C0000000804BBDE8BF0000002000408FC000000000369319C000000080DBBDE8BF0C00000013000000DA
310
0B00003C00000006000000020000000000002000408FC000000000369319C000000080DBBDE8BF0000002000408FC00000000044831AC0000000002785DFBF0C00000013000000E20B00003C0000000600000002000000000000E0FF3F8F4000000000366D18C0000000C0CD07F0BF0000002000408FC0000000002A6D18C0
310
000000C01108F0BF0C00000013000000EA0B00003C00000006000000020000000000002000408FC000000000369319C000000080DBBDE8BF0000002000408FC0000000002A6D18C0000000C01108F0BF0C00000013000000F20B00003C0000000600000002000000000000E0FF3F8F40000000002A1D17C0000000C045B6F2
310
BF0000002000408FC0000000001E1D17C0000000C08DB6F2BF0C00000013000000FA0B00003C00000006000000020000000000002000408FC0000000001E1D17C0000000C08DB6F2BF0000002000408FC0000000002A6D18C0000000C01108F0BF0C00000013000000020C00003C0000000600000002000000000000E0FF3F
310
8F4000000000D0B015C0000000C0194EF4BF0000002000408FC000000000C4B015C0000000C0614EF4BF0C000000130000000A0C00003C00000006000000020000000000002000408FC0000000001E1D17C0000000C08DB6F2BF0000002000408FC000000000C4B015C0000000C0614EF4BF0C00000013000000120C00003C
310
0000000600000002000000000000E0FF3F8F4000000000FE3614C000000080A9BEF4BF0000002000408FC000000000F23614C000000080F1BEF4BF0C000000130000001A0C00003C00000006000000020000000000002000408FC000000000F23614C000000080F1BEF4BF0000002000408FC000000000C4B015C0000000C0
310
614EF4BF0C00000013000000220C00003C0000000600000002000000000000E0FF3F8F40000000001CBF12C0000000006003F4BF0000002000408FC00000000010BF12C000000000A803F4BF0C000000130000002A0C00003C00000006000000020000000000002000408FC00000000010BF12C000000000A803F4BF000000
310
2000408FC000000000F23614C000000080F1BEF4BF0C00000013000000320C00003C0000000600000002000000000000E0FF3F8F40000000007A5811C000000000DC23F2BF0000002000408FC0000000006E5811C0000000002424F2BF0C000000130000003A0C00003C00000006000000020000000000002000408FC00000
310
000010BF12C000000000A803F4BF0000002000408FC0000000006E5811C0000000002424F2BF0C00000013000000420C00003C0000000600000002000000000000E0FF3F8F4000000000B61110C0000000006067EEBF0000002000408FC000000000A61110C000000000E867EEBF0C000000130000004A0C00003C00000006
310
000000020000000000002000408FC000000000A61110C000000000E867EEBF0000002000408FC0000000006E5811C0000000002424F2BF0C00000013000000520C00003C0000000600000002000000000000E0FF3F8F400000000042F00DC000000000F0A2E6BF0000002000408FC00000000016F00DC00000000078A3E6BF
310
0C000000130000005A0C00003C00000006000000020000000000002000408FC000000000A61110C000000000E867EEBF0000002000408FC00000000016F00DC00000000078A3E6BF0C00000013000000620C00003C0000000600000002000000000000E0FF3F8F4000000000622E0CC000000000F096DABF0000002000408F
310
C000000000342E0CC0000000000098DABF0C000000130000006A0C00003C00000006000000020000000000002000408FC000000000342E0CC0000000000098DABF0000002000408FC00000000016F00DC00000000078A3E6BF0C00000013000000720C00003C0000000600000002000000000000E0FF3F8F400000000054CD
310
0AC0000000004809BBBF0000002000408FC00000000028CD0AC000000000C80DBBBF0C000000130000007A0C00003C00000006000000020000000000002000408FC00000000028CD0AC000000000C80DBBBF0000002000408FC000000000342E0CC0000000000098DABF0C00000013000000820C00003C0000000600000002
310
000000000000E0FF3F8F40000000003E8309C0000000000000CCBE0000002000408FC000000000108309C00000000000E012BF0C000000130000008A0C00003C00000006000000020000000000002000408FC00000000028CD0AC000000000C80DBBBF0000002000408FC000000000108309C00000000000E012BF0C000000
310
13000000920C00003C0000000600000002000000000000E0FF3F8F400000000000000CBF00000000000000000000002000408FC0000000000000023F00000000000012BF0C000000130000009A0C00003C00000006000000020000000000002000408FC0000000000000023F00000000000012BF0000002000408FC0000000
310
00108309C00000000000E012BF0C00000013000000A20C00003C0000000600000002000000000000E0FF3F8F400000000000000EBF000000A0000029C00000002000408FC0000000000000D03E000000A0080029C00C00000013000000AA0C00003C00000006000000020000000000002000408FC0000000000000023F0000
310
0000000012BF0000002000408FC0000000000000D03E000000A0080029C00C00000013000000B20C00003C0000000600000002000000000000E0FF3F8F4000000000002399BF00000020214F29C00000002000408FC000000000001399BF00000020294F29C00C00000013000000BA0C00003C000000060000000200000000
310
00002000408FC0000000000000D03E000000A0080029C00000002000408FC000000000001399BF00000020294F29C00C00000013000000C20C00003C0000000600000002000000000000E0FF3F8F40000000004077B8BF000000207B9629C00000002000408FC0000000004073B8BF00000020839629C00C00000013000000
310
CA0C00003C00000006000000020000000000002000408FC000000000001399BF00000020294F29C00000002000408FC0000000004073B8BF00000020839629C00C00000013000000D20C00003C0000000600000002000000000000E0FF3F8F40000000006063CABF0000002019CF29C00000002000408FC0000000006061CA
310
BF0000002021CF29C00C00000013000000DA0C00003C00000006000000020000000000002000408FC0000000006061CABF0000002021CF29C00000002000408FC0000000004073B8BF00000020839629C00C00000013000000E20C00003C0000000600000002000000000000E0FF3F8F4000000000D01CD6BF0000002077F3
310
29C00000002000408FC000000000D01BD6BF000000207FF329C00C00000013000000EA0C00003C00000006000000020000000000002000408FC0000000006061CABF0000002021CF29C00000002000408FC000000000D01BD6BF000000207FF329C00C00000013000000F20C00003C0000000600000002000000000000E0FF
310
3F8F40000000007800E0BF0000002001002AC00000002000408FC000000000F0FFDFBF0000002009002AC00C00000013000000FA0C00003C00000006000000020000000000002000408FC000000000D01BD6BF000000207FF329C00000002000408FC000000000F0FFDFBF0000002009002AC00C00000013000000020D0000
310
3C0000000600000002000000000000E0FF3F8F40000000C0006059C0000000E0FFFF29C00000002000408FC0000000C0FF5F59C0000000E007002AC00C000000130000000A0D00003C00000006000000020000000000002000408FC0000000C0FF5F59C0000000E007002AC00000002000408FC000000000F0FFDFBF000000
310
2009002AC00C00000013000000120D00003C0000000600000002000000000000E0FF3F8F40000000C0E46959C0000000E075F329C00000002000408FC0000000C0E36959C0000000E07DF329C00C000000130000001A0D00003C00000006000000020000000000002000408FC0000000C0FF5F59C0000000E007002AC00000
310
002000408FC0000000C0E36959C0000000E07DF329C00C00000013000000220D00003C0000000600000002000000000000E0FF3F8F4000000000D07259C0000000E017CF29C00000002000408FC000000000CF7259C0000000E021CF29C00C000000130000002A0D00003C00000006000000020000000000002000408FC000
310
000000CF7259C0000000E021CF29C00000002000408FC0000000C0E36959C0000000E07DF329C00C00000013000000320D00003C0000000600000002000000000000E0FF3F8F40000000C0E37959C0000000E0799629C00000002000408FC0000000C0E27959C0000000E0819629C00C000000130000003A0D00003C000000
310
06000000020000000000002000408FC000000000CF7259C0000000E021CF29C00000002000408FC0000000C0E27959C0000000E0819629C00C00000013000000420D00003C00000006000000020000000000002000408FC0000000806E7E59C0000000E0274F29C00000002000408FC0000000C0E27959C0000000E0819629
310
C00C000000130000004A0D00003C00000006000000020000000000002000408FC0000000000000D03E000000A0080029C00000002000408FC000000000108309C00000000000E012BF0C00000013000000520D00003C00000006000000020000000000002000408FC0000000000000D03E000000A0080029C0000000200040
310
8FC00000000028CD0AC000000000C80DBBBF0C000000130000005A0D00003C00000006000000020000000000002000408FC0000000000000D03E000000A0080029C00000002000408FC000000000342E0CC0000000000098DABF0C00000013000000620D00003C00000006000000020000000000002000408FC00000000000
310
00D03E000000A0080029C00000002000408FC00000000016F00DC00000000078A3E6BF0C000000130000006A0D00003C00000006000000020000000000002000408FC0000000000000D03E000000A0080029C00000002000408FC000000000A61110C000000000E867EEBF0C00000013000000720D00003C00000006000000
310
020000000000002000408FC0000000000000D03E000000A0080029C00000002000408FC0000000006E5811C0000000002424F2BF0C000000130000007A0D00003C00000006000000020000000000002000408FC00000000010BF12C000000000A803F4BF0000002000408FC000000000001399BF00000020294F29C00C0000
310
0013000000820D00003C00000006000000020000000000002000408FC000000000F4361BC0000000004C83C6BF0000002000408FC000000000976123C000000000C014B1BF0C000000130000008A0D00003C00000006000000020000000000002000408FC000000000DFFF23C00000000040F4CDBF0000002000408FC00000
310
000044831AC0000000002785DFBF0C00000013000000920D00003C00000006000000020000000000002000408FC00000000044831AC0000000002785DFBF0000002000408FC000000000657124C000000000381CE0BF0C000000130000009A0D00003C00000006000000020000000000002000408FC000000000369319C000
310
000080DBBDE8BF0000002000408FC000000000657124C000000000381CE0BF0C00000013000000A20D00003C00000006000000020000000000002000408FC000000000369319C000000080DBBDE8BF0000002000408FC0000000007DB224C0000000000372EABF0C00000013000000AA0D00003C0000000600000002000000
310
0000002000408FC0000000001E1D17C0000000C08DB6F2BF0000002000408FC000000000C31C26C000000000CA0A13C00C00000013000000B20D00003C00000006000000020000000000002000408FC0000000002A6D18C0000000C01108F0BF0000002000408FC000000000C31C26C000000000CA0A13C00C000000130000
310
00BA0D00003C00000006000000020000000000002000408FC000000000F23614C000000080F1BEF4BF0000002000408FC000000000034726C0000000003B3114C00C00000013000000C20D00003C00000006000000020000000000002000408FC000000000C4B015C0000000C0614EF4BF0000002000408FC0000000000347
310
26C0000000003B3114C00C00000013000000CA0D00003C00000006000000020000000000002000408FC0000000002D8E26C0000000006A4115C00000002000408FC0000000004073B8BF00000020839629C00C00000013000000D20D00003C00000006000000020000000000002000408FC00000000070EF26C0000000008E
310
3016C00000002000408FC0000000006061CABF0000002021CF29C00C00000013000000DA0D00003C00000006000000020000000000002000408FC000000000F16627C0000000002BF516C00000002000408FC000000000D01BD6BF000000207FF329C00C00000013000000E20D00003C000000060000000200000000000020
310
00408FC000000000F0EF27C000000000748717C00000002000408FC000000000F0FFDFBF0000002009002AC00C00000013000000EA0D00003C00000006000000020000000000002000408FC000000000F0FFDFBF0000002009002AC00000002000408FC000000000008528C0000000409CE117C00C00000013000000F20D00
310
003C00000006000000020000000000002000408FC000000000392029C000000040100018C00000002000408FC000000000F0FFDFBF0000002009002AC00C00000013000000FA0D00003C00000006000000020000000000002000408FC000000000F0FFDFBF0000002009002AC00000002000408FC0000000801AA542C00000
310
00E0100018C00C00000013000000020E00003C00000006000000020000000000002000408FC0000000800F5C43C0000000000737DDBF0000002000408FC0000000002BEE44C0000000000037DDBF0C000000130000000A0E00003C00000006000000020000000000002000408FC0000000808B6243C000000000D6D9D1BF00
310
00002000408FC000000040AFE744C000000000D0D9D1BF0C00000013000000120E00003C00000006000000020000000000002000408FC000000080FD7043C0000000008CD2C0BF0000002000408FC0000000403DD944C00000000080D2C0BF0C000000130000001A0E00003C00000006000000020000000000002000408FC0
310
000000C06E8543C0000000000070A1BF0000002000408FC0000000C0CBC444C0000000000070A1BF0C00000013000000220E00003C00000006000000020000000000002000408FC0000000802A2743C0000000004F5914C00000002000408FC000000000102345C0000000004F5914C00C000000130000002A0E00003C0000
310
0006000000020000000000002000408FC0000000006D2043C000000000415015C00000002000408FC000000080CD2945C000000000425015C00C00000013000000320E00003C00000006000000020000000000002000408FC0000000402F1243C0000000C0C23216C00000002000408FC0000000400B3845C000000000C232
310
16C00C000000130000003A0E00003C00000006000000020000000000002000408FC0000000C0EB4C45C00000000009F316C00000002000408FC0000000C04EFD42C0000000C009F316C00C00000013000000420E00003C00000006000000020000000000002000408FC00000000011E342C0000000E0648517C00000002000
310
408FC000000080296745C000000000638517C00C000000130000004A0E00003C00000006000000020000000000002000408FC0000000800EC542C0000000E0ECE017C00000002000408FC0000000402C8545C000000000ECE017C00C00000013000000520E00003C00000006000000020000000000002000408FC000000040
310
20A545C000000000100018C00000002000408FC0000000801AA542C0000000E0100018C00C000000130000005A0E00003C00000006000000020000000000002000408FC000000040D2114EC0000000001737DDBF0000002000408FC000000080EDA34FC0000000001037DDBF0C00000013000000620E00003C000000060000
310
00020000000000002000408FC0000000004E184EC000000000E8D9D1BF0000002000408FC0000000C0719D4FC000000000E0D9D1BF0C000000130000006A0E00003C00000006000000020000000000002000408FC0000000C0FF8E4FC000000000A0D2C0BF0000002000408FC000000000C0264EC000000000ACD2C0BF0C00
310
000013000000720E00003C00000006000000020000000000002000408FC0000000408E7A4FC0000000008070A1BF0000002000408FC000000040313B4EC0000000008070A1BF0C000000130000007A0E00003C00000006000000020000000000002000408FC000000000EDDC4DC0000000C0505914C00000002000408FC000
310
0000C0D2D84FC000000000505914C00C00000013000000820E00003C00000006000000020000000000002000408FC0000000802FD64DC0000000C0435015C00000002000408FC00000004090DF4FC000000000425015C00C000000130000008A0E00003C00000006000000020000000000002000408FC0000000C0F1C74DC0
310
000000E0C33216C00000002000408FC000000040CEED4FC000000000C33216C00C00000013000000920E00003C00000006000000020000000000002000408FC000000060570150C0000000000AF316C00000002000408FC00000008011B34DC0000000E00AF316C00C000000130000009A0E00003C00000006000000020000
310
000000002000408FC000000060760E50C000000000648517C00000002000408FC000000080D3984DC0000000E0658517C00C00000013000000A20E00003C00000006000000020000000000002000408FC0000000A0771D50C000000000EDE017C00000002000408FC000000000D17A4DC0000000E0EDE017C00C0000001300
310
0000AA0E00003C00000006000000020000000000002000408FC000000000DD5A4DC0000000E0110018C00000002000408FC0000000C0712D50C000000000110018C00C00000013000000B20E00003C00000006000000020000000000002000408FC00000004020A545C000000000100018C00000002000408FC000000000F0
310
FFDFBF0000002009002AC00C00000013000000BA0E00003C00000006000000020000000000002000408FC000000000DD5A4DC0000000E0110018C00000002000408FC0000000C0FF5F59C0000000E007002AC00C00000013000000C20E00003C00000006000000020000000000002000408FC0000000C0712D50C000000000
310
110018C00000002000408FC0000000C0FF5F59C0000000E007002AC00C00000013000000CA0E00003C00000006000000020000000000002000408FC0000000C0FF5F59C0000000E007002AC00000002000408FC000000080F85B56C000000040100018C00C00000013000000D20E00003C0000000600000002000000000000
310
2000408FC000000080CC1357C000000000B014B1BF0000002000408FC0000000C09CC957C000000000580DBBBF0C00000013000000DA0E00003C00000006000000020000000000002000408FC000000080030057C00000000040F4CDBF0000002000408FC000000040A5D457C000000000F097DABF0C00000013000000E20E
310
00003C00000006000000020000000000002000408FC000000040A5D457C000000000F097DABF0000002000408FC0000000C0D2F156C000000000301CE0BF0C00000013000000EA0E00003C00000006000000020000000000002000408FC000000000B4E257C00000000070A3E6BF0000002000408FC0000000C0D2F156C000
310
000000301CE0BF0C00000013000000F20E00003C00000006000000020000000000002000408FC0000000C0AFE956C000000000F871EABF0000002000408FC0000000804DF457C000000000E067EEBF0C00000013000000FA0E00003C00000006000000020000000000002000408FC00000000067BC56C0000000E0C90A13C0
310
0000002000408FC000000000BA0858C0000000002024F2BF0C00000013000000020F00003C00000006000000020000000000002000408FC00000000067BC56C0000000E0C90A13C00000002000408FC000000000241F58C000000000A403F4BF0C000000130000000A0F00003C00000006000000020000000000002000408F
310
C000000080E6B358C00000000000000EBF0000002000408FC0000000C0FF7F59C0000000E0070029C00C00000013000000120F00003C00000006000000020000000000002000408FC0000000C0FF7F59C0000000E0070029C00000002000408FC000000080A2A658C0000000002C83C6BF0C000000130000001A0F00003C00
310
000006000000020000000000002000408FC000000080668C58C000000080D3BDE8BF0000002000408FC0000000806E7E59C0000000E0274F29C00C00000013000000220F00003C00000006000000020000000000002000408FC000000080679B58C0000000001785DFBF0000002000408FC0000000806E7E59C0000000E027
310
4F29C00C000000130000002A0F00003C00000006000000020000000000002000408FC000000000056558C00000004089B6F2BF0000002000408FC0000000C0E27959C0000000E0819629C00C00000013000000320F00003C00000006000000020000000000002000408FC0000000C0057A58C0000000800D08F0BF00000020
310
00408FC0000000C0E27959C0000000E0819629C00C000000130000003A0F00003C00000006000000020000000000002000408FC000000000CF7259C0000000E021CF29C00000002000408FC000000040A23658C000000000ECBEF4BF0C00000013000000420F00003C00000006000000020000000000002000408FC0000000
310
00CF7259C0000000E021CF29C00000002000408FC0000000803F4E58C0000000005C4EF4BF0C000000130000004A0F00003C00000006000000020000000000002000408FC00000000067BC56C0000000E0C90A13C00000002000408FC000000000CF7259C0000000E021CF29C00C00000013000000520F00003C0000000600
310
0000020000000000002000408FC000000000CF7259C0000000E021CF29C00000002000408FC0000000001FB756C0000000E03A3114C00C000000130000005A0F00003C00000006000000020000000000002000408FC000000000CF7259C0000000E021CF29C00000002000408FC0000000C039AE56C0000000406A4115C00C
310
00000013000000620F00003C00000006000000020000000000002000408FC000000080219356C0000000402BF516C00000002000408FC0000000C0E36959C0000000E07DF329C00C000000130000006A0F00003C00000006000000020000000000002000408FC00000008011A256C0000000408E3016C00000002000408FC0
310
000000C0E36959C0000000E07DF329C00C00000013000000720F00003C00000006000000020000000000002000408FC0000000C0E36959C0000000E07DF329C00000002000408FC000000080018256C000000040748717C00C000000130000007A0F00003C00000006000000020000000000002000408FC0000000C0E36959
310
C0000000E07DF329C00000002000408FC0000000805F6F56C0000000409CE117C0
100
AcDbSubDMesh
 71
     2
 72
     0
 91
        0
 92
      236
 10
999.9999389648436
 20
-0.0000572204589844
 30
-12.50000476837158
 10
999.9999389648436
 20
-0.0000534057617188
 30
0.0
 10
999.9999389648436
 20
-101.5000457763672
 30
-12.99999904632568
 10
999.9999389648436
 20
-0.5000572204589844
 30
-13.00000858306885
 10
999.9999389648436
 20
-102.0000305175781
 30
0.0000042915344238
 10
999.9999389648436
 20
-102.0000457763672
 30
-12.49999141693115
 10
999.9999389648436
 20
-92.65591430664063
 30
0.000004768371582
 10
999.9999389648436
 20
-94.98905944824219
 30
0.0000076293945313
 10
999.9999389648436
 20
-12.56298065185547
 30
-5.99999713897705
 10
999.9999389648436
 20
-37.28997802734375
 30
-5.999995708465576
 10
999.9999389648436
 20
-43.29015350341797
 30
-5.999992370605468
 10
999.9999389648436
 20
-58.70997619628906
 30
-5.999999523162841
 10
999.9999389648436
 20
-64.71012878417969
 30
-5.999996185302734
 10
999.9999389648436
 20
-89.43708801269531
 30
-5.99999713897705
 10
999.9999389648436
 20
-3.350257873535156
 30
-0.1056103706359863
 10
999.9999389648436
 20
-3.522647857666015
 30
-0.4154624938964844
 10
999.9999389648436
 20
-3.742313385009765
 30
-0.7073898315429688
 10
999.9999389648436
 20
-4.017295837402343
 30
-0.9501190185546875
 10
999.9999389648436
 20
-4.336402893066406
 30
-1.133754730224609
 10
999.9999389648436
 20
-4.686630249023437
 30
-1.250823974609375
 10
999.9999389648436
 20
-5.053703308105468
 30
-1.29654836654663
 10
999.9999389648436
 20
-5.42266845703125
 30
-1.269067525863647
 10
999.9999389648436
 20
-5.778480529785156
 30
-1.169500112533569
 10
999.9999389648436
 20
-6.106651306152343
 30
-1.0019052028656
 10
999.9999389648436
 20
-6.393806457519531
 30
-0.7731072902679444
 10
999.9999389648436
 20
-6.62823486328125
 30
-0.4924371242523194
 10
999.9999389648436
 20
-95.15025329589844
 30
-0.1056036949157715
 10
999.9999389648436
 20
-95.3226318359375
 30
-0.4154586791992188
 10
999.9999389648436
 20
-95.54229736328125
 30
-0.7073822021484375
 10
999.9999389648436
 20
-95.81729125976563
 30
-0.9501113891601562
 10
999.9999389648436
 20
-96.13639831542968
 30
-1.133750915527343
 10
999.9999389648436
 20
-96.48663330078125
 30
-1.250820159912109
 10
999.9999389648436
 20
-96.85369873046875
 30
-1.29654312133789
 10
999.9999389648436
 20
-97.22267150878906
 30
-1.269062042236328
 10
999.9999389648436
 20
-97.5784912109375
 30
-1.169495820999145
 10
999.9999389648436
 20
-97.9066619873047
 30
-1.001901149749755
 10
999.9999389648436
 20
-98.19380187988281
 30
-0.7731034755706787
 10
999.9999389648436
 20
-98.42823791503906
 30
-0.4924333095550537
 10
999.9999389648436
 20
-10.34865570068359
 30
-0.8263487815856933
 10
999.9999389648436
 20
-11.05622100830078
 30
-4.760467529296875
 10
999.9999389648436
 20
-90.94384765624999
 30
-4.760467052459716
 10
999.9999389648436
 20
-91.65141296386719
 30
-0.8263435363769531
 10
999.9999389648436
 20
-89.74026489257813
 30
-5.970253944396972
 10
999.9999389648436
 20
-90.03138732910157
 30
-5.882210731506347
 10
999.9999389648436
 20
-90.29896545410156
 30
-5.739354133605957
 10
999.9999389648436
 20
-90.53236389160156
 30
-5.547348976135253
 10
999.9999389648436
 20
-90.72233581542969
 30
-5.313813209533691
 10
999.9999389648436
 20
-90.861328125
 30
-5.048011302947998
 10
999.9999389648436
 20
-11.13874053955078
 30
-5.04800796508789
 10
999.9999389648436
 20
-11.27774047851562
 30
-5.313812255859375
 10
999.9999389648436
 20
-11.46769714355468
 30
-5.547348022460937
 10
999.9999389648436
 20
-11.70110321044922
 30
-5.73935317993164
 10
999.9999389648436
 20
-11.96867370605469
 30
-5.882209777832031
 10
999.9999389648436
 20
-12.25981140136719
 30
-5.970253944396972
 10
999.9999389648436
 20
-98.60371398925781
 30
-0.175809383392334
 10
999.9999389648436
 20
-6.8037109375
 30
-0.1758131980895996
 10
999.9999389648436
 20
-9.690658569335937
 30
-0.0666580200195313
 10
999.9999389648436
 20
-9.999794006347656
 30
-0.2339515686035156
 10
999.9999389648436
 20
-10.22152709960937
 30
-0.5033760070800782
 10
999.9999389648436
 20
-91.77853393554688
 30
-0.5033721923828125
 10
999.9999389648436
 20
-92.00027465820312
 30
-0.23394775390625
 10
999.9999389648436
 20
-92.30941772460937
 30
-0.0666570663452149
 10
999.9999389648436
 20
-63.28079223632812
 30
-0.4564208984375
 10
999.9999389648436
 20
-63.69402313232422
 30
-5.087150573730468
 10
999.9999389648436
 20
-60.64739227294921
 30
0.0000038146972656
 10
999.9999389648436
 20
-62.77273559570312
 30
0.0000038146972656
 10
999.9999389648436
 20
-59.72608947753906
 30
-5.087157249450683
 10
999.9999389648436
 20
-60.13933563232422
 30
-0.4564225673675537
 10
999.9999389648436
 20
-41.86079406738281
 30
-0.4564170837402344
 10
999.9999389648436
 20
-42.27403259277344
 30
-5.087150573730468
 10
999.9999389648436
 20
-39.22739410400391
 30
0.0000076293945313
 10
999.9999389648436
 20
-41.35273742675781
 30
0.0000076293945313
 10
999.9999389648436
 20
-38.30609130859375
 30
-5.087150573730468
 10
999.9999389648436
 20
-38.71932983398437
 30
-0.4564187526702881
 10
999.9999389648436
 20
-37.53961181640625
 30
-5.969584941864013
 10
999.9999389648436
 20
-37.77406311035156
 30
-5.880198955535888
 10
999.9999389648436
 20
-37.97907257080078
 30
-5.737273216247558
 10
999.9999389648436
 20
-38.14217376708985
 30
-5.549502372741699
 10
999.9999389648436
 20
-38.25343322753906
 30
-5.32830810546875
 10
999.9999389648436
 20
-42.32669067382812
 30
-5.32830810546875
 10
999.9999389648436
 20
-42.43795013427734
 30
-5.549503326416015
 10
999.9999389648436
 20
-42.6010513305664
 30
-5.737270355224609
 10
999.9999389648436
 20
-42.80606079101562
 30
-5.880195617675781
 10
999.9999389648436
 20
-43.04051971435547
 30
-5.969581604003906
 10
999.9999389648436
 20
-58.95960998535156
 30
-5.969588756561279
 10
999.9999389648436
 20
-59.19406127929687
 30
-5.880202770233154
 10
999.9999389648436
 20
-59.39907836914063
 30
-5.737277507781982
 10
999.9999389648436
 20
-59.56217193603515
 30
-5.549506664276123
 10
999.9999389648436
 20
-59.67343139648438
 30
-5.328314781188964
 10
999.9999389648436
 20
-63.7466812133789
 30
-5.328311920166015
 10
999.9999389648436
 20
-63.85794830322265
 30
-5.549503326416015
 10
999.9999389648436
 20
-64.02103424072265
 30
-5.737274169921875
 10
999.9999389648436
 20
-64.22603607177734
 30
-5.880199432373046
 10
999.9999389648436
 20
-64.46048736572265
 30
-5.969585418701171
 10
999.9999389648436
 20
-60.18998718261719
 30
-0.2788562774658203
 10
999.9999389648436
 20
-60.30284118652343
 30
-0.1313605308532715
 10
999.9999389648436
 20
-60.46254730224609
 30
-0.0339927673339844
 10
999.9999389648436
 20
-62.95757293701171
 30
-0.0339927673339844
 10
999.9999389648436
 20
-63.1172866821289
 30
-0.1313591003417969
 10
999.9999389648436
 20
-63.23014068603516
 30
-0.2788543701171875
 10
999.9999389648436
 20
-41.5375747680664
 30
-0.0339889526367188
 10
999.9999389648436
 20
-41.69728851318359
 30
-0.1313552856445312
 10
999.9999389648436
 20
-41.81014251708984
 30
-0.2788505554199219
 10
999.9999389648436
 20
-38.76998901367187
 30
-0.2788519859313965
 10
999.9999389648436
 20
-38.88284301757813
 30
-0.1313567161560059
 10
999.9999389648436
 20
-39.04254913330078
 30
-0.0339889526367188
 10
999.9999389648436
 20
-101.6545867919922
 30
-12.97550868988037
 10
999.9999389648436
 20
-101.7939453125
 30
-12.90447902679443
 10
999.9999389648436
 20
-101.9045257568359
 30
-12.79389858245849
 10
999.9999389648436
 20
-101.9755554199218
 30
-12.65454006195068
 10
999.9999389648436
 20
-0.0245475769042969
 30
-12.65454959869385
 10
999.9999389648436
 20
-0.0955696105957031
 30
-12.79390811920166
 10
999.9999389648436
 20
-0.2061576843261719
 30
-12.9044885635376
 10
999.9999389648436
 20
-0.3455085754394531
 30
-12.97551822662353
 10
999.9999389648436
 20
-98.81100463867188
 30
0.0000076293945313
 10
999.9999389648436
 20
-7.011001586914062
 30
0.0000038146972656
 10
999.9999389648436
 20
-9.344154357910156
 30
0.0000076293945313
 10
999.9999389648436
 20
-3.189083099365234
 30
-0.0000033378601074
 10
-1000.000061035156
 20
0.0000343322753906
 30
-0.0000686645507813
 10
-1000.000061035156
 20
0.0000038146972656
 30
-12.50006580352783
 10
-1000.000061035156
 20
-3.350173950195312
 30
-0.1056790351867676
 10
-1000.000061035156
 20
-4.017234802246093
 30
-0.9501838684082031
 10
-1000.000061035156
 20
-4.68658447265625
 30
-1.250892639160156
 10
-1000.000061035156
 20
-0.0244865417480469
 30
-12.6546106338501
 10
-1000.000061035156
 20
-9.999748229980468
 30
-0.2340164184570312
 10
-1000.000061035156
 20
-6.393760681152343
 30
-0.7731759548187256
 10
-1000.000061035156
 20
-10.3486099243164
 30
-0.8264174461364746
 10
-1000.000061035156
 20
-5.778434753417968
 30
-1.16956877708435
 10
-1000.000061035156
 20
-11.4676513671875
 30
-5.547416687011718
 10
-1000.000061035156
 20
-0.2060966491699219
 30
-12.90454959869385
 10
-1000.000061035156
 20
-11.70105743408203
 30
-5.739421844482421
 10
-1000.000061035156
 20
-12.56293487548828
 30
-6.000061988830566
 10
-1000.000061035156
 20
-38.71922302246094
 30
-0.4564836025238037
 10
-1000.000061035156
 20
-38.88273620605469
 30
-0.1314253807067871
 10
-1000.000061035156
 20
-41.69718170166015
 30
-0.1314239501953125
 10
-1000.000061035156
 20
-39.22728729248047
 30
-0.00006103515625
 10
-1000.000061035156
 20
-42.60094451904296
 30
-5.73733901977539
 10
-1000.000061035156
 20
-37.77395629882813
 30
-5.880267620086669
 10
-1000.000061035156
 20
-42.80595397949219
 30
-5.880260467529296
 10
-1000.000061035156
 20
-37.53950500488282
 30
-5.969653606414794
 10
-1000.000061035156
 20
-43.29004669189453
 30
-6.00006103515625
 10
-1000.000061035156
 20
-60.13922882080078
 30
-0.4564874172210694
 10
-1000.000061035156
 20
-60.18988037109375
 30
-0.2789249420166016
 10
-1000.000061035156
 20
-63.23003387451172
 30
-0.2789230346679687
 10
-1000.000061035156
 20
-63.28068542480469
 30
-0.4564857482910157
 10
-1000.000061035156
 20
-63.11717987060546
 30
-0.1314277648925781
 10
-1000.000061035156
 20
-62.95746612548828
 30
-0.0340614318847656
 10
-1000.000061035156
 20
-60.64728546142578
 30
-0.0000648498535156
 10
-1000.000061035156
 20
-62.77262878417968
 30
-0.0000648498535156
 10
-1000.000061035156
 20
-59.72598266601562
 30
-5.087222099304199
 10
-1000.000061035156
 20
-59.67332458496094
 30
-5.328383445739746
 10
-1000.000061035156
 20
-63.74658966064453
 30
-5.328376770019531
 10
-1000.000061035156
 20
-59.56206512451172
 30
-5.549575328826904
 10
-1000.000061035156
 20
-63.85785675048828
 30
-5.549571990966796
 10
-1000.000061035156
 20
-64.02095794677734
 30
-5.737342834472656
 10
-1000.000061035156
 20
-64.22597503662109
 30
-5.880264282226562
 10
-1000.000061035156
 20
-64.46042633056641
 30
-5.969654083251953
 10
-1000.000061035156
 20
-58.70986938476562
 30
-6.000068187713623
 10
-1000.000061035156
 20
-64.71006774902344
 30
-6.000064849853515
 10
-1000.000061035156
 20
-101.4999847412109
 30
-13.00006008148193
 10
-1000.000061035156
 20
-89.43704223632812
 30
-6.000061988830566
 10
-1000.000061035156
 20
-92.30935668945312
 30
-0.0667219161987305
 10
-1000.000061035156
 20
-92.00021362304687
 30
-0.2340164184570312
 10
-1000.000061035156
 20
-95.3225860595703
 30
-0.4155235290527344
 10
-1000.000061035156
 20
-95.54223632812499
 30
-0.7074508666992188
 10
-1000.000061035156
 20
-90.94378662109376
 30
-4.760535717010498
 10
-1000.000061035156
 20
-98.81094360351562
 30
-0.0000572204589844
 10
-1000.000061035156
 20
-101.9999847412109
 30
-0.0000643730163574
 10
-1000.000061035156
 20
-97.57843017578125
 30
-1.169564485549926
 10
-1000.000061035156
 20
-97.90660095214844
 30
-1.001965999603271
 10
-1000.000061035156
 20
-101.7938842773437
 30
-12.90455532073975
 10
-1000.000061035156
 20
-90.29891967773437
 30
-5.739422798156738
 10
-1000.000061035156
 20
-90.53231811523437
 30
-5.547417640686035
 10
-1000.000061035156
 20
-3.188995361328125
 30
-0.0000720024108887
 10
-1000.000061035156
 20
-3.522560119628906
 30
-0.41552734375
 10
-1000.000061035156
 20
-3.742229461669921
 30
-0.7074546813964844
 10
-1000.000061035156
 20
-4.336357116699218
 30
-1.13382339477539
 10
-1000.000061035156
 20
-6.803665161132812
 30
-0.1758818626403809
 10
-1000.000061035156
 20
-7.010955810546875
 30
-0.00006103515625
 10
-1000.000061035156
 20
-9.344108581542968
 30
-0.00006103515625
 10
-1000.000061035156
 20
-9.690605163574218
 30
-0.0667228698730469
 10
-1000.000061035156
 20
-6.628189086914062
 30
-0.492501974105835
 10
-1000.000061035156
 20
-10.22147369384765
 30
-0.5034446716308594
 10
-1000.000061035156
 20
-6.106605529785156
 30
-1.001970052719116
 10
-1000.000061035156
 20
-11.05617523193359
 30
-4.760536193847656
 10
-1000.000061035156
 20
-5.053657531738281
 30
-1.296617031097412
 10
-1000.000061035156
 20
-5.422622680664062
 30
-1.269136190414428
 10
-1000.000061035156
 20
-11.13869476318359
 30
-5.048076629638671
 10
-1000.000061035156
 20
-11.2776870727539
 30
-5.313880920410156
 10
-1000.000061035156
 20
-0.0955085754394531
 30
-12.79396915435791
 10
-1000.000061035156
 20
-0.3454475402832031
 30
-12.97557926177978
 10
-1000.000061035156
 20
-11.9686279296875
 30
-5.882278442382812
 10
-1000.000061035156
 20
-0.4999961853027344
 30
-13.0000696182251
 10
-1000.000061035156
 20
-12.259765625
 30
-5.970322608947753
 10
-1000.000061035156
 20
-37.28987121582032
 30
-6.000064373016357
 10
-1000.000061035156
 20
-38.76988220214844
 30
-0.2789206504821777
 10
-1000.000061035156
 20
-41.8100357055664
 30
-0.2789192199707031
 10
-1000.000061035156
 20
-41.86068725585937
 30
-0.45648193359375
 10
-1000.000061035156
 20
-39.04244232177735
 30
-0.0340576171875
 10
-1000.000061035156
 20
-41.53746795654297
 30
-0.0340576171875
 10
-1000.000061035156
 20
-41.35263061523438
 30
-0.00006103515625
 10
-1000.000061035156
 20
-38.30598449707031
 30
-5.087215423583984
 10
-1000.000061035156
 20
-42.27392578125
 30
-5.087215423583984
 10
-1000.000061035156
 20
-38.25332641601562
 30
-5.328372955322265
 10
-1000.000061035156
 20
-42.32658386230468
 30
-5.328376770019531
 10
-1000.000061035156
 20
-38.14206695556641
 30
-5.54957103729248
 10
-1000.000061035156
 20
-42.4378433227539
 30
-5.549568176269531
 10
-1000.000061035156
 20
-37.97896575927734
 30
-5.737341880798339
 10
-1000.000061035156
 20
-43.04041290283203
 30
-5.969650268554687
 10
-1000.000061035156
 20
-60.302734375
 30
-0.1314291954040527
 10
-1000.000061035156
 20
-60.46244049072265
 30
-0.0340614318847656
 10
-1000.000061035156
 20
-63.69393157958985
 30
-5.08721923828125
 10
-1000.000061035156
 20
-59.39897155761719
 30
-5.737346172332763
 10
-1000.000061035156
 20
-59.19395446777343
 30
-5.880271434783935
 10
-1000.000061035156
 20
-58.95950317382812
 30
-5.96965742111206
 10
-1000.000061035156
 20
-92.65586853027343
 30
-0.0000638961791992
 10
-1000.000061035156
 20
-94.989013671875
 30
-0.0000572204589844
 10
-1000.000061035156
 20
-95.15019226074219
 30
-0.1056723594665527
 10
-1000.000061035156
 20
-91.77848815917968
 30
-0.5034408569335938
 10
-1000.000061035156
 20
-91.65135192871094
 30
-0.8264122009277343
 10
-1000.000061035156
 20
-95.81723022460938
 30
-0.9501800537109375
 10
-1000.000061035156
 20
-96.13635253906251
 30
-1.133819580078125
 10
-1000.000061035156
 20
-96.486572265625
 30
-1.25088882446289
 10
-1000.000061035156
 20
-101.9999847412109
 30
-12.50006008148193
 10
-1000.000061035156
 20
-98.60366821289062
 30
-0.1758780479431152
 10
-1000.000061035156
 20
-98.19375610351563
 30
-0.77317214012146
 10
-1000.000061035156
 20
-98.42819213867187
 30
-0.4924981594085694
 10
-1000.000061035156
 20
-101.9754943847656
 30
-12.65460109710693
 10
-1000.000061035156
 20
-101.9044647216797
 30
-12.79395961761474
 10
-1000.000061035156
 20
-96.85365295410157
 30
-1.296611785888671
 10
-1000.000061035156
 20
-97.22262573242188
 30
-1.269130706787109
 10
-1000.000061035156
 20
-90.86126708984375
 30
-5.048076152801513
 10
-1000.000061035156
 20
-90.72227478027343
 30
-5.313881874084472
 10
-1000.000061035156
 20
-101.6545257568359
 30
-12.97556972503662
 10
-1000.000061035156
 20
-90.03134155273437
 30
-5.882279396057128
 10
-1000.000061035156
 20
-89.74020385742187
 30
-5.970322608947753
 93
     1254
 90
        3
 90
        1
 90
      117
 90
        0
 90
        3
 90
      117
 90
       14
 90
        0
 90
        3
 90
       14
 90
       15
 90
        0
 90
        3
 90
       15
 90
       16
 90
        0
 90
        3
 90
       16
 90
       17
 90
        0
 90
        3
 90
       17
 90
       18
 90
        0
 90
        4
 90
       18
 90
       19
 90
      110
 90
        0
 90
        4
 90
       55
 90
      115
 90
      116
 90
       56
 90
        4
 90
       25
 90
       55
 90
       56
 90
       57
 90
        3
 90
       25
 90
       57
 90
       58
 90
        3
 90
       24
 90
       25
 90
       58
 90
        3
 90
       24
 90
       58
 90
       38
 90
        3
 90
       22
 90
       23
 90
       39
 90
        4
 90
       23
 90
       24
 90
       38
 90
       39
 90
        3
 90
       20
 90
       21
 90
       48
 90
        4
 90
       21
 90
       22
 90
       39
 90
       48
 90
        6
 90
       19
 90
       20
 90
       48
 90
       49
 90
      111
 90
      110
 90
        4
 90
       49
 90
       50
 90
      112
 90
      111
 90
        4
 90
       50
 90
       51
 90
      113
 90
      112
 90
        4
 90
       51
 90
       52
 90
        3
 90
      113
 90
        3
 90
       53
 90
        8
 90
        3
 90
        3
 90
       52
 90
       53
 90
        3
 90
        3
 90
        8
 90
        9
 90
        3
 90
        4
 90
       73
 90
      103
 90
      102
 90
       68
 90
        4
 90
      103
 90
      104
 90
      101
 90
      102
 90
        4
 90
      104
 90
      105
 90
      100
 90
      101
 90
        4
 90
      105
 90
       70
 90
       71
 90
      100
 90
        4
 90
       72
 90
       73
 90
       68
 90
       69
 90
        4
 90
       78
 90
       72
 90
       69
 90
       79
 90
        4
 90
       77
 90
       78
 90
       79
 90
       80
 90
        4
 90
       76
 90
       77
 90
       80
 90
       81
 90
        4
 90
       75
 90
       76
 90
       81
 90
       82
 90
        4
 90
       74
 90
       75
 90
       82
 90
       83
 90
        4
 90
        9
 90
       74
 90
       83
 90
       10
 90
        4
 90
       67
 90
       94
 90
       99
 90
       62
 90
        4
 90
       94
 90
       95
 90
       98
 90
       99
 90
        4
 90
       95
 90
       96
 90
       97
 90
       98
 90
        4
 90
       96
 90
       64
 90
       65
 90
       97
 90
        4
 90
       66
 90
       67
 90
       62
 90
       63
 90
        4
 90
       88
 90
       66
 90
       63
 90
       89
 90
        4
 90
       87
 90
       88
 90
       89
 90
       90
 90
        4
 90
       86
 90
       87
 90
       90
 90
       91
 90
        4
 90
       85
 90
       86
 90
       91
 90
       92
 90
        4
 90
       84
 90
       85
 90
       92
 90
       93
 90
        4
 90
       11
 90
       84
 90
       93
 90
       12
 90
        3
 90
        9
 90
       10
 90
        3
 90
        4
 90
       10
 90
       11
 90
        2
 90
        3
 90
        3
 90
       11
 90
       12
 90
        2
 90
        3
 90
       12
 90
       13
 90
        2
 90
        4
 90
       61
 90
        6
 90
        7
 90
       26
 90
        4
 90
       60
 90
       61
 90
       26
 90
       27
 90
        3
 90
       59
 90
       60
 90
       27
 90
        3
 90
       59
 90
       27
 90
       28
 90
        4
 90
       41
 90
       59
 90
       28
 90
       29
 90
        4
 90
       40
 90
       41
 90
       29
 90
       30
 90
        3
 90
       40
 90
       30
 90
       31
 90
        3
 90
      114
 90
        4
 90
        5
 90
        3
 90
       54
 90
      114
 90
        5
 90
        3
 90
       36
 90
       37
 90
      109
 90
        4
 90
       37
 90
       54
 90
        5
 90
      109
 90
        3
 90
       34
 90
       35
 90
      108
 90
        4
 90
       35
 90
       36
 90
      109
 90
      108
 90
        3
 90
       32
 90
       33
 90
      107
 90
        4
 90
       33
 90
       34
 90
      108
 90
      107
 90
        4
 90
       40
 90
       31
 90
       32
 90
      107
 90
        3
 90
       47
 90
       40
 90
      107
 90
        3
 90
       46
 90
       47
 90
      107
 90
        3
 90
       44
 90
       45
 90
      106
 90
        4
 90
       45
 90
       46
 90
      107
 90
      106
 90
        3
 90
       43
 90
       44
 90
      106
 90
        3
 90
       42
 90
       43
 90
      106
 90
        4
 90
       13
 90
       42
 90
      106
 90
        2
 90
        4
 90
      109
 90
        5
 90
      223
 90
      227
 90
        4
 90
        5
 90
        4
 90
      167
 90
      223
 90
        4
 90
        4
 90
      114
 90
      166
 90
      167
 90
        4
 90
      114
 90
       54
 90
      224
 90
      166
 90
        4
 90
       54
 90
       37
 90
      226
 90
      224
 90
        4
 90
       37
 90
       36
 90
      225
 90
      226
 90
        4
 90
       36
 90
       35
 90
      169
 90
      225
 90
        4
 90
       35
 90
       34
 90
      168
 90
      169
 90
        4
 90
       34
 90
       33
 90
      230
 90
      168
 90
        4
 90
       33
 90
       32
 90
      229
 90
      230
 90
        4
 90
       32
 90
       31
 90
      222
 90
      229
 90
        4
 90
       31
 90
       30
 90
      221
 90
      222
 90
        4
 90
       30
 90
       29
 90
      220
 90
      221
 90
        4
 90
       29
 90
       28
 90
      164
 90
      220
 90
        4
 90
       28
 90
       27
 90
      163
 90
      164
 90
        4
 90
       27
 90
       26
 90
      217
 90
      163
 90
        4
 90
       26
 90
        7
 90
      216
 90
      217
 90
        4
 90
        7
 90
        6
 90
      215
 90
      216
 90
        4
 90
        6
 90
       61
 90
      161
 90
      215
 90
        4
 90
       61
 90
       60
 90
      162
 90
      161
 90
        4
 90
       60
 90
       59
 90
      218
 90
      162
 90
        4
 90
       59
 90
       41
 90
      219
 90
      218
 90
        4
 90
       41
 90
       40
 90
      165
 90
      219
 90
        4
 90
       40
 90
       47
 90
      231
 90
      165
 90
        4
 90
       47
 90
       46
 90
      232
 90
      231
 90
        4
 90
       46
 90
       45
 90
      172
 90
      232
 90
        4
 90
       45
 90
       44
 90
      171
 90
      172
 90
        4
 90
       44
 90
       43
 90
      234
 90
      171
 90
        4
 90
       43
 90
       42
 90
      235
 90
      234
 90
        4
 90
       42
 90
       13
 90
      160
 90
      235
 90
        4
 90
       13
 90
       12
 90
      158
 90
      160
 90
        4
 90
       12
 90
       93
 90
      156
 90
      158
 90
        4
 90
       93
 90
       92
 90
      155
 90
      156
 90
        4
 90
       92
 90
       91
 90
      154
 90
      155
 90
        4
 90
       91
 90
       90
 90
      153
 90
      154
 90
        4
 90
       90
 90
       89
 90
      151
 90
      153
 90
        4
 90
       89
 90
       63
 90
      211
 90
      151
 90
        4
 90
       63
 90
       62
 90
      144
 90
      211
 90
        4
 90
       62
 90
       99
 90
      143
 90
      144
 90
        4
 90
       99
 90
       98
 90
      145
 90
      143
 90
        4
 90
       98
 90
       97
 90
      146
 90
      145
 90
        4
 90
       97
 90
       65
 90
      148
 90
      146
 90
        4
 90
       65
 90
       64
 90
      147
 90
      148
 90
        4
 90
       64
 90
       96
 90
      210
 90
      147
 90
        4
 90
       96
 90
       95
 90
      209
 90
      210
 90
        4
 90
       95
 90
       94
 90
      142
 90
      209
 90
        4
 90
       94
 90
       67
 90
      141
 90
      142
 90
        4
 90
       67
 90
       66
 90
      149
 90
      141
 90
        4
 90
       66
 90
       88
 90
      150
 90
      149
 90
        4
 90
       88
 90
       87
 90
      152
 90
      150
 90
        4
 90
       87
 90
       86
 90
      212
 90
      152
 90
        4
 90
       86
 90
       85
 90
      213
 90
      212
 90
        4
 90
       85
 90
       84
 90
      214
 90
      213
 90
        4
 90
       84
 90
       11
 90
      157
 90
      214
 90
        4
 90
       11
 90
       10
 90
      140
 90
      157
 90
        4
 90
       10
 90
       83
 90
      208
 90
      140
 90
        4
 90
       83
 90
       82
 90
      138
 90
      208
 90
        4
 90
       82
 90
       81
 90
      136
 90
      138
 90
        4
 90
       81
 90
       80
 90
      206
 90
      136
 90
        4
 90
       80
 90
       79
 90
      204
 90
      206
 90
        4
 90
       79
 90
       69
 90
      202
 90
      204
 90
        4
 90
       69
 90
       68
 90
      197
 90
      202
 90
        4
 90
       68
 90
      102
 90
      196
 90
      197
 90
        4
 90
      102
 90
      101
 90
      134
 90
      196
 90
        4
 90
      101
 90
      100
 90
      199
 90
      134
 90
        4
 90
      100
 90
       71
 90
      200
 90
      199
 90
        4
 90
       71
 90
       70
 90
      135
 90
      200
 90
        4
 90
       70
 90
      105
 90
      198
 90
      135
 90
        4
 90
      105
 90
      104
 90
      133
 90
      198
 90
        4
 90
      104
 90
      103
 90
      195
 90
      133
 90
        4
 90
      103
 90
       73
 90
      132
 90
      195
 90
        4
 90
       73
 90
       72
 90
      201
 90
      132
 90
        4
 90
       72
 90
       78
 90
      203
 90
      201
 90
        4
 90
       78
 90
       77
 90
      205
 90
      203
 90
        4
 90
       77
 90
       76
 90
      207
 90
      205
 90
        4
 90
       76
 90
       75
 90
      137
 90
      207
 90
        4
 90
       75
 90
       74
 90
      139
 90
      137
 90
        4
 90
       74
 90
        9
 90
      194
 90
      139
 90
        4
 90
        9
 90
        8
 90
      131
 90
      194
 90
        4
 90
        8
 90
       53
 90
      193
 90
      131
 90
        4
 90
       53
 90
       52
 90
      191
 90
      193
 90
        4
 90
       52
 90
       51
 90
      130
 90
      191
 90
        4
 90
       51
 90
       50
 90
      128
 90
      130
 90
        4
 90
       50
 90
       49
 90
      188
 90
      128
 90
        4
 90
       49
 90
       48
 90
      187
 90
      188
 90
        4
 90
       48
 90
       39
 90
      184
 90
      187
 90
        4
 90
       39
 90
       38
 90
      126
 90
      184
 90
        4
 90
       38
 90
       58
 90
      182
 90
      126
 90
        4
 90
       58
 90
       57
 90
      124
 90
      182
 90
        4
 90
       57
 90
       56
 90
      180
 90
      124
 90
        4
 90
       56
 90
      116
 90
      179
 90
      180
 90
        4
 90
      116
 90
      115
 90
      178
 90
      179
 90
        4
 90
      115
 90
       55
 90
      177
 90
      178
 90
        4
 90
       55
 90
       25
 90
      181
 90
      177
 90
        4
 90
       25
 90
       24
 90
      125
 90
      181
 90
        4
 90
       24
 90
       23
 90
      183
 90
      125
 90
        4
 90
       23
 90
       22
 90
      127
 90
      183
 90
        4
 90
       22
 90
       21
 90
      186
 90
      127
 90
        4
 90
       21
 90
       20
 90
      185
 90
      186
 90
        4
 90
       20
 90
       19
 90
      122
 90
      185
 90
        4
 90
       19
 90
       18
 90
      176
 90
      122
 90
        4
 90
       18
 90
       17
 90
      121
 90
      176
 90
        4
 90
       17
 90
       16
 90
      175
 90
      121
 90
        4
 90
       16
 90
       15
 90
      174
 90
      175
 90
        4
 90
       15
 90
       14
 90
      120
 90
      174
 90
        4
 90
       14
 90
      117
 90
      173
 90
      120
 90
        4
 90
      117
 90
        1
 90
      118
 90
      173
 90
        4
 90
        1
 90
        0
 90
      119
 90
      118
 90
        4
 90
        0
 90
      110
 90
      123
 90
      119
 90
        4
 90
      110
 90
      111
 90
      189
 90
      123
 90
        4
 90
      111
 90
      112
 90
      129
 90
      189
 90
        4
 90
      112
 90
      113
 90
      190
 90
      129
 90
        4
 90
      113
 90
        3
 90
      192
 90
      190
 90
        4
 90
        3
 90
        2
 90
      159
 90
      192
 90
        4
 90
        2
 90
      106
 90
      233
 90
      159
 90
        4
 90
      106
 90
      107
 90
      170
 90
      233
 90
        4
 90
      107
 90
      108
 90
      228
 90
      170
 90
        4
 90
      108
 90
      109
 90
      227
 90
      228
 90
        3
 90
      118
 90
      119
 90
      173
 90
        3
 90
      173
 90
      119
 90
      120
 90
        3
 90
      120
 90
      119
 90
      174
 90
        3
 90
      174
 90
      119
 90
      175
 90
        3
 90
      175
 90
      119
 90
      121
 90
        3
 90
      121
 90
      119
 90
      176
 90
        4
 90
      176
 90
      119
 90
      123
 90
      122
 90
        4
 90
      177
 90
      180
 90
      179
 90
      178
 90
        4
 90
      181
 90
      124
 90
      180
 90
      177
 90
        3
 90
      181
 90
      182
 90
      124
 90
        3
 90
      125
 90
      182
 90
      181
 90
        3
 90
      125
 90
      126
 90
      182
 90
        3
 90
      127
 90
      184
 90
      183
 90
        4
 90
      183
 90
      184
 90
      126
 90
      125
 90
        3
 90
      185
 90
      187
 90
      186
 90
        4
 90
      186
 90
      187
 90
      184
 90
      127
 90
        6
 90
      122
 90
      123
 90
      189
 90
      188
 90
      187
 90
      185
 90
        4
 90
      188
 90
      189
 90
      129
 90
      128
 90
        4
 90
      128
 90
      129
 90
      190
 90
      130
 90
        4
 90
      130
 90
      190
 90
      192
 90
      191
 90
        3
 90
      193
 90
      192
 90
      131
 90
        3
 90
      191
 90
      192
 90
      193
 90
        3
 90
      131
 90
      192
 90
      194
 90
        4
 90
      132
 90
      197
 90
      196
 90
      195
 90
        4
 90
      195
 90
      196
 90
      134
 90
      133
 90
        4
 90
      133
 90
      134
 90
      199
 90
      198
 90
        4
 90
      198
 90
      199
 90
      200
 90
      135
 90
        4
 90
      201
 90
      202
 90
      197
 90
      132
 90
        4
 90
      203
 90
      204
 90
      202
 90
      201
 90
        4
 90
      205
 90
      206
 90
      204
 90
      203
 90
        4
 90
      207
 90
      136
 90
      206
 90
      205
 90
        4
 90
      137
 90
      138
 90
      136
 90
      207
 90
        4
 90
      139
 90
      208
 90
      138
 90
      137
 90
        4
 90
      194
 90
      140
 90
      208
 90
      139
 90
        4
 90
      141
 90
      144
 90
      143
 90
      142
 90
        4
 90
      142
 90
      143
 90
      145
 90
      209
 90
        4
 90
      209
 90
      145
 90
      146
 90
      210
 90
        4
 90
      210
 90
      146
 90
      148
 90
      147
 90
        4
 90
      149
 90
      211
 90
      144
 90
      141
 90
        4
 90
      150
 90
      151
 90
      211
 90
      149
 90
        4
 90
      152
 90
      153
 90
      151
 90
      150
 90
        4
 90
      212
 90
      154
 90
      153
 90
      152
 90
        4
 90
      213
 90
      155
 90
      154
 90
      212
 90
        4
 90
      214
 90
      156
 90
      155
 90
      213
 90
        4
 90
      157
 90
      158
 90
      156
 90
      214
 90
        3
 90
      194
 90
      192
 90
      140
 90
        4
 90
      140
 90
      192
 90
      159
 90
      157
 90
        3
 90
      157
 90
      159
 90
      158
 90
        3
 90
      158
 90
      159
 90
      160
 90
        4
 90
      161
 90
      217
 90
      216
 90
      215
 90
        4
 90
      162
 90
      163
 90
      217
 90
      161
 90
        3
 90
      218
 90
      163
 90
      162
 90
        3
 90
      164
 90
      163
 90
      218
 90
        4
 90
      219
 90
      220
 90
      164
 90
      218
 90
        4
 90
      165
 90
      221
 90
      220
 90
      219
 90
        3
 90
      165
 90
      222
 90
      221
 90
        3
 90
      166
 90
      223
 90
      167
 90
        3
 90
      224
 90
      223
 90
      166
 90
        3
 90
      225
 90
      227
 90
      226
 90
        4
 90
      226
 90
      227
 90
      223
 90
      224
 90
        3
 90
      168
 90
      228
 90
      169
 90
        4
 90
      169
 90
      228
 90
      227
 90
      225
 90
        3
 90
      229
 90
      170
 90
      230
 90
        4
 90
      230
 90
      170
 90
      228
 90
      168
 90
        4
 90
      165
 90
      170
 90
      229
 90
      222
 90
        3
 90
      231
 90
      170
 90
      165
 90
        3
 90
      232
 90
      170
 90
      231
 90
        3
 90
      171
 90
      233
 90
      172
 90
        4
 90
      172
 90
      233
 90
      170
 90
      232
 90
        3
 90
      234
 90
      233
 90
      171
 90
        3
 90
      235
 90
      233
 90
      234
 90
        4
 90
      160
 90
      159
 90
      233
 90
      235
 94
      496
 90
        1
 90
      117
 90
        0
 90
      117
 90
        0
 90
        1
 90
       14
 90
      117
 90
        0
 90
       14
 90
       14
 90
       15
 90
        0
 90
       15
 90
       15
 90
       16
 90
        0
 90
       16
 90
       16
 90
       17
 90
        0
 90
       17
 90
       17
 90
       18
 90
        0
 90
       18
 90
       18
 90
       19
 90
       19
 90
      110
 90
        0
 90
      110
 90
       55
 90
      115
 90
      115
 90
      116
 90
       56
 90
      116
 90
       55
 90
       56
 90
       25
 90
       55
 90
       56
 90
       57
 90
       25
 90
       57
 90
       57
 90
       58
 90
       25
 90
       58
 90
       24
 90
       25
 90
       24
 90
       58
 90
       38
 90
       58
 90
       24
 90
       38
 90
       22
 90
       23
 90
       23
 90
       39
 90
       22
 90
       39
 90
       23
 90
       24
 90
       38
 90
       39
 90
       20
 90
       21
 90
       21
 90
       48
 90
       20
 90
       48
 90
       21
 90
       22
 90
       39
 90
       48
 90
       19
 90
       20
 90
       48
 90
       49
 90
       49
 90
      111
 90
      110
 90
      111
 90
       49
 90
       50
 90
       50
 90
      112
 90
      111
 90
      112
 90
       50
 90
       51
 90
       51
 90
      113
 90
      112
 90
      113
 90
       51
 90
       52
 90
        3
 90
       52
 90
        3
 90
      113
 90
        8
 90
       53
 90
        3
 90
        8
 90
        3
 90
       53
 90
       52
 90
       53
 90
        8
 90
        9
 90
        3
 90
        9
 90
       73
 90
      103
 90
      102
 90
      103
 90
       68
 90
      102
 90
       68
 90
       73
 90
      103
 90
      104
 90
      101
 90
      104
 90
      101
 90
      102
 90
      104
 90
      105
 90
      100
 90
      105
 90
      100
 90
      101
 90
       70
 90
      105
 90
       70
 90
       71
 90
       71
 90
      100
 90
       72
 90
       73
 90
       68
 90
       69
 90
       69
 90
       72
 90
       72
 90
       78
 90
       69
 90
       79
 90
       78
 90
       79
 90
       77
 90
       78
 90
       79
 90
       80
 90
       77
 90
       80
 90
       76
 90
       77
 90
       80
 90
       81
 90
       76
 90
       81
 90
       75
 90
       76
 90
       81
 90
       82
 90
       75
 90
       82
 90
       74
 90
       75
 90
       82
 90
       83
 90
       74
 90
       83
 90
        9
 90
       74
 90
       10
 90
       83
 90
        9
 90
       10
 90
       67
 90
       94
 90
       94
 90
       99
 90
       62
 90
       99
 90
       62
 90
       67
 90
       94
 90
       95
 90
       95
 90
       98
 90
       98
 90
       99
 90
       95
 90
       96
 90
       96
 90
       97
 90
       97
 90
       98
 90
       64
 90
       96
 90
       64
 90
       65
 90
       65
 90
       97
 90
       66
 90
       67
 90
       62
 90
       63
 90
       63
 90
       66
 90
       66
 90
       88
 90
       63
 90
       89
 90
       88
 90
       89
 90
       87
 90
       88
 90
       89
 90
       90
 90
       87
 90
       90
 90
       86
 90
       87
 90
       90
 90
       91
 90
       86
 90
       91
 90
       85
 90
       86
 90
       91
 90
       92
 90
       85
 90
       92
 90
       84
 90
       85
 90
       92
 90
       93
 90
       84
 90
       93
 90
       11
 90
       84
 90
       12
 90
       93
 90
       11
 90
       12
 90
        3
 90
       10
 90
       10
 90
       11
 90
        2
 90
       11
 90
        2
 90
        3
 90
        2
 90
       12
 90
       12
 90
       13
 90
        2
 90
       13
 90
        6
 90
       61
 90
        6
 90
        7
 90
        7
 90
       26
 90
       26
 90
       61
 90
       60
 90
       61
 90
       26
 90
       27
 90
       27
 90
       60
 90
       59
 90
       60
 90
       27
 90
       59
 90
       27
 90
       28
 90
       28
 90
       59
 90
       41
 90
       59
 90
       28
 90
       29
 90
       29
 90
       41
 90
       40
 90
       41
 90
       29
 90
       30
 90
       30
 90
       40
 90
       30
 90
       31
 90
       31
 90
       40
 90
        4
 90
      114
 90
        4
 90
        5
 90
        5
 90
      114
 90
       54
 90
      114
 90
        5
 90
       54
 90
       36
 90
       37
 90
       37
 90
      109
 90
       36
 90
      109
 90
       37
 90
       54
 90
        5
 90
      109
 90
       34
 90
       35
 90
       35
 90
      108
 90
       34
 90
      108
 90
       35
 90
       36
 90
      108
 90
      109
 90
       32
 90
       33
 90
       33
 90
      107
 90
       32
 90
      107
 90
       33
 90
       34
 90
      107
 90
      108
 90
       31
 90
       32
 90
       40
 90
      107
 90
       40
 90
       47
 90
       47
 90
      107
 90
       46
 90
       47
 90
       46
 90
      107
 90
       44
 90
       45
 90
       45
 90
      106
 90
       44
 90
      106
 90
       45
 90
       46
 90
      106
 90
      107
 90
       43
 90
       44
 90
       43
 90
      106
 90
       42
 90
       43
 90
       42
 90
      106
 90
       13
 90
       42
 90
        2
 90
      106
 90
        5
 90
      223
 90
      223
 90
      227
 90
      109
 90
      227
 90
        4
 90
      167
 90
      167
 90
      223
 90
      114
 90
      166
 90
      166
 90
      167
 90
       54
 90
      224
 90
      166
 90
      224
 90
       37
 90
      226
 90
      224
 90
      226
 90
       36
 90
      225
 90
      225
 90
      226
 90
       35
 90
      169
 90
      169
 90
      225
 90
       34
 90
      168
 90
      168
 90
      169
 90
       33
 90
      230
 90
      168
 90
      230
 90
       32
 90
      229
 90
      229
 90
      230
 90
       31
 90
      222
 90
      222
 90
      229
 90
       30
 90
      221
 90
      221
 90
      222
 90
       29
 90
      220
 90
      220
 90
      221
 90
       28
 90
      164
 90
      164
 90
      220
 90
       27
 90
      163
 90
      163
 90
      164
 90
       26
 90
      217
 90
      163
 90
      217
 90
        7
 90
      216
 90
      216
 90
      217
 90
        6
 90
      215
 90
      215
 90
      216
 90
       61
 90
      161
 90
      161
 90
      215
 90
       60
 90
      162
 90
      161
 90
      162
 90
       59
 90
      218
 90
      162
 90
      218
 90
       41
 90
      219
 90
      218
 90
      219
 90
       40
 90
      165
 90
      165
 90
      219
 90
       47
 90
      231
 90
      165
 90
      231
 90
       46
 90
      232
 90
      231
 90
      232
 90
       45
 90
      172
 90
      172
 90
      232
 90
       44
 90
      171
 90
      171
 90
      172
 90
       43
 90
      234
 90
      171
 90
      234
 90
       42
 90
      235
 90
      234
 90
      235
 90
       13
 90
      160
 90
      160
 90
      235
 90
       12
 90
      158
 90
      158
 90
      160
 90
       93
 90
      156
 90
      156
 90
      158
 90
       92
 90
      155
 90
      155
 90
      156
 90
       91
 90
      154
 90
      154
 90
      155
 90
       90
 90
      153
 90
      153
 90
      154
 90
       89
 90
      151
 90
      151
 90
      153
 90
       63
 90
      211
 90
      151
 90
      211
 90
       62
 90
      144
 90
      144
 90
      211
 90
       99
 90
      143
 90
      143
 90
      144
 90
       98
 90
      145
 90
      143
 90
      145
 90
       97
 90
      146
 90
      145
 90
      146
 90
       65
 90
      148
 90
      146
 90
      148
 90
       64
 90
      147
 90
      147
 90
      148
 90
       96
 90
      210
 90
      147
 90
      210
 90
       95
 90
      209
 90
      209
 90
      210
 90
       94
 90
      142
 90
      142
 90
      209
 90
       67
 90
      141
 90
      141
 90
      142
 90
       66
 90
      149
 90
      141
 90
      149
 90
       88
 90
      150
 90
      149
 90
      150
 90
       87
 90
      152
 90
      150
 90
      152
 90
       86
 90
      212
 90
      152
 90
      212
 90
       85
 90
      213
 90
      212
 90
      213
 90
       84
 90
      214
 90
      213
 90
      214
 90
       11
 90
      157
 90
      157
 90
      214
 90
       10
 90
      140
 90
      140
 90
      157
 90
       83
 90
      208
 90
      140
 90
      208
 90
       82
 90
      138
 90
      138
 90
      208
 90
       81
 90
      136
 90
      136
 90
      138
 90
       80
 90
      206
 90
      136
 90
      206
 90
       79
 90
      204
 90
      204
 90
      206
 90
       69
 90
      202
 90
      202
 90
      204
 90
       68
 90
      197
 90
      197
 90
      202
 90
      102
 90
      196
 90
      196
 90
      197
 90
      101
 90
      134
 90
      134
 90
      196
 90
      100
 90
      199
 90
      134
 90
      199
 90
       71
 90
      200
 90
      199
 90
      200
 90
       70
 90
      135
 90
      135
 90
      200
 90
      105
 90
      198
 90
      135
 90
      198
 90
      104
 90
      133
 90
      133
 90
      198
 90
      103
 90
      195
 90
      133
 90
      195
 90
       73
 90
      132
 90
      132
 90
      195
 90
       72
 90
      201
 90
      132
 90
      201
 90
       78
 90
      203
 90
      201
 90
      203
 90
       77
 90
      205
 90
      203
 90
      205
 90
       76
 90
      207
 90
      205
 90
      207
 90
       75
 90
      137
 90
      137
 90
      207
 90
       74
 90
      139
 90
      137
 90
      139
 90
        9
 90
      194
 90
      139
 90
      194
 90
        8
 90
      131
 90
      131
 90
      194
 90
       53
 90
      193
 90
      131
 90
      193
 90
       52
 90
      191
 90
      191
 90
      193
 90
       51
 90
      130
 90
      130
 90
      191
 90
       50
 90
      128
 90
      128
 90
      130
 90
       49
 90
      188
 90
      128
 90
      188
 90
       48
 90
      187
 90
      187
 90
      188
 90
       39
 90
      184
 90
      184
 90
      187
 90
       38
 90
      126
 90
      126
 90
      184
 90
       58
 90
      182
 90
      126
 90
      182
 90
       57
 90
      124
 90
      124
 90
      182
 90
       56
 90
      180
 90
      124
 90
      180
 90
      116
 90
      179
 90
      179
 90
      180
 90
      115
 90
      178
 90
      178
 90
      179
 90
       55
 90
      177
 90
      177
 90
      178
 90
       25
 90
      181
 90
      177
 90
      181
 90
       24
 90
      125
 90
      125
 90
      181
 90
       23
 90
      183
 90
      125
 90
      183
 90
       22
 90
      127
 90
      127
 90
      183
 90
       21
 90
      186
 90
      127
 90
      186
 90
       20
 90
      185
 90
      185
 90
      186
 90
       19
 90
      122
 90
      122
 90
      185
 90
       18
 90
      176
 90
      122
 90
      176
 90
       17
 90
      121
 90
      121
 90
      176
 90
       16
 90
      175
 90
      121
 90
      175
 90
       15
 90
      174
 90
      174
 90
      175
 90
       14
 90
      120
 90
      120
 90
      174
 90
      117
 90
      173
 90
      120
 90
      173
 90
        1
 90
      118
 90
      118
 90
      173
 90
        0
 90
      119
 90
      118
 90
      119
 90
      110
 90
      123
 90
      119
 90
      123
 90
      111
 90
      189
 90
      123
 90
      189
 90
      112
 90
      129
 90
      129
 90
      189
 90
      113
 90
      190
 90
      129
 90
      190
 90
        3
 90
      192
 90
      190
 90
      192
 90
        2
 90
      159
 90
      159
 90
      192
 90
      106
 90
      233
 90
      159
 90
      233
 90
      107
 90
      170
 90
      170
 90
      233
 90
      108
 90
      228
 90
      170
 90
      228
 90
      227
 90
      228
 90
      119
 90
      173
 90
      119
 90
      120
 90
      119
 90
      174
 90
      119
 90
      175
 90
      119
 90
      121
 90
      119
 90
      176
 90
      122
 90
      123
 90
      177
 90
      180
 90
      124
 90
      181
 90
      181
 90
      182
 90
      125
 90
      182
 90
      125
 90
      126
 90
      127
 90
      184
 90
      183
 90
      184
 90
      185
 90
      187
 90
      186
 90
      187
 90
      188
 90
      189
 90
      128
 90
      129
 90
      130
 90
      190
 90
      191
 90
      192
 90
      192
 90
      193
 90
      131
 90
      192
 90
      192
 90
      194
 90
      132
 90
      197
 90
      195
 90
      196
 90
      133
 90
      134
 90
      198
 90
      199
 90
      201
 90
      202
 90
      203
 90
      204
 90
      205
 90
      206
 90
      136
 90
      207
 90
      137
 90
      138
 90
      139
 90
      208
 90
      140
 90
      194
 90
      141
 90
      144
 90
      142
 90
      143
 90
      145
 90
      209
 90
      146
 90
      210
 90
      149
 90
      211
 90
      150
 90
      151
 90
      152
 90
      153
 90
      154
 90
      212
 90
      155
 90
      213
 90
      156
 90
      214
 90
      157
 90
      158
 90
      140
 90
      192
 90
      157
 90
      159
 90
      158
 90
      159
 90
      159
 90
      160
 90
      161
 90
      217
 90
      162
 90
      163
 90
      163
 90
      218
 90
      164
 90
      218
 90
      219
 90
      220
 90
      165
 90
      221
 90
      165
 90
      222
 90
      166
 90
      223
 90
      223
 90
      224
 90
      225
 90
      227
 90
      226
 90
      227
 90
      168
 90
      228
 90
      169
 90
      228
 90
      170
 90
      229
 90
      170
 90
      230
 90
      165
 90
      170
 90
      170
 90
      231
 90
      170
 90
      232
 90
      171
 90
      233
 90
      172
 90
      233
 90
      233
 90
      234
 90
      233
 90
      235
 95
      496
140
0.0
140
0.0
140
0.0
140
0.0
140
0.0
140
0.0
140
0.0
140
0.0
140
0.0
140
0.0
140
0.0
140
0.0
140
0.0
140
0.0
140
0.0
140
0.0
140
0.0
140
0.0
140
0.0
140
0.0
140
0.0
140
0.0
140
0.0
140
0.0
140
0.0
140
0.0
140
0.0
140
0.0
140
0.0
140
0.0
140
0.0
140
0.0
140
0.0
140
0.0
140
0.0
140
0.0
140
0.0
140
0.0
140
0.0
140
0.0
140
0.0
140
0.0
140
0.0
140
0.0
140
0.0
140
0.0
140
0.0
140
0.0
140
0.0
140
0.0
140
0.0
140
0.0
140
0.0
140
0.0
140
0.0
140
0.0
140
0.0
140
0.0
140
0.0
140
0.0
140
0.0
140
0.0
140
0.0
140
0.0
140
0.0
140
0.0
140
0.0
140
0.0
140
0.0
140
0.0
140
0.0
140
0.0
140
0.0
140
0.0
140
0.0
140
0.0
140
0.0
140
0.0
140
0.0
140
0.0
140
0.0
140
0.0
140
0.0
140
0.0
140
0.0
140
0.0
140
0.0
140
0.0
140
0.0
140
0.0
140
0.0
140
0.0
140
0.0
140
0.0
140
0.0
140
0.0
140
0.0
140
0.0
140
0.0
140
0.0
140
0.0
140
0.0
140
0.0
140
0.0
140
0.0
140
0.0
140
0.0
140
0.0
140
0.0
140
0.0
140
0.0
140
0.0
140
0.0
140
0.0
140
0.0
140
0.0
140
0.0
140
0.0
140
0.0
140
0.0
140
0.0
140
0.0
140
0.0
140
0.0
140
0.0
140
0.0
140
0.0
140
0.0
140
0.0
140
0.0
140
0.0
140
0.0
140
0.0
140
0.0
140
0.0
140
0.0
140
0.0
140
0.0
140
0.0
140
0.0
140
0.0
140
0.0
140
0.0
140
0.0
140
0.0
140
0.0
140
0.0
140
0.0
140
0.0
140
0.0
140
0.0
140
0.0
140
0.0
140
0.0
140
0.0
140
0.0
140
0.0
140
0.0
140
0.0
140
0.0
140
0.0
140
0.0
140
0.0
140
0.0
140
0.0
140
0.0
140
0.0
140
0.0
140
0.0
140
0.0
140
0.0
140
0.0
140
0.0
140
0.0
140
0.0
140
0.0
140
0.0
140
0.0
140
0.0
140
0.0
140
0.0
140
0.0
140
0.0
140
0.0
140
0.0
140
0.0
140
0.0
140
0.0
140
0.0
140
0.0
140
0.0
140
0.0
140
0.0
140
0.0
140
0.0
140
0.0
140
0.0
140
0.0
140
0.0
140
0.0
140
0.0
140
0.0
140
0.0
140
0.0
140
0.0
140
0.0
140
0.0
140
0.0
140
0.0
140
0.0
140
0.0
140
0.0
140
0.0
140
0.0
140
0.0
140
0.0
140
0.0
140
0.0
140
0.0
140
0.0
140
0.0
140
0.0
140
0.0
140
0.0
140
0.0
140
0.0
140
0.0
140
0.0
140
0.0
140
0.0
140
0.0
140
0.0
140
0.0
140
0.0
140
0.0
140
0.0
140
0.0
140
0.0
140
0.0
140
0.0
140
0.0
140
0.0
140
0.0
140
0.0
140
0.0
140
0.0
140
0.0
140
0.0
140
0.0
140
0.0
140
0.0
140
0.0
140
0.0
140
0.0
140
0.0
140
0.0
140
0.0
140
0.0
140
0.0
140
0.0
140
0.0
140
0.0
140
0.0
140
0.0
140
0.0
140
0.0
140
0.0
140
0.0
140
0.0
140
0.0
140
0.0
140
0.0
140
0.0
140
0.0
140
0.0
140
0.0
140
0.0
140
0.0
140
0.0
140
0.0
140
0.0
140
0.0
140
0.0
140
0.0
140
0.0
140
0.0
140
0.0
140
0.0
140
0.0
140
0.0
140
0.0
140
0.0
140
0.0
140
0.0
140
0.0
140
0.0
140
0.0
140
0.0
140
0.0
140
0.0
140
0.0
140
0.0
140
0.0
140
0.0
140
0.0
140
0.0
140
0.0
140
0.0
140
0.0
140
0.0
140
0.0
140
0.0
140
0.0
140
0.0
140
0.0
140
0.0
140
0.0
140
0.0
140
0.0
140
0.0
140
0.0
140
0.0
140
0.0
140
0.0
140
0.0
140
0.0
140
0.0
140
0.0
140
0.0
140
0.0
140
0.0
140
0.0
140
0.0
140
0.0
140
0.0
140
0.0
140
0.0
140
0.0
140
0.0
140
0.0
140
0.0
140
0.0
140
0.0
140
0.0
140
0.0
140
0.0
140
0.0
140
0.0
140
0.0
140
0.0
140
0.0
140
0.0
140
0.0
140
0.0
140
0.0
140
0.0
140
0.0
140
0.0
140
0.0
140
0.0
140
0.0
140
0.0
140
0.0
140
0.0
140
0.0
140
0.0
140
0.0
140
0.0
140
0.0
140
0.0
140
0.0
140
0.0
140
0.0
140
0.0
140
0.0
140
0.0
140
0.0
140
0.0
140
0.0
140
0.0
140
0.0
140
0.0
140
0.0
140
0.0
140
0.0
140
0.0
140
0.0
140
0.0
140
0.0
140
0.0
140
0.0
140
0.0
140
0.0
140
0.0
140
0.0
140
0.0
140
0.0
140
0.0
140
0.0
140
0.0
140
0.0
140
0.0
140
0.0
140
0.0
140
0.0
140
0.0
140
0.0
140
0.0
140
0.0
140
0.0
140
0.0
140
0.0
140
0.0
140
0.0
140
0.0
140
0.0
140
0.0
140
0.0
140
0.0
140
0.0
140
0.0
140
0.0
140
0.0
140
0.0
140
0.0
140
0.0
140
0.0
140
0.0
140
0.0
140
0.0
140
0.0
140
0.0
140
0.0
140
0.0
140
0.0
140
0.0
140
0.0
140
0.0
140
0.0
140
0.0
140
0.0
140
0.0
140
0.0
140
0.0
140
0.0
140
0.0
140
0.0
140
0.0
140
0.0
140
0.0
140
0.0
140
0.0
140
0.0
140
0.0
140
0.0
140
0.0
140
0.0
140
0.0
140
0.0
140
0.0
140
0.0
140
0.0
140
0.0
140
0.0
140
0.0
140
0.0
140
0.0
140
0.0
140
0.0
140
0.0
140
0.0
140
0.0
140
0.0
140
0.0
140
0.0
140
0.0
140
0.0
140
0.0
140
0.0
140
0.0
140
0.0
140
0.0
140
0.0
140
0.0
140
0.0
140
0.0
140
0.0
140
0.0
140
0.0
140
0.0
140
0.0
140
0.0
140
0.0
140
0.0
140
0.0
140
0.0
 90
        0
  0
POLYLINE
  5
FA
330
1F
100
AcDbEntity
  8
OracDecor_cornice_mouldings
 62
   156
420
   540042
100
AcDb3dPolyline
 66
     1
 10
0.0
 20
0.0
 30
0.0
 70
     9
  0
VERTEX
  5
FB
330
FA
100
AcDbEntity
  8
OracDecor_cornice_mouldings
 62
   156
420
   540042
100
AcDbVertex
100
AcDb3dPolylineVertex
 10
-66.88982391357422
 20
-0.0000034315926314
 30
0.0000094431852631
 70
    32
  0
VERTEX
  5
FC
330
FA
100
AcDbEntity
  8
OracDecor_cornice_mouldings
 62
   156
420
   540042
100
AcDbVertex
100
AcDb3dPolylineVertex
 10
-66.88982391357422
 20
3.189026355743408
 30
0.0000094431852631
 70
    32
  0
VERTEX
  5
FD
330
FA
100
AcDbEntity
  8
OracDecor_cornice_mouldings
 62
   156
420
   540042
100
AcDbVertex
100
AcDb3dPolylineVertex
 10
-66.88982391357422
 20
3.350204944610595
 30
-0.1056004464626312
 70
    32
  0
VERTEX
  5
FE
330
FA
100
AcDbEntity
  8
OracDecor_cornice_mouldings
 62
   156
420
   540042
100
AcDbVertex
100
AcDb3dPolylineVertex
 10
-66.88982391357422
 20
3.522591114044189
 30
-0.4154530465602875
 70
    32
  0
VERTEX
  5
FF
330
FA
100
AcDbEntity
  8
OracDecor_cornice_mouldings
 62
   156
420
   540042
100
AcDbVertex
100
AcDb3dPolylineVertex
 10
-66.88982391357422
 20
3.742260456085205
 30
-0.7073803544044495
 70
    32
  0
VERTEX
  5
100
330
FA
100
AcDbEntity
  8
OracDecor_cornice_mouldings
 62
   156
420
   540042
100
AcDbVertex
100
AcDb3dPolylineVertex
 10
-66.88982391357422
 20
4.01725435256958
 30
-0.9501095414161682
 70
    32
  0
VERTEX
  5
101
330
FA
100
AcDbEntity
  8
OracDecor_cornice_mouldings
 62
   156
420
   540042
100
AcDbVertex
100
AcDb3dPolylineVertex
 10
-66.88982391357422
 20
4.336365222930908
 30
-1.133749127388
 70
    32
  0
VERTEX
  5
102
330
FA
100
AcDbEntity
  8
OracDecor_cornice_mouldings
 62
   156
420
   540042
100
AcDbVertex
100
AcDb3dPolylineVertex
 10
-66.88982391357422
 20
4.686592578887939
 30
-1.250818371772766
 70
    32
  0
VERTEX
  5
103
330
FA
100
AcDbEntity
  8
OracDecor_cornice_mouldings
 62
   156
420
   540042
100
AcDbVertex
100
AcDb3dPolylineVertex
 10
-66.88982391357422
 20
5.053669452667236
 30
-1.296541333198547
 70
    32
  0
VERTEX
  5
104
330
FA
100
AcDbEntity
  8
OracDecor_cornice_mouldings
 62
   156
420
   540042
100
AcDbVertex
100
AcDb3dPolylineVertex
 10
-66.88982391357422
 20
5.422630786895751
 30
-1.269060254096984
 70
    32
  0
VERTEX
  5
105
330
FA
100
AcDbEntity
  8
OracDecor_cornice_mouldings
 62
   156
420
   540042
100
AcDbVertex
100
AcDb3dPolylineVertex
 10
-66.88982391357422
 20
5.778446674346923
 30
-1.169492840766906
 70
    32
  0
VERTEX
  5
106
330
FA
100
AcDbEntity
  8
OracDecor_cornice_mouldings
 62
   156
420
   540042
100
AcDbVertex
100
AcDb3dPolylineVertex
 10
-66.88982391357422
 20
6.106617450714111
 30
-1.001897931098937
 70
    32
  0
VERTEX
  5
107
330
FA
100
AcDbEntity
  8
OracDecor_cornice_mouldings
 62
   156
420
   540042
100
AcDbVertex
100
AcDb3dPolylineVertex
 10
-66.88982391357422
 20
6.393768787384033
 30
-0.773099958896637
 70
    32
  0
VERTEX
  5
108
330
FA
100
AcDbEntity
  8
OracDecor_cornice_mouldings
 62
   156
420
   540042
100
AcDbVertex
100
AcDb3dPolylineVertex
 10
-66.88982391357422
 20
6.628201007843017
 30
-0.4924298226833344
 70
    32
  0
VERTEX
  5
109
330
FA
100
AcDbEntity
  8
OracDecor_cornice_mouldings
 62
   156
420
   540042
100
AcDbVertex
100
AcDb3dPolylineVertex
 10
-66.88982391357422
 20
6.803673267364501
 30
-0.1758061349391937
 70
    32
  0
VERTEX
  5
10A
330
FA
100
AcDbEntity
  8
OracDecor_cornice_mouldings
 62
   156
420
   540042
100
AcDbVertex
100
AcDb3dPolylineVertex
 10
-66.88982391357422
 20
7.010963916778564
 30
0.0000094431852631
 70
    32
  0
VERTEX
  5
10B
330
FA
100
AcDbEntity
  8
OracDecor_cornice_mouldings
 62
   156
420
   540042
100
AcDbVertex
100
AcDb3dPolylineVertex
 10
-66.88982391357422
 20
9.344115257263183
 30
0.0000094431852631
 70
    32
  0
VERTEX
  5
10C
330
FA
100
AcDbEntity
  8
OracDecor_cornice_mouldings
 62
   156
420
   540042
100
AcDbVertex
100
AcDb3dPolylineVertex
 10
-66.88982391357422
 20
9.690615653991699
 30
-0.0666485726833344
 70
    32
  0
VERTEX
  5
10D
330
FA
100
AcDbEntity
  8
OracDecor_cornice_mouldings
 62
   156
420
   540042
100
AcDbVertex
100
AcDb3dPolylineVertex
 10
-66.88982391357422
 20
9.999754905700683
 30
-0.2339459359645843
 70
    32
  0
VERTEX
  5
10E
330
FA
100
AcDbEntity
  8
OracDecor_cornice_mouldings
 62
   156
420
   540042
100
AcDbVertex
100
AcDb3dPolylineVertex
 10
-66.88982391357422
 20
10.22148418426513
 30
-0.5033703446388245
 70
    32
  0
VERTEX
  5
10F
330
FA
100
AcDbEntity
  8
OracDecor_cornice_mouldings
 62
   156
420
   540042
100
AcDbVertex
100
AcDb3dPolylineVertex
 10
-66.88982391357422
 20
10.34861660003662
 30
-0.826341688632965
 70
    32
  0
VERTEX
  5
110
330
FA
100
AcDbEntity
  8
OracDecor_cornice_mouldings
 62
   156
420
   540042
100
AcDbVertex
100
AcDb3dPolylineVertex
 10
-66.88982391357422
 20
11.05618190765381
 30
-4.760461807250976
 70
    32
  0
VERTEX
  5
111
330
FA
100
AcDbEntity
  8
OracDecor_cornice_mouldings
 62
   156
420
   540042
100
AcDbVertex
100
AcDb3dPolylineVertex
 10
-66.88982391357422
 20
11.13870143890381
 30
-5.048002243041992
 70
    32
  0
VERTEX
  5
112
330
FA
100
AcDbEntity
  8
OracDecor_cornice_mouldings
 62
   156
420
   540042
100
AcDbVertex
100
AcDb3dPolylineVertex
 10
-66.88982391357422
 20
11.27769756317138
 30
-5.313806533813476
 70
    32
  0
VERTEX
  5
113
330
FA
100
AcDbEntity
  8
OracDecor_cornice_mouldings
 62
   156
420
   540042
100
AcDbVertex
100
AcDb3dPolylineVertex
 10
-66.88982391357422
 20
11.46765804290771
 30
-5.547342300415039
 70
    32
  0
VERTEX
  5
114
330
FA
100
AcDbEntity
  8
OracDecor_cornice_mouldings
 62
   156
420
   540042
100
AcDbVertex
100
AcDb3dPolylineVertex
 10
-66.88982391357422
 20
11.70106410980224
 30
-5.739347457885742
 70
    32
  0
VERTEX
  5
115
330
FA
100
AcDbEntity
  8
OracDecor_cornice_mouldings
 62
   156
420
   540042
100
AcDbVertex
100
AcDb3dPolylineVertex
 10
-66.88982391357422
 20
11.96863460540771
 30
-5.882204055786132
 70
    32
  0
VERTEX
  5
116
330
FA
100
AcDbEntity
  8
OracDecor_cornice_mouldings
 62
   156
420
   540042
100
AcDbVertex
100
AcDb3dPolylineVertex
 10
-66.88982391357422
 20
12.25977230072021
 30
-5.970247268676757
 70
    32
  0
VERTEX
  5
117
330
FA
100
AcDbEntity
  8
OracDecor_cornice_mouldings
 62
   156
420
   540042
100
AcDbVertex
100
AcDb3dPolylineVertex
 10
-66.88982391357422
 20
12.56294155120849
 30
-5.99998664855957
 70
    32
  0
VERTEX
  5
118
330
FA
100
AcDbEntity
  8
OracDecor_cornice_mouldings
 62
   156
420
   540042
100
AcDbVertex
100
AcDb3dPolylineVertex
 10
-66.88982391357422
 20
37.28990936279297
 30
-5.99998664855957
 70
    32
  0
VERTEX
  5
119
330
FA
100
AcDbEntity
  8
OracDecor_cornice_mouldings
 62
   156
420
   540042
100
AcDbVertex
100
AcDb3dPolylineVertex
 10
-66.88982391357422
 20
37.53954315185547
 30
-5.969575881958007
 70
    32
  0
VERTEX
  5
11A
330
FA
100
AcDbEntity
  8
OracDecor_cornice_mouldings
 62
   156
420
   540042
100
AcDbVertex
100
AcDb3dPolylineVertex
 10
-66.88982391357422
 20
37.77399826049805
 30
-5.880189895629882
 70
    32
  0
VERTEX
  5
11B
330
FA
100
AcDbEntity
  8
OracDecor_cornice_mouldings
 62
   156
420
   540042
100
AcDbVertex
100
AcDb3dPolylineVertex
 10
-66.88982391357422
 20
37.97900772094727
 30
-5.73726463317871
 70
    32
  0
VERTEX
  5
11C
330
FA
100
AcDbEntity
  8
OracDecor_cornice_mouldings
 62
   156
420
   540042
100
AcDbVertex
100
AcDb3dPolylineVertex
 10
-66.88982391357422
 20
38.14210510253906
 30
-5.549493789672851
 70
    32
  0
VERTEX
  5
11D
330
FA
100
AcDbEntity
  8
OracDecor_cornice_mouldings
 62
   156
420
   540042
100
AcDbVertex
100
AcDb3dPolylineVertex
 10
-66.88982391357422
 20
38.25336837768555
 30
-5.328302383422851
 70
    32
  0
VERTEX
  5
11E
330
FA
100
AcDbEntity
  8
OracDecor_cornice_mouldings
 62
   156
420
   540042
100
AcDbVertex
100
AcDb3dPolylineVertex
 10
-66.88982391357422
 20
38.30602645874023
 30
-5.08714485168457
 70
    32
  0
VERTEX
  5
11F
330
FA
100
AcDbEntity
  8
OracDecor_cornice_mouldings
 62
   156
420
   540042
100
AcDbVertex
100
AcDb3dPolylineVertex
 10
-66.88982391357422
 20
38.71926498413086
 30
-0.4564114511013031
 70
    32
  0
VERTEX
  5
120
330
FA
100
AcDbEntity
  8
OracDecor_cornice_mouldings
 62
   156
420
   540042
100
AcDbVertex
100
AcDb3dPolylineVertex
 10
-66.88982391357422
 20
38.7699203491211
 30
-0.2788449227809906
 70
    32
  0
VERTEX
  5
121
330
FA
100
AcDbEntity
  8
OracDecor_cornice_mouldings
 62
   156
420
   540042
100
AcDbVertex
100
AcDb3dPolylineVertex
 10
-66.88982391357422
 20
38.88277435302735
 30
-0.1313496530056
 70
    32
  0
VERTEX
  5
122
330
FA
100
AcDbEntity
  8
OracDecor_cornice_mouldings
 62
   156
420
   540042
100
AcDbVertex
100
AcDb3dPolylineVertex
 10
-66.88982391357422
 20
39.04248428344727
 30
-0.0339833237230778
 70
    32
  0
VERTEX
  5
123
330
FA
100
AcDbEntity
  8
OracDecor_cornice_mouldings
 62
   156
420
   540042
100
AcDbVertex
100
AcDb3dPolylineVertex
 10
-66.88982391357422
 20
39.22732543945313
 30
0.0000132578825287
 70
    32
  0
VERTEX
  5
124
330
FA
100
AcDbEntity
  8
OracDecor_cornice_mouldings
 62
   156
420
   540042
100
AcDbVertex
100
AcDb3dPolylineVertex
 10
-66.88982391357422
 20
41.35266876220703
 30
0.0000132578825287
 70
    32
  0
VERTEX
  5
125
330
FA
100
AcDbEntity
  8
OracDecor_cornice_mouldings
 62
   156
420
   540042
100
AcDbVertex
100
AcDb3dPolylineVertex
 10
-66.88982391357422
 20
41.53750991821289
 30
-0.0339833237230778
 70
    32
  0
VERTEX
  5
126
330
FA
100
AcDbEntity
  8
OracDecor_cornice_mouldings
 62
   156
420
   540042
100
AcDbVertex
100
AcDb3dPolylineVertex
 10
-66.88982391357422
 20
41.69721984863281
 30
-0.1313496530056
 70
    32
  0
VERTEX
  5
127
330
FA
100
AcDbEntity
  8
OracDecor_cornice_mouldings
 62
   156
420
   540042
100
AcDbVertex
100
AcDb3dPolylineVertex
 10
-66.88982391357422
 20
41.81007385253906
 30
-0.2788449227809906
 70
    32
  0
VERTEX
  5
128
330
FA
100
AcDbEntity
  8
OracDecor_cornice_mouldings
 62
   156
420
   540042
100
AcDbVertex
100
AcDb3dPolylineVertex
 10
-66.88982391357422
 20
41.86072540283203
 30
-0.4564114511013031
 70
    32
  0
VERTEX
  5
129
330
FA
100
AcDbEntity
  8
OracDecor_cornice_mouldings
 62
   156
420
   540042
100
AcDbVertex
100
AcDb3dPolylineVertex
 10
-66.88982391357422
 20
42.27396774291992
 30
-5.087141036987304
 70
    32
  0
VERTEX
  5
12A
330
FA
100
AcDbEntity
  8
OracDecor_cornice_mouldings
 62
   156
420
   540042
100
AcDbVertex
100
AcDb3dPolylineVertex
 10
-66.88982391357422
 20
42.32662582397461
 30
-5.328302383422851
 70
    32
  0
VERTEX
  5
12B
330
FA
100
AcDbEntity
  8
OracDecor_cornice_mouldings
 62
   156
420
   540042
100
AcDbVertex
100
AcDb3dPolylineVertex
 10
-66.88982391357422
 20
42.43788528442382
 30
-5.549493789672851
 70
    32
  0
VERTEX
  5
12C
330
FA
100
AcDbEntity
  8
OracDecor_cornice_mouldings
 62
   156
420
   540042
100
AcDbVertex
100
AcDb3dPolylineVertex
 10
-66.88982391357422
 20
42.60098266601562
 30
-5.73726463317871
 70
    32
  0
VERTEX
  5
12D
330
FA
100
AcDbEntity
  8
OracDecor_cornice_mouldings
 62
   156
420
   540042
100
AcDbVertex
100
AcDb3dPolylineVertex
 10
-66.88982391357422
 20
42.8059959411621
 30
-5.880186080932617
 70
    32
  0
VERTEX
  5
12E
330
FA
100
AcDbEntity
  8
OracDecor_cornice_mouldings
 62
   156
420
   540042
100
AcDbVertex
100
AcDb3dPolylineVertex
 10
-66.88982391357422
 20
43.04045104980469
 30
-5.969575881958007
 70
    32
  0
VERTEX
  5
12F
330
FA
100
AcDbEntity
  8
OracDecor_cornice_mouldings
 62
   156
420
   540042
100
AcDbVertex
100
AcDb3dPolylineVertex
 10
-66.88982391357422
 20
43.29008483886719
 30
-5.99998664855957
 70
    32
  0
VERTEX
  5
130
330
FA
100
AcDbEntity
  8
OracDecor_cornice_mouldings
 62
   156
420
   540042
100
AcDbVertex
100
AcDb3dPolylineVertex
 10
-66.88982391357422
 20
58.70990753173828
 30
-5.99998664855957
 70
    32
  0
VERTEX
  5
131
330
FA
100
AcDbEntity
  8
OracDecor_cornice_mouldings
 62
   156
420
   540042
100
AcDbVertex
100
AcDb3dPolylineVertex
 10
-66.88982391357422
 20
58.95954132080078
 30
-5.969575881958007
 70
    32
  0
VERTEX
  5
132
330
FA
100
AcDbEntity
  8
OracDecor_cornice_mouldings
 62
   156
420
   540042
100
AcDbVertex
100
AcDb3dPolylineVertex
 10
-66.88982391357422
 20
59.19399642944336
 30
-5.880189895629882
 70
    32
  0
VERTEX
  5
133
330
FA
100
AcDbEntity
  8
OracDecor_cornice_mouldings
 62
   156
420
   540042
100
AcDbVertex
100
AcDb3dPolylineVertex
 10
-66.88982391357422
 20
59.39900970458984
 30
-5.73726463317871
 70
    32
  0
VERTEX
  5
134
330
FA
100
AcDbEntity
  8
OracDecor_cornice_mouldings
 62
   156
420
   540042
100
AcDbVertex
100
AcDb3dPolylineVertex
 10
-66.88982391357422
 20
59.56210708618164
 30
-5.549493789672851
 70
    32
  0
VERTEX
  5
135
330
FA
100
AcDbEntity
  8
OracDecor_cornice_mouldings
 62
   156
420
   540042
100
AcDbVertex
100
AcDb3dPolylineVertex
 10
-66.88982391357422
 20
59.67336654663085
 30
-5.328302383422851
 70
    32
  0
VERTEX
  5
136
330
FA
100
AcDbEntity
  8
OracDecor_cornice_mouldings
 62
   156
420
   540042
100
AcDbVertex
100
AcDb3dPolylineVertex
 10
-66.88982391357422
 20
59.72602462768555
 30
-5.087141036987304
 70
    32
  0
VERTEX
  5
137
330
FA
100
AcDbEntity
  8
OracDecor_cornice_mouldings
 62
   156
420
   540042
100
AcDbVertex
100
AcDb3dPolylineVertex
 10
-66.88982391357422
 20
60.13926696777343
 30
-0.4564076364040375
 70
    32
  0
VERTEX
  5
138
330
FA
100
AcDbEntity
  8
OracDecor_cornice_mouldings
 62
   156
420
   540042
100
AcDbVertex
100
AcDb3dPolylineVertex
 10
-66.88982391357422
 20
60.1899185180664
 30
-0.2788449227809906
 70
    32
  0
VERTEX
  5
139
330
FA
100
AcDbEntity
  8
OracDecor_cornice_mouldings
 62
   156
420
   540042
100
AcDbVertex
100
AcDb3dPolylineVertex
 10
-66.88982391357422
 20
60.30277252197265
 30
-0.1313496530056
 70
    32
  0
VERTEX
  5
13A
330
FA
100
AcDbEntity
  8
OracDecor_cornice_mouldings
 62
   156
420
   540042
100
AcDbVertex
100
AcDb3dPolylineVertex
 10
-66.88982391357422
 20
60.46248245239258
 30
-0.0339795090258122
 70
    32
  0
VERTEX
  5
13B
330
FA
100
AcDbEntity
  8
OracDecor_cornice_mouldings
 62
   156
420
   540042
100
AcDbVertex
100
AcDb3dPolylineVertex
 10
-66.88982391357422
 20
60.64732360839844
 30
0.0000170725797943
 70
    32
  0
VERTEX
  5
13C
330
FA
100
AcDbEntity
  8
OracDecor_cornice_mouldings
 62
   156
420
   540042
100
AcDbVertex
100
AcDb3dPolylineVertex
 10
-66.88982391357422
 20
62.77266693115234
 30
0.0000132578825287
 70
    32
  0
VERTEX
  5
13D
330
FA
100
AcDbEntity
  8
OracDecor_cornice_mouldings
 62
   156
420
   540042
100
AcDbVertex
100
AcDb3dPolylineVertex
 10
-66.88982391357422
 20
62.9575080871582
 30
-0.0339833237230778
 70
    32
  0
VERTEX
  5
13E
330
FA
100
AcDbEntity
  8
OracDecor_cornice_mouldings
 62
   156
420
   540042
100
AcDbVertex
100
AcDb3dPolylineVertex
 10
-66.88982391357422
 20
63.11721801757812
 30
-0.1313496530056
 70
    32
  0
VERTEX
  5
13F
330
FA
100
AcDbEntity
  8
OracDecor_cornice_mouldings
 62
   156
420
   540042
100
AcDbVertex
100
AcDb3dPolylineVertex
 10
-66.88982391357422
 20
63.23007202148438
 30
-0.2788449227809906
 70
    32
  0
VERTEX
  5
140
330
FA
100
AcDbEntity
  8
OracDecor_cornice_mouldings
 62
   156
420
   540042
100
AcDbVertex
100
AcDb3dPolylineVertex
 10
-66.88982391357422
 20
63.28072357177735
 30
-0.4564076364040375
 70
    32
  0
VERTEX
  5
141
330
FA
100
AcDbEntity
  8
OracDecor_cornice_mouldings
 62
   156
420
   540042
100
AcDbVertex
100
AcDb3dPolylineVertex
 10
-66.88982391357422
 20
63.69396209716796
 30
-5.087141036987304
 70
    32
  0
VERTEX
  5
142
330
FA
100
AcDbEntity
  8
OracDecor_cornice_mouldings
 62
   156
420
   540042
100
AcDbVertex
100
AcDb3dPolylineVertex
 10
-66.88982391357422
 20
63.74662017822266
 30
-5.328298568725585
 70
    32
  0
VERTEX
  5
143
330
FA
100
AcDbEntity
  8
OracDecor_cornice_mouldings
 62
   156
420
   540042
100
AcDbVertex
100
AcDb3dPolylineVertex
 10
-66.88982391357422
 20
63.85788726806641
 30
-5.549493789672851
 70
    32
  0
VERTEX
  5
144
330
FA
100
AcDbEntity
  8
OracDecor_cornice_mouldings
 62
   156
420
   540042
100
AcDbVertex
100
AcDb3dPolylineVertex
 10
-66.88982391357422
 20
64.02098846435547
 30
-5.73726463317871
 70
    32
  0
VERTEX
  5
145
330
FA
100
AcDbEntity
  8
OracDecor_cornice_mouldings
 62
   156
420
   540042
100
AcDbVertex
100
AcDb3dPolylineVertex
 10
-66.88982391357422
 20
64.22599029541015
 30
-5.880186080932617
 70
    32
  0
VERTEX
  5
146
330
FA
100
AcDbEntity
  8
OracDecor_cornice_mouldings
 62
   156
420
   540042
100
AcDbVertex
100
AcDb3dPolylineVertex
 10
-66.88982391357422
 20
64.46044158935547
 30
-5.969575881958007
 70
    32
  0
VERTEX
  5
147
330
FA
100
AcDbEntity
  8
OracDecor_cornice_mouldings
 62
   156
420
   540042
100
AcDbVertex
100
AcDb3dPolylineVertex
 10
-66.88982391357422
 20
64.71009063720703
 30
-5.99998664855957
 70
    32
  0
VERTEX
  5
148
330
FA
100
AcDbEntity
  8
OracDecor_cornice_mouldings
 62
   156
420
   540042
100
AcDbVertex
100
AcDb3dPolylineVertex
 10
-66.88981628417969
 20
89.43704986572265
 30
-5.999982833862304
 70
    32
  0
VERTEX
  5
149
330
FA
100
AcDbEntity
  8
OracDecor_cornice_mouldings
 62
   156
420
   540042
100
AcDbVertex
100
AcDb3dPolylineVertex
 10
-66.88981628417969
 20
89.74022674560547
 30
-5.970243453979492
 70
    32
  0
VERTEX
  5
14A
330
FA
100
AcDbEntity
  8
OracDecor_cornice_mouldings
 62
   156
420
   540042
100
AcDbVertex
100
AcDb3dPolylineVertex
 10
-66.88981628417969
 20
90.03134918212891
 30
-5.882200241088867
 70
    32
  0
VERTEX
  5
14B
330
FA
100
AcDbEntity
  8
OracDecor_cornice_mouldings
 62
   156
420
   540042
100
AcDbVertex
100
AcDb3dPolylineVertex
 10
-66.88981628417969
 20
90.29892730712891
 30
-5.739343643188476
 70
    32
  0
VERTEX
  5
14C
330
FA
100
AcDbEntity
  8
OracDecor_cornice_mouldings
 62
   156
420
   540042
100
AcDbVertex
100
AcDb3dPolylineVertex
 10
-66.88981628417969
 20
90.5323257446289
 30
-5.547338485717773
 70
    32
  0
VERTEX
  5
14D
330
FA
100
AcDbEntity
  8
OracDecor_cornice_mouldings
 62
   156
420
   540042
100
AcDbVertex
100
AcDb3dPolylineVertex
 10
-66.88981628417969
 20
90.72229766845703
 30
-5.31380271911621
 70
    32
  0
VERTEX
  5
14E
330
FA
100
AcDbEntity
  8
OracDecor_cornice_mouldings
 62
   156
420
   540042
100
AcDbVertex
100
AcDb3dPolylineVertex
 10
-66.88981628417969
 20
90.86128997802735
 30
-5.047998428344726
 70
    32
  0
VERTEX
  5
14F
330
FA
100
AcDbEntity
  8
OracDecor_cornice_mouldings
 62
   156
420
   540042
100
AcDbVertex
100
AcDb3dPolylineVertex
 10
-66.88981628417969
 20
90.94380950927734
 30
-4.76045799255371
 70
    32
  0
VERTEX
  5
150
330
FA
100
AcDbEntity
  8
OracDecor_cornice_mouldings
 62
   156
420
   540042
100
AcDbVertex
100
AcDb3dPolylineVertex
 10
-66.88982391357422
 20
91.65137481689454
 30
-0.8263378739356994
 70
    32
  0
VERTEX
  5
151
330
FA
100
AcDbEntity
  8
OracDecor_cornice_mouldings
 62
   156
420
   540042
100
AcDbVertex
100
AcDb3dPolylineVertex
 10
-66.88982391357422
 20
91.77849578857422
 30
-0.5033665299415589
 70
    32
  0
VERTEX
  5
152
330
FA
100
AcDbEntity
  8
OracDecor_cornice_mouldings
 62
   156
420
   540042
100
AcDbVertex
100
AcDb3dPolylineVertex
 10
-66.88982391357422
 20
92.00023651123046
 30
-0.2339421212673187
 70
    32
  0
VERTEX
  5
153
330
FA
100
AcDbEntity
  8
OracDecor_cornice_mouldings
 62
   156
420
   540042
100
AcDbVertex
100
AcDb3dPolylineVertex
 10
-66.88982391357422
 20
92.30937957763671
 30
-0.0666447579860687
 70
    32
  0
VERTEX
  5
154
330
FA
100
AcDbEntity
  8
OracDecor_cornice_mouldings
 62
   156
420
   540042
100
AcDbVertex
100
AcDb3dPolylineVertex
 10
-66.88982391357422
 20
92.65587615966797
 30
0.0000132578825287
 70
    32
  0
VERTEX
  5
155
330
FA
100
AcDbEntity
  8
OracDecor_cornice_mouldings
 62
   156
420
   540042
100
AcDbVertex
100
AcDb3dPolylineVertex
 10
-66.88982391357422
 20
94.98902130126953
 30
0.0000170725797943
 70
    32
  0
VERTEX
  5
156
330
FA
100
AcDbEntity
  8
OracDecor_cornice_mouldings
 62
   156
420
   540042
100
AcDbVertex
100
AcDb3dPolylineVertex
 10
-66.88982391357422
 20
95.15021514892579
 30
-0.1055966317653656
 70
    32
  0
VERTEX
  5
157
330
FA
100
AcDbEntity
  8
OracDecor_cornice_mouldings
 62
   156
420
   540042
100
AcDbVertex
100
AcDb3dPolylineVertex
 10
-66.88982391357422
 20
95.32259368896484
 30
-0.4154492318630219
 70
    32
  0
VERTEX
  5
158
330
FA
100
AcDbEntity
  8
OracDecor_cornice_mouldings
 62
   156
420
   540042
100
AcDbVertex
100
AcDb3dPolylineVertex
 10
-66.88982391357422
 20
95.54225921630859
 30
-0.7073765397071839
 70
    32
  0
VERTEX
  5
159
330
FA
100
AcDbEntity
  8
OracDecor_cornice_mouldings
 62
   156
420
   540042
100
AcDbVertex
100
AcDb3dPolylineVertex
 10
-66.88982391357422
 20
95.81725311279297
 30
-0.9501057267189025
 70
    32
  0
VERTEX
  5
15A
330
FA
100
AcDbEntity
  8
OracDecor_cornice_mouldings
 62
   156
420
   540042
100
AcDbVertex
100
AcDb3dPolylineVertex
 10
-66.88982391357422
 20
96.13636016845703
 30
-1.133745312690734
 70
    32
  0
VERTEX
  5
15B
330
FA
100
AcDbEntity
  8
OracDecor_cornice_mouldings
 62
   156
420
   540042
100
AcDbVertex
100
AcDb3dPolylineVertex
 10
-66.88982391357422
 20
96.4865951538086
 30
-1.2508145570755
 70
    32
  0
VERTEX
  5
15C
330
FA
100
AcDbEntity
  8
OracDecor_cornice_mouldings
 62
   156
420
   540042
100
AcDbVertex
100
AcDb3dPolylineVertex
 10
-66.88982391357422
 20
96.85366058349609
 30
-1.296537518501281
 70
    32
  0
VERTEX
  5
15D
330
FA
100
AcDbEntity
  8
OracDecor_cornice_mouldings
 62
   156
420
   540042
100
AcDbVertex
100
AcDb3dPolylineVertex
 10
-66.88982391357422
 20
97.2226333618164
 30
-1.269056439399719
 70
    32
  0
VERTEX
  5
15E
330
FA
100
AcDbEntity
  8
OracDecor_cornice_mouldings
 62
   156
420
   540042
100
AcDbVertex
100
AcDb3dPolylineVertex
 10
-66.88982391357422
 20
97.57845306396484
 30
-1.169489026069641
 70
    32
  0
VERTEX
  5
15F
330
FA
100
AcDbEntity
  8
OracDecor_cornice_mouldings
 62
   156
420
   540042
100
AcDbVertex
100
AcDb3dPolylineVertex
 10
-66.88982391357422
 20
97.90662384033204
 30
-1.001890301704406
 70
    32
  0
VERTEX
  5
160
330
FA
100
AcDbEntity
  8
OracDecor_cornice_mouldings
 62
   156
420
   540042
100
AcDbVertex
100
AcDb3dPolylineVertex
 10
-66.88982391357422
 20
98.19376373291015
 30
-0.7730961441993714
 70
    32
  0
VERTEX
  5
161
330
FA
100
AcDbEntity
  8
OracDecor_cornice_mouldings
 62
   156
420
   540042
100
AcDbVertex
100
AcDb3dPolylineVertex
 10
-66.88982391357422
 20
98.42819976806641
 30
-0.4924221932888031
 70
    32
  0
VERTEX
  5
162
330
FA
100
AcDbEntity
  8
OracDecor_cornice_mouldings
 62
   156
420
   540042
100
AcDbVertex
100
AcDb3dPolylineVertex
 10
-66.88982391357422
 20
98.60367584228516
 30
-0.1758023202419281
 70
    32
  0
VERTEX
  5
163
330
FA
100
AcDbEntity
  8
OracDecor_cornice_mouldings
 62
   156
420
   540042
100
AcDbVertex
100
AcDb3dPolylineVertex
 10
-66.88982391357422
 20
98.81096649169922
 30
0.0000170725797943
 70
    32
  0
VERTEX
  5
164
330
FA
100
AcDbEntity
  8
OracDecor_cornice_mouldings
 62
   156
420
   540042
100
AcDbVertex
100
AcDb3dPolylineVertex
 10
-66.88982391357422
 20
101.9999923706054
 30
0.0000170725797943
 70
    32
  0
VERTEX
  5
165
330
FA
100
AcDbEntity
  8
OracDecor_cornice_mouldings
 62
   156
420
   540042
100
AcDbVertex
100
AcDb3dPolylineVertex
 10
-66.88981628417969
 20
101.9999923706054
 30
-12.49998760223389
 70
    32
  0
VERTEX
  5
166
330
FA
100
AcDbEntity
  8
OracDecor_cornice_mouldings
 62
   156
420
   540042
100
AcDbVertex
100
AcDb3dPolylineVertex
 10
-66.88981628417969
 20
101.9755020141601
 30
-12.65453243255615
 70
    32
  0
VERTEX
  5
167
330
FA
100
AcDbEntity
  8
OracDecor_cornice_mouldings
 62
   156
420
   540042
100
AcDbVertex
100
AcDb3dPolylineVertex
 10
-66.88981628417969
 20
101.9044876098633
 30
-12.79389095306396
 70
    32
  0
VERTEX
  5
168
330
FA
100
AcDbEntity
  8
OracDecor_cornice_mouldings
 62
   156
420
   540042
100
AcDbVertex
100
AcDb3dPolylineVertex
 10
-66.88981628417969
 20
101.7939071655273
 30
-12.90447521209717
 70
    32
  0
VERTEX
  5
169
330
FA
100
AcDbEntity
  8
OracDecor_cornice_mouldings
 62
   156
420
   540042
100
AcDbVertex
100
AcDb3dPolylineVertex
 10
-66.88981628417969
 20
101.6545486450195
 30
-12.97549724578857
 70
    32
  0
VERTEX
  5
16A
330
FA
100
AcDbEntity
  8
OracDecor_cornice_mouldings
 62
   156
420
   540042
100
AcDbVertex
100
AcDb3dPolylineVertex
 10
-66.88981628417969
 20
101.4999923706054
 30
-12.99998760223388
 70
    32
  0
VERTEX
  5
16B
330
FA
100
AcDbEntity
  8
OracDecor_cornice_mouldings
 62
   156
420
   540042
100
AcDbVertex
100
AcDb3dPolylineVertex
 10
-66.88982391357422
 20
0.4999965727329255
 30
-12.99999141693115
 70
    32
  0
VERTEX
  5
16C
330
FA
100
AcDbEntity
  8
OracDecor_cornice_mouldings
 62
   156
420
   540042
100
AcDbVertex
100
AcDb3dPolylineVertex
 10
-66.88982391357422
 20
0.3454479277133942
 30
-12.97550106048584
 70
    32
  0
VERTEX
  5
16D
330
FA
100
AcDbEntity
  8
OracDecor_cornice_mouldings
 62
   156
420
   540042
100
AcDbVertex
100
AcDb3dPolylineVertex
 10
-66.88982391357422
 20
0.2060932070016861
 30
-12.90447902679443
 70
    32
  0
VERTEX
  5
16E
330
FA
100
AcDbEntity
  8
OracDecor_cornice_mouldings
 62
   156
420
   540042
100
AcDbVertex
100
AcDb3dPolylineVertex
 10
-66.88982391357422
 20
0.0955089628696442
 30
-12.79389095306396
 70
    32
  0
VERTEX
  5
16F
330
FA
100
AcDbEntity
  8
OracDecor_cornice_mouldings
 62
   156
420
   540042
100
AcDbVertex
100
AcDb3dPolylineVertex
 10
-66.88982391357422
 20
0.0244869254529476
 30
-12.65454006195068
 70
    32
  0
VERTEX
  5
170
330
FA
100
AcDbEntity
  8
OracDecor_cornice_mouldings
 62
   156
420
   540042
100
AcDbVertex
100
AcDb3dPolylineVertex
 10
-66.88982391357422
 20
-0.0000034315926314
 30
-12.49999141693115
 70
    32
  0
SEQEND
  5
171
330
FA
100
AcDbEntity
  8
OracDecor_cornice_mouldings
 62
   156
420
   540042
  0
ENDSEC
  0
SECTION
  2
OBJECTS
  0
DICTIONARY
  5
C
330
0
100
AcDbDictionary
281
     1
  3
ACAD_COLOR
350
DC
  3
ACAD_DETAILVIEWSTYLE
350
F5
  3
ACAD_GROUP
350
D
  3
ACAD_LAYOUT
350
1A
  3
ACAD_MATERIAL
350
AA
  3
ACAD_MLEADERSTYLE
350
F1
  3
ACAD_MLINESTYLE
350
17
  3
ACAD_PLOTSETTINGS
350
19
  3
ACAD_PLOTSTYLENAME
350
E
  3
ACAD_SCALELIST
350
DF
  3
ACAD_SECTIONVIEWSTYLE
350
F3
  3
ACAD_TABLESTYLE
350
DD
  3
ACAD_VISUALSTYLE
350
C3
  3
ACDB_RECOMPOSE_DATA
350
17E
  3
AcDbVariableDictionary
350
172
  0
DICTIONARY
  5
DC
102
{ACAD_REACTORS
330
C
102
}
330
C
100
AcDbDictionary
281
     1
  0
DICTIONARY
  5
F5
102
{ACAD_REACTORS
330
C
102
}
330
C
100
AcDbDictionary
281
     1
  3
Imperial24
350
F6
  0
DICTIONARY
  5
D
102
{ACAD_REACTORS
330
C
102
}
330
C
100
AcDbDictionary
281
     1
  0
DICTIONARY
  5
1A
102
{ACAD_REACTORS
330
C
102
}
330
C
100
AcDbDictionary
281
     1
  3
Layout1
350
1E
  3
Layout2
350
26
  3
Model
350
22
  0
DICTIONARY
  5
AA
102
{ACAD_REACTORS
330
C
102
}
330
C
100
AcDbDictionary
281
     1
  3
ByBlock
350
B3
  3
ByLayer
350
AB
  3
Global
350
BB
  0
DICTIONARY
  5
F1
102
{ACAD_REACTORS
330
C
102
}
330
C
100
AcDbDictionary
281
     1
  3
Standard
350
F2
  0
DICTIONARY
  5
17
102
{ACAD_REACTORS
330
C
102
}
330
C
100
AcDbDictionary
281
     1
  3
Standard
350
18
  0
DICTIONARY
  5
19
102
{ACAD_REACTORS
330
C
102
}
330
C
100
AcDbDictionary
281
     1
  0
ACDBDICTIONARYWDFLT
  5
E
102
{ACAD_REACTORS
330
C
102
}
330
C
100
AcDbDictionary
281
     1
  3
ByLayer
350
2D
  3
Normal
350
F
100
AcDbDictionaryWithDefault
340
F
  0
DICTIONARY
  5
DF
102
{ACAD_REACTORS
330
C
102
}
330
C
100
AcDbDictionary
281
     1
  3
A0
350
E0
  3
A1
350
E1
  3
A2
350
E2
  3
A3
350
E3
  3
A4
350
E4
  3
A5
350
E5
  3
A6
350
E6
  3
A7
350
E7
  3
A8
350
E8
  3
A9
350
E9
  3
B0
350
EA
  3
B1
350
EB
  3
B2
350
EC
  3
B3
350
ED
  3
B4
350
EE
  3
B5
350
EF
  3
B6
350
F0
  0
DICTIONARY
  5
F3
102
{ACAD_REACTORS
330
C
102
}
330
C
100
AcDbDictionary
281
     1
  3
Imperial24
350
F4
  0
DICTIONARY
  5
DD
102
{ACAD_REACTORS
330
C
102
}
330
C
100
AcDbDictionary
281
     1
  3
Standard
350
DE
  0
DICTIONARY
  5
C3
102
{ACAD_REACTORS
330
C
102
}
330
C
100
AcDbDictionary
281
     1
  3
2dWireframe
350
C9
  3
Basic
350
C8
  3
Brighten
350
CF
  3
ColorChange
350
D3
  3
Conceptual
350
CC
  3
Dim
350
CE
  3
EdgeColorOff
350
DB
  3
Facepattern
350
D2
  3
Flat
350
C4
  3
FlatWithEdges
350
C5
  3
Gouraud
350
C6
  3
GouraudWithEdges
350
C7
  3
Hidden
350
CB
  3
JitterOff
350
D9
  3
Linepattern
350
D1
  3
OverhangOff
350
DA
  3
Realistic
350
CD
  3
Shaded
350
D8
  3
Shaded with edges
350
D7
  3
Shades of Gray
350
D4
  3
Sketchy
350
D5
  3
Thicken
350
D0
  3
Wireframe
350
CA
  3
X-Ray
350
D6
  0
XRECORD
  5
17E
102
{ACAD_REACTORS
330
C
102
}
330
C
100
AcDbXrecord
280
     1
 90
        1
330
DE
  0
DICTIONARY
  5
172
102
{ACAD_REACTORS
330
C
102
}
330
C
100
AcDbDictionary
281
     1
  3
CANNOSCALE
350
178
  3
CMLEADERSTYLE
350
174
  3
CTABLESTYLE
350
173
  3
CVIEWDETAILSTYLE
350
175
  3
CVIEWSECTIONSTYLE
350
176
  3
LAYEREVAL
350
17A
  3
LAYERNOTIFY
350
17B
  3
LIGHTINGUNITS
350
179
  3
MSLTSCALE
350
177
  0
ACDBDETAILVIEWSTYLE
  5
F6
102
{ACAD_XDICTIONARY
360
1B3
102
}
102
{ACAD_REACTORS
330
F5
102
}
330
F5
100
AcDbModelDocViewStyle
 70
     0
  3
Imperial24
290
     0
100
AcDbDetailViewStyle
 70
     0
 71
     0
 90
        3
 71
     1
340
11
 62
   256
 40
0.24
340
0
 62
   256
 40
0.24
300

 40
0.36
280
     3
 71
     2
340
16
 90
       25
 62
   256
 71
     3
340
11
 62
   256
 40
0.24
 90
        1
 40
0.75
 90
        1
300
%<\AcVar ViewType \f "%tc1">% %<\AcVar ViewDetailId>%\PSCALE %<\AcVar ViewScale \f "%sn">%
 71
     4
340
16
 90
       25
 62
   256
340
16
 90
       25
 62
   256
280
     0
  0
LAYOUT
  5
1E
102
{ACAD_REACTORS
330
1A
102
}
330
1A
100
AcDbPlotSettings
  1

  2
\\KTXNTBDC\CASF2PN1
  4

  6

 40
0.0
 41
0.0
 42
0.0
 43
0.0
 44
0.0
 45
0.0
 46
0.0
 47
0.0
 48
0.0
 49
0.0
140
0.0
141
0.0
142
1.0
143
1.0
 70
   688
 72
     0
 73
     0
 74
     5
  7

 75
    16
147
1.0
 76
     0
 77
     2
 78
   300
148
0.0
149
0.0
100
AcDbLayout
  1
Layout1
 70
     1
 71
     1
 10
0.0
 20
0.0
 11
12.0
 21
9.0
 12
0.0
 22
0.0
 32
0.0
 14
1.000000000000000E+20
 24
1.000000000000000E+20
 34
1.000000000000000E+20
 15
-1.000000000000000E+20
 25
-1.000000000000000E+20
 35
-1.000000000000000E+20
146
0.0
 13
0.0
 23
0.0
 33
0.0
 16
1.0
 26
0.0
 36
0.0
 17
0.0
 27
1.0
 37
0.0
 76
     0
330
1B
  0
LAYOUT
  5
26
102
{ACAD_REACTORS
330
1A
102
}
330
1A
100
AcDbPlotSettings
  1

  2
\\KTXNTBDC\CASF2PN1
  4

  6

 40
0.0
 41
0.0
 42
0.0
 43
0.0
 44
0.0
 45
0.0
 46
0.0
 47
0.0
 48
0.0
 49
0.0
140
0.0
141
0.0
142
1.0
143
1.0
 70
   688
 72
     0
 73
     0
 74
     5
  7

 75
    16
147
1.0
 76
     0
 77
     2
 78
   300
148
0.0
149
0.0
100
AcDbLayout
  1
Layout2
 70
     1
 71
     2
 10
0.0
 20
0.0
 11
12.0
 21
9.0
 12
0.0
 22
0.0
 32
0.0
 14
0.0
 24
0.0
 34
0.0
 15
0.0
 25
0.0
 35
0.0
146
0.0
 13
0.0
 23
0.0
 33
0.0
 16
1.0
 26
0.0
 36
0.0
 17
0.0
 27
1.0
 37
0.0
 76
     0
330
23
  0
LAYOUT
  5
22
102
{ACAD_REACTORS
330
1A
102
}
330
1A
100
AcDbPlotSettings
  1

  2
\\KTXNTBDC\CASF2PN1
  4

  6

 40
0.0
 41
0.0
 42
0.0
 43
0.0
 44
0.0
 45
0.0
 46
0.0
 47
0.0
 48
0.0
 49
0.0
140
0.0
141
0.0
142
1.0
143
1.0
 70
  1712
 72
     0
 73
     0
 74
     0
  7

 75
     0
147
1.0
 76
     0
 77
     2
 78
   300
148
0.0
149
0.0
100
AcDbLayout
  1
Model
 70
     1
 71
     0
 10
0.0
 20
0.0
 11
12.0
 21
9.0
 12
0.0
 22
0.0
 32
0.0
 14
0.0
 24
0.0
 34
0.0
 15
0.0
 25
0.0
 35
0.0
146
0.0
 13
0.0
 23
0.0
 33
0.0
 16
1.0
 26
0.0
 36
0.0
 17
0.0
 27
1.0
 37
0.0
 76
     0
330
1F
  0
MATERIAL
  5
B3
102
{ACAD_XDICTIONARY
360
B4
102
}
102
{ACAD_REACTORS
330
AA
102
}
330
AA
100
AcDbMaterial
  1
ByBlock
 72
     0
 43
0.0208333333333333
 43
0.0
 43
0.0
 43
0.0
 43
0.0
 43
0.0208333333333333
 43
0.0
 43
0.0
 43
0.0
 43
0.0
 43
1.0
 43
0.0
 43
0.0
 43
0.0
 43
0.0
 43
1.0
 77
     0
 47
0.0208333333333333
 47
0.0
 47
0.0
 47
0.0
 47
0.0
 47
0.0208333333333333
 47
0.0
 47
0.0
 47
0.0
 47
0.0
 47
1.0
 47
0.0
 47
0.0
 47
0.0
 47
0.0
 47
1.0
171
     0
 49
0.0208333333333333
 49
0.0
 49
0.0
 49
0.0
 49
0.0
 49
0.0208333333333333
 49
0.0
 49
0.0
 49
0.0
 49
0.0
 49
1.0
 49
0.0
 49
0.0
 49
0.0
 49
0.0
 49
1.0
175
     0
142
0.0208333333333333
142
0.0
142
0.0
142
0.0
142
0.0
142
0.0208333333333333
142
0.0
142
0.0
142
0.0
142
0.0
142
1.0
142
0.0
142
0.0
142
0.0
142
0.0
142
1.0
179
     0
144
0.0208333333333333
144
0.0
144
0.0
144
0.0
144
0.0
144
0.0208333333333333
144
0.0
144
0.0
144
0.0
144
0.0
144
1.0
144
0.0
144
0.0
144
0.0
144
0.0
144
1.0
147
0.0208333333333333
147
0.0
147
0.0
147
0.0
147
0.0
147
0.0208333333333333
147
0.0
147
0.0
147
0.0
147
0.0
147
1.0
147
0.0
147
0.0
147
0.0
147
0.0
147
1.0
  0
MATERIAL
  5
AB
102
{ACAD_XDICTIONARY
360
AC
102
}
102
{ACAD_REACTORS
330
AA
102
}
330
AA
100
AcDbMaterial
  1
ByLayer
 72
     0
 43
0.0208333333333333
 43
0.0
 43
0.0
 43
0.0
 43
0.0
 43
0.0208333333333333
 43
0.0
 43
0.0
 43
0.0
 43
0.0
 43
1.0
 43
0.0
 43
0.0
 43
0.0
 43
0.0
 43
1.0
 77
     0
 47
0.0208333333333333
 47
0.0
 47
0.0
 47
0.0
 47
0.0
 47
0.0208333333333333
 47
0.0
 47
0.0
 47
0.0
 47
0.0
 47
1.0
 47
0.0
 47
0.0
 47
0.0
 47
0.0
 47
1.0
171
     0
 49
0.0208333333333333
 49
0.0
 49
0.0
 49
0.0
 49
0.0
 49
0.0208333333333333
 49
0.0
 49
0.0
 49
0.0
 49
0.0
 49
1.0
 49
0.0
 49
0.0
 49
0.0
 49
0.0
 49
1.0
175
     0
142
0.0208333333333333
142
0.0
142
0.0
142
0.0
142
0.0
142
0.0208333333333333
142
0.0
142
0.0
142
0.0
142
0.0
142
1.0
142
0.0
142
0.0
142
0.0
142
0.0
142
1.0
179
     0
144
0.0208333333333333
144
0.0
144
0.0
144
0.0
144
0.0
144
0.0208333333333333
144
0.0
144
0.0
144
0.0
144
0.0
144
1.0
144
0.0
144
0.0
144
0.0
144
0.0
144
1.0
147
0.0208333333333333
147
0.0
147
0.0
147
0.0
147
0.0
147
0.0208333333333333
147
0.0
147
0.0
147
0.0
147
0.0
147
1.0
147
0.0
147
0.0
147
0.0
147
0.0
147
1.0
  0
MATERIAL
  5
BB
102
{ACAD_XDICTIONARY
360
BC
102
}
102
{ACAD_REACTORS
330
AA
102
}
330
AA
100
AcDbMaterial
  1
Global
 72
     0
 43
0.0208333333333333
 43
0.0
 43
0.0
 43
0.0
 43
0.0
 43
0.0208333333333333
 43
0.0
 43
0.0
 43
0.0
 43
0.0
 43
1.0
 43
0.0
 43
0.0
 43
0.0
 43
0.0
 43
1.0
 77
     0
 47
0.0208333333333333
 47
0.0
 47
0.0
 47
0.0
 47
0.0
 47
0.0208333333333333
 47
0.0
 47
0.0
 47
0.0
 47
0.0
 47
1.0
 47
0.0
 47
0.0
 47
0.0
 47
0.0
 47
1.0
171
     0
 49
0.0208333333333333
 49
0.0
 49
0.0
 49
0.0
 49
0.0
 49
0.0208333333333333
 49
0.0
 49
0.0
 49
0.0
 49
0.0
 49
1.0
 49
0.0
 49
0.0
 49
0.0
 49
0.0
 49
1.0
175
     0
142
0.0208333333333333
142
0.0
142
0.0
142
0.0
142
0.0
142
0.0208333333333333
142
0.0
142
0.0
142
0.0
142
0.0
142
1.0
142
0.0
142
0.0
142
0.0
142
0.0
142
1.0
179
     0
144
0.0208333333333333
144
0.0
144
0.0
144
0.0
144
0.0
144
0.0208333333333333
144
0.0
144
0.0
144
0.0
144
0.0
144
1.0
144
0.0
144
0.0
144
0.0
144
0.0
144
1.0
147
0.0208333333333333
147
0.0
147
0.0
147
0.0
147
0.0
147
0.0208333333333333
147
0.0
147
0.0
147
0.0
147
0.0
147
1.0
147
0.0
147
0.0
147
0.0
147
0.0
147
1.0
  0
MLEADERSTYLE
  5
F2
102
{ACAD_XDICTIONARY
360
1AF
102
}
102
{ACAD_REACTORS
330
F1
102
}
330
F1
100
AcDbMLeaderStyle
179
     2
170
     2
171
     1
172
     0
 90
        2
 40
0.0
 41
0.0
173
     1
 91
-1056964608
340
14
 92
       -2
290
     1
 42
0.09
291
     1
 43
0.36
  3
Standard
 44
0.18
300

342
11
174
     1
178
     6
175
     1
176
     0
 93
-1056964608
 45
0.18
292
     0
297
     0
 46
0.18
 94
-1056964608
 47
1.0
 49
1.0
140
1.0
293
     1
141
0.0
294
     1
177
     0
142
1.0
295
     0
296
     0
143
0.125
271
     0
272
     9
273
     9
  0
MLINESTYLE
  5
18
102
{ACAD_REACTORS
330
17
102
}
330
17
100
AcDbMlineStyle
  2
STANDARD
 70
     0
  3

 62
   256
 51
90.0
 52
90.0
 71
     2
 49
0.5
 62
   256
  6
BYLAYER
 49
-0.5
 62
   256
  6
BYLAYER
  0
ACDBPLACEHOLDER
  5
2D
102
{ACAD_REACTORS
330
E
102
}
330
E
  0
ACDBPLACEHOLDER
  5
F
102
{ACAD_REACTORS
330
E
102
}
330
E
  0
SCALE
  5
E0
102
{ACAD_REACTORS
330
DF
102
}
330
DF
100
AcDbScale
 70
     0
300
1:1
140
1.0
141
1.0
290
     1
  0
SCALE
  5
E1
102
{ACAD_REACTORS
330
DF
102
}
330
DF
100
AcDbScale
 70
     0
300
1/128" = 1'-0"
140
0.0078125
141
12.0
290
     0
  0
SCALE
  5
E2
102
{ACAD_REACTORS
330
DF
102
}
330
DF
100
AcDbScale
 70
     0
300
1/64" = 1'-0"
140
0.015625
141
12.0
290
     0
  0
SCALE
  5
E3
102
{ACAD_REACTORS
330
DF
102
}
330
DF
100
AcDbScale
 70
     0
300
1/32" = 1'-0"
140
0.03125
141
12.0
290
     0
  0
SCALE
  5
E4
102
{ACAD_REACTORS
330
DF
102
}
330
DF
100
AcDbScale
 70
     0
300
1/16" = 1'-0"
140
0.0625
141
12.0
290
     0
  0
SCALE
  5
E5
102
{ACAD_REACTORS
330
DF
102
}
330
DF
100
AcDbScale
 70
     0
300
3/32" = 1'-0"
140
0.09375
141
12.0
290
     0
  0
SCALE
  5
E6
102
{ACAD_REACTORS
330
DF
102
}
330
DF
100
AcDbScale
 70
     0
300
1/8" = 1'-0"
140
0.125
141
12.0
290
     0
  0
SCALE
  5
E7
102
{ACAD_REACTORS
330
DF
102
}
330
DF
100
AcDbScale
 70
     0
300
3/16" = 1'-0"
140
0.1875
141
12.0
290
     0
  0
SCALE
  5
E8
102
{ACAD_REACTORS
330
DF
102
}
330
DF
100
AcDbScale
 70
     0
300
1/4" = 1'-0"
140
0.25
141
12.0
290
     0
  0
SCALE
  5
E9
102
{ACAD_REACTORS
330
DF
102
}
330
DF
100
AcDbScale
 70
     0
300
3/8" = 1'-0"
140
0.375
141
12.0
290
     0
  0
SCALE
  5
EA
102
{ACAD_REACTORS
330
DF
102
}
330
DF
100
AcDbScale
 70
     0
300
1/2" = 1'-0"
140
0.5
141
12.0
290
     0
  0
SCALE
  5
EB
102
{ACAD_REACTORS
330
DF
102
}
330
DF
100
AcDbScale
 70
     0
300
3/4" = 1'-0"
140
0.75
141
12.0
290
     0
  0
SCALE
  5
EC
102
{ACAD_REACTORS
330
DF
102
}
330
DF
100
AcDbScale
 70
     0
300
1" = 1'-0"
140
1.0
141
12.0
290
     0
  0
SCALE
  5
ED
102
{ACAD_REACTORS
330
DF
102
}
330
DF
100
AcDbScale
 70
     0
300
1-1/2" = 1'-0"
140
1.5
141
12.0
290
     0
  0
SCALE
  5
EE
102
{ACAD_REACTORS
330
DF
102
}
330
DF
100
AcDbScale
 70
     0
300
3" = 1'-0"
140
3.0
141
12.0
290
     0
  0
SCALE
  5
EF
102
{ACAD_REACTORS
330
DF
102
}
330
DF
100
AcDbScale
 70
     0
300
6" = 1'-0"
140
6.0
141
12.0
290
     0
  0
SCALE
  5
F0
102
{ACAD_REACTORS
330
DF
102
}
330
DF
100
AcDbScale
 70
     0
300
1'-0" = 1'-0"
140
12.0
141
12.0
290
     0
  0
ACDBSECTIONVIEWSTYLE
  5
F4
102
{ACAD_XDICTIONARY
360
1B1
102
}
102
{ACAD_REACTORS
330
F3
102
}
330
F3
100
AcDbModelDocViewStyle
 70
     0
  3
Imperial24
290
     0
100
AcDbSectionViewStyle
 70
     0
 71
     0
 90
       78
 71
     1
340
11
 62
   256
 40
0.24
340
0
340
0
 62
   256
 40
0.24
300
I, O, Q, S, X, Z
 40
0.48
 90
        3
 40
0.18
 90
        1
 71
     2
340
16
 90
       25
 62
   256
340
16
 90
       50
 62
   256
 40
0.24
 40
0.0
 40
0.24
 71
     3
340
11
 62
   256
 40
0.24
 90
        1
 40
0.75
 90
        1
300
%<\AcVar ViewType \f "%tc1">% %<\AcVar ViewSectionStartId>%-%<\AcVar ViewSectionEndId>%\PSCALE %<\AcVar ViewScale \f "%sn">%
 71
     4
 62
   256
 62
   257
300
ANSI31
 40
1.0
 90
        0
290
     0
290
     0
 90
        6
 40
0.0
 40
1.570796326794896
 40
0.2617993877991494
 40
1.308996938995747
 40
-0.2617993877991494
 40
1.832595714594046
  0
TABLESTYLE
  5
DE
102
{ACAD_XDICTIONARY
360
17C
102
}
102
{ACAD_REACTORS
330
DD
102
}
330
DD
100
AcDbTableStyle
280
     0
  3
Standard
 70
     0
 71
     0
 40
0.06
 41
0.06
280
     0
281
     0
  7
Standard
140
0.18
170
     2
 62
     0
 63
     7
283
     0
 90
      512
 91
        0
  1

274
    -2
284
     1
 64
     0
275
    -2
285
     1
 65
     0
276
    -2
286
     1
 66
     0
277
    -2
287
     1
 67
     0
278
    -2
288
     1
 68
     0
279
    -2
289
     1
 69
     0
  7
Standard
140
0.25
170
     5
 62
     0
 63
     7
283
     0
 90
      512
 91
        0
  1

274
    -2
284
     1
 64
     0
275
    -2
285
     1
 65
     0
276
    -2
286
     1
 66
     0
277
    -2
287
     1
 67
     0
278
    -2
288
     1
 68
     0
279
    -2
289
     1
 69
     0
  7
Standard
140
0.18
170
     5
 62
     0
 63
     7
283
     0
 90
      512
 91
        0
  1

274
    -2
284
     1
 64
     0
275
    -2
285
     1
 65
     0
276
    -2
286
     1
 66
     0
277
    -2
287
     1
 67
     0
278
    -2
288
     1
 68
     0
279
    -2
289
     1
 69
     0
  0
VISUALSTYLE
  5
C9
102
{ACAD_XDICTIONARY
360
189
102
}
102
{ACAD_REACTORS
330
C3
102
}
330
C3
100
AcDbVisualStyle
  2
2dWireframe
 70
     4
177
     2
291
     0
 71
     0
176
     1
 72
     2
176
     1
 73
     0
176
     1
 90
        0
176
     1
 40
0.6
176
     1
 41
30.0
176
     1
 63
     7
421
 16777215
176
     1
 74
     1
176
     1
 91
        4
176
     1
 64
     7
176
     1
 65
   257
176
     1
 75
     1
176
     1
175
     1
176
     1
 42
1.0
176
     1
 92
        0
176
     1
 66
   257
176
     1
 43
1.0
176
     1
 76
     1
176
     1
 77
     6
176
     1
 78
     2
176
     1
 67
     7
176
     1
 79
     5
176
     1
170
     0
176
     1
171
     0
176
     1
290
     0
176
     1
 93
        1
176
     1
 44
0.0
176
     1
173
     0
176
     1
1001
ACAD
1000
AcDbSavedByObjectVersion
1070
     0
  0
VISUALSTYLE
  5
C8
102
{ACAD_XDICTIONARY
360
187
102
}
102
{ACAD_REACTORS
330
C3
102
}
330
C3
100
AcDbVisualStyle
  2
Basic
 70
     7
177
     2
291
     1
 71
     1
176
     1
 72
     0
176
     1
 73
     1
176
     1
 90
        0
176
     1
 40
0.6
176
     1
 41
30.0
176
     1
 63
     7
421
 16777215
176
     1
 74
     0
176
     1
 91
        4
176
     1
 64
     7
176
     1
 65
   257
176
     1
 75
     1
176
     1
175
     1
176
     1
 42
1.0
176
     1
 92
        8
176
     1
 66
     7
176
     1
 43
1.0
176
     1
 76
     1
176
     1
 77
     6
176
     1
 78
     2
176
     1
 67
     7
176
     1
 79
     5
176
     1
170
     0
176
     1
171
     0
176
     1
290
     0
176
     1
 93
        1
176
     1
 44
0.0
176
     1
173
     0
176
     1
1001
ACAD
1000
AcDbSavedByObjectVersion
1070
     0
  0
VISUALSTYLE
  5
CF
102
{ACAD_XDICTIONARY
360
195
102
}
102
{ACAD_REACTORS
330
C3
102
}
330
C3
100
AcDbVisualStyle
  2
Brighten
 70
    12
177
     2
291
     1
 71
     2
176
     1
 72
     2
176
     1
 73
     0
176
     1
 90
        0
176
     1
 40
0.6
176
     1
 41
30.0
176
     1
 63
     7
421
 16777215
176
     1
 74
     1
176
     1
 91
        4
176
     1
 64
     7
176
     1
 65
   257
176
     1
 75
     1
176
     1
175
     1
176
     1
 42
1.0
176
     1
 92
        8
176
     1
 66
     7
176
     1
 43
1.0
176
     1
 76
     1
176
     1
 77
     6
176
     1
 78
     2
176
     1
 67
     7
176
     1
 79
     5
176
     1
170
     0
176
     1
171
     0
176
     1
290
     0
176
     1
 93
        1
176
     1
 44
50.0
176
     1
173
     0
176
     1
1001
ACAD
1000
AcDbSavedByObjectVersion
1070
     0
  0
VISUALSTYLE
  5
D3
102
{ACAD_XDICTIONARY
360
19D
102
}
102
{ACAD_REACTORS
330
C3
102
}
330
C3
100
AcDbVisualStyle
  2
ColorChange
 70
    16
177
     2
291
     1
 71
     2
176
     1
 72
     2
176
     1
 73
     3
176
     1
 90
        0
176
     1
 40
0.6
176
     1
 41
30.0
176
     1
 63
     8
421
  8421504
176
     1
 74
     1
176
     1
 91
        4
176
     1
 64
     7
176
     1
 65
   257
176
     1
 75
     1
176
     1
175
     1
176
     1
 42
1.0
176
     1
 92
        8
176
     1
 66
     8
424
  8421504
176
     1
 43
1.0
176
     1
 76
     1
176
     1
 77
     6
176
     1
 78
     2
176
     1
 67
     7
176
     1
 79
     5
176
     1
170
     0
176
     1
171
     0
176
     1
290
     0
176
     1
 93
        1
176
     1
 44
0.0
176
     1
173
     0
176
     1
1001
ACAD
1000
AcDbSavedByObjectVersion
1070
     0
  0
VISUALSTYLE
  5
CC
102
{ACAD_XDICTIONARY
360
18F
102
}
102
{ACAD_REACTORS
330
C3
102
}
330
C3
100
AcDbVisualStyle
  2
Conceptual
 70
     9
177
     2
291
     0
 71
     3
176
     1
 72
     2
176
     1
 73
     0
176
     1
 90
        0
176
     1
 40
0.6
176
     1
 41
30.0
176
     1
 63
     7
421
 16777215
176
     1
 74
     2
176
     1
 91
        2
176
     1
 64
     7
176
     1
 65
   257
176
     1
 75
     1
176
     1
175
     1
176
     1
 42
179.0
176
     1
 92
        8
176
     1
 66
     7
176
     1
 43
1.0
176
     1
 76
     1
176
     1
 77
     6
176
     1
 78
     2
176
     1
 67
     7
176
     1
 79
     3
176
     1
170
     0
176
     1
171
     0
176
     1
290
     0
176
     1
 93
        1
176
     1
 44
0.0
176
     1
173
     0
176
     1
1001
ACAD
1000
AcDbSavedByObjectVersion
1070
     0
  0
VISUALSTYLE
  5
CE
102
{ACAD_XDICTIONARY
360
193
102
}
102
{ACAD_REACTORS
330
C3
102
}
330
C3
100
AcDbVisualStyle
  2
Dim
 70
    11
177
     2
291
     1
 71
     2
176
     1
 72
     2
176
     1
 73
     0
176
     1
 90
        0
176
     1
 40
0.6
176
     1
 41
30.0
176
     1
 63
     7
421
 16777215
176
     1
 74
     1
176
     1
 91
        4
176
     1
 64
     7
176
     1
 65
   257
176
     1
 75
     1
176
     1
175
     1
176
     1
 42
1.0
176
     1
 92
        8
176
     1
 66
     7
176
     1
 43
1.0
176
     1
 76
     1
176
     1
 77
     6
176
     1
 78
     2
176
     1
 67
     7
176
     1
 79
     5
176
     1
170
     0
176
     1
171
     0
176
     1
290
     0
176
     1
 93
        1
176
     1
 44
-50.0
176
     1
173
     0
176
     1
1001
ACAD
1000
AcDbSavedByObjectVersion
1070
     0
  0
VISUALSTYLE
  5
DB
102
{ACAD_XDICTIONARY
360
1AD
102
}
102
{ACAD_REACTORS
330
C3
102
}
330
C3
100
AcDbVisualStyle
  2
EdgeColorOff
 70
    22
177
     2
291
     1
 71
     2
176
     0
 72
     2
176
     0
 73
     0
176
     0
 90
        0
176
     0
 40
0.6
176
     0
 41
30.0
176
     0
 63
     7
421
 16777215
176
     0
 74
     1
176
     0
 91
        4
176
     0
 64
     7
176
     0
 65
   257
176
     0
 75
     1
176
     0
175
     1
176
     0
 42
1.0
176
     0
 92
        8
176
     2
 66
     7
176
     0
 43
1.0
176
     0
 76
     1
176
     0
 77
     6
176
     0
 78
     2
176
     0
 67
     7
176
     0
 79
     5
176
     0
170
     0
176
     0
171
     0
176
     0
290
     0
176
     0
 93
        1
176
     0
 44
0.0
176
     0
173
     0
176
     0
1001
ACAD
1000
AcDbSavedByObjectVersion
1070
     0
  0
VISUALSTYLE
  5
D2
102
{ACAD_XDICTIONARY
360
19B
102
}
102
{ACAD_REACTORS
330
C3
102
}
330
C3
100
AcDbVisualStyle
  2
Facepattern
 70
    15
177
     2
291
     1
 71
     2
176
     1
 72
     2
176
     1
 73
     0
176
     1
 90
        0
176
     1
 40
0.6
176
     1
 41
30.0
176
     1
 63
     7
421
 16777215
176
     1
 74
     1
176
     1
 91
        4
176
     1
 64
     7
176
     1
 65
   257
176
     1
 75
     1
176
     1
175
     1
176
     1
 42
1.0
176
     1
 92
        8
176
     1
 66
     7
176
     1
 43
1.0
176
     1
 76
     1
176
     1
 77
     6
176
     1
 78
     2
176
     1
 67
     7
176
     1
 79
     5
176
     1
170
     0
176
     1
171
     0
176
     1
290
     0
176
     1
 93
        1
176
     1
 44
0.0
176
     1
173
     0
176
     1
1001
ACAD
1000
AcDbSavedByObjectVersion
1070
     0
  0
VISUALSTYLE
  5
C4
102
{ACAD_XDICTIONARY
360
17F
102
}
102
{ACAD_REACTORS
330
C3
102
}
330
C3
100
AcDbVisualStyle
  2
Flat
 70
     0
177
     2
291
     1
 71
     2
176
     1
 72
     1
176
     1
 73
     1
176
     1
 90
        2
176
     1
 40
0.6
176
     1
 41
30.0
176
     1
 63
     7
421
 16777215
176
     1
 74
     0
176
     1
 91
        0
176
     1
 64
     7
176
     1
 65
   257
176
     1
 75
     1
176
     1
175
     1
176
     1
 42
1.0
176
     1
 92
        8
176
     1
 66
     7
176
     1
 43
1.0
176
     1
 76
     1
176
     1
 77
     6
176
     1
 78
     2
176
     1
 67
     7
176
     1
 79
     5
176
     1
170
     0
176
     1
171
     0
176
     1
290
     0
176
     1
 93
       13
176
     1
 44
0.0
176
     1
173
     0
176
     1
1001
ACAD
1000
AcDbSavedByObjectVersion
1070
     0
  0
VISUALSTYLE
  5
C5
102
{ACAD_XDICTIONARY
360
181
102
}
102
{ACAD_REACTORS
330
C3
102
}
330
C3
100
AcDbVisualStyle
  2
FlatWithEdges
 70
     1
177
     2
291
     1
 71
     2
176
     1
 72
     1
176
     1
 73
     1
176
     1
 90
        2
176
     1
 40
0.6
176
     1
 41
30.0
176
     1
 63
     7
421
 16777215
176
     1
 74
     1
176
     1
 91
        0
176
     1
 64
     7
176
     1
 65
   257
176
     1
 75
     1
176
     1
175
     1
176
     1
 42
1.0
176
     1
 92
        0
176
     1
 66
   257
176
     1
 43
1.0
176
     1
 76
     1
176
     1
 77
     6
176
     1
 78
     2
176
     1
 67
     7
176
     1
 79
     5
176
     1
170
     0
176
     1
171
     0
176
     1
290
     0
176
     1
 93
       13
176
     1
 44
0.0
176
     1
173
     0
176
     1
1001
ACAD
1000
AcDbSavedByObjectVersion
1070
     0
  0
VISUALSTYLE
  5
C6
102
{ACAD_XDICTIONARY
360
183
102
}
102
{ACAD_REACTORS
330
C3
102
}
330
C3
100
AcDbVisualStyle
  2
Gouraud
 70
     2
177
     2
291
     1
 71
     2
176
     1
 72
     2
176
     1
 73
     1
176
     1
 90
        2
176
     1
 40
0.6
176
     1
 41
30.0
176
     1
 63
     7
421
 16777215
176
     1
 74
     0
176
     1
 91
        0
176
     1
 64
     7
176
     1
 65
   257
176
     1
 75
     1
176
     1
175
     1
176
     1
 42
1.0
176
     1
 92
        0
176
     1
 66
     7
176
     1
 43
1.0
176
     1
 76
     1
176
     1
 77
     6
176
     1
 78
     2
176
     1
 67
     7
176
     1
 79
     5
176
     1
170
     0
176
     1
171
     0
176
     1
290
     0
176
     1
 93
       13
176
     1
 44
0.0
176
     1
173
     0
176
     1
1001
ACAD
1000
AcDbSavedByObjectVersion
1070
     0
  0
VISUALSTYLE
  5
C7
102
{ACAD_XDICTIONARY
360
185
102
}
102
{ACAD_REACTORS
330
C3
102
}
330
C3
100
AcDbVisualStyle
  2
GouraudWithEdges
 70
     3
177
     2
291
     1
 71
     2
176
     1
 72
     2
176
     1
 73
     1
176
     1
 90
        2
176
     1
 40
0.6
176
     1
 41
30.0
176
     1
 63
     7
421
 16777215
176
     1
 74
     1
176
     1
 91
        0
176
     1
 64
     7
176
     1
 65
   257
176
     1
 75
     1
176
     1
175
     1
176
     1
 42
1.0
176
     1
 92
        0
176
     1
 66
   257
176
     1
 43
1.0
176
     1
 76
     1
176
     1
 77
     6
176
     1
 78
     2
176
     1
 67
     7
176
     1
 79
     5
176
     1
170
     0
176
     1
171
     0
176
     1
290
     0
176
     1
 93
       13
176
     1
 44
0.0
176
     1
173
     0
176
     1
1001
ACAD
1000
AcDbSavedByObjectVersion
1070
     0
  0
VISUALSTYLE
  5
CB
102
{ACAD_XDICTIONARY
360
18D
102
}
102
{ACAD_REACTORS
330
C3
102
}
330
C3
100
AcDbVisualStyle
  2
Hidden
 70
     6
177
     2
291
     0
 71
     1
176
     1
 72
     2
176
     1
 73
     2
176
     1
 90
        0
176
     1
 40
0.6
176
     1
 41
30.0
176
     1
 63
     7
421
 16777215
176
     1
 74
     2
176
     1
 91
        2
176
     1
 64
     7
176
     1
 65
   257
176
     1
 75
     2
176
     1
175
     1
176
     1
 42
40.0
176
     1
 92
        0
176
     1
 66
   257
176
     1
 43
1.0
176
     1
 76
     1
176
     1
 77
     6
176
     1
 78
     2
176
     1
 67
     7
176
     1
 79
     3
176
     1
170
     0
176
     1
171
     0
176
     1
290
     0
176
     1
 93
        1
176
     1
 44
0.0
176
     1
173
     0
176
     1
1001
ACAD
1000
AcDbSavedByObjectVersion
1070
     0
  0
VISUALSTYLE
  5
D9
102
{ACAD_XDICTIONARY
360
1A9
102
}
102
{ACAD_REACTORS
330
C3
102
}
330
C3
100
AcDbVisualStyle
  2
JitterOff
 70
    20
177
     2
291
     1
 71
     2
176
     0
 72
     2
176
     0
 73
     0
176
     0
 90
        0
176
     0
 40
0.6
176
     0
 41
30.0
176
     0
 63
     7
421
 16777215
176
     0
 74
     1
176
     0
 91
        4
176
     0
 64
     7
176
     0
 65
   257
176
     0
 75
     1
176
     0
175
     1
176
     0
 42
1.0
176
     0
 92
       10
176
     2
 66
     7
176
     0
 43
1.0
176
     0
 76
     1
176
     0
 77
     6
176
     0
 78
     2
176
     0
 67
     7
176
     0
 79
     5
176
     0
170
     0
176
     0
171
     0
176
     0
290
     0
176
     0
 93
        1
176
     0
 44
0.0
176
     0
173
     0
176
     0
1001
ACAD
1000
AcDbSavedByObjectVersion
1070
     0
  0
VISUALSTYLE
  5
D1
102
{ACAD_XDICTIONARY
360
199
102
}
102
{ACAD_REACTORS
330
C3
102
}
330
C3
100
AcDbVisualStyle
  2
Linepattern
 70
    14
177
     2
291
     1
 71
     2
176
     1
 72
     2
176
     1
 73
     0
176
     1
 90
        0
176
     1
 40
0.6
176
     1
 41
30.0
176
     1
 63
     7
421
 16777215
176
     1
 74
     1
176
     1
 91
        4
176
     1
 64
     7
176
     1
 65
   257
176
     1
 75
     7
176
     1
175
     7
176
     1
 42
1.0
176
     1
 92
        8
176
     1
 66
     7
176
     1
 43
1.0
176
     1
 76
     1
176
     1
 77
     6
176
     1
 78
     2
176
     1
 67
     7
176
     1
 79
     5
176
     1
170
     0
176
     1
171
     0
176
     1
290
     0
176
     1
 93
        1
176
     1
 44
0.0
176
     1
173
     0
176
     1
1001
ACAD
1000
AcDbSavedByObjectVersion
1070
     0
  0
VISUALSTYLE
  5
DA
102
{ACAD_XDICTIONARY
360
1AB
102
}
102
{ACAD_REACTORS
330
C3
102
}
330
C3
100
AcDbVisualStyle
  2
OverhangOff
 70
    21
177
     2
291
     1
 71
     2
176
     0
 72
     2
176
     0
 73
     0
176
     0
 90
        0
176
     0
 40
0.6
176
     0
 41
30.0
176
     0
 63
     7
421
 16777215
176
     0
 74
     1
176
     0
 91
        4
176
     0
 64
     7
176
     0
 65
   257
176
     0
 75
     1
176
     0
175
     1
176
     0
 42
1.0
176
     0
 92
        9
176
     2
 66
     7
176
     0
 43
1.0
176
     0
 76
     1
176
     0
 77
     6
176
     0
 78
     2
176
     0
 67
     7
176
     0
 79
     5
176
     0
170
     0
176
     0
171
     0
176
     0
290
     0
176
     0
 93
        1
176
     0
 44
0.0
176
     0
173
     0
176
     0
1001
ACAD
1000
AcDbSavedByObjectVersion
1070
     0
  0
VISUALSTYLE
  5
CD
102
{ACAD_XDICTIONARY
360
191
102
}
102
{ACAD_REACTORS
330
C3
102
}
330
C3
100
AcDbVisualStyle
  2
Realistic
 70
     8
177
     2
291
     0
 71
     2
176
     1
 72
     3
176
     1
 73
     0
176
     1
 90
        2
176
     1
 40
0.6
176
     1
 41
30.0
176
     1
 63
     7
421
 16777215
176
     1
 74
     0
176
     1
 91
        0
176
     1
 64
     7
176
     1
 65
   257
176
     1
 75
     1
176
     1
175
     1
176
     1
 42
1.0
176
     1
 92
        8
176
     1
 66
   257
176
     1
 43
1.0
176
     1
 76
     1
176
     1
 77
     6
176
     1
 78
     2
176
     1
 67
     7
176
     1
 79
     3
176
     1
170
     0
176
     1
171
     0
176
     1
290
     0
176
     1
 93
       13
176
     1
 44
0.0
176
     1
173
     0
176
     1
1001
ACAD
1000
AcDbSavedByObjectVersion
1070
     0
  0
VISUALSTYLE
  5
D8
102
{ACAD_XDICTIONARY
360
1A7
102
}
102
{ACAD_REACTORS
330
C3
102
}
330
C3
100
AcDbVisualStyle
  2
Shaded
 70
    27
177
     2
291
     0
 71
     2
176
     1
 72
     2
176
     1
 73
     1
176
     1
 90
        2
176
     1
 40
0.6
176
     1
 41
30.0
176
     1
 63
     7
421
 16777215
176
     1
 74
     0
176
     1
 91
        4
176
     1
 64
     7
176
     1
 65
   257
176
     1
 75
     1
176
     1
175
     1
176
     1
 42
1.0
176
     1
 92
        8
176
     1
 66
   257
176
     1
 43
1.0
176
     1
 76
     1
176
     1
 77
     6
176
     1
 78
     2
176
     1
 67
     8
425
  7895160
176
     1
 79
     3
176
     1
170
     0
176
     1
171
     0
176
     1
290
     0
176
     1
 93
        5
176
     1
 44
0.0
176
     1
173
     0
176
     1
1001
ACAD
1000
AcDbSavedByObjectVersion
1070
     0
  0
VISUALSTYLE
  5
D7
102
{ACAD_XDICTIONARY
360
1A5
102
}
102
{ACAD_REACTORS
330
C3
102
}
330
C3
100
AcDbVisualStyle
  2
Shaded with edges
 70
    26
177
     2
291
     0
 71
     2
176
     1
 72
     2
176
     1
 73
     1
176
     1
 90
        2
176
     1
 40
0.6
176
     1
 41
30.0
176
     1
 63
     7
421
 16777215
176
     1
 74
     1
176
     1
 91
       10
176
     1
 64
     7
176
     1
 65
   257
176
     1
 75
     2
176
     1
175
     1
176
     1
 42
1.0
176
     1
 92
        8
176
     1
 66
   257
176
     1
 43
1.0
176
     1
 76
     1
176
     1
 77
     6
176
     1
 78
     2
176
     1
 67
     7
176
     1
 79
     3
176
     1
170
     0
176
     1
171
     0
176
     1
290
     0
176
     1
 93
        5
176
     1
 44
0.0
176
     1
173
     0
176
     1
1001
ACAD
1000
AcDbSavedByObjectVersion
1070
     0
  0
VISUALSTYLE
  5
D4
102
{ACAD_XDICTIONARY
360
19F
102
}
102
{ACAD_REACTORS
330
C3
102
}
330
C3
100
AcDbVisualStyle
  2
Shades of Gray
 70
    23
177
     2
291
     0
 71
     2
176
     1
 72
     2
176
     1
 73
     3
176
     1
 90
        0
176
     1
 40
0.6
176
     1
 41
30.0
176
     1
 63
     7
421
 16777215
176
     1
 74
     2
176
     1
 91
        2
176
     1
 64
     7
176
     1
 65
     7
176
     1
 75
     1
176
     1
175
     1
176
     1
 42
40.0
176
     1
 92
        8
176
     1
 66
     7
176
     1
 43
1.0
176
     1
 76
     1
176
     1
 77
     6
176
     1
 78
     2
176
     1
 67
     7
176
     1
 79
     3
176
     1
170
     0
176
     1
171
     0
176
     1
290
     0
176
     1
 93
        1
176
     1
 44
0.0
176
     1
173
     0
176
     1
1001
ACAD
1000
AcDbSavedByObjectVersion
1070
     0
  0
VISUALSTYLE
  5
D5
102
{ACAD_XDICTIONARY
360
1A1
102
}
102
{ACAD_REACTORS
330
C3
102
}
330
C3
100
AcDbVisualStyle
  2
Sketchy
 70
    24
177
     2
291
     0
 71
     1
176
     1
 72
     2
176
     1
 73
     2
176
     1
 90
        0
176
     1
 40
0.6
176
     1
 41
30.0
176
     1
 63
     7
421
 16777215
176
     1
 74
     2
176
     1
 91
        2
176
     1
 64
     7
176
     1
 65
     7
176
     1
 75
     1
176
     1
175
     1
176
     1
 42
40.0
176
     1
 92
       11
176
     1
 66
     7
176
     1
 43
1.0
176
     1
 76
     1
176
     1
 77
     6
176
     1
 78
     2
176
     1
 67
     7
176
     1
 79
     6
176
     1
170
     0
176
     1
171
     0
176
     1
290
     0
176
     1
 93
        1
176
     1
 44
0.0
176
     1
173
     0
176
     1
1001
ACAD
1000
AcDbSavedByObjectVersion
1070
     0
  0
VISUALSTYLE
  5
D0
102
{ACAD_XDICTIONARY
360
197
102
}
102
{ACAD_REACTORS
330
C3
102
}
330
C3
100
AcDbVisualStyle
  2
Thicken
 70
    13
177
     2
291
     1
 71
     2
176
     1
 72
     2
176
     1
 73
     0
176
     1
 90
        0
176
     1
 40
0.6
176
     1
 41
30.0
176
     1
 63
     7
421
 16777215
176
     1
 74
     1
176
     1
 91
        4
176
     1
 64
     7
176
     1
 65
   257
176
     1
 75
     1
176
     1
175
     1
176
     1
 42
1.0
176
     1
 92
       12
176
     1
 66
     7
176
     1
 43
1.0
176
     1
 76
     1
176
     1
 77
     6
176
     1
 78
     2
176
     1
 67
     7
176
     1
 79
     5
176
     1
170
     0
176
     1
171
     0
176
     1
290
     0
176
     1
 93
        1
176
     1
 44
0.0
176
     1
173
     0
176
     1
1001
ACAD
1000
AcDbSavedByObjectVersion
1070
     0
  0
VISUALSTYLE
  5
CA
102
{ACAD_XDICTIONARY
360
18B
102
}
102
{ACAD_REACTORS
330
C3
102
}
330
C3
100
AcDbVisualStyle
  2
Wireframe
 70
     5
177
     2
291
     0
 71
     0
176
     1
 72
     2
176
     1
 73
     0
176
     1
 90
        0
176
     1
 40
0.6
176
     1
 41
30.0
176
     1
 63
     7
421
 16777215
176
     1
 74
     1
176
     1
 91
        4
176
     1
 64
     7
176
     1
 65
   257
176
     1
 75
     1
176
     1
175
     1
176
     1
 42
1.0
176
     1
 92
        0
176
     1
 66
   257
176
     1
 43
1.0
176
     1
 76
     1
176
     1
 77
     6
176
     1
 78
     2
176
     1
 67
     7
176
     1
 79
     3
176
     1
170
     0
176
     1
171
     0
176
     1
290
     0
176
     1
 93
        1
176
     1
 44
0.0
176
     1
173
     0
176
     1
1001
ACAD
1000
AcDbSavedByObjectVersion
1070
     0
  0
VISUALSTYLE
  5
D6
102
{ACAD_XDICTIONARY
360
1A3
102
}
102
{ACAD_REACTORS
330
C3
102
}
330
C3
100
AcDbVisualStyle
  2
X-Ray
 70
    25
177
     2
291
     0
 71
     2
176
     1
 72
     2
176
     1
 73
     1
176
     1
 90
        1
176
     1
 40
0.5
176
     1
 41
30.0
176
     1
 63
     7
421
 16777215
176
     1
 74
     1
176
     1
 91
        0
176
     1
 64
     7
176
     1
 65
   257
176
     1
 75
     1
176
     1
175
     1
176
     1
 42
1.0
176
     1
 92
        8
176
     1
 66
     7
176
     1
 43
1.0
176
     1
 76
     1
176
     1
 77
     6
176
     1
 78
     2
176
     1
 67
     7
176
     1
 79
     3
176
     1
170
     0
176
     1
171
     0
176
     1
290
     0
176
     1
 93
       13
176
     1
 44
0.0
176
     1
173
     0
176
     1
1001
ACAD
1000
AcDbSavedByObjectVersion
1070
     0
  0
DICTIONARYVAR
  5
178
102
{ACAD_REACTORS
330
172
102
}
330
172
100
DictionaryVariables
280
     0
  1
1:1
  0
DICTIONARYVAR
  5
174
102
{ACAD_REACTORS
330
172
102
}
330
172
100
DictionaryVariables
280
     0
  1
STANDARD
  0
DICTIONARYVAR
  5
173
102
{ACAD_REACTORS
330
172
102
}
330
172
100
DictionaryVariables
280
     0
  1
STANDARD
  0
DICTIONARYVAR
  5
175
102
{ACAD_REACTORS
330
172
102
}
330
172
100
DictionaryVariables
280
     0
  1
Imperial24
  0
DICTIONARYVAR
  5
176
102
{ACAD_REACTORS
330
172
102
}
330
172
100
DictionaryVariables
280
     0
  1
Imperial24
  0
DICTIONARYVAR
  5
17A
102
{ACAD_REACTORS
330
172
102
}
330
172
100
DictionaryVariables
280
     0
  1
1
  0
DICTIONARYVAR
  5
17B
102
{ACAD_REACTORS
330
172
102
}
330
172
100
DictionaryVariables
280
     0
  1
15
  0
DICTIONARYVAR
  5
179
102
{ACAD_REACTORS
330
172
102
}
330
172
100
DictionaryVariables
280
     0
  1
0
  0
DICTIONARYVAR
  5
177
102
{ACAD_REACTORS
330
172
102
}
330
172
100
DictionaryVariables
280
     0
  1
0
  0
DICTIONARY
  5
1B3
330
F6
100
AcDbDictionary
280
     1
281
     1
  3
ACAD_XREC_ROUNDTRIP
360
1B4
  0
DICTIONARY
  5
B4
330
B3
100
AcDbDictionary
280
     1
281
     1
  3
BUMPTILE
360
B6
  3
DIFFUSETILE
360
B5
  3
OPACITYTILE
360
B9
  3
REFLECTIONTILE
360
B8
  3
REFRACTIONTILE
360
BA
  3
SPECULARTILE
360
B7
  0
DICTIONARY
  5
AC
330
AB
100
AcDbDictionary
280
     1
281
     1
  3
BUMPTILE
360
AE
  3
DIFFUSETILE
360
AD
  3
OPACITYTILE
360
B1
  3
REFLECTIONTILE
360
B0
  3
REFRACTIONTILE
360
B2
  3
SPECULARTILE
360
AF
  0
DICTIONARY
  5
BC
330
BB
100
AcDbDictionary
280
     1
281
     1
  3
BUMPTILE
360
BE
  3
DIFFUSETILE
360
BD
  3
OPACITYTILE
360
C1
  3
REFLECTIONTILE
360
C0
  3
REFRACTIONTILE
360
C2
  3
SPECULARTILE
360
BF
  0
DICTIONARY
  5
1AF
330
F2
100
AcDbDictionary
280
     1
281
     1
  3
ACAD_XREC_ROUNDTRIP
360
1B0
  0
DICTIONARY
  5
1B1
330
F4
100
AcDbDictionary
280
     1
281
     1
  3
ACAD_XREC_ROUNDTRIP
360
1B2
  0
DICTIONARY
  5
17C
330
DE
100
AcDbDictionary
280
     1
281
     1
  3
ACAD_ROUNDTRIP_2008_TABLESTYLE_CELLSTYLEMAP
360
17D
  0
DICTIONARY
  5
189
330
C9
100
AcDbDictionary
280
     1
281
     1
  3
ACAD_XREC_ROUNDTRIP
360
18A
  0
DICTIONARY
  5
187
330
C8
100
AcDbDictionary
280
     1
281
     1
  3
ACAD_XREC_ROUNDTRIP
360
188
  0
DICTIONARY
  5
195
330
CF
100
AcDbDictionary
280
     1
281
     1
  3
ACAD_XREC_ROUNDTRIP
360
196
  0
DICTIONARY
  5
19D
330
D3
100
AcDbDictionary
280
     1
281
     1
  3
ACAD_XREC_ROUNDTRIP
360
19E
  0
DICTIONARY
  5
18F
330
CC
100
AcDbDictionary
280
     1
281
     1
  3
ACAD_XREC_ROUNDTRIP
360
190
  0
DICTIONARY
  5
193
330
CE
100
AcDbDictionary
280
     1
281
     1
  3
ACAD_XREC_ROUNDTRIP
360
194
  0
DICTIONARY
  5
1AD
330
DB
100
AcDbDictionary
280
     1
281
     1
  3
ACAD_XREC_ROUNDTRIP
360
1AE
  0
DICTIONARY
  5
19B
330
D2
100
AcDbDictionary
280
     1
281
     1
  3
ACAD_XREC_ROUNDTRIP
360
19C
  0
DICTIONARY
  5
17F
330
C4
100
AcDbDictionary
280
     1
281
     1
  3
ACAD_XREC_ROUNDTRIP
360
180
  0
DICTIONARY
  5
181
330
C5
100
AcDbDictionary
280
     1
281
     1
  3
ACAD_XREC_ROUNDTRIP
360
182
  0
DICTIONARY
  5
183
330
C6
100
AcDbDictionary
280
     1
281
     1
  3
ACAD_XREC_ROUNDTRIP
360
184
  0
DICTIONARY
  5
185
330
C7
100
AcDbDictionary
280
     1
281
     1
  3
ACAD_XREC_ROUNDTRIP
360
186
  0
DICTIONARY
  5
18D
330
CB
100
AcDbDictionary
280
     1
281
     1
  3
ACAD_XREC_ROUNDTRIP
360
18E
  0
DICTIONARY
  5
1A9
330
D9
100
AcDbDictionary
280
     1
281
     1
  3
ACAD_XREC_ROUNDTRIP
360
1AA
  0
DICTIONARY
  5
199
330
D1
100
AcDbDictionary
280
     1
281
     1
  3
ACAD_XREC_ROUNDTRIP
360
19A
  0
DICTIONARY
  5
1AB
330
DA
100
AcDbDictionary
280
     1
281
     1
  3
ACAD_XREC_ROUNDTRIP
360
1AC
  0
DICTIONARY
  5
191
330
CD
100
AcDbDictionary
280
     1
281
     1
  3
ACAD_XREC_ROUNDTRIP
360
192
  0
DICTIONARY
  5
1A7
330
D8
100
AcDbDictionary
280
     1
281
     1
  3
ACAD_XREC_ROUNDTRIP
360
1A8
  0
DICTIONARY
  5
1A5
330
D7
100
AcDbDictionary
280
     1
281
     1
  3
ACAD_XREC_ROUNDTRIP
360
1A6
  0
DICTIONARY
  5
19F
330
D4
100
AcDbDictionary
280
     1
281
     1
  3
ACAD_XREC_ROUNDTRIP
360
1A0
  0
DICTIONARY
  5
1A1
330
D5
100
AcDbDictionary
280
     1
281
     1
  3
ACAD_XREC_ROUNDTRIP
360
1A2
  0
DICTIONARY
  5
197
330
D0
100
AcDbDictionary
280
     1
281
     1
  3
ACAD_XREC_ROUNDTRIP
360
198
  0
DICTIONARY
  5
18B
330
CA
100
AcDbDictionary
280
     1
281
     1
  3
ACAD_XREC_ROUNDTRIP
360
18C
  0
DICTIONARY
  5
1A3
330
D6
100
AcDbDictionary
280
     1
281
     1
  3
ACAD_XREC_ROUNDTRIP
360
1A4
  0
XRECORD
  5
1B4
102
{ACAD_REACTORS
330
1B3
102
}
330
1B3
100
AcDbXrecord
280
     1
102
DISPLAYNAME
  1
Imperial24
102
FLAGS
 90
        0
  0
XRECORD
  5
B6
102
{ACAD_REACTORS
330
B4
102
}
330
B4
100
AcDbXrecord
280
     1
270
     1
271
     1
  0
XRECORD
  5
B5
102
{ACAD_REACTORS
330
B4
102
}
330
B4
100
AcDbXrecord
280
     1
270
     1
271
     1
  0
XRECORD
  5
B9
102
{ACAD_REACTORS
330
B4
102
}
330
B4
100
AcDbXrecord
280
     1
270
     1
271
     1
  0
XRECORD
  5
B8
102
{ACAD_REACTORS
330
B4
102
}
330
B4
100
AcDbXrecord
280
     1
270
     1
271
     1
  0
XRECORD
  5
BA
102
{ACAD_REACTORS
330
B4
102
}
330
B4
100
AcDbXrecord
280
     1
270
     1
271
     1
  0
XRECORD
  5
B7
102
{ACAD_REACTORS
330
B4
102
}
330
B4
100
AcDbXrecord
280
     1
270
     1
271
     1
  0
XRECORD
  5
AE
102
{ACAD_REACTORS
330
AC
102
}
330
AC
100
AcDbXrecord
280
     1
270
     1
271
     1
  0
XRECORD
  5
AD
102
{ACAD_REACTORS
330
AC
102
}
330
AC
100
AcDbXrecord
280
     1
270
     1
271
     1
  0
XRECORD
  5
B1
102
{ACAD_REACTORS
330
AC
102
}
330
AC
100
AcDbXrecord
280
     1
270
     1
271
     1
  0
XRECORD
  5
B0
102
{ACAD_REACTORS
330
AC
102
}
330
AC
100
AcDbXrecord
280
     1
270
     1
271
     1
  0
XRECORD
  5
B2
102
{ACAD_REACTORS
330
AC
102
}
330
AC
100
AcDbXrecord
280
     1
270
     1
271
     1
  0
XRECORD
  5
AF
102
{ACAD_REACTORS
330
AC
102
}
330
AC
100
AcDbXrecord
280
     1
270
     1
271
     1
  0
XRECORD
  5
BE
102
{ACAD_REACTORS
330
BC
102
}
330
BC
100
AcDbXrecord
280
     1
270
     1
271
     1
  0
XRECORD
  5
BD
102
{ACAD_REACTORS
330
BC
102
}
330
BC
100
AcDbXrecord
280
     1
270
     1
271
     1
  0
XRECORD
  5
C1
102
{ACAD_REACTORS
330
BC
102
}
330
BC
100
AcDbXrecord
280
     1
270
     1
271
     1
  0
XRECORD
  5
C0
102
{ACAD_REACTORS
330
BC
102
}
330
BC
100
AcDbXrecord
280
     1
270
     1
271
     1
  0
XRECORD
  5
C2
102
{ACAD_REACTORS
330
BC
102
}
330
BC
100
AcDbXrecord
280
     1
270
     1
271
     1
  0
XRECORD
  5
BF
102
{ACAD_REACTORS
330
BC
102
}
330
BC
100
AcDbXrecord
280
     1
270
     1
271
     1
  0
XRECORD
  5
1B0
102
{ACAD_REACTORS
330
1AF
102
}
330
1AF
100
AcDbXrecord
280
     1
102
ACAD_ROUNDTRIP_2012_MLEADER_STYLE
298
     1
  0
XRECORD
  5
1B2
102
{ACAD_REACTORS
330
1B1
102
}
330
1B1
100
AcDbXrecord
280
     1
102
DISPLAYNAME
  1
Imperial24
102
FLAGS
 90
        0
  0
CELLSTYLEMAP
  5
17D
102
{ACAD_REACTORS
330
17C
102
}
330
17C
100
AcDbCellStyleMap
 90
        3
300
CELLSTYLE
  1
TABLEFORMAT_BEGIN
 90
        5
170
     1
 91
        0
 92
    32768
 62
   257
 93
        1
300
CONTENTFORMAT
  1
CONTENTFORMAT_BEGIN
 90
        0
 91
        0
 92
      512
 93
        0
300

 40
0.0
140
1.0
 94
        5
 62
     0
340
11
144
0.25
309
CONTENTFORMAT_END
171
     0
 94
        0
309
TABLEFORMAT_END
  1
CELLSTYLE_BEGIN
 90
        1
 91
        1
300
_TITLE
309
CELLSTYLE_END
300
CELLSTYLE
  1
TABLEFORMAT_BEGIN
 90
        5
170
     1
 91
        0
 92
        0
 62
   257
 93
        1
300
CONTENTFORMAT
  1
CONTENTFORMAT_BEGIN
 90
        0
 91
        0
 92
      512
 93
        0
300

 40
0.0
140
1.0
 94
        5
 62
     0
340
11
144
0.18
309
CONTENTFORMAT_END
171
     0
 94
        0
309
TABLEFORMAT_END
  1
CELLSTYLE_BEGIN
 90
        2
 91
        1
300
_HEADER
309
CELLSTYLE_END
300
CELLSTYLE
  1
TABLEFORMAT_BEGIN
 90
        5
170
     1
 91
        0
 92
        0
 62
   257
 93
        1
300
CONTENTFORMAT
  1
CONTENTFORMAT_BEGIN
 90
        0
 91
        0
 92
      512
 93
        0
300

 40
0.0
140
1.0
 94
        2
 62
     0
340
11
144
0.18
309
CONTENTFORMAT_END
171
     0
 94
        0
309
TABLEFORMAT_END
  1
CELLSTYLE_BEGIN
 90
        3
 91
        2
300
_DATA
309
CELLSTYLE_END
  0
XRECORD
  5
18A
102
{ACAD_REACTORS
330
189
102
}
330
189
100
AcDbXrecord
280
     1
102
RTVSPost2010Prop28
280
     1
102
RTVSPost2010PropOp28
 70
     1
102
RTVSPost2010Prop29
280
     1
102
RTVSPost2010PropOp29
 70
     1
102
RTVSPost2010Prop30
280
     0
102
RTVSPost2010PropOp30
 70
     1
102
RTVSPost2010Prop31
280
     0
102
RTVSPost2010PropOp31
 70
     1
102
RTVSPost2010Prop32
280
     0
102
RTVSPost2010PropOp32
 70
     1
102
RTVSPost2010Prop33
280
     0
102
RTVSPost2010PropOp33
 70
     1
102
RTVSPost2010Prop34
280
     0
102
RTVSPost2010PropOp34
 70
     1
102
RTVSPost2010Prop35
280
     0
102
RTVSPost2010PropOp35
 70
     1
102
RTVSPost2010Prop36
280
     0
102
RTVSPost2010PropOp36
 70
     1
102
RTVSPost2010Prop37
 90
       50
102
RTVSPost2010PropOp37
 70
     1
102
RTVSPost2010Prop38
140
0.0
102
RTVSPost2010PropOp38
 70
     1
102
RTVSPost2010Prop39
140
1.0
102
RTVSPost2010PropOp39
 70
     1
102
RTVSPost2010Prop40
 90
        0
102
RTVSPost2010PropOp40
 70
     1
102
RTVSPost2010Prop41ColorIndex
 90
       18
102
RTVSPost2010Prop41ColorRGB
 90
        0
102
RTVSPost2010PropOp41
 70
     1
102
RTVSPost2010Prop42
 90
       50
102
RTVSPost2010PropOp42
 70
     1
102
RTVSPost2010Prop43
 90
        3
102
RTVSPost2010PropOp43
 70
     1
102
RTVSPost2010Prop44ColorIndex
 90
        5
102
RTVSPost2010Prop44ColorRGB
 90
      255
102
RTVSPost2010PropOp44
 70
     1
102
RTVSPost2010Prop45
280
     0
102
RTVSPost2010PropOp45
 70
     1
102
RTVSPost2010Prop46
 90
       50
102
RTVSPost2010PropOp46
 70
     1
102
RTVSPost2010Prop47
 90
       50
102
RTVSPost2010PropOp47
 70
     1
102
RTVSPost2010Prop48
 90
       50
102
RTVSPost2010PropOp48
 70
     1
102
RTVSPost2010Prop49
280
     0
102
RTVSPost2010PropOp49
 70
     1
102
RTVSPost2010Prop50
 90
       50
102
RTVSPost2010PropOp50
 70
     1
102
RTVSPost2010Prop51ColorIndex
 90
      256
102
RTVSPost2010Prop51ColorRGB
 90
-16777216
102
RTVSPost2010PropOp51
 70
     0
102
RTVSPost2010Prop52
140
1.0
102
RTVSPost2010PropOp52
 70
     0
102
RTVSPost2010Prop53
 90
        2
102
RTVSPost2010PropOp53
 70
     1
102
RTVSPost2010Prop54
  1
strokes_ogs.tif
102
RTVSPost2010PropOp54
 70
     1
102
RTVSPost2010Prop55
280
     0
102
RTVSPost2010PropOp55
 70
     1
102
RTVSPost2010Prop56
140
1.0
102
RTVSPost2010PropOp56
 70
     1
102
RTVSPost2010Prop57
140
1.0
102
RTVSPost2010PropOp57
 70
     1
  0
XRECORD
  5
188
102
{ACAD_REACTORS
330
187
102
}
330
187
100
AcDbXrecord
280
     1
102
RTVSPost2010Prop28
280
     0
102
RTVSPost2010PropOp28
 70
     1
102
RTVSPost2010Prop29
280
     1
102
RTVSPost2010PropOp29
 70
     1
102
RTVSPost2010Prop30
280
     1
102
RTVSPost2010PropOp30
 70
     1
102
RTVSPost2010Prop31
280
     0
102
RTVSPost2010PropOp31
 70
     1
102
RTVSPost2010Prop32
280
     0
102
RTVSPost2010PropOp32
 70
     1
102
RTVSPost2010Prop33
280
     0
102
RTVSPost2010PropOp33
 70
     1
102
RTVSPost2010Prop34
280
     0
102
RTVSPost2010PropOp34
 70
     1
102
RTVSPost2010Prop35
280
     0
102
RTVSPost2010PropOp35
 70
     1
102
RTVSPost2010Prop36
280
     0
102
RTVSPost2010PropOp36
 70
     1
102
RTVSPost2010Prop37
 90
       50
102
RTVSPost2010PropOp37
 70
     1
102
RTVSPost2010Prop38
140
0.0
102
RTVSPost2010PropOp38
 70
     1
102
RTVSPost2010Prop39
140
1.0
102
RTVSPost2010PropOp39
 70
     1
102
RTVSPost2010Prop40
 90
        0
102
RTVSPost2010PropOp40
 70
     1
102
RTVSPost2010Prop41ColorIndex
 90
       18
102
RTVSPost2010Prop41ColorRGB
 90
        0
102
RTVSPost2010PropOp41
 70
     1
102
RTVSPost2010Prop42
 90
       50
102
RTVSPost2010PropOp42
 70
     1
102
RTVSPost2010Prop43
 90
        3
102
RTVSPost2010PropOp43
 70
     1
102
RTVSPost2010Prop44ColorIndex
 90
        5
102
RTVSPost2010Prop44ColorRGB
 90
      255
102
RTVSPost2010PropOp44
 70
     1
102
RTVSPost2010Prop45
280
     0
102
RTVSPost2010PropOp45
 70
     1
102
RTVSPost2010Prop46
 90
       50
102
RTVSPost2010PropOp46
 70
     1
102
RTVSPost2010Prop47
 90
       50
102
RTVSPost2010PropOp47
 70
     1
102
RTVSPost2010Prop48
 90
       50
102
RTVSPost2010PropOp48
 70
     1
102
RTVSPost2010Prop49
280
     0
102
RTVSPost2010PropOp49
 70
     1
102
RTVSPost2010Prop50
 90
       50
102
RTVSPost2010PropOp50
 70
     1
102
RTVSPost2010Prop51ColorIndex
 90
      256
102
RTVSPost2010Prop51ColorRGB
 90
-16777216
102
RTVSPost2010PropOp51
 70
     0
102
RTVSPost2010Prop52
140
1.0
102
RTVSPost2010PropOp52
 70
     0
102
RTVSPost2010Prop53
 90
        2
102
RTVSPost2010PropOp53
 70
     1
102
RTVSPost2010Prop54
  1
strokes_ogs.tif
102
RTVSPost2010PropOp54
 70
     1
102
RTVSPost2010Prop55
280
     0
102
RTVSPost2010PropOp55
 70
     1
102
RTVSPost2010Prop56
140
1.0
102
RTVSPost2010PropOp56
 70
     1
102
RTVSPost2010Prop57
140
1.0
102
RTVSPost2010PropOp57
 70
     1
  0
XRECORD
  5
196
102
{ACAD_REACTORS
330
195
102
}
330
195
100
AcDbXrecord
280
     1
102
RTVSPost2010Prop28
280
     0
102
RTVSPost2010PropOp28
 70
     1
102
RTVSPost2010Prop29
280
     1
102
RTVSPost2010PropOp29
 70
     1
102
RTVSPost2010Prop30
280
     1
102
RTVSPost2010PropOp30
 70
     1
102
RTVSPost2010Prop31
280
     0
102
RTVSPost2010PropOp31
 70
     1
102
RTVSPost2010Prop32
280
     0
102
RTVSPost2010PropOp32
 70
     1
102
RTVSPost2010Prop33
280
     0
102
RTVSPost2010PropOp33
 70
     1
102
RTVSPost2010Prop34
280
     0
102
RTVSPost2010PropOp34
 70
     1
102
RTVSPost2010Prop35
280
     0
102
RTVSPost2010PropOp35
 70
     1
102
RTVSPost2010Prop36
280
     0
102
RTVSPost2010PropOp36
 70
     1
102
RTVSPost2010Prop37
 90
       50
102
RTVSPost2010PropOp37
 70
     1
102
RTVSPost2010Prop38
140
0.0
102
RTVSPost2010PropOp38
 70
     1
102
RTVSPost2010Prop39
140
1.0
102
RTVSPost2010PropOp39
 70
     1
102
RTVSPost2010Prop40
 90
        0
102
RTVSPost2010PropOp40
 70
     1
102
RTVSPost2010Prop41ColorIndex
 90
       18
102
RTVSPost2010Prop41ColorRGB
 90
        0
102
RTVSPost2010PropOp41
 70
     1
102
RTVSPost2010Prop42
 90
       50
102
RTVSPost2010PropOp42
 70
     1
102
RTVSPost2010Prop43
 90
        3
102
RTVSPost2010PropOp43
 70
     1
102
RTVSPost2010Prop44ColorIndex
 90
        5
102
RTVSPost2010Prop44ColorRGB
 90
      255
102
RTVSPost2010PropOp44
 70
     1
102
RTVSPost2010Prop45
280
     0
102
RTVSPost2010PropOp45
 70
     1
102
RTVSPost2010Prop46
 90
       50
102
RTVSPost2010PropOp46
 70
     1
102
RTVSPost2010Prop47
 90
       50
102
RTVSPost2010PropOp47
 70
     1
102
RTVSPost2010Prop48
 90
       50
102
RTVSPost2010PropOp48
 70
     1
102
RTVSPost2010Prop49
280
     0
102
RTVSPost2010PropOp49
 70
     1
102
RTVSPost2010Prop50
 90
       50
102
RTVSPost2010PropOp50
 70
     1
102
RTVSPost2010Prop51ColorIndex
 90
      256
102
RTVSPost2010Prop51ColorRGB
 90
-16777216
102
RTVSPost2010PropOp51
 70
     0
102
RTVSPost2010Prop52
140
1.0
102
RTVSPost2010PropOp52
 70
     0
102
RTVSPost2010Prop53
 90
        2
102
RTVSPost2010PropOp53
 70
     1
102
RTVSPost2010Prop54
  1
strokes_ogs.tif
102
RTVSPost2010PropOp54
 70
     1
102
RTVSPost2010Prop55
280
     0
102
RTVSPost2010PropOp55
 70
     1
102
RTVSPost2010Prop56
140
1.0
102
RTVSPost2010PropOp56
 70
     1
102
RTVSPost2010Prop57
140
1.0
102
RTVSPost2010PropOp57
 70
     1
  0
XRECORD
  5
19E
102
{ACAD_REACTORS
330
19D
102
}
330
19D
100
AcDbXrecord
280
     1
102
RTVSPost2010Prop28
280
     0
102
RTVSPost2010PropOp28
 70
     1
102
RTVSPost2010Prop29
280
     1
102
RTVSPost2010PropOp29
 70
     1
102
RTVSPost2010Prop30
280
     1
102
RTVSPost2010PropOp30
 70
     1
102
RTVSPost2010Prop31
280
     0
102
RTVSPost2010PropOp31
 70
     1
102
RTVSPost2010Prop32
280
     0
102
RTVSPost2010PropOp32
 70
     1
102
RTVSPost2010Prop33
280
     0
102
RTVSPost2010PropOp33
 70
     1
102
RTVSPost2010Prop34
280
     0
102
RTVSPost2010PropOp34
 70
     1
102
RTVSPost2010Prop35
280
     0
102
RTVSPost2010PropOp35
 70
     1
102
RTVSPost2010Prop36
280
     0
102
RTVSPost2010PropOp36
 70
     1
102
RTVSPost2010Prop37
 90
       50
102
RTVSPost2010PropOp37
 70
     1
102
RTVSPost2010Prop38
140
0.0
102
RTVSPost2010PropOp38
 70
     1
102
RTVSPost2010Prop39
140
1.0
102
RTVSPost2010PropOp39
 70
     1
102
RTVSPost2010Prop40
 90
        0
102
RTVSPost2010PropOp40
 70
     1
102
RTVSPost2010Prop41ColorIndex
 90
       18
102
RTVSPost2010Prop41ColorRGB
 90
        0
102
RTVSPost2010PropOp41
 70
     1
102
RTVSPost2010Prop42
 90
       50
102
RTVSPost2010PropOp42
 70
     1
102
RTVSPost2010Prop43
 90
        3
102
RTVSPost2010PropOp43
 70
     1
102
RTVSPost2010Prop44ColorIndex
 90
        5
102
RTVSPost2010Prop44ColorRGB
 90
      255
102
RTVSPost2010PropOp44
 70
     1
102
RTVSPost2010Prop45
280
     0
102
RTVSPost2010PropOp45
 70
     1
102
RTVSPost2010Prop46
 90
       50
102
RTVSPost2010PropOp46
 70
     1
102
RTVSPost2010Prop47
 90
       50
102
RTVSPost2010PropOp47
 70
     1
102
RTVSPost2010Prop48
 90
       50
102
RTVSPost2010PropOp48
 70
     1
102
RTVSPost2010Prop49
280
     0
102
RTVSPost2010PropOp49
 70
     1
102
RTVSPost2010Prop50
 90
       50
102
RTVSPost2010PropOp50
 70
     1
102
RTVSPost2010Prop51ColorIndex
 90
      256
102
RTVSPost2010Prop51ColorRGB
 90
-16777216
102
RTVSPost2010PropOp51
 70
     0
102
RTVSPost2010Prop52
140
1.0
102
RTVSPost2010PropOp52
 70
     0
102
RTVSPost2010Prop53
 90
        2
102
RTVSPost2010PropOp53
 70
     1
102
RTVSPost2010Prop54
  1
strokes_ogs.tif
102
RTVSPost2010PropOp54
 70
     1
102
RTVSPost2010Prop55
280
     0
102
RTVSPost2010PropOp55
 70
     1
102
RTVSPost2010Prop56
140
1.0
102
RTVSPost2010PropOp56
 70
     1
102
RTVSPost2010Prop57
140
1.0
102
RTVSPost2010PropOp57
 70
     1
  0
XRECORD
  5
190
102
{ACAD_REACTORS
330
18F
102
}
330
18F
100
AcDbXrecord
280
     1
102
RTVSPost2010Prop28
280
     0
102
RTVSPost2010PropOp28
 70
     1
102
RTVSPost2010Prop29
280
     1
102
RTVSPost2010PropOp29
 70
     1
102
RTVSPost2010Prop30
280
     1
102
RTVSPost2010PropOp30
 70
     1
102
RTVSPost2010Prop31
280
     0
102
RTVSPost2010PropOp31
 70
     1
102
RTVSPost2010Prop32
280
     0
102
RTVSPost2010PropOp32
 70
     1
102
RTVSPost2010Prop33
280
     0
102
RTVSPost2010PropOp33
 70
     1
102
RTVSPost2010Prop34
280
     0
102
RTVSPost2010PropOp34
 70
     1
102
RTVSPost2010Prop35
280
     0
102
RTVSPost2010PropOp35
 70
     1
102
RTVSPost2010Prop36
280
     0
102
RTVSPost2010PropOp36
 70
     1
102
RTVSPost2010Prop37
 90
       50
102
RTVSPost2010PropOp37
 70
     1
102
RTVSPost2010Prop38
140
0.0
102
RTVSPost2010PropOp38
 70
     1
102
RTVSPost2010Prop39
140
1.0
102
RTVSPost2010PropOp39
 70
     1
102
RTVSPost2010Prop40
 90
        0
102
RTVSPost2010PropOp40
 70
     1
102
RTVSPost2010Prop41ColorIndex
 90
       18
102
RTVSPost2010Prop41ColorRGB
 90
        0
102
RTVSPost2010PropOp41
 70
     1
102
RTVSPost2010Prop42
 90
       50
102
RTVSPost2010PropOp42
 70
     1
102
RTVSPost2010Prop43
 90
        3
102
RTVSPost2010PropOp43
 70
     1
102
RTVSPost2010Prop44ColorIndex
 90
        5
102
RTVSPost2010Prop44ColorRGB
 90
      255
102
RTVSPost2010PropOp44
 70
     1
102
RTVSPost2010Prop45
280
     0
102
RTVSPost2010PropOp45
 70
     1
102
RTVSPost2010Prop46
 90
       50
102
RTVSPost2010PropOp46
 70
     1
102
RTVSPost2010Prop47
 90
       50
102
RTVSPost2010PropOp47
 70
     1
102
RTVSPost2010Prop48
 90
       50
102
RTVSPost2010PropOp48
 70
     1
102
RTVSPost2010Prop49
280
     0
102
RTVSPost2010PropOp49
 70
     1
102
RTVSPost2010Prop50
 90
       50
102
RTVSPost2010PropOp50
 70
     1
102
RTVSPost2010Prop51ColorIndex
 90
      256
102
RTVSPost2010Prop51ColorRGB
 90
-16777216
102
RTVSPost2010PropOp51
 70
     0
102
RTVSPost2010Prop52
140
1.0
102
RTVSPost2010PropOp52
 70
     0
102
RTVSPost2010Prop53
 90
        2
102
RTVSPost2010PropOp53
 70
     1
102
RTVSPost2010Prop54
  1
strokes_ogs.tif
102
RTVSPost2010PropOp54
 70
     1
102
RTVSPost2010Prop55
280
     0
102
RTVSPost2010PropOp55
 70
     1
102
RTVSPost2010Prop56
140
1.0
102
RTVSPost2010PropOp56
 70
     1
102
RTVSPost2010Prop57
140
1.0
102
RTVSPost2010PropOp57
 70
     1
  0
XRECORD
  5
194
102
{ACAD_REACTORS
330
193
102
}
330
193
100
AcDbXrecord
280
     1
102
RTVSPost2010Prop28
280
     0
102
RTVSPost2010PropOp28
 70
     1
102
RTVSPost2010Prop29
280
     1
102
RTVSPost2010PropOp29
 70
     1
102
RTVSPost2010Prop30
280
     1
102
RTVSPost2010PropOp30
 70
     1
102
RTVSPost2010Prop31
280
     0
102
RTVSPost2010PropOp31
 70
     1
102
RTVSPost2010Prop32
280
     0
102
RTVSPost2010PropOp32
 70
     1
102
RTVSPost2010Prop33
280
     0
102
RTVSPost2010PropOp33
 70
     1
102
RTVSPost2010Prop34
280
     0
102
RTVSPost2010PropOp34
 70
     1
102
RTVSPost2010Prop35
280
     0
102
RTVSPost2010PropOp35
 70
     1
102
RTVSPost2010Prop36
280
     0
102
RTVSPost2010PropOp36
 70
     1
102
RTVSPost2010Prop37
 90
       50
102
RTVSPost2010PropOp37
 70
     1
102
RTVSPost2010Prop38
140
0.0
102
RTVSPost2010PropOp38
 70
     1
102
RTVSPost2010Prop39
140
1.0
102
RTVSPost2010PropOp39
 70
     1
102
RTVSPost2010Prop40
 90
        0
102
RTVSPost2010PropOp40
 70
     1
102
RTVSPost2010Prop41ColorIndex
 90
       18
102
RTVSPost2010Prop41ColorRGB
 90
        0
102
RTVSPost2010PropOp41
 70
     1
102
RTVSPost2010Prop42
 90
       50
102
RTVSPost2010PropOp42
 70
     1
102
RTVSPost2010Prop43
 90
        3
102
RTVSPost2010PropOp43
 70
     1
102
RTVSPost2010Prop44ColorIndex
 90
        5
102
RTVSPost2010Prop44ColorRGB
 90
      255
102
RTVSPost2010PropOp44
 70
     1
102
RTVSPost2010Prop45
280
     0
102
RTVSPost2010PropOp45
 70
     1
102
RTVSPost2010Prop46
 90
       50
102
RTVSPost2010PropOp46
 70
     1
102
RTVSPost2010Prop47
 90
       50
102
RTVSPost2010PropOp47
 70
     1
102
RTVSPost2010Prop48
 90
       50
102
RTVSPost2010PropOp48
 70
     1
102
RTVSPost2010Prop49
280
     0
102
RTVSPost2010PropOp49
 70
     1
102
RTVSPost2010Prop50
 90
       50
102
RTVSPost2010PropOp50
 70
     1
102
RTVSPost2010Prop51ColorIndex
 90
      256
102
RTVSPost2010Prop51ColorRGB
 90
-16777216
102
RTVSPost2010PropOp51
 70
     0
102
RTVSPost2010Prop52
140
1.0
102
RTVSPost2010PropOp52
 70
     0
102
RTVSPost2010Prop53
 90
        2
102
RTVSPost2010PropOp53
 70
     1
102
RTVSPost2010Prop54
  1
strokes_ogs.tif
102
RTVSPost2010PropOp54
 70
     1
102
RTVSPost2010Prop55
280
     0
102
RTVSPost2010PropOp55
 70
     1
102
RTVSPost2010Prop56
140
1.0
102
RTVSPost2010PropOp56
 70
     1
102
RTVSPost2010Prop57
140
1.0
102
RTVSPost2010PropOp57
 70
     1
  0
XRECORD
  5
1AE
102
{ACAD_REACTORS
330
1AD
102
}
330
1AD
100
AcDbXrecord
280
     1
102
RTVSPost2010Prop28
280
     0
102
RTVSPost2010PropOp28
 70
     0
102
RTVSPost2010Prop29
280
     1
102
RTVSPost2010PropOp29
 70
     0
102
RTVSPost2010Prop30
280
     1
102
RTVSPost2010PropOp30
 70
     0
102
RTVSPost2010Prop31
280
     0
102
RTVSPost2010PropOp31
 70
     0
102
RTVSPost2010Prop32
280
     0
102
RTVSPost2010PropOp32
 70
     0
102
RTVSPost2010Prop33
280
     0
102
RTVSPost2010PropOp33
 70
     0
102
RTVSPost2010Prop34
280
     0
102
RTVSPost2010PropOp34
 70
     0
102
RTVSPost2010Prop35
280
     0
102
RTVSPost2010PropOp35
 70
     0
102
RTVSPost2010Prop36
280
     0
102
RTVSPost2010PropOp36
 70
     0
102
RTVSPost2010Prop37
 90
       50
102
RTVSPost2010PropOp37
 70
     0
102
RTVSPost2010Prop38
140
0.0
102
RTVSPost2010PropOp38
 70
     0
102
RTVSPost2010Prop39
140
1.0
102
RTVSPost2010PropOp39
 70
     0
102
RTVSPost2010Prop40
 90
        0
102
RTVSPost2010PropOp40
 70
     0
102
RTVSPost2010Prop41ColorIndex
 90
       18
102
RTVSPost2010Prop41ColorRGB
 90
        0
102
RTVSPost2010PropOp41
 70
     0
102
RTVSPost2010Prop42
 90
       50
102
RTVSPost2010PropOp42
 70
     0
102
RTVSPost2010Prop43
 90
        3
102
RTVSPost2010PropOp43
 70
     0
102
RTVSPost2010Prop44ColorIndex
 90
        5
102
RTVSPost2010Prop44ColorRGB
 90
      255
102
RTVSPost2010PropOp44
 70
     0
102
RTVSPost2010Prop45
280
     0
102
RTVSPost2010PropOp45
 70
     0
102
RTVSPost2010Prop46
 90
       50
102
RTVSPost2010PropOp46
 70
     0
102
RTVSPost2010Prop47
 90
       50
102
RTVSPost2010PropOp47
 70
     0
102
RTVSPost2010Prop48
 90
       50
102
RTVSPost2010PropOp48
 70
     0
102
RTVSPost2010Prop49
280
     0
102
RTVSPost2010PropOp49
 70
     0
102
RTVSPost2010Prop50
 90
       50
102
RTVSPost2010PropOp50
 70
     0
102
RTVSPost2010Prop51ColorIndex
 90
      256
102
RTVSPost2010Prop51ColorRGB
 90
-16777216
102
RTVSPost2010PropOp51
 70
     0
102
RTVSPost2010Prop52
140
1.0
102
RTVSPost2010PropOp52
 70
     0
102
RTVSPost2010Prop53
 90
        2
102
RTVSPost2010PropOp53
 70
     0
102
RTVSPost2010Prop54
  1
strokes_ogs.tif
102
RTVSPost2010PropOp54
 70
     0
102
RTVSPost2010Prop55
280
     0
102
RTVSPost2010PropOp55
 70
     0
102
RTVSPost2010Prop56
140
1.0
102
RTVSPost2010PropOp56
 70
     0
102
RTVSPost2010Prop57
140
1.0
102
RTVSPost2010PropOp57
 70
     0
  0
XRECORD
  5
19C
102
{ACAD_REACTORS
330
19B
102
}
330
19B
100
AcDbXrecord
280
     1
102
RTVSPost2010Prop28
280
     0
102
RTVSPost2010PropOp28
 70
     1
102
RTVSPost2010Prop29
280
     1
102
RTVSPost2010PropOp29
 70
     1
102
RTVSPost2010Prop30
280
     1
102
RTVSPost2010PropOp30
 70
     1
102
RTVSPost2010Prop31
280
     0
102
RTVSPost2010PropOp31
 70
     1
102
RTVSPost2010Prop32
280
     0
102
RTVSPost2010PropOp32
 70
     1
102
RTVSPost2010Prop33
280
     0
102
RTVSPost2010PropOp33
 70
     1
102
RTVSPost2010Prop34
280
     0
102
RTVSPost2010PropOp34
 70
     1
102
RTVSPost2010Prop35
280
     0
102
RTVSPost2010PropOp35
 70
     1
102
RTVSPost2010Prop36
280
     0
102
RTVSPost2010PropOp36
 70
     1
102
RTVSPost2010Prop37
 90
       50
102
RTVSPost2010PropOp37
 70
     1
102
RTVSPost2010Prop38
140
0.0
102
RTVSPost2010PropOp38
 70
     1
102
RTVSPost2010Prop39
140
1.0
102
RTVSPost2010PropOp39
 70
     1
102
RTVSPost2010Prop40
 90
        0
102
RTVSPost2010PropOp40
 70
     1
102
RTVSPost2010Prop41ColorIndex
 90
       18
102
RTVSPost2010Prop41ColorRGB
 90
        0
102
RTVSPost2010PropOp41
 70
     1
102
RTVSPost2010Prop42
 90
       50
102
RTVSPost2010PropOp42
 70
     1
102
RTVSPost2010Prop43
 90
        3
102
RTVSPost2010PropOp43
 70
     1
102
RTVSPost2010Prop44ColorIndex
 90
        5
102
RTVSPost2010Prop44ColorRGB
 90
      255
102
RTVSPost2010PropOp44
 70
     1
102
RTVSPost2010Prop45
280
     0
102
RTVSPost2010PropOp45
 70
     1
102
RTVSPost2010Prop46
 90
       50
102
RTVSPost2010PropOp46
 70
     1
102
RTVSPost2010Prop47
 90
       50
102
RTVSPost2010PropOp47
 70
     1
102
RTVSPost2010Prop48
 90
       50
102
RTVSPost2010PropOp48
 70
     1
102
RTVSPost2010Prop49
280
     0
102
RTVSPost2010PropOp49
 70
     1
102
RTVSPost2010Prop50
 90
       50
102
RTVSPost2010PropOp50
 70
     1
102
RTVSPost2010Prop51ColorIndex
 90
      256
102
RTVSPost2010Prop51ColorRGB
 90
-16777216
102
RTVSPost2010PropOp51
 70
     0
102
RTVSPost2010Prop52
140
1.0
102
RTVSPost2010PropOp52
 70
     0
102
RTVSPost2010Prop53
 90
        2
102
RTVSPost2010PropOp53
 70
     1
102
RTVSPost2010Prop54
  1
strokes_ogs.tif
102
RTVSPost2010PropOp54
 70
     1
102
RTVSPost2010Prop55
280
     0
102
RTVSPost2010PropOp55
 70
     1
102
RTVSPost2010Prop56
140
1.0
102
RTVSPost2010PropOp56
 70
     1
102
RTVSPost2010Prop57
140
1.0
102
RTVSPost2010PropOp57
 70
     1
  0
XRECORD
  5
180
102
{ACAD_REACTORS
330
17F
102
}
330
17F
100
AcDbXrecord
280
     1
102
RTVSPost2010Prop28
280
     0
102
RTVSPost2010PropOp28
 70
     1
102
RTVSPost2010Prop29
280
     1
102
RTVSPost2010PropOp29
 70
     1
102
RTVSPost2010Prop30
280
     1
102
RTVSPost2010PropOp30
 70
     1
102
RTVSPost2010Prop31
280
     0
102
RTVSPost2010PropOp31
 70
     1
102
RTVSPost2010Prop32
280
     0
102
RTVSPost2010PropOp32
 70
     1
102
RTVSPost2010Prop33
280
     0
102
RTVSPost2010PropOp33
 70
     1
102
RTVSPost2010Prop34
280
     0
102
RTVSPost2010PropOp34
 70
     1
102
RTVSPost2010Prop35
280
     0
102
RTVSPost2010PropOp35
 70
     1
102
RTVSPost2010Prop36
280
     0
102
RTVSPost2010PropOp36
 70
     1
102
RTVSPost2010Prop37
 90
       50
102
RTVSPost2010PropOp37
 70
     1
102
RTVSPost2010Prop38
140
0.0
102
RTVSPost2010PropOp38
 70
     1
102
RTVSPost2010Prop39
140
1.0
102
RTVSPost2010PropOp39
 70
     1
102
RTVSPost2010Prop40
 90
        0
102
RTVSPost2010PropOp40
 70
     1
102
RTVSPost2010Prop41ColorIndex
 90
       18
102
RTVSPost2010Prop41ColorRGB
 90
        0
102
RTVSPost2010PropOp41
 70
     1
102
RTVSPost2010Prop42
 90
       50
102
RTVSPost2010PropOp42
 70
     1
102
RTVSPost2010Prop43
 90
        3
102
RTVSPost2010PropOp43
 70
     1
102
RTVSPost2010Prop44ColorIndex
 90
        5
102
RTVSPost2010Prop44ColorRGB
 90
      255
102
RTVSPost2010PropOp44
 70
     1
102
RTVSPost2010Prop45
280
     0
102
RTVSPost2010PropOp45
 70
     1
102
RTVSPost2010Prop46
 90
       50
102
RTVSPost2010PropOp46
 70
     1
102
RTVSPost2010Prop47
 90
       50
102
RTVSPost2010PropOp47
 70
     1
102
RTVSPost2010Prop48
 90
       50
102
RTVSPost2010PropOp48
 70
     1
102
RTVSPost2010Prop49
280
     0
102
RTVSPost2010PropOp49
 70
     1
102
RTVSPost2010Prop50
 90
       50
102
RTVSPost2010PropOp50
 70
     1
102
RTVSPost2010Prop51ColorIndex
 90
      256
102
RTVSPost2010Prop51ColorRGB
 90
-16777216
102
RTVSPost2010PropOp51
 70
     0
102
RTVSPost2010Prop52
140
1.0
102
RTVSPost2010PropOp52
 70
     0
102
RTVSPost2010Prop53
 90
        2
102
RTVSPost2010PropOp53
 70
     1
102
RTVSPost2010Prop54
  1
strokes_ogs.tif
102
RTVSPost2010PropOp54
 70
     1
102
RTVSPost2010Prop55
280
     0
102
RTVSPost2010PropOp55
 70
     1
102
RTVSPost2010Prop56
140
1.0
102
RTVSPost2010PropOp56
 70
     1
102
RTVSPost2010Prop57
140
1.0
102
RTVSPost2010PropOp57
 70
     1
  0
XRECORD
  5
182
102
{ACAD_REACTORS
330
181
102
}
330
181
100
AcDbXrecord
280
     1
102
RTVSPost2010Prop28
280
     0
102
RTVSPost2010PropOp28
 70
     1
102
RTVSPost2010Prop29
280
     1
102
RTVSPost2010PropOp29
 70
     1
102
RTVSPost2010Prop30
280
     1
102
RTVSPost2010PropOp30
 70
     1
102
RTVSPost2010Prop31
280
     0
102
RTVSPost2010PropOp31
 70
     1
102
RTVSPost2010Prop32
280
     0
102
RTVSPost2010PropOp32
 70
     1
102
RTVSPost2010Prop33
280
     0
102
RTVSPost2010PropOp33
 70
     1
102
RTVSPost2010Prop34
280
     0
102
RTVSPost2010PropOp34
 70
     1
102
RTVSPost2010Prop35
280
     0
102
RTVSPost2010PropOp35
 70
     1
102
RTVSPost2010Prop36
280
     0
102
RTVSPost2010PropOp36
 70
     1
102
RTVSPost2010Prop37
 90
       50
102
RTVSPost2010PropOp37
 70
     1
102
RTVSPost2010Prop38
140
0.0
102
RTVSPost2010PropOp38
 70
     1
102
RTVSPost2010Prop39
140
1.0
102
RTVSPost2010PropOp39
 70
     1
102
RTVSPost2010Prop40
 90
        0
102
RTVSPost2010PropOp40
 70
     1
102
RTVSPost2010Prop41ColorIndex
 90
       18
102
RTVSPost2010Prop41ColorRGB
 90
        0
102
RTVSPost2010PropOp41
 70
     1
102
RTVSPost2010Prop42
 90
       50
102
RTVSPost2010PropOp42
 70
     1
102
RTVSPost2010Prop43
 90
        3
102
RTVSPost2010PropOp43
 70
     1
102
RTVSPost2010Prop44ColorIndex
 90
        5
102
RTVSPost2010Prop44ColorRGB
 90
      255
102
RTVSPost2010PropOp44
 70
     1
102
RTVSPost2010Prop45
280
     0
102
RTVSPost2010PropOp45
 70
     1
102
RTVSPost2010Prop46
 90
       50
102
RTVSPost2010PropOp46
 70
     1
102
RTVSPost2010Prop47
 90
       50
102
RTVSPost2010PropOp47
 70
     1
102
RTVSPost2010Prop48
 90
       50
102
RTVSPost2010PropOp48
 70
     1
102
RTVSPost2010Prop49
280
     0
102
RTVSPost2010PropOp49
 70
     1
102
RTVSPost2010Prop50
 90
       50
102
RTVSPost2010PropOp50
 70
     1
102
RTVSPost2010Prop51ColorIndex
 90
      256
102
RTVSPost2010Prop51ColorRGB
 90
-16777216
102
RTVSPost2010PropOp51
 70
     0
102
RTVSPost2010Prop52
140
1.0
102
RTVSPost2010PropOp52
 70
     0
102
RTVSPost2010Prop53
 90
        2
102
RTVSPost2010PropOp53
 70
     1
102
RTVSPost2010Prop54
  1
strokes_ogs.tif
102
RTVSPost2010PropOp54
 70
     1
102
RTVSPost2010Prop55
280
     0
102
RTVSPost2010PropOp55
 70
     1
102
RTVSPost2010Prop56
140
1.0
102
RTVSPost2010PropOp56
 70
     1
102
RTVSPost2010Prop57
140
1.0
102
RTVSPost2010PropOp57
 70
     1
  0
XRECORD
  5
184
102
{ACAD_REACTORS
330
183
102
}
330
183
100
AcDbXrecord
280
     1
102
RTVSPost2010Prop28
280
     0
102
RTVSPost2010PropOp28
 70
     1
102
RTVSPost2010Prop29
280
     1
102
RTVSPost2010PropOp29
 70
     1
102
RTVSPost2010Prop30
280
     1
102
RTVSPost2010PropOp30
 70
     1
102
RTVSPost2010Prop31
280
     0
102
RTVSPost2010PropOp31
 70
     1
102
RTVSPost2010Prop32
280
     0
102
RTVSPost2010PropOp32
 70
     1
102
RTVSPost2010Prop33
280
     0
102
RTVSPost2010PropOp33
 70
     1
102
RTVSPost2010Prop34
280
     0
102
RTVSPost2010PropOp34
 70
     1
102
RTVSPost2010Prop35
280
     0
102
RTVSPost2010PropOp35
 70
     1
102
RTVSPost2010Prop36
280
     0
102
RTVSPost2010PropOp36
 70
     1
102
RTVSPost2010Prop37
 90
       50
102
RTVSPost2010PropOp37
 70
     1
102
RTVSPost2010Prop38
140
0.0
102
RTVSPost2010PropOp38
 70
     1
102
RTVSPost2010Prop39
140
1.0
102
RTVSPost2010PropOp39
 70
     1
102
RTVSPost2010Prop40
 90
        0
102
RTVSPost2010PropOp40
 70
     1
102
RTVSPost2010Prop41ColorIndex
 90
       18
102
RTVSPost2010Prop41ColorRGB
 90
        0
102
RTVSPost2010PropOp41
 70
     1
102
RTVSPost2010Prop42
 90
       50
102
RTVSPost2010PropOp42
 70
     1
102
RTVSPost2010Prop43
 90
        3
102
RTVSPost2010PropOp43
 70
     1
102
RTVSPost2010Prop44ColorIndex
 90
        5
102
RTVSPost2010Prop44ColorRGB
 90
      255
102
RTVSPost2010PropOp44
 70
     1
102
RTVSPost2010Prop45
280
     0
102
RTVSPost2010PropOp45
 70
     1
102
RTVSPost2010Prop46
 90
       50
102
RTVSPost2010PropOp46
 70
     1
102
RTVSPost2010Prop47
 90
       50
102
RTVSPost2010PropOp47
 70
     1
102
RTVSPost2010Prop48
 90
       50
102
RTVSPost2010PropOp48
 70
     1
102
RTVSPost2010Prop49
280
     0
102
RTVSPost2010PropOp49
 70
     1
102
RTVSPost2010Prop50
 90
       50
102
RTVSPost2010PropOp50
 70
     1
102
RTVSPost2010Prop51ColorIndex
 90
      256
102
RTVSPost2010Prop51ColorRGB
 90
-16777216
102
RTVSPost2010PropOp51
 70
     0
102
RTVSPost2010Prop52
140
1.0
102
RTVSPost2010PropOp52
 70
     0
102
RTVSPost2010Prop53
 90
        2
102
RTVSPost2010PropOp53
 70
     1
102
RTVSPost2010Prop54
  1
strokes_ogs.tif
102
RTVSPost2010PropOp54
 70
     1
102
RTVSPost2010Prop55
280
     0
102
RTVSPost2010PropOp55
 70
     1
102
RTVSPost2010Prop56
140
1.0
102
RTVSPost2010PropOp56
 70
     1
102
RTVSPost2010Prop57
140
1.0
102
RTVSPost2010PropOp57
 70
     1
  0
XRECORD
  5
186
102
{ACAD_REACTORS
330
185
102
}
330
185
100
AcDbXrecord
280
     1
102
RTVSPost2010Prop28
280
     0
102
RTVSPost2010PropOp28
 70
     1
102
RTVSPost2010Prop29
280
     1
102
RTVSPost2010PropOp29
 70
     1
102
RTVSPost2010Prop30
280
     1
102
RTVSPost2010PropOp30
 70
     1
102
RTVSPost2010Prop31
280
     0
102
RTVSPost2010PropOp31
 70
     1
102
RTVSPost2010Prop32
280
     0
102
RTVSPost2010PropOp32
 70
     1
102
RTVSPost2010Prop33
280
     0
102
RTVSPost2010PropOp33
 70
     1
102
RTVSPost2010Prop34
280
     0
102
RTVSPost2010PropOp34
 70
     1
102
RTVSPost2010Prop35
280
     0
102
RTVSPost2010PropOp35
 70
     1
102
RTVSPost2010Prop36
280
     0
102
RTVSPost2010PropOp36
 70
     1
102
RTVSPost2010Prop37
 90
       50
102
RTVSPost2010PropOp37
 70
     1
102
RTVSPost2010Prop38
140
0.0
102
RTVSPost2010PropOp38
 70
     1
102
RTVSPost2010Prop39
140
1.0
102
RTVSPost2010PropOp39
 70
     1
102
RTVSPost2010Prop40
 90
        0
102
RTVSPost2010PropOp40
 70
     1
102
RTVSPost2010Prop41ColorIndex
 90
       18
102
RTVSPost2010Prop41ColorRGB
 90
        0
102
RTVSPost2010PropOp41
 70
     1
102
RTVSPost2010Prop42
 90
       50
102
RTVSPost2010PropOp42
 70
     1
102
RTVSPost2010Prop43
 90
        3
102
RTVSPost2010PropOp43
 70
     1
102
RTVSPost2010Prop44ColorIndex
 90
        5
102
RTVSPost2010Prop44ColorRGB
 90
      255
102
RTVSPost2010PropOp44
 70
     1
102
RTVSPost2010Prop45
280
     0
102
RTVSPost2010PropOp45
 70
     1
102
RTVSPost2010Prop46
 90
       50
102
RTVSPost2010PropOp46
 70
     1
102
RTVSPost2010Prop47
 90
       50
102
RTVSPost2010PropOp47
 70
     1
102
RTVSPost2010Prop48
 90
       50
102
RTVSPost2010PropOp48
 70
     1
102
RTVSPost2010Prop49
280
     0
102
RTVSPost2010PropOp49
 70
     1
102
RTVSPost2010Prop50
 90
       50
102
RTVSPost2010PropOp50
 70
     1
102
RTVSPost2010Prop51ColorIndex
 90
      256
102
RTVSPost2010Prop51ColorRGB
 90
-16777216
102
RTVSPost2010PropOp51
 70
     0
102
RTVSPost2010Prop52
140
1.0
102
RTVSPost2010PropOp52
 70
     0
102
RTVSPost2010Prop53
 90
        2
102
RTVSPost2010PropOp53
 70
     1
102
RTVSPost2010Prop54
  1
strokes_ogs.tif
102
RTVSPost2010PropOp54
 70
     1
102
RTVSPost2010Prop55
280
     0
102
RTVSPost2010PropOp55
 70
     1
102
RTVSPost2010Prop56
140
1.0
102
RTVSPost2010PropOp56
 70
     1
102
RTVSPost2010Prop57
140
1.0
102
RTVSPost2010PropOp57
 70
     1
  0
XRECORD
  5
18E
102
{ACAD_REACTORS
330
18D
102
}
330
18D
100
AcDbXrecord
280
     1
102
RTVSPost2010Prop28
280
     0
102
RTVSPost2010PropOp28
 70
     1
102
RTVSPost2010Prop29
280
     1
102
RTVSPost2010PropOp29
 70
     1
102
RTVSPost2010Prop30
280
     1
102
RTVSPost2010PropOp30
 70
     1
102
RTVSPost2010Prop31
280
     0
102
RTVSPost2010PropOp31
 70
     1
102
RTVSPost2010Prop32
280
     0
102
RTVSPost2010PropOp32
 70
     1
102
RTVSPost2010Prop33
280
     0
102
RTVSPost2010PropOp33
 70
     1
102
RTVSPost2010Prop34
280
     0
102
RTVSPost2010PropOp34
 70
     1
102
RTVSPost2010Prop35
280
     0
102
RTVSPost2010PropOp35
 70
     1
102
RTVSPost2010Prop36
280
     0
102
RTVSPost2010PropOp36
 70
     1
102
RTVSPost2010Prop37
 90
       50
102
RTVSPost2010PropOp37
 70
     1
102
RTVSPost2010Prop38
140
0.0
102
RTVSPost2010PropOp38
 70
     1
102
RTVSPost2010Prop39
140
1.0
102
RTVSPost2010PropOp39
 70
     1
102
RTVSPost2010Prop40
 90
        0
102
RTVSPost2010PropOp40
 70
     1
102
RTVSPost2010Prop41ColorIndex
 90
       18
102
RTVSPost2010Prop41ColorRGB
 90
        0
102
RTVSPost2010PropOp41
 70
     1
102
RTVSPost2010Prop42
 90
       50
102
RTVSPost2010PropOp42
 70
     1
102
RTVSPost2010Prop43
 90
        3
102
RTVSPost2010PropOp43
 70
     1
102
RTVSPost2010Prop44ColorIndex
 90
        5
102
RTVSPost2010Prop44ColorRGB
 90
      255
102
RTVSPost2010PropOp44
 70
     1
102
RTVSPost2010Prop45
280
     0
102
RTVSPost2010PropOp45
 70
     1
102
RTVSPost2010Prop46
 90
       50
102
RTVSPost2010PropOp46
 70
     1
102
RTVSPost2010Prop47
 90
       50
102
RTVSPost2010PropOp47
 70
     1
102
RTVSPost2010Prop48
 90
       50
102
RTVSPost2010PropOp48
 70
     1
102
RTVSPost2010Prop49
280
     0
102
RTVSPost2010PropOp49
 70
     1
102
RTVSPost2010Prop50
 90
       50
102
RTVSPost2010PropOp50
 70
     1
102
RTVSPost2010Prop51ColorIndex
 90
      256
102
RTVSPost2010Prop51ColorRGB
 90
-16777216
102
RTVSPost2010PropOp51
 70
     0
102
RTVSPost2010Prop52
140
1.0
102
RTVSPost2010PropOp52
 70
     0
102
RTVSPost2010Prop53
 90
        2
102
RTVSPost2010PropOp53
 70
     1
102
RTVSPost2010Prop54
  1
strokes_ogs.tif
102
RTVSPost2010PropOp54
 70
     1
102
RTVSPost2010Prop55
280
     0
102
RTVSPost2010PropOp55
 70
     1
102
RTVSPost2010Prop56
140
1.0
102
RTVSPost2010PropOp56
 70
     1
102
RTVSPost2010Prop57
140
1.0
102
RTVSPost2010PropOp57
 70
     1
  0
XRECORD
  5
1AA
102
{ACAD_REACTORS
330
1A9
102
}
330
1A9
100
AcDbXrecord
280
     1
102
RTVSPost2010Prop28
280
     0
102
RTVSPost2010PropOp28
 70
     0
102
RTVSPost2010Prop29
280
     1
102
RTVSPost2010PropOp29
 70
     0
102
RTVSPost2010Prop30
280
     1
102
RTVSPost2010PropOp30
 70
     0
102
RTVSPost2010Prop31
280
     0
102
RTVSPost2010PropOp31
 70
     0
102
RTVSPost2010Prop32
280
     0
102
RTVSPost2010PropOp32
 70
     0
102
RTVSPost2010Prop33
280
     0
102
RTVSPost2010PropOp33
 70
     0
102
RTVSPost2010Prop34
280
     0
102
RTVSPost2010PropOp34
 70
     0
102
RTVSPost2010Prop35
280
     0
102
RTVSPost2010PropOp35
 70
     0
102
RTVSPost2010Prop36
280
     0
102
RTVSPost2010PropOp36
 70
     0
102
RTVSPost2010Prop37
 90
       50
102
RTVSPost2010PropOp37
 70
     0
102
RTVSPost2010Prop38
140
0.0
102
RTVSPost2010PropOp38
 70
     0
102
RTVSPost2010Prop39
140
1.0
102
RTVSPost2010PropOp39
 70
     0
102
RTVSPost2010Prop40
 90
        0
102
RTVSPost2010PropOp40
 70
     0
102
RTVSPost2010Prop41ColorIndex
 90
       18
102
RTVSPost2010Prop41ColorRGB
 90
        0
102
RTVSPost2010PropOp41
 70
     0
102
RTVSPost2010Prop42
 90
       50
102
RTVSPost2010PropOp42
 70
     0
102
RTVSPost2010Prop43
 90
        3
102
RTVSPost2010PropOp43
 70
     0
102
RTVSPost2010Prop44ColorIndex
 90
        5
102
RTVSPost2010Prop44ColorRGB
 90
      255
102
RTVSPost2010PropOp44
 70
     0
102
RTVSPost2010Prop45
280
     0
102
RTVSPost2010PropOp45
 70
     0
102
RTVSPost2010Prop46
 90
       50
102
RTVSPost2010PropOp46
 70
     0
102
RTVSPost2010Prop47
 90
       50
102
RTVSPost2010PropOp47
 70
     0
102
RTVSPost2010Prop48
 90
       50
102
RTVSPost2010PropOp48
 70
     0
102
RTVSPost2010Prop49
280
     0
102
RTVSPost2010PropOp49
 70
     0
102
RTVSPost2010Prop50
 90
       50
102
RTVSPost2010PropOp50
 70
     0
102
RTVSPost2010Prop51ColorIndex
 90
      256
102
RTVSPost2010Prop51ColorRGB
 90
-16777216
102
RTVSPost2010PropOp51
 70
     0
102
RTVSPost2010Prop52
140
1.0
102
RTVSPost2010PropOp52
 70
     0
102
RTVSPost2010Prop53
 90
        2
102
RTVSPost2010PropOp53
 70
     0
102
RTVSPost2010Prop54
  1
strokes_ogs.tif
102
RTVSPost2010PropOp54
 70
     0
102
RTVSPost2010Prop55
280
     0
102
RTVSPost2010PropOp55
 70
     0
102
RTVSPost2010Prop56
140
1.0
102
RTVSPost2010PropOp56
 70
     0
102
RTVSPost2010Prop57
140
1.0
102
RTVSPost2010PropOp57
 70
     0
  0
XRECORD
  5
19A
102
{ACAD_REACTORS
330
199
102
}
330
199
100
AcDbXrecord
280
     1
102
RTVSPost2010Prop28
280
     0
102
RTVSPost2010PropOp28
 70
     1
102
RTVSPost2010Prop29
280
     1
102
RTVSPost2010PropOp29
 70
     1
102
RTVSPost2010Prop30
280
     1
102
RTVSPost2010PropOp30
 70
     1
102
RTVSPost2010Prop31
280
     0
102
RTVSPost2010PropOp31
 70
     1
102
RTVSPost2010Prop32
280
     0
102
RTVSPost2010PropOp32
 70
     1
102
RTVSPost2010Prop33
280
     0
102
RTVSPost2010PropOp33
 70
     1
102
RTVSPost2010Prop34
280
     0
102
RTVSPost2010PropOp34
 70
     1
102
RTVSPost2010Prop35
280
     0
102
RTVSPost2010PropOp35
 70
     1
102
RTVSPost2010Prop36
280
     0
102
RTVSPost2010PropOp36
 70
     1
102
RTVSPost2010Prop37
 90
       50
102
RTVSPost2010PropOp37
 70
     1
102
RTVSPost2010Prop38
140
0.0
102
RTVSPost2010PropOp38
 70
     1
102
RTVSPost2010Prop39
140
1.0
102
RTVSPost2010PropOp39
 70
     1
102
RTVSPost2010Prop40
 90
        0
102
RTVSPost2010PropOp40
 70
     1
102
RTVSPost2010Prop41ColorIndex
 90
       18
102
RTVSPost2010Prop41ColorRGB
 90
        0
102
RTVSPost2010PropOp41
 70
     1
102
RTVSPost2010Prop42
 90
       50
102
RTVSPost2010PropOp42
 70
     1
102
RTVSPost2010Prop43
 90
        3
102
RTVSPost2010PropOp43
 70
     1
102
RTVSPost2010Prop44ColorIndex
 90
        5
102
RTVSPost2010Prop44ColorRGB
 90
      255
102
RTVSPost2010PropOp44
 70
     1
102
RTVSPost2010Prop45
280
     0
102
RTVSPost2010PropOp45
 70
     1
102
RTVSPost2010Prop46
 90
       50
102
RTVSPost2010PropOp46
 70
     1
102
RTVSPost2010Prop47
 90
       50
102
RTVSPost2010PropOp47
 70
     1
102
RTVSPost2010Prop48
 90
       50
102
RTVSPost2010PropOp48
 70
     1
102
RTVSPost2010Prop49
280
     0
102
RTVSPost2010PropOp49
 70
     1
102
RTVSPost2010Prop50
 90
       50
102
RTVSPost2010PropOp50
 70
     1
102
RTVSPost2010Prop51ColorIndex
 90
      256
102
RTVSPost2010Prop51ColorRGB
 90
-16777216
102
RTVSPost2010PropOp51
 70
     0
102
RTVSPost2010Prop52
140
1.0
102
RTVSPost2010PropOp52
 70
     0
102
RTVSPost2010Prop53
 90
        2
102
RTVSPost2010PropOp53
 70
     1
102
RTVSPost2010Prop54
  1
strokes_ogs.tif
102
RTVSPost2010PropOp54
 70
     1
102
RTVSPost2010Prop55
280
     0
102
RTVSPost2010PropOp55
 70
     1
102
RTVSPost2010Prop56
140
1.0
102
RTVSPost2010PropOp56
 70
     1
102
RTVSPost2010Prop57
140
1.0
102
RTVSPost2010PropOp57
 70
     1
  0
XRECORD
  5
1AC
102
{ACAD_REACTORS
330
1AB
102
}
330
1AB
100
AcDbXrecord
280
     1
102
RTVSPost2010Prop28
280
     0
102
RTVSPost2010PropOp28
 70
     0
102
RTVSPost2010Prop29
280
     1
102
RTVSPost2010PropOp29
 70
     0
102
RTVSPost2010Prop30
280
     1
102
RTVSPost2010PropOp30
 70
     0
102
RTVSPost2010Prop31
280
     0
102
RTVSPost2010PropOp31
 70
     0
102
RTVSPost2010Prop32
280
     0
102
RTVSPost2010PropOp32
 70
     0
102
RTVSPost2010Prop33
280
     0
102
RTVSPost2010PropOp33
 70
     0
102
RTVSPost2010Prop34
280
     0
102
RTVSPost2010PropOp34
 70
     0
102
RTVSPost2010Prop35
280
     0
102
RTVSPost2010PropOp35
 70
     0
102
RTVSPost2010Prop36
280
     0
102
RTVSPost2010PropOp36
 70
     0
102
RTVSPost2010Prop37
 90
       50
102
RTVSPost2010PropOp37
 70
     0
102
RTVSPost2010Prop38
140
0.0
102
RTVSPost2010PropOp38
 70
     0
102
RTVSPost2010Prop39
140
1.0
102
RTVSPost2010PropOp39
 70
     0
102
RTVSPost2010Prop40
 90
        0
102
RTVSPost2010PropOp40
 70
     0
102
RTVSPost2010Prop41ColorIndex
 90
       18
102
RTVSPost2010Prop41ColorRGB
 90
        0
102
RTVSPost2010PropOp41
 70
     0
102
RTVSPost2010Prop42
 90
       50
102
RTVSPost2010PropOp42
 70
     0
102
RTVSPost2010Prop43
 90
        3
102
RTVSPost2010PropOp43
 70
     0
102
RTVSPost2010Prop44ColorIndex
 90
        5
102
RTVSPost2010Prop44ColorRGB
 90
      255
102
RTVSPost2010PropOp44
 70
     0
102
RTVSPost2010Prop45
280
     0
102
RTVSPost2010PropOp45
 70
     0
102
RTVSPost2010Prop46
 90
       50
102
RTVSPost2010PropOp46
 70
     0
102
RTVSPost2010Prop47
 90
       50
102
RTVSPost2010PropOp47
 70
     0
102
RTVSPost2010Prop48
 90
       50
102
RTVSPost2010PropOp48
 70
     0
102
RTVSPost2010Prop49
280
     0
102
RTVSPost2010PropOp49
 70
     0
102
RTVSPost2010Prop50
 90
       50
102
RTVSPost2010PropOp50
 70
     0
102
RTVSPost2010Prop51ColorIndex
 90
      256
102
RTVSPost2010Prop51ColorRGB
 90
-16777216
102
RTVSPost2010PropOp51
 70
     0
102
RTVSPost2010Prop52
140
1.0
102
RTVSPost2010PropOp52
 70
     0
102
RTVSPost2010Prop53
 90
        2
102
RTVSPost2010PropOp53
 70
     0
102
RTVSPost2010Prop54
  1
strokes_ogs.tif
102
RTVSPost2010PropOp54
 70
     0
102
RTVSPost2010Prop55
280
     0
102
RTVSPost2010PropOp55
 70
     0
102
RTVSPost2010Prop56
140
1.0
102
RTVSPost2010PropOp56
 70
     0
102
RTVSPost2010Prop57
140
1.0
102
RTVSPost2010PropOp57
 70
     0
  0
XRECORD
  5
192
102
{ACAD_REACTORS
330
191
102
}
330
191
100
AcDbXrecord
280
     1
102
RTVSPost2010Prop28
280
     0
102
RTVSPost2010PropOp28
 70
     1
102
RTVSPost2010Prop29
280
     1
102
RTVSPost2010PropOp29
 70
     1
102
RTVSPost2010Prop30
280
     1
102
RTVSPost2010PropOp30
 70
     1
102
RTVSPost2010Prop31
280
     0
102
RTVSPost2010PropOp31
 70
     1
102
RTVSPost2010Prop32
280
     0
102
RTVSPost2010PropOp32
 70
     1
102
RTVSPost2010Prop33
280
     0
102
RTVSPost2010PropOp33
 70
     1
102
RTVSPost2010Prop34
280
     0
102
RTVSPost2010PropOp34
 70
     1
102
RTVSPost2010Prop35
280
     0
102
RTVSPost2010PropOp35
 70
     1
102
RTVSPost2010Prop36
280
     0
102
RTVSPost2010PropOp36
 70
     1
102
RTVSPost2010Prop37
 90
       50
102
RTVSPost2010PropOp37
 70
     1
102
RTVSPost2010Prop38
140
0.0
102
RTVSPost2010PropOp38
 70
     1
102
RTVSPost2010Prop39
140
1.0
102
RTVSPost2010PropOp39
 70
     1
102
RTVSPost2010Prop40
 90
        0
102
RTVSPost2010PropOp40
 70
     1
102
RTVSPost2010Prop41ColorIndex
 90
       18
102
RTVSPost2010Prop41ColorRGB
 90
        0
102
RTVSPost2010PropOp41
 70
     1
102
RTVSPost2010Prop42
 90
       50
102
RTVSPost2010PropOp42
 70
     1
102
RTVSPost2010Prop43
 90
        3
102
RTVSPost2010PropOp43
 70
     1
102
RTVSPost2010Prop44ColorIndex
 90
        5
102
RTVSPost2010Prop44ColorRGB
 90
      255
102
RTVSPost2010PropOp44
 70
     1
102
RTVSPost2010Prop45
280
     0
102
RTVSPost2010PropOp45
 70
     1
102
RTVSPost2010Prop46
 90
       50
102
RTVSPost2010PropOp46
 70
     1
102
RTVSPost2010Prop47
 90
       50
102
RTVSPost2010PropOp47
 70
     1
102
RTVSPost2010Prop48
 90
       50
102
RTVSPost2010PropOp48
 70
     1
102
RTVSPost2010Prop49
280
     0
102
RTVSPost2010PropOp49
 70
     1
102
RTVSPost2010Prop50
 90
       50
102
RTVSPost2010PropOp50
 70
     1
102
RTVSPost2010Prop51ColorIndex
 90
      256
102
RTVSPost2010Prop51ColorRGB
 90
-16777216
102
RTVSPost2010PropOp51
 70
     0
102
RTVSPost2010Prop52
140
1.0
102
RTVSPost2010PropOp52
 70
     0
102
RTVSPost2010Prop53
 90
        2
102
RTVSPost2010PropOp53
 70
     1
102
RTVSPost2010Prop54
  1
strokes_ogs.tif
102
RTVSPost2010PropOp54
 70
     1
102
RTVSPost2010Prop55
280
     0
102
RTVSPost2010PropOp55
 70
     1
102
RTVSPost2010Prop56
140
1.0
102
RTVSPost2010PropOp56
 70
     1
102
RTVSPost2010Prop57
140
1.0
102
RTVSPost2010PropOp57
 70
     1
  0
XRECORD
  5
1A8
102
{ACAD_REACTORS
330
1A7
102
}
330
1A7
100
AcDbXrecord
280
     1
102
RTVSPost2010Prop28
280
     0
102
RTVSPost2010PropOp28
 70
     1
102
RTVSPost2010Prop29
280
     1
102
RTVSPost2010PropOp29
 70
     1
102
RTVSPost2010Prop30
280
     1
102
RTVSPost2010PropOp30
 70
     1
102
RTVSPost2010Prop31
280
     0
102
RTVSPost2010PropOp31
 70
     1
102
RTVSPost2010Prop32
280
     0
102
RTVSPost2010PropOp32
 70
     1
102
RTVSPost2010Prop33
280
     0
102
RTVSPost2010PropOp33
 70
     1
102
RTVSPost2010Prop34
280
     0
102
RTVSPost2010PropOp34
 70
     1
102
RTVSPost2010Prop35
280
     0
102
RTVSPost2010PropOp35
 70
     1
102
RTVSPost2010Prop36
280
     0
102
RTVSPost2010PropOp36
 70
     1
102
RTVSPost2010Prop37
 90
       50
102
RTVSPost2010PropOp37
 70
     1
102
RTVSPost2010Prop38
140
0.0
102
RTVSPost2010PropOp38
 70
     1
102
RTVSPost2010Prop39
140
1.0
102
RTVSPost2010PropOp39
 70
     1
102
RTVSPost2010Prop40
 90
        0
102
RTVSPost2010PropOp40
 70
     1
102
RTVSPost2010Prop41ColorIndex
 90
       18
102
RTVSPost2010Prop41ColorRGB
 90
        0
102
RTVSPost2010PropOp41
 70
     1
102
RTVSPost2010Prop42
 90
       50
102
RTVSPost2010PropOp42
 70
     1
102
RTVSPost2010Prop43
 90
        3
102
RTVSPost2010PropOp43
 70
     1
102
RTVSPost2010Prop44ColorIndex
 90
        5
102
RTVSPost2010Prop44ColorRGB
 90
      255
102
RTVSPost2010PropOp44
 70
     1
102
RTVSPost2010Prop45
280
     0
102
RTVSPost2010PropOp45
 70
     1
102
RTVSPost2010Prop46
 90
       50
102
RTVSPost2010PropOp46
 70
     1
102
RTVSPost2010Prop47
 90
       50
102
RTVSPost2010PropOp47
 70
     1
102
RTVSPost2010Prop48
 90
       50
102
RTVSPost2010PropOp48
 70
     1
102
RTVSPost2010Prop49
280
     0
102
RTVSPost2010PropOp49
 70
     1
102
RTVSPost2010Prop50
 90
       50
102
RTVSPost2010PropOp50
 70
     1
102
RTVSPost2010Prop51ColorIndex
 90
      256
102
RTVSPost2010Prop51ColorRGB
 90
-16777216
102
RTVSPost2010PropOp51
 70
     0
102
RTVSPost2010Prop52
140
1.0
102
RTVSPost2010PropOp52
 70
     0
102
RTVSPost2010Prop53
 90
        2
102
RTVSPost2010PropOp53
 70
     1
102
RTVSPost2010Prop54
  1
strokes_ogs.tif
102
RTVSPost2010PropOp54
 70
     1
102
RTVSPost2010Prop55
280
     0
102
RTVSPost2010PropOp55
 70
     1
102
RTVSPost2010Prop56
140
1.0
102
RTVSPost2010PropOp56
 70
     1
102
RTVSPost2010Prop57
140
1.0
102
RTVSPost2010PropOp57
 70
     1
  0
XRECORD
  5
1A6
102
{ACAD_REACTORS
330
1A5
102
}
330
1A5
100
AcDbXrecord
280
     1
102
RTVSPost2010Prop28
280
     0
102
RTVSPost2010PropOp28
 70
     1
102
RTVSPost2010Prop29
280
     1
102
RTVSPost2010PropOp29
 70
     1
102
RTVSPost2010Prop30
280
     1
102
RTVSPost2010PropOp30
 70
     1
102
RTVSPost2010Prop31
280
     0
102
RTVSPost2010PropOp31
 70
     1
102
RTVSPost2010Prop32
280
     0
102
RTVSPost2010PropOp32
 70
     1
102
RTVSPost2010Prop33
280
     0
102
RTVSPost2010PropOp33
 70
     1
102
RTVSPost2010Prop34
280
     0
102
RTVSPost2010PropOp34
 70
     1
102
RTVSPost2010Prop35
280
     0
102
RTVSPost2010PropOp35
 70
     1
102
RTVSPost2010Prop36
280
     0
102
RTVSPost2010PropOp36
 70
     1
102
RTVSPost2010Prop37
 90
       50
102
RTVSPost2010PropOp37
 70
     1
102
RTVSPost2010Prop38
140
0.0
102
RTVSPost2010PropOp38
 70
     1
102
RTVSPost2010Prop39
140
1.0
102
RTVSPost2010PropOp39
 70
     1
102
RTVSPost2010Prop40
 90
        0
102
RTVSPost2010PropOp40
 70
     1
102
RTVSPost2010Prop41ColorIndex
 90
       18
102
RTVSPost2010Prop41ColorRGB
 90
        0
102
RTVSPost2010PropOp41
 70
     1
102
RTVSPost2010Prop42
 90
       50
102
RTVSPost2010PropOp42
 70
     1
102
RTVSPost2010Prop43
 90
        3
102
RTVSPost2010PropOp43
 70
     1
102
RTVSPost2010Prop44ColorIndex
 90
        5
102
RTVSPost2010Prop44ColorRGB
 90
      255
102
RTVSPost2010PropOp44
 70
     1
102
RTVSPost2010Prop45
280
     0
102
RTVSPost2010PropOp45
 70
     1
102
RTVSPost2010Prop46
 90
       50
102
RTVSPost2010PropOp46
 70
     1
102
RTVSPost2010Prop47
 90
       50
102
RTVSPost2010PropOp47
 70
     1
102
RTVSPost2010Prop48
 90
       50
102
RTVSPost2010PropOp48
 70
     1
102
RTVSPost2010Prop49
280
     0
102
RTVSPost2010PropOp49
 70
     1
102
RTVSPost2010Prop50
 90
       50
102
RTVSPost2010PropOp50
 70
     1
102
RTVSPost2010Prop51ColorIndex
 90
      256
102
RTVSPost2010Prop51ColorRGB
 90
-16777216
102
RTVSPost2010PropOp51
 70
     0
102
RTVSPost2010Prop52
140
1.0
102
RTVSPost2010PropOp52
 70
     0
102
RTVSPost2010Prop53
 90
        2
102
RTVSPost2010PropOp53
 70
     1
102
RTVSPost2010Prop54
  1
strokes_ogs.tif
102
RTVSPost2010PropOp54
 70
     1
102
RTVSPost2010Prop55
280
     0
102
RTVSPost2010PropOp55
 70
     1
102
RTVSPost2010Prop56
140
1.0
102
RTVSPost2010PropOp56
 70
     1
102
RTVSPost2010Prop57
140
1.0
102
RTVSPost2010PropOp57
 70
     1
  0
XRECORD
  5
1A0
102
{ACAD_REACTORS
330
19F
102
}
330
19F
100
AcDbXrecord
280
     1
102
RTVSPost2010Prop28
280
     0
102
RTVSPost2010PropOp28
 70
     1
102
RTVSPost2010Prop29
280
     1
102
RTVSPost2010PropOp29
 70
     1
102
RTVSPost2010Prop30
280
     1
102
RTVSPost2010PropOp30
 70
     1
102
RTVSPost2010Prop31
280
     0
102
RTVSPost2010PropOp31
 70
     1
102
RTVSPost2010Prop32
280
     0
102
RTVSPost2010PropOp32
 70
     1
102
RTVSPost2010Prop33
280
     0
102
RTVSPost2010PropOp33
 70
     1
102
RTVSPost2010Prop34
280
     0
102
RTVSPost2010PropOp34
 70
     1
102
RTVSPost2010Prop35
280
     0
102
RTVSPost2010PropOp35
 70
     1
102
RTVSPost2010Prop36
280
     0
102
RTVSPost2010PropOp36
 70
     1
102
RTVSPost2010Prop37
 90
       50
102
RTVSPost2010PropOp37
 70
     1
102
RTVSPost2010Prop38
140
0.0
102
RTVSPost2010PropOp38
 70
     1
102
RTVSPost2010Prop39
140
1.0
102
RTVSPost2010PropOp39
 70
     1
102
RTVSPost2010Prop40
 90
        0
102
RTVSPost2010PropOp40
 70
     1
102
RTVSPost2010Prop41ColorIndex
 90
       18
102
RTVSPost2010Prop41ColorRGB
 90
        0
102
RTVSPost2010PropOp41
 70
     1
102
RTVSPost2010Prop42
 90
       50
102
RTVSPost2010PropOp42
 70
     1
102
RTVSPost2010Prop43
 90
        3
102
RTVSPost2010PropOp43
 70
     1
102
RTVSPost2010Prop44ColorIndex
 90
        5
102
RTVSPost2010Prop44ColorRGB
 90
      255
102
RTVSPost2010PropOp44
 70
     1
102
RTVSPost2010Prop45
280
     0
102
RTVSPost2010PropOp45
 70
     1
102
RTVSPost2010Prop46
 90
       50
102
RTVSPost2010PropOp46
 70
     1
102
RTVSPost2010Prop47
 90
       50
102
RTVSPost2010PropOp47
 70
     1
102
RTVSPost2010Prop48
 90
       50
102
RTVSPost2010PropOp48
 70
     1
102
RTVSPost2010Prop49
280
     0
102
RTVSPost2010PropOp49
 70
     1
102
RTVSPost2010Prop50
 90
       50
102
RTVSPost2010PropOp50
 70
     1
102
RTVSPost2010Prop51ColorIndex
 90
      256
102
RTVSPost2010Prop51ColorRGB
 90
-16777216
102
RTVSPost2010PropOp51
 70
     0
102
RTVSPost2010Prop52
140
1.0
102
RTVSPost2010PropOp52
 70
     0
102
RTVSPost2010Prop53
 90
        2
102
RTVSPost2010PropOp53
 70
     1
102
RTVSPost2010Prop54
  1
strokes_ogs.tif
102
RTVSPost2010PropOp54
 70
     1
102
RTVSPost2010Prop55
280
     0
102
RTVSPost2010PropOp55
 70
     1
102
RTVSPost2010Prop56
140
1.0
102
RTVSPost2010PropOp56
 70
     1
102
RTVSPost2010Prop57
140
1.0
102
RTVSPost2010PropOp57
 70
     1
  0
XRECORD
  5
1A2
102
{ACAD_REACTORS
330
1A1
102
}
330
1A1
100
AcDbXrecord
280
     1
102
RTVSPost2010Prop28
280
     0
102
RTVSPost2010PropOp28
 70
     1
102
RTVSPost2010Prop29
280
     1
102
RTVSPost2010PropOp29
 70
     1
102
RTVSPost2010Prop30
280
     1
102
RTVSPost2010PropOp30
 70
     1
102
RTVSPost2010Prop31
280
     0
102
RTVSPost2010PropOp31
 70
     1
102
RTVSPost2010Prop32
280
     0
102
RTVSPost2010PropOp32
 70
     1
102
RTVSPost2010Prop33
280
     0
102
RTVSPost2010PropOp33
 70
     1
102
RTVSPost2010Prop34
280
     0
102
RTVSPost2010PropOp34
 70
     1
102
RTVSPost2010Prop35
280
     0
102
RTVSPost2010PropOp35
 70
     1
102
RTVSPost2010Prop36
280
     0
102
RTVSPost2010PropOp36
 70
     1
102
RTVSPost2010Prop37
 90
       50
102
RTVSPost2010PropOp37
 70
     1
102
RTVSPost2010Prop38
140
0.0
102
RTVSPost2010PropOp38
 70
     1
102
RTVSPost2010Prop39
140
1.0
102
RTVSPost2010PropOp39
 70
     1
102
RTVSPost2010Prop40
 90
        0
102
RTVSPost2010PropOp40
 70
     1
102
RTVSPost2010Prop41ColorIndex
 90
       18
102
RTVSPost2010Prop41ColorRGB
 90
        0
102
RTVSPost2010PropOp41
 70
     1
102
RTVSPost2010Prop42
 90
       50
102
RTVSPost2010PropOp42
 70
     1
102
RTVSPost2010Prop43
 90
        3
102
RTVSPost2010PropOp43
 70
     1
102
RTVSPost2010Prop44ColorIndex
 90
        5
102
RTVSPost2010Prop44ColorRGB
 90
      255
102
RTVSPost2010PropOp44
 70
     1
102
RTVSPost2010Prop45
280
     0
102
RTVSPost2010PropOp45
 70
     1
102
RTVSPost2010Prop46
 90
       50
102
RTVSPost2010PropOp46
 70
     1
102
RTVSPost2010Prop47
 90
       50
102
RTVSPost2010PropOp47
 70
     1
102
RTVSPost2010Prop48
 90
       50
102
RTVSPost2010PropOp48
 70
     1
102
RTVSPost2010Prop49
280
     0
102
RTVSPost2010PropOp49
 70
     1
102
RTVSPost2010Prop50
 90
       50
102
RTVSPost2010PropOp50
 70
     1
102
RTVSPost2010Prop51ColorIndex
 90
      256
102
RTVSPost2010Prop51ColorRGB
 90
-16777216
102
RTVSPost2010PropOp51
 70
     0
102
RTVSPost2010Prop52
140
1.0
102
RTVSPost2010PropOp52
 70
     0
102
RTVSPost2010Prop53
 90
        2
102
RTVSPost2010PropOp53
 70
     1
102
RTVSPost2010Prop54
  1
strokes_ogs.tif
102
RTVSPost2010PropOp54
 70
     1
102
RTVSPost2010Prop55
280
     0
102
RTVSPost2010PropOp55
 70
     1
102
RTVSPost2010Prop56
140
1.0
102
RTVSPost2010PropOp56
 70
     1
102
RTVSPost2010Prop57
140
1.0
102
RTVSPost2010PropOp57
 70
     1
  0
XRECORD
  5
198
102
{ACAD_REACTORS
330
197
102
}
330
197
100
AcDbXrecord
280
     1
102
RTVSPost2010Prop28
280
     0
102
RTVSPost2010PropOp28
 70
     1
102
RTVSPost2010Prop29
280
     1
102
RTVSPost2010PropOp29
 70
     1
102
RTVSPost2010Prop30
280
     1
102
RTVSPost2010PropOp30
 70
     1
102
RTVSPost2010Prop31
280
     0
102
RTVSPost2010PropOp31
 70
     1
102
RTVSPost2010Prop32
280
     0
102
RTVSPost2010PropOp32
 70
     1
102
RTVSPost2010Prop33
280
     0
102
RTVSPost2010PropOp33
 70
     1
102
RTVSPost2010Prop34
280
     0
102
RTVSPost2010PropOp34
 70
     1
102
RTVSPost2010Prop35
280
     0
102
RTVSPost2010PropOp35
 70
     1
102
RTVSPost2010Prop36
280
     0
102
RTVSPost2010PropOp36
 70
     1
102
RTVSPost2010Prop37
 90
       50
102
RTVSPost2010PropOp37
 70
     1
102
RTVSPost2010Prop38
140
0.0
102
RTVSPost2010PropOp38
 70
     1
102
RTVSPost2010Prop39
140
1.0
102
RTVSPost2010PropOp39
 70
     1
102
RTVSPost2010Prop40
 90
        0
102
RTVSPost2010PropOp40
 70
     1
102
RTVSPost2010Prop41ColorIndex
 90
       18
102
RTVSPost2010Prop41ColorRGB
 90
        0
102
RTVSPost2010PropOp41
 70
     1
102
RTVSPost2010Prop42
 90
       50
102
RTVSPost2010PropOp42
 70
     1
102
RTVSPost2010Prop43
 90
        3
102
RTVSPost2010PropOp43
 70
     1
102
RTVSPost2010Prop44ColorIndex
 90
        5
102
RTVSPost2010Prop44ColorRGB
 90
      255
102
RTVSPost2010PropOp44
 70
     1
102
RTVSPost2010Prop45
280
     0
102
RTVSPost2010PropOp45
 70
     1
102
RTVSPost2010Prop46
 90
       50
102
RTVSPost2010PropOp46
 70
     1
102
RTVSPost2010Prop47
 90
       50
102
RTVSPost2010PropOp47
 70
     1
102
RTVSPost2010Prop48
 90
       50
102
RTVSPost2010PropOp48
 70
     1
102
RTVSPost2010Prop49
280
     0
102
RTVSPost2010PropOp49
 70
     1
102
RTVSPost2010Prop50
 90
       50
102
RTVSPost2010PropOp50
 70
     1
102
RTVSPost2010Prop51ColorIndex
 90
      256
102
RTVSPost2010Prop51ColorRGB
 90
-16777216
102
RTVSPost2010PropOp51
 70
     0
102
RTVSPost2010Prop52
140
1.0
102
RTVSPost2010PropOp52
 70
     0
102
RTVSPost2010Prop53
 90
        2
102
RTVSPost2010PropOp53
 70
     1
102
RTVSPost2010Prop54
  1
strokes_ogs.tif
102
RTVSPost2010PropOp54
 70
     1
102
RTVSPost2010Prop55
280
     0
102
RTVSPost2010PropOp55
 70
     1
102
RTVSPost2010Prop56
140
1.0
102
RTVSPost2010PropOp56
 70
     1
102
RTVSPost2010Prop57
140
1.0
102
RTVSPost2010PropOp57
 70
     1
  0
XRECORD
  5
18C
102
{ACAD_REACTORS
330
18B
102
}
330
18B
100
AcDbXrecord
280
     1
102
RTVSPost2010Prop28
280
     0
102
RTVSPost2010PropOp28
 70
     1
102
RTVSPost2010Prop29
280
     1
102
RTVSPost2010PropOp29
 70
     1
102
RTVSPost2010Prop30
280
     1
102
RTVSPost2010PropOp30
 70
     1
102
RTVSPost2010Prop31
280
     0
102
RTVSPost2010PropOp31
 70
     1
102
RTVSPost2010Prop32
280
     0
102
RTVSPost2010PropOp32
 70
     1
102
RTVSPost2010Prop33
280
     0
102
RTVSPost2010PropOp33
 70
     1
102
RTVSPost2010Prop34
280
     0
102
RTVSPost2010PropOp34
 70
     1
102
RTVSPost2010Prop35
280
     0
102
RTVSPost2010PropOp35
 70
     1
102
RTVSPost2010Prop36
280
     0
102
RTVSPost2010PropOp36
 70
     1
102
RTVSPost2010Prop37
 90
       50
102
RTVSPost2010PropOp37
 70
     1
102
RTVSPost2010Prop38
140
0.0
102
RTVSPost2010PropOp38
 70
     1
102
RTVSPost2010Prop39
140
1.0
102
RTVSPost2010PropOp39
 70
     1
102
RTVSPost2010Prop40
 90
        0
102
RTVSPost2010PropOp40
 70
     1
102
RTVSPost2010Prop41ColorIndex
 90
       18
102
RTVSPost2010Prop41ColorRGB
 90
        0
102
RTVSPost2010PropOp41
 70
     1
102
RTVSPost2010Prop42
 90
       50
102
RTVSPost2010PropOp42
 70
     1
102
RTVSPost2010Prop43
 90
        3
102
RTVSPost2010PropOp43
 70
     1
102
RTVSPost2010Prop44ColorIndex
 90
        5
102
RTVSPost2010Prop44ColorRGB
 90
      255
102
RTVSPost2010PropOp44
 70
     1
102
RTVSPost2010Prop45
280
     0
102
RTVSPost2010PropOp45
 70
     1
102
RTVSPost2010Prop46
 90
       50
102
RTVSPost2010PropOp46
 70
     1
102
RTVSPost2010Prop47
 90
       50
102
RTVSPost2010PropOp47
 70
     1
102
RTVSPost2010Prop48
 90
       50
102
RTVSPost2010PropOp48
 70
     1
102
RTVSPost2010Prop49
280
     0
102
RTVSPost2010PropOp49
 70
     1
102
RTVSPost2010Prop50
 90
       50
102
RTVSPost2010PropOp50
 70
     1
102
RTVSPost2010Prop51ColorIndex
 90
      256
102
RTVSPost2010Prop51ColorRGB
 90
-16777216
102
RTVSPost2010PropOp51
 70
     0
102
RTVSPost2010Prop52
140
1.0
102
RTVSPost2010PropOp52
 70
     0
102
RTVSPost2010Prop53
 90
        2
102
RTVSPost2010PropOp53
 70
     1
102
RTVSPost2010Prop54
  1
strokes_ogs.tif
102
RTVSPost2010PropOp54
 70
     1
102
RTVSPost2010Prop55
280
     0
102
RTVSPost2010PropOp55
 70
     1
102
RTVSPost2010Prop56
140
1.0
102
RTVSPost2010PropOp56
 70
     1
102
RTVSPost2010Prop57
140
1.0
102
RTVSPost2010PropOp57
 70
     1
  0
XRECORD
  5
1A4
102
{ACAD_REACTORS
330
1A3
102
}
330
1A3
100
AcDbXrecord
280
     1
102
RTVSPost2010Prop28
280
     0
102
RTVSPost2010PropOp28
 70
     1
102
RTVSPost2010Prop29
280
     1
102
RTVSPost2010PropOp29
 70
     1
102
RTVSPost2010Prop30
280
     1
102
RTVSPost2010PropOp30
 70
     1
102
RTVSPost2010Prop31
280
     0
102
RTVSPost2010PropOp31
 70
     1
102
RTVSPost2010Prop32
280
     0
102
RTVSPost2010PropOp32
 70
     1
102
RTVSPost2010Prop33
280
     0
102
RTVSPost2010PropOp33
 70
     1
102
RTVSPost2010Prop34
280
     0
102
RTVSPost2010PropOp34
 70
     1
102
RTVSPost2010Prop35
280
     0
102
RTVSPost2010PropOp35
 70
     1
102
RTVSPost2010Prop36
280
     0
102
RTVSPost2010PropOp36
 70
     1
102
RTVSPost2010Prop37
 90
       50
102
RTVSPost2010PropOp37
 70
     1
102
RTVSPost2010Prop38
140
0.0
102
RTVSPost2010PropOp38
 70
     1
102
RTVSPost2010Prop39
140
1.0
102
RTVSPost2010PropOp39
 70
     1
102
RTVSPost2010Prop40
 90
        0
102
RTVSPost2010PropOp40
 70
     1
102
RTVSPost2010Prop41ColorIndex
 90
       18
102
RTVSPost2010Prop41ColorRGB
 90
        0
102
RTVSPost2010PropOp41
 70
     1
102
RTVSPost2010Prop42
 90
       50
102
RTVSPost2010PropOp42
 70
     1
102
RTVSPost2010Prop43
 90
        3
102
RTVSPost2010PropOp43
 70
     1
102
RTVSPost2010Prop44ColorIndex
 90
        5
102
RTVSPost2010Prop44ColorRGB
 90
      255
102
RTVSPost2010PropOp44
 70
     1
102
RTVSPost2010Prop45
280
     0
102
RTVSPost2010PropOp45
 70
     1
102
RTVSPost2010Prop46
 90
       50
102
RTVSPost2010PropOp46
 70
     1
102
RTVSPost2010Prop47
 90
       50
102
RTVSPost2010PropOp47
 70
     1
102
RTVSPost2010Prop48
 90
       50
102
RTVSPost2010PropOp48
 70
     1
102
RTVSPost2010Prop49
280
     0
102
RTVSPost2010PropOp49
 70
     1
102
RTVSPost2010Prop50
 90
       50
102
RTVSPost2010PropOp50
 70
     1
102
RTVSPost2010Prop51ColorIndex
 90
      256
102
RTVSPost2010Prop51ColorRGB
 90
-16777216
102
RTVSPost2010PropOp51
 70
     0
102
RTVSPost2010Prop52
140
1.0
102
RTVSPost2010PropOp52
 70
     0
102
RTVSPost2010Prop53
 90
        2
102
RTVSPost2010PropOp53
 70
     1
102
RTVSPost2010Prop54
  1
strokes_ogs.tif
102
RTVSPost2010PropOp54
 70
     1
102
RTVSPost2010Prop55
280
     0
102
RTVSPost2010PropOp55
 70
     1
102
RTVSPost2010Prop56
140
1.0
102
RTVSPost2010PropOp56
 70
     1
102
RTVSPost2010Prop57
140
1.0
102
RTVSPost2010PropOp57
 70
     1
  0
ENDSEC
  0
EOF
